  0
SECTION
  2
HEADER
  0
ENDSEC
  0
SECTION
  2
TABLES
  0
TABLE
  2
LTYPE
 70
     4
  0
LTYPE
  2
CONTINUOUS
 70
    64
  3
Solid line
 72
    65
 73
     0
 40
0.000000
  0
LTYPE
  2
DASHED
 70
    64
  3
__ __ __ __ __ __ __ __ __ __ __ __ __ __ __
 72
    65
 73
     2
 40
3.500000
 49
2.000000
 49
-1.500000
  0
LTYPE
  2
CENTER
 70
    64
  3
____ _ ____ _ ____ _ ____ _ ____ _ ____ _ ____
 72
    65
 73
     4
 40
17.500000
 49
13.000000
 49
-1.500000
 49
1.500000
 49
-1.500000
  0
LTYPE
  2
PHANTOM
 70
    64
  3
_____ _ _ _____ _ _ _____ _ _ _____ _ _ ____  
 72
    65
 73
     6
 40
15.500000
 49
8.000000
 49
-1.500000
 49
1.500000
 49
-1.500000
 49
1.500000
 49
-1.500000
  0
ENDTAB
  0
TABLE
  2
LAYER
 70
     1
  0
LAYER
  2
0
 70
     0
 62
     7
  6
CONTINUOUS
  0
ENDTAB
  0
TABLE
  2
STYLE
 70
     1
  0
STYLE
  2
STANDARD
 70
     0
 40
0.000000
 41
1.000000
 50
0.000000
 71
     0
 42
0.200000
  3
txt
  4
BIGFONT
  0
ENDTAB
  0
TABLE
  2
VIEW
 70
     0
  0
ENDTAB
  0
ENDSEC
  0
SECTION
  2
BLOCKS
  0
ENDSEC
  0
SECTION
  2
ENTITIES
  0
LINE
  8
0
  6
CONTINUOUS
 62
7
 10
399.799988
 20
276.250000
 11
399.799988
 21
-276.750000
  0
LINE
  8
0
  6
CONTINUOUS
 62
7
 10
-399.250000
 20
276.250000
 11
-399.250000
 21
-276.750000
  0
LINE
  8
0
  6
CONTINUOUS
 62
7
 10
-399.250000
 20
276.250000
 11
399.799988
 21
276.250000
  0
LINE
  8
0
  6
CONTINUOUS
 62
7
 10
-399.250000
 20
-276.750000
 11
399.799988
 21
-276.750000
  0
LINE
  8
0
  6
CONTINUOUS
 62
7
 10
239.800003
 20
-251.750000
 11
399.799988
 21
-251.750000
  0
LINE
  8
0
  6
CONTINUOUS
 62
7
 10
239.800003
 20
251.250000
 11
399.799988
 21
251.250000
  0
LINE
  8
0
  6
CONTINUOUS
 62
7
 10
-399.250000
 20
251.250000
 11
-239.250000
 21
251.250000
  0
LINE
  8
0
  6
CONTINUOUS
 62
7
 10
239.800003
 20
-251.750000
 11
239.800003
 21
-276.750000
  0
LINE
  8
0
  6
CONTINUOUS
 62
7
 10
239.800003
 20
251.250000
 11
239.800003
 21
276.250000
  0
LINE
  8
0
  6
CONTINUOUS
 62
7
 10
-239.250000
 20
276.250000
 11
-239.250000
 21
251.250000
  0
LINE
  8
0
  6
CENTER
 62
2
 10
255.199997
 20
-112.000000
 11
137.000000
 21
-112.000000
  0
LINE
  8
0
  6
CONTINUOUS
 62
7
 10
254.199997
 20
-128.000000
 11
138.000000
 21
-128.000000
  0
LINE
  8
0
  6
CONTINUOUS
 62
7
 10
253.000000
 20
-121.000000
 11
146.000000
 21
-121.000000
  0
LINE
  8
0
  6
CONTINUOUS
 62
7
 10
148.000000
 20
-95.500000
 11
160.800003
 21
-95.500000
  0
LINE
  8
0
  6
CONTINUOUS
 62
7
 10
148.000000
 20
-128.500000
 11
160.800003
 21
-128.500000
  0
LINE
  8
0
  6
CONTINUOUS
 62
7
 10
148.000000
 20
-128.500000
 11
148.000000
 21
-128.000000
  0
LINE
  8
0
  6
CONTINUOUS
 62
7
 10
254.000000
 20
-128.500000
 11
254.000000
 21
-128.000000
  0
LINE
  8
0
  6
CONTINUOUS
 62
7
 10
148.000000
 20
-96.000000
 11
148.000000
 21
-95.500000
  0
LINE
  8
0
  6
CONTINUOUS
 62
7
 10
146.000000
 20
-128.000000
 11
146.000000
 21
-96.000000
  0
LINE
  8
0
  6
CONTINUOUS
 62
7
 10
254.199997
 20
-96.000000
 11
138.000000
 21
-96.000000
  0
LINE
  8
0
  6
CONTINUOUS
 62
7
 10
253.000000
 20
-128.000000
 11
253.000000
 21
-96.000000
  0
LINE
  8
0
  6
CONTINUOUS
 62
7
 10
253.000000
 20
-103.000000
 11
146.000000
 21
-103.000000
  0
LINE
  8
0
  6
CONTINUOUS
 62
7
 10
165.199997
 20
-128.500000
 11
254.000000
 21
-128.500000
  0
LINE
  8
0
  6
CONTINUOUS
 62
7
 10
138.000000
 20
-96.000000
 11
138.000000
 21
-128.000000
  0
LINE
  8
0
  6
CONTINUOUS
 62
7
 10
165.199997
 20
-95.500000
 11
254.000000
 21
-95.500000
  0
LINE
  8
0
  6
DASHED
 62
2
 10
160.800003
 20
-124.000000
 11
160.800003
 21
-128.000000
  0
LINE
  8
0
  6
DASHED
 62
2
 10
165.199997
 20
-124.000000
 11
165.199997
 21
-128.000000
  0
LINE
  8
0
  6
DASHED
 62
2
 10
160.800003
 20
-100.000000
 11
160.800003
 21
-96.000000
  0
LINE
  8
0
  6
DASHED
 62
2
 10
165.199997
 20
-100.000000
 11
165.199997
 21
-96.000000
  0
LINE
  8
0
  6
CONTINUOUS
 62
7
 10
160.800003
 20
-128.000000
 11
160.800003
 21
-128.500000
  0
LINE
  8
0
  6
CONTINUOUS
 62
7
 10
165.199997
 20
-128.000000
 11
165.199997
 21
-128.500000
  0
LINE
  8
0
  6
CONTINUOUS
 62
7
 10
165.199997
 20
-95.500000
 11
165.199997
 21
-96.000000
  0
LINE
  8
0
  6
CONTINUOUS
 62
7
 10
160.800003
 20
-95.500000
 11
160.800003
 21
-96.000000
  0
LINE
  8
0
  6
CONTINUOUS
 62
7
 10
146.000000
 20
-154.500000
 11
253.000000
 21
-154.500000
  0
LINE
  8
0
  6
CONTINUOUS
 62
7
 10
148.000000
 20
-176.500000
 11
254.000000
 21
-176.500000
  0
LINE
  8
0
  6
CONTINUOUS
 62
7
 10
148.000000
 20
-166.500000
 11
148.000000
 21
-176.500000
  0
LINE
  8
0
  6
CONTINUOUS
 62
7
 10
254.000000
 20
-166.500000
 11
254.000000
 21
-176.500000
  0
LINE
  8
0
  6
CONTINUOUS
 62
7
 10
146.000000
 20
-154.500000
 11
146.000000
 21
-175.500000
  0
LINE
  8
0
  6
CONTINUOUS
 62
7
 10
253.000000
 20
-154.500000
 11
253.000000
 21
-155.500000
  0
LINE
  8
0
  6
CONTINUOUS
 62
7
 10
148.000000
 20
-167.000000
 11
166.500000
 21
-167.000000
  0
LINE
  8
0
  6
CONTINUOUS
 62
7
 10
158.800003
 20
-171.000000
 11
166.500000
 21
-171.000000
  0
LINE
  8
0
  6
CONTINUOUS
 62
7
 10
160.800003
 20
-171.000000
 11
160.800003
 21
-176.500000
  0
LINE
  8
0
  6
CONTINUOUS
 62
7
 10
165.199997
 20
-171.000000
 11
165.199997
 21
-176.500000
  0
LINE
  8
0
  6
CENTER
 62
2
 10
163.000000
 20
-170.000000
 11
163.000000
 21
-177.500000
  0
LINE
  8
0
  6
CONTINUOUS
 62
7
 10
160.800003
 20
-52.000000
 11
165.199997
 21
-52.000000
  0
LINE
  8
0
  6
CONTINUOUS
 62
7
 10
138.000000
 20
-175.500000
 11
138.000000
 21
-155.000000
  0
LINE
  8
0
  6
CONTINUOUS
 62
7
 10
146.000000
 20
-175.500000
 11
138.000000
 21
-175.500000
  0
LINE
  8
0
  6
CONTINUOUS
 62
7
 10
146.000000
 20
-155.000000
 11
138.000000
 21
-155.000000
  0
LINE
  8
0
  6
CONTINUOUS
 62
7
 10
148.000000
 20
-173.500000
 11
146.000000
 21
-173.500000
  0
LINE
  8
0
  6
DASHED
 62
2
 10
183.000000
 20
-171.000000
 11
175.000000
 21
-171.000000
  0
LINE
  8
0
  6
CONTINUOUS
 62
7
 10
243.199997
 20
-171.000000
 11
241.000000
 21
-171.000000
  0
LINE
  8
0
  6
CONTINUOUS
 62
7
 10
146.000000
 20
-69.500000
 11
253.000000
 21
-69.500000
  0
LINE
  8
0
  6
CONTINUOUS
 62
7
 10
148.000000
 20
-47.500000
 11
254.000000
 21
-47.500000
  0
LINE
  8
0
  6
CONTINUOUS
 62
7
 10
148.000000
 20
-57.500000
 11
148.000000
 21
-47.500000
  0
LINE
  8
0
  6
CONTINUOUS
 62
7
 10
254.000000
 20
-57.500000
 11
254.000000
 21
-47.500000
  0
LINE
  8
0
  6
CONTINUOUS
 62
7
 10
146.000000
 20
-69.500000
 11
146.000000
 21
-48.500000
  0
LINE
  8
0
  6
CONTINUOUS
 62
7
 10
148.000000
 20
-57.000000
 11
254.000000
 21
-57.000000
  0
LINE
  8
0
  6
CENTER
 62
2
 10
163.000000
 20
-54.000000
 11
163.000000
 21
-46.500000
  0
LINE
  8
0
  6
CONTINUOUS
 62
7
 10
160.800003
 20
-53.000000
 11
160.800003
 21
-47.500000
  0
LINE
  8
0
  6
CONTINUOUS
 62
7
 10
165.199997
 20
-53.000000
 11
165.199997
 21
-47.500000
  0
LINE
  8
0
  6
CONTINUOUS
 62
7
 10
138.000000
 20
-48.500000
 11
138.000000
 21
-69.000000
  0
LINE
  8
0
  6
CONTINUOUS
 62
7
 10
146.000000
 20
-69.000000
 11
138.000000
 21
-69.000000
  0
LINE
  8
0
  6
CONTINUOUS
 62
7
 10
146.000000
 20
-48.500000
 11
138.000000
 21
-48.500000
  0
LINE
  8
0
  6
CONTINUOUS
 62
7
 10
253.000000
 20
-69.500000
 11
253.000000
 21
-57.500000
  0
LINE
  8
0
  6
CONTINUOUS
 62
7
 10
148.000000
 20
-50.500000
 11
146.000000
 21
-50.500000
  0
LINE
  8
0
  6
CONTINUOUS
 62
7
 10
228.000000
 20
-53.000000
 11
174.000000
 21
-53.000000
  0
LINE
  8
0
  6
CONTINUOUS
 62
7
 10
243.199997
 20
-53.000000
 11
234.000000
 21
-53.000000
  0
LINE
  8
0
  6
CONTINUOUS
 62
7
 10
158.800003
 20
-53.000000
 11
168.000000
 21
-53.000000
  0
LINE
  8
0
  6
CONTINUOUS
 62
7
 10
251.500000
 20
-52.500000
 11
244.500000
 21
-52.500000
  0
LINE
  8
0
  6
CONTINUOUS
 62
7
 10
251.500000
 20
-53.500000
 11
244.500000
 21
-53.500000
  0
LINE
  8
0
  6
CONTINUOUS
 62
7
 10
248.000000
 20
-57.041401
 11
244.500000
 21
-55.020699
  0
LINE
  8
0
  6
CONTINUOUS
 62
7
 10
244.500000
 20
-55.020699
 11
244.500000
 21
-50.979198
  0
LINE
  8
0
  6
CONTINUOUS
 62
7
 10
251.500000
 20
-55.020699
 11
248.000000
 21
-57.041401
  0
LINE
  8
0
  6
CONTINUOUS
 62
7
 10
251.500000
 20
-55.020699
 11
251.500000
 21
-50.979198
  0
LINE
  8
0
  6
CONTINUOUS
 62
7
 10
244.500000
 20
-50.979198
 11
248.000000
 21
-48.958500
  0
LINE
  8
0
  6
CONTINUOUS
 62
7
 10
251.500000
 20
-50.979198
 11
248.000000
 21
-48.958500
  0
LINE
  8
0
  6
CONTINUOUS
 62
7
 10
157.500000
 20
-52.500000
 11
150.500000
 21
-52.500000
  0
LINE
  8
0
  6
CONTINUOUS
 62
7
 10
157.500000
 20
-53.500000
 11
150.500000
 21
-53.500000
  0
LINE
  8
0
  6
CONTINUOUS
 62
7
 10
154.000000
 20
-57.041401
 11
150.500000
 21
-55.020699
  0
LINE
  8
0
  6
CONTINUOUS
 62
7
 10
150.500000
 20
-55.020699
 11
150.500000
 21
-50.979198
  0
LINE
  8
0
  6
CONTINUOUS
 62
7
 10
157.500000
 20
-55.020699
 11
154.000000
 21
-57.041401
  0
LINE
  8
0
  6
CONTINUOUS
 62
7
 10
157.500000
 20
-55.020699
 11
157.500000
 21
-50.979198
  0
LINE
  8
0
  6
CONTINUOUS
 62
7
 10
150.500000
 20
-50.979198
 11
154.000000
 21
-48.958500
  0
LINE
  8
0
  6
CONTINUOUS
 62
7
 10
157.500000
 20
-50.979301
 11
154.000000
 21
-48.958500
  0
LINE
  8
0
  6
CENTER
 62
2
 10
179.000000
 20
-54.000000
 11
179.000000
 21
-46.500000
  0
LINE
  8
0
  6
CENTER
 62
2
 10
239.000000
 20
-54.000000
 11
239.000000
 21
-46.500000
  0
LINE
  8
0
  6
DASHED
 62
2
 10
241.100006
 20
-52.000000
 11
241.100006
 21
-47.500000
  0
LINE
  8
0
  6
DASHED
 62
2
 10
236.899994
 20
-52.000000
 11
236.899994
 21
-47.500000
  0
LINE
  8
0
  6
DASHED
 62
2
 10
181.100006
 20
-53.000000
 11
181.100006
 21
-49.099998
  0
LINE
  8
0
  6
DASHED
 62
2
 10
176.899994
 20
-53.000000
 11
176.899994
 21
-49.099998
  0
LINE
  8
0
  6
DASHED
 62
2
 10
181.500000
 20
-53.000000
 11
181.500000
 21
-49.099998
  0
LINE
  8
0
  6
DASHED
 62
2
 10
176.500000
 20
-53.000000
 11
176.500000
 21
-49.099998
  0
LINE
  8
0
  6
DASHED
 62
2
 10
241.500000
 20
-52.000000
 11
241.500000
 21
-47.500000
  0
LINE
  8
0
  6
DASHED
 62
2
 10
236.500000
 20
-52.000000
 11
236.500000
 21
-47.500000
  0
LINE
  8
0
  6
DASHED
 62
2
 10
243.000000
 20
-52.000000
 11
235.000000
 21
-52.000000
  0
LINE
  8
0
  6
DASHED
 62
2
 10
182.000000
 20
-49.099998
 11
176.000000
 21
-49.099998
  0
LINE
  8
0
  6
DASHED
 62
2
 10
182.000000
 20
-49.099998
 11
182.000000
 21
-47.500000
  0
LINE
  8
0
  6
DASHED
 62
2
 10
176.000000
 20
-49.099998
 11
176.000000
 21
-47.500000
  0
LINE
  8
0
  6
DASHED
 62
2
 10
167.000000
 20
-53.000000
 11
167.000000
 21
-52.000000
  0
LINE
  8
0
  6
DASHED
 62
2
 10
159.000000
 20
-53.000000
 11
159.000000
 21
-52.000000
  0
LINE
  8
0
  6
DASHED
 62
2
 10
243.000000
 20
-53.000000
 11
243.000000
 21
-52.000000
  0
LINE
  8
0
  6
DASHED
 62
2
 10
235.000000
 20
-53.000000
 11
235.000000
 21
-52.000000
  0
LINE
  8
0
  6
DASHED
 62
2
 10
167.000000
 20
-52.000000
 11
165.199997
 21
-52.000000
  0
LINE
  8
0
  6
DASHED
 62
2
 10
160.800003
 20
-52.000000
 11
159.000000
 21
-52.000000
  0
LINE
  8
0
  6
CENTER
 62
2
 10
238.000000
 20
-152.500000
 11
238.000000
 21
-156.500000
  0
LINE
  8
0
  6
CENTER
 62
2
 10
183.000000
 20
-152.500000
 11
183.000000
 21
-156.500000
  0
LINE
  8
0
  6
CENTER
 62
2
 10
158.000000
 20
-152.500000
 11
158.000000
 21
-156.500000
  0
LINE
  8
0
  6
CENTER
 62
2
 10
136.000000
 20
-168.500000
 11
140.000000
 21
-168.500000
  0
LINE
  8
0
  6
CENTER
 62
2
 10
136.000000
 20
-159.500000
 11
140.000000
 21
-159.500000
  0
LINE
  8
0
  6
CENTER
 62
2
 10
136.000000
 20
-64.500000
 11
140.000000
 21
-64.500000
  0
LINE
  8
0
  6
CENTER
 62
2
 10
136.000000
 20
-55.500000
 11
140.000000
 21
-55.500000
  0
LINE
  8
0
  6
CENTER
 62
2
 10
158.000000
 20
-67.500000
 11
158.000000
 21
-71.500000
  0
LINE
  8
0
  6
CENTER
 62
2
 10
183.000000
 20
-67.500000
 11
183.000000
 21
-71.500000
  0
LINE
  8
0
  6
CENTER
 62
2
 10
238.000000
 20
-67.500000
 11
238.000000
 21
-71.500000
  0
LINE
  8
0
  6
CENTER
 62
2
 10
179.000000
 20
-170.000000
 11
179.000000
 21
-177.500000
  0
LINE
  8
0
  6
DASHED
 62
2
 10
176.899994
 20
-171.000000
 11
176.899994
 21
-174.899994
  0
LINE
  8
0
  6
DASHED
 62
2
 10
181.100006
 20
-171.000000
 11
181.100006
 21
-174.899994
  0
LINE
  8
0
  6
DASHED
 62
2
 10
176.500000
 20
-171.000000
 11
176.500000
 21
-174.899994
  0
LINE
  8
0
  6
DASHED
 62
2
 10
181.500000
 20
-171.000000
 11
181.500000
 21
-174.899994
  0
LINE
  8
0
  6
DASHED
 62
2
 10
176.000000
 20
-174.899994
 11
182.000000
 21
-174.899994
  0
LINE
  8
0
  6
DASHED
 62
2
 10
176.000000
 20
-174.899994
 11
176.000000
 21
-176.500000
  0
LINE
  8
0
  6
DASHED
 62
2
 10
182.000000
 20
-174.899994
 11
182.000000
 21
-176.500000
  0
LINE
  8
0
  6
CENTER
 62
2
 10
239.000000
 20
-170.000000
 11
239.000000
 21
-177.500000
  0
LINE
  8
0
  6
DASHED
 62
2
 10
236.899994
 20
-172.000000
 11
236.899994
 21
-176.500000
  0
LINE
  8
0
  6
DASHED
 62
2
 10
241.100006
 20
-172.000000
 11
241.100006
 21
-176.500000
  0
LINE
  8
0
  6
DASHED
 62
2
 10
236.500000
 20
-172.000000
 11
236.500000
 21
-176.500000
  0
LINE
  8
0
  6
DASHED
 62
2
 10
241.500000
 20
-172.000000
 11
241.500000
 21
-176.500000
  0
LINE
  8
0
  6
DASHED
 62
2
 10
235.000000
 20
-172.000000
 11
243.000000
 21
-172.000000
  0
LINE
  8
0
  6
DASHED
 62
2
 10
235.000000
 20
-171.000000
 11
235.000000
 21
-172.000000
  0
LINE
  8
0
  6
DASHED
 62
2
 10
243.000000
 20
-171.000000
 11
243.000000
 21
-172.000000
  0
LINE
  8
0
  6
DASHED
 62
2
 10
159.000000
 20
-172.000000
 11
160.800003
 21
-172.000000
  0
LINE
  8
0
  6
DASHED
 62
2
 10
159.000000
 20
-171.000000
 11
159.000000
 21
-172.000000
  0
LINE
  8
0
  6
CONTINUOUS
 62
7
 10
165.199997
 20
-172.000000
 11
160.800003
 21
-172.000000
  0
LINE
  8
0
  6
DASHED
 62
2
 10
167.000000
 20
-171.000000
 11
167.000000
 21
-172.000000
  0
LINE
  8
0
  6
DASHED
 62
2
 10
165.199997
 20
-172.000000
 11
167.000000
 21
-172.000000
  0
LINE
  8
0
  6
CENTER
 62
2
 10
-144.800003
 20
-112.000000
 11
-233.000000
 21
-112.000000
  0
LINE
  8
0
  6
CONTINUOUS
 62
7
 10
-145.800003
 20
-128.000000
 11
-232.000000
 21
-128.000000
  0
LINE
  8
0
  6
CONTINUOUS
 62
7
 10
-147.000000
 20
-121.000000
 11
-224.000000
 21
-121.000000
  0
LINE
  8
0
  6
CONTINUOUS
 62
7
 10
-222.000000
 20
-95.500000
 11
-209.199997
 21
-95.500000
  0
LINE
  8
0
  6
CONTINUOUS
 62
7
 10
-222.000000
 20
-128.500000
 11
-209.199997
 21
-128.500000
  0
LINE
  8
0
  6
CONTINUOUS
 62
7
 10
-222.000000
 20
-128.500000
 11
-222.000000
 21
-128.000000
  0
LINE
  8
0
  6
CONTINUOUS
 62
7
 10
-146.000000
 20
-128.500000
 11
-146.000000
 21
-128.000000
  0
LINE
  8
0
  6
CONTINUOUS
 62
7
 10
-222.000000
 20
-96.000000
 11
-222.000000
 21
-95.500000
  0
LINE
  8
0
  6
CONTINUOUS
 62
7
 10
-224.000000
 20
-128.000000
 11
-224.000000
 21
-96.000000
  0
LINE
  8
0
  6
CONTINUOUS
 62
7
 10
-145.800003
 20
-96.000000
 11
-232.000000
 21
-96.000000
  0
LINE
  8
0
  6
CONTINUOUS
 62
7
 10
-147.000000
 20
-128.000000
 11
-147.000000
 21
-96.000000
  0
LINE
  8
0
  6
CONTINUOUS
 62
7
 10
-147.000000
 20
-103.000000
 11
-224.000000
 21
-103.000000
  0
LINE
  8
0
  6
CONTINUOUS
 62
7
 10
-204.800003
 20
-128.500000
 11
-146.000000
 21
-128.500000
  0
LINE
  8
0
  6
CONTINUOUS
 62
7
 10
-232.000000
 20
-96.000000
 11
-232.000000
 21
-128.000000
  0
LINE
  8
0
  6
CONTINUOUS
 62
7
 10
-204.800003
 20
-95.500000
 11
-146.000000
 21
-95.500000
  0
LINE
  8
0
  6
DASHED
 62
2
 10
-209.199997
 20
-124.000000
 11
-209.199997
 21
-128.000000
  0
LINE
  8
0
  6
DASHED
 62
2
 10
-204.800003
 20
-124.000000
 11
-204.800003
 21
-128.000000
  0
LINE
  8
0
  6
DASHED
 62
2
 10
-209.199997
 20
-100.000000
 11
-209.199997
 21
-96.000000
  0
LINE
  8
0
  6
DASHED
 62
2
 10
-204.800003
 20
-100.000000
 11
-204.800003
 21
-96.000000
  0
LINE
  8
0
  6
CONTINUOUS
 62
7
 10
-209.199997
 20
-128.000000
 11
-209.199997
 21
-128.500000
  0
LINE
  8
0
  6
CONTINUOUS
 62
7
 10
-204.800003
 20
-128.000000
 11
-204.800003
 21
-128.500000
  0
LINE
  8
0
  6
CONTINUOUS
 62
7
 10
-204.800003
 20
-95.500000
 11
-204.800003
 21
-96.000000
  0
LINE
  8
0
  6
CONTINUOUS
 62
7
 10
-209.199997
 20
-95.500000
 11
-209.199997
 21
-96.000000
  0
LINE
  8
0
  6
CONTINUOUS
 62
7
 10
-224.000000
 20
-154.500000
 11
-147.000000
 21
-154.500000
  0
LINE
  8
0
  6
CONTINUOUS
 62
7
 10
-222.000000
 20
-176.500000
 11
-146.000000
 21
-176.500000
  0
LINE
  8
0
  6
CONTINUOUS
 62
7
 10
-222.000000
 20
-166.500000
 11
-222.000000
 21
-176.500000
  0
LINE
  8
0
  6
CONTINUOUS
 62
7
 10
-146.000000
 20
-166.500000
 11
-146.000000
 21
-176.500000
  0
LINE
  8
0
  6
CONTINUOUS
 62
7
 10
-224.000000
 20
-154.500000
 11
-224.000000
 21
-175.500000
  0
LINE
  8
0
  6
CONTINUOUS
 62
7
 10
-147.000000
 20
-154.500000
 11
-147.000000
 21
-155.500000
  0
LINE
  8
0
  6
CONTINUOUS
 62
7
 10
-147.000000
 20
-155.000000
 11
-145.800003
 21
-155.000000
  0
LINE
  8
0
  6
CONTINUOUS
 62
7
 10
-222.000000
 20
-167.000000
 11
-203.500000
 21
-167.000000
  0
LINE
  8
0
  6
CONTINUOUS
 62
7
 10
-211.199997
 20
-171.000000
 11
-203.500000
 21
-171.000000
  0
LINE
  8
0
  6
CONTINUOUS
 62
7
 10
-145.399994
 20
-155.500000
 11
-145.800003
 21
-155.500000
  0
LINE
  8
0
  6
CONTINUOUS
 62
7
 10
-209.199997
 20
-171.000000
 11
-209.199997
 21
-176.500000
  0
LINE
  8
0
  6
CONTINUOUS
 62
7
 10
-204.800003
 20
-171.000000
 11
-204.800003
 21
-176.500000
  0
LINE
  8
0
  6
CENTER
 62
2
 10
-207.000000
 20
-170.000000
 11
-207.000000
 21
-177.500000
  0
LINE
  8
0
  6
CONTINUOUS
 62
7
 10
-209.199997
 20
-52.000000
 11
-204.800003
 21
-52.000000
  0
LINE
  8
0
  6
CONTINUOUS
 62
7
 10
-232.000000
 20
-175.500000
 11
-232.000000
 21
-155.000000
  0
LINE
  8
0
  6
CONTINUOUS
 62
7
 10
-224.000000
 20
-175.500000
 11
-232.000000
 21
-175.500000
  0
LINE
  8
0
  6
CONTINUOUS
 62
7
 10
-224.000000
 20
-155.000000
 11
-232.000000
 21
-155.000000
  0
LINE
  8
0
  6
CONTINUOUS
 62
7
 10
-224.000000
 20
-166.500000
 11
-203.500000
 21
-166.500000
  0
LINE
  8
0
  6
CONTINUOUS
 62
7
 10
-222.000000
 20
-173.500000
 11
-224.000000
 21
-173.500000
  0
LINE
  8
0
  6
DASHED
 62
2
 10
-187.000000
 20
-171.000000
 11
-195.000000
 21
-171.000000
  0
LINE
  8
0
  6
CONTINUOUS
 62
7
 10
-156.800003
 20
-171.000000
 11
-159.000000
 21
-171.000000
  0
LINE
  8
0
  6
CONTINUOUS
 62
7
 10
-145.399994
 20
-159.500000
 11
-145.800003
 21
-159.500000
  0
LINE
  8
0
  6
CONTINUOUS
 62
7
 10
-224.000000
 20
-69.500000
 11
-147.000000
 21
-69.500000
  0
LINE
  8
0
  6
CONTINUOUS
 62
7
 10
-222.000000
 20
-47.500000
 11
-146.000000
 21
-47.500000
  0
LINE
  8
0
  6
CONTINUOUS
 62
7
 10
-222.000000
 20
-57.500000
 11
-222.000000
 21
-47.500000
  0
LINE
  8
0
  6
CONTINUOUS
 62
7
 10
-146.000000
 20
-57.500000
 11
-146.000000
 21
-47.500000
  0
LINE
  8
0
  6
CONTINUOUS
 62
7
 10
-224.000000
 20
-69.500000
 11
-224.000000
 21
-48.500000
  0
LINE
  8
0
  6
CONTINUOUS
 62
7
 10
-147.000000
 20
-69.000000
 11
-145.800003
 21
-69.000000
  0
LINE
  8
0
  6
CONTINUOUS
 62
7
 10
-224.000000
 20
-57.500000
 11
-145.800003
 21
-57.500000
  0
LINE
  8
0
  6
CONTINUOUS
 62
7
 10
-222.000000
 20
-57.000000
 11
-146.000000
 21
-57.000000
  0
LINE
  8
0
  6
CENTER
 62
2
 10
-166.613007
 20
-65.300003
 11
-163.492004
 21
-65.300003
  0
LINE
  8
0
  6
CENTER
 62
2
 10
-207.000000
 20
-54.000000
 11
-207.000000
 21
-46.500000
  0
LINE
  8
0
  6
CONTINUOUS
 62
7
 10
-209.199997
 20
-53.000000
 11
-209.199997
 21
-47.500000
  0
LINE
  8
0
  6
CONTINUOUS
 62
7
 10
-204.800003
 20
-53.000000
 11
-204.800003
 21
-47.500000
  0
LINE
  8
0
  6
CONTINUOUS
 62
7
 10
-232.000000
 20
-48.500000
 11
-232.000000
 21
-69.000000
  0
LINE
  8
0
  6
CONTINUOUS
 62
7
 10
-224.000000
 20
-69.000000
 11
-232.000000
 21
-69.000000
  0
LINE
  8
0
  6
CONTINUOUS
 62
7
 10
-224.000000
 20
-48.500000
 11
-232.000000
 21
-48.500000
  0
LINE
  8
0
  6
CONTINUOUS
 62
7
 10
-147.000000
 20
-69.500000
 11
-147.000000
 21
-57.500000
  0
LINE
  8
0
  6
CONTINUOUS
 62
7
 10
-222.000000
 20
-50.500000
 11
-224.000000
 21
-50.500000
  0
LINE
  8
0
  6
CONTINUOUS
 62
7
 10
-172.000000
 20
-53.000000
 11
-196.000000
 21
-53.000000
  0
LINE
  8
0
  6
CONTINUOUS
 62
7
 10
-156.800003
 20
-53.000000
 11
-166.000000
 21
-53.000000
  0
LINE
  8
0
  6
CONTINUOUS
 62
7
 10
-211.199997
 20
-53.000000
 11
-202.000000
 21
-53.000000
  0
LINE
  8
0
  6
CONTINUOUS
 62
7
 10
-148.500000
 20
-52.500000
 11
-155.500000
 21
-52.500000
  0
LINE
  8
0
  6
CONTINUOUS
 62
7
 10
-148.500000
 20
-53.500000
 11
-155.500000
 21
-53.500000
  0
LINE
  8
0
  6
CONTINUOUS
 62
7
 10
-152.000000
 20
-57.041401
 11
-155.500000
 21
-55.020699
  0
LINE
  8
0
  6
CONTINUOUS
 62
7
 10
-155.500000
 20
-55.020699
 11
-155.500000
 21
-50.979198
  0
LINE
  8
0
  6
CONTINUOUS
 62
7
 10
-148.500000
 20
-55.020699
 11
-152.000000
 21
-57.041401
  0
LINE
  8
0
  6
CONTINUOUS
 62
7
 10
-148.500000
 20
-55.020699
 11
-148.500000
 21
-50.979198
  0
LINE
  8
0
  6
CONTINUOUS
 62
7
 10
-155.500000
 20
-50.979198
 11
-152.000000
 21
-48.958500
  0
LINE
  8
0
  6
CONTINUOUS
 62
7
 10
-148.500000
 20
-50.979198
 11
-152.000000
 21
-48.958500
  0
LINE
  8
0
  6
CONTINUOUS
 62
7
 10
-212.500000
 20
-52.500000
 11
-219.500000
 21
-52.500000
  0
LINE
  8
0
  6
CONTINUOUS
 62
7
 10
-212.500000
 20
-53.500000
 11
-219.500000
 21
-53.500000
  0
LINE
  8
0
  6
CONTINUOUS
 62
7
 10
-216.000000
 20
-57.041401
 11
-219.500000
 21
-55.020699
  0
LINE
  8
0
  6
CONTINUOUS
 62
7
 10
-219.500000
 20
-55.020699
 11
-219.500000
 21
-50.979198
  0
LINE
  8
0
  6
CONTINUOUS
 62
7
 10
-212.500000
 20
-55.020699
 11
-216.000000
 21
-57.041401
  0
LINE
  8
0
  6
CONTINUOUS
 62
7
 10
-212.500000
 20
-55.020699
 11
-212.500000
 21
-50.979198
  0
LINE
  8
0
  6
CONTINUOUS
 62
7
 10
-219.500000
 20
-50.979198
 11
-216.000000
 21
-48.958500
  0
LINE
  8
0
  6
CONTINUOUS
 62
7
 10
-212.500000
 20
-50.979301
 11
-216.000000
 21
-48.958500
  0
LINE
  8
0
  6
CENTER
 62
2
 10
-191.000000
 20
-54.000000
 11
-191.000000
 21
-46.500000
  0
LINE
  8
0
  6
CENTER
 62
2
 10
-161.000000
 20
-54.000000
 11
-161.000000
 21
-46.500000
  0
LINE
  8
0
  6
DASHED
 62
2
 10
-158.899994
 20
-52.000000
 11
-158.899994
 21
-47.500000
  0
LINE
  8
0
  6
DASHED
 62
2
 10
-163.100006
 20
-52.000000
 11
-163.100006
 21
-47.500000
  0
LINE
  8
0
  6
DASHED
 62
2
 10
-188.899994
 20
-53.000000
 11
-188.899994
 21
-49.099998
  0
LINE
  8
0
  6
DASHED
 62
2
 10
-193.100006
 20
-53.000000
 11
-193.100006
 21
-49.099998
  0
LINE
  8
0
  6
DASHED
 62
2
 10
-188.500000
 20
-53.000000
 11
-188.500000
 21
-49.099998
  0
LINE
  8
0
  6
DASHED
 62
2
 10
-193.500000
 20
-53.000000
 11
-193.500000
 21
-49.099998
  0
LINE
  8
0
  6
DASHED
 62
2
 10
-158.500000
 20
-52.000000
 11
-158.500000
 21
-47.500000
  0
LINE
  8
0
  6
DASHED
 62
2
 10
-163.500000
 20
-52.000000
 11
-163.500000
 21
-47.500000
  0
LINE
  8
0
  6
DASHED
 62
2
 10
-157.000000
 20
-52.000000
 11
-165.000000
 21
-52.000000
  0
LINE
  8
0
  6
DASHED
 62
2
 10
-188.000000
 20
-49.099998
 11
-194.000000
 21
-49.099998
  0
LINE
  8
0
  6
DASHED
 62
2
 10
-188.000000
 20
-49.099998
 11
-188.000000
 21
-47.500000
  0
LINE
  8
0
  6
DASHED
 62
2
 10
-194.000000
 20
-49.099998
 11
-194.000000
 21
-47.500000
  0
LINE
  8
0
  6
DASHED
 62
2
 10
-203.000000
 20
-53.000000
 11
-203.000000
 21
-52.000000
  0
LINE
  8
0
  6
DASHED
 62
2
 10
-211.000000
 20
-53.000000
 11
-211.000000
 21
-52.000000
  0
LINE
  8
0
  6
DASHED
 62
2
 10
-157.000000
 20
-53.000000
 11
-157.000000
 21
-52.000000
  0
LINE
  8
0
  6
DASHED
 62
2
 10
-165.000000
 20
-53.000000
 11
-165.000000
 21
-52.000000
  0
LINE
  8
0
  6
DASHED
 62
2
 10
-203.000000
 20
-52.000000
 11
-204.800003
 21
-52.000000
  0
LINE
  8
0
  6
DASHED
 62
2
 10
-209.199997
 20
-52.000000
 11
-211.000000
 21
-52.000000
  0
LINE
  8
0
  6
CENTER
 62
2
 10
-162.000000
 20
-152.500000
 11
-162.000000
 21
-156.500000
  0
LINE
  8
0
  6
CENTER
 62
2
 10
-187.000000
 20
-152.500000
 11
-187.000000
 21
-156.500000
  0
LINE
  8
0
  6
CENTER
 62
2
 10
-212.000000
 20
-152.500000
 11
-212.000000
 21
-156.500000
  0
LINE
  8
0
  6
CENTER
 62
2
 10
-234.000000
 20
-168.500000
 11
-230.000000
 21
-168.500000
  0
LINE
  8
0
  6
CENTER
 62
2
 10
-234.000000
 20
-159.500000
 11
-230.000000
 21
-159.500000
  0
LINE
  8
0
  6
CENTER
 62
2
 10
-234.000000
 20
-64.500000
 11
-230.000000
 21
-64.500000
  0
LINE
  8
0
  6
CENTER
 62
2
 10
-234.000000
 20
-55.500000
 11
-230.000000
 21
-55.500000
  0
LINE
  8
0
  6
CENTER
 62
2
 10
-212.000000
 20
-67.500000
 11
-212.000000
 21
-71.500000
  0
LINE
  8
0
  6
CENTER
 62
2
 10
-187.000000
 20
-67.500000
 11
-187.000000
 21
-71.500000
  0
LINE
  8
0
  6
CENTER
 62
2
 10
-162.000000
 20
-67.500000
 11
-162.000000
 21
-71.500000
  0
LINE
  8
0
  6
CENTER
 62
2
 10
-191.000000
 20
-170.000000
 11
-191.000000
 21
-177.500000
  0
LINE
  8
0
  6
DASHED
 62
2
 10
-193.100006
 20
-171.000000
 11
-193.100006
 21
-174.899994
  0
LINE
  8
0
  6
DASHED
 62
2
 10
-188.899994
 20
-171.000000
 11
-188.899994
 21
-174.899994
  0
LINE
  8
0
  6
DASHED
 62
2
 10
-193.500000
 20
-171.000000
 11
-193.500000
 21
-174.899994
  0
LINE
  8
0
  6
DASHED
 62
2
 10
-188.500000
 20
-171.000000
 11
-188.500000
 21
-174.899994
  0
LINE
  8
0
  6
DASHED
 62
2
 10
-194.000000
 20
-174.899994
 11
-188.000000
 21
-174.899994
  0
LINE
  8
0
  6
DASHED
 62
2
 10
-194.000000
 20
-174.899994
 11
-194.000000
 21
-176.500000
  0
LINE
  8
0
  6
DASHED
 62
2
 10
-188.000000
 20
-174.899994
 11
-188.000000
 21
-176.500000
  0
LINE
  8
0
  6
CENTER
 62
2
 10
-161.000000
 20
-170.000000
 11
-161.000000
 21
-177.500000
  0
LINE
  8
0
  6
DASHED
 62
2
 10
-163.100006
 20
-172.000000
 11
-163.100006
 21
-176.500000
  0
LINE
  8
0
  6
DASHED
 62
2
 10
-158.899994
 20
-172.000000
 11
-158.899994
 21
-176.500000
  0
LINE
  8
0
  6
DASHED
 62
2
 10
-163.500000
 20
-172.000000
 11
-163.500000
 21
-176.500000
  0
LINE
  8
0
  6
DASHED
 62
2
 10
-158.500000
 20
-172.000000
 11
-158.500000
 21
-176.500000
  0
LINE
  8
0
  6
DASHED
 62
2
 10
-165.000000
 20
-172.000000
 11
-157.000000
 21
-172.000000
  0
LINE
  8
0
  6
DASHED
 62
2
 10
-165.000000
 20
-171.000000
 11
-165.000000
 21
-172.000000
  0
LINE
  8
0
  6
DASHED
 62
2
 10
-157.000000
 20
-171.000000
 11
-157.000000
 21
-172.000000
  0
LINE
  8
0
  6
DASHED
 62
2
 10
-211.000000
 20
-172.000000
 11
-209.199997
 21
-172.000000
  0
LINE
  8
0
  6
DASHED
 62
2
 10
-211.000000
 20
-171.000000
 11
-211.000000
 21
-172.000000
  0
LINE
  8
0
  6
CONTINUOUS
 62
7
 10
-204.800003
 20
-172.000000
 11
-209.199997
 21
-172.000000
  0
LINE
  8
0
  6
DASHED
 62
2
 10
-203.000000
 20
-171.000000
 11
-203.000000
 21
-172.000000
  0
LINE
  8
0
  6
DASHED
 62
2
 10
-204.800003
 20
-172.000000
 11
-203.000000
 21
-172.000000
  0
LINE
  8
0
  6
CENTER
 62
2
 10
213.000000
 20
-67.500000
 11
213.000000
 21
-71.500000
  0
LINE
  8
0
  6
CENTER
 62
2
 10
213.000000
 20
-152.500000
 11
213.000000
 21
-156.500000
  0
LINE
  8
0
  6
CONTINUOUS
 62
7
 10
-145.800003
 20
-101.000000
 11
-145.800003
 21
-96.000000
  0
LINE
  8
0
  6
CONTINUOUS
 62
7
 10
-145.399994
 20
-105.000000
 11
-145.399994
 21
-101.000000
  0
LINE
  8
0
  6
CONTINUOUS
 62
7
 10
-145.399994
 20
-101.000000
 11
-146.500000
 21
-101.000000
  0
LINE
  8
0
  6
CONTINUOUS
 62
7
 10
-146.500000
 20
-105.000000
 11
-146.500000
 21
-101.000000
  0
LINE
  8
0
  6
CONTINUOUS
 62
7
 10
-145.399994
 20
-105.000000
 11
-146.500000
 21
-105.000000
  0
LINE
  8
0
  6
CONTINUOUS
 62
7
 10
-145.800003
 20
-119.000000
 11
-145.800003
 21
-105.000000
  0
LINE
  8
0
  6
CONTINUOUS
 62
7
 10
-145.399994
 20
-119.000000
 11
-146.500000
 21
-119.000000
  0
LINE
  8
0
  6
CONTINUOUS
 62
7
 10
-146.500000
 20
-119.000000
 11
-146.500000
 21
-123.000000
  0
LINE
  8
0
  6
CONTINUOUS
 62
7
 10
-145.399994
 20
-119.000000
 11
-145.399994
 21
-123.000000
  0
LINE
  8
0
  6
CONTINUOUS
 62
7
 10
-145.399994
 20
-123.000000
 11
-146.500000
 21
-123.000000
  0
LINE
  8
0
  6
CONTINUOUS
 62
7
 10
-145.800003
 20
-128.000000
 11
-145.800003
 21
-123.000000
  0
LINE
  8
0
  6
CONTINUOUS
 62
7
 10
-146.000000
 20
-96.000000
 11
-146.000000
 21
-95.500000
  0
LINE
  8
0
  6
CONTINUOUS
 62
7
 10
-219.500000
 20
-92.000000
 11
-212.500000
 21
-92.000000
  0
LINE
  8
0
  6
CENTER
 62
2
 10
-216.000000
 20
-91.000000
 11
-216.000000
 21
-97.000000
  0
LINE
  8
0
  6
CONTINUOUS
 62
7
 10
-216.000000
 20
-94.900002
 11
-216.000000
 21
-92.000000
  0
LINE
  8
0
  6
CONTINUOUS
 62
7
 10
-219.899994
 20
-94.900002
 11
-212.100006
 21
-94.900002
  0
LINE
  8
0
  6
CONTINUOUS
 62
7
 10
-212.100006
 20
-94.900002
 11
-212.100006
 21
-95.500000
  0
LINE
  8
0
  6
CONTINUOUS
 62
7
 10
-219.899994
 20
-94.900002
 11
-219.899994
 21
-95.500000
  0
LINE
  8
0
  6
CONTINUOUS
 62
7
 10
-212.500000
 20
-92.000000
 11
-212.500000
 21
-94.900002
  0
LINE
  8
0
  6
CONTINUOUS
 62
7
 10
-219.500000
 20
-92.000000
 11
-219.500000
 21
-94.900002
  0
LINE
  8
0
  6
CONTINUOUS
 62
7
 10
-155.500000
 20
-92.000000
 11
-148.500000
 21
-92.000000
  0
LINE
  8
0
  6
CENTER
 62
2
 10
-152.000000
 20
-91.000000
 11
-152.000000
 21
-97.000000
  0
LINE
  8
0
  6
CONTINUOUS
 62
7
 10
-152.000000
 20
-94.900002
 11
-152.000000
 21
-92.000000
  0
LINE
  8
0
  6
CONTINUOUS
 62
7
 10
-155.899994
 20
-94.900002
 11
-148.100006
 21
-94.900002
  0
LINE
  8
0
  6
CONTINUOUS
 62
7
 10
-148.100006
 20
-94.900002
 11
-148.100006
 21
-95.500000
  0
LINE
  8
0
  6
CONTINUOUS
 62
7
 10
-155.899994
 20
-94.900002
 11
-155.899994
 21
-95.500000
  0
LINE
  8
0
  6
CONTINUOUS
 62
7
 10
-148.500000
 20
-92.000000
 11
-148.500000
 21
-94.900002
  0
LINE
  8
0
  6
CONTINUOUS
 62
7
 10
-155.500000
 20
-92.000000
 11
-155.500000
 21
-94.900002
  0
LINE
  8
0
  6
CONTINUOUS
 62
7
 10
150.500000
 20
-92.000000
 11
157.500000
 21
-92.000000
  0
LINE
  8
0
  6
CENTER
 62
2
 10
154.000000
 20
-91.000000
 11
154.000000
 21
-97.000000
  0
LINE
  8
0
  6
CONTINUOUS
 62
7
 10
154.000000
 20
-94.900002
 11
154.000000
 21
-92.000000
  0
LINE
  8
0
  6
CONTINUOUS
 62
7
 10
150.100006
 20
-94.900002
 11
157.899994
 21
-94.900002
  0
LINE
  8
0
  6
CONTINUOUS
 62
7
 10
157.899994
 20
-94.900002
 11
157.899994
 21
-95.500000
  0
LINE
  8
0
  6
CONTINUOUS
 62
7
 10
150.100006
 20
-94.900002
 11
150.100006
 21
-95.500000
  0
LINE
  8
0
  6
CONTINUOUS
 62
7
 10
157.500000
 20
-92.000000
 11
157.500000
 21
-94.900002
  0
LINE
  8
0
  6
CONTINUOUS
 62
7
 10
150.500000
 20
-92.000000
 11
150.500000
 21
-94.900002
  0
LINE
  8
0
  6
CONTINUOUS
 62
7
 10
244.500000
 20
-92.000000
 11
251.500000
 21
-92.000000
  0
LINE
  8
0
  6
CENTER
 62
2
 10
248.000000
 20
-91.000000
 11
248.000000
 21
-97.000000
  0
LINE
  8
0
  6
CONTINUOUS
 62
7
 10
248.000000
 20
-94.900002
 11
248.000000
 21
-92.000000
  0
LINE
  8
0
  6
CONTINUOUS
 62
7
 10
244.100006
 20
-94.900002
 11
251.899994
 21
-94.900002
  0
LINE
  8
0
  6
CONTINUOUS
 62
7
 10
251.899994
 20
-94.900002
 11
251.899994
 21
-95.500000
  0
LINE
  8
0
  6
CONTINUOUS
 62
7
 10
244.100006
 20
-94.900002
 11
244.100006
 21
-95.500000
  0
LINE
  8
0
  6
CONTINUOUS
 62
7
 10
251.500000
 20
-92.000000
 11
251.500000
 21
-94.900002
  0
LINE
  8
0
  6
CONTINUOUS
 62
7
 10
244.500000
 20
-92.000000
 11
244.500000
 21
-94.900002
  0
LINE
  8
0
  6
CONTINUOUS
 62
7
 10
-145.800003
 20
-69.000000
 11
-145.800003
 21
-57.500000
  0
LINE
  8
0
  6
CONTINUOUS
 62
7
 10
-145.399994
 20
-68.500000
 11
-145.399994
 21
-64.500000
  0
LINE
  8
0
  6
CONTINUOUS
 62
7
 10
-145.800003
 20
-68.500000
 11
-145.399994
 21
-68.500000
  0
LINE
  8
0
  6
CONTINUOUS
 62
7
 10
-145.800003
 20
-64.500000
 11
-145.399994
 21
-64.500000
  0
LINE
  8
0
  6
CONTINUOUS
 62
7
 10
-145.399994
 20
-155.500000
 11
-145.399994
 21
-159.500000
  0
LINE
  8
0
  6
CONTINUOUS
 62
7
 10
-145.800003
 20
-155.000000
 11
-145.800003
 21
-166.500000
  0
LINE
  8
0
  6
CONTINUOUS
 62
7
 10
254.199997
 20
-69.000000
 11
254.199997
 21
-57.500000
  0
LINE
  8
0
  6
CONTINUOUS
 62
7
 10
254.600006
 20
-68.500000
 11
254.600006
 21
-64.500000
  0
LINE
  8
0
  6
CONTINUOUS
 62
7
 10
254.199997
 20
-64.500000
 11
254.600006
 21
-64.500000
  0
LINE
  8
0
  6
CONTINUOUS
 62
7
 10
254.199997
 20
-68.500000
 11
254.600006
 21
-68.500000
  0
LINE
  8
0
  6
CONTINUOUS
 62
7
 10
253.000000
 20
-69.000000
 11
254.199997
 21
-69.000000
  0
LINE
  8
0
  6
CONTINUOUS
 62
7
 10
146.000000
 20
-57.500000
 11
254.199997
 21
-57.500000
  0
LINE
  8
0
  6
CONTINUOUS
 62
7
 10
254.199997
 20
-128.000000
 11
254.199997
 21
-123.000000
  0
LINE
  8
0
  6
CONTINUOUS
 62
7
 10
254.199997
 20
-101.000000
 11
254.199997
 21
-96.000000
  0
LINE
  8
0
  6
CONTINUOUS
 62
7
 10
254.600006
 20
-105.000000
 11
254.600006
 21
-101.000000
  0
LINE
  8
0
  6
CONTINUOUS
 62
7
 10
254.600006
 20
-101.000000
 11
253.500000
 21
-101.000000
  0
LINE
  8
0
  6
CONTINUOUS
 62
7
 10
253.500000
 20
-105.000000
 11
253.500000
 21
-101.000000
  0
LINE
  8
0
  6
CONTINUOUS
 62
7
 10
254.600006
 20
-105.000000
 11
253.500000
 21
-105.000000
  0
LINE
  8
0
  6
CONTINUOUS
 62
7
 10
254.199997
 20
-119.000000
 11
254.199997
 21
-105.000000
  0
LINE
  8
0
  6
CONTINUOUS
 62
7
 10
254.600006
 20
-119.000000
 11
253.500000
 21
-119.000000
  0
LINE
  8
0
  6
CONTINUOUS
 62
7
 10
253.500000
 20
-119.000000
 11
253.500000
 21
-123.000000
  0
LINE
  8
0
  6
CONTINUOUS
 62
7
 10
254.600006
 20
-119.000000
 11
254.600006
 21
-123.000000
  0
LINE
  8
0
  6
CONTINUOUS
 62
7
 10
254.600006
 20
-123.000000
 11
253.500000
 21
-123.000000
  0
LINE
  8
0
  6
CONTINUOUS
 62
7
 10
253.000000
 20
-155.000000
 11
254.199997
 21
-155.000000
  0
LINE
  8
0
  6
CONTINUOUS
 62
7
 10
254.600006
 20
-155.500000
 11
254.199997
 21
-155.500000
  0
LINE
  8
0
  6
CONTINUOUS
 62
7
 10
146.000000
 20
-166.500000
 11
166.500000
 21
-166.500000
  0
LINE
  8
0
  6
CONTINUOUS
 62
7
 10
254.600006
 20
-159.500000
 11
254.199997
 21
-159.500000
  0
LINE
  8
0
  6
CONTINUOUS
 62
7
 10
254.600006
 20
-155.500000
 11
254.600006
 21
-159.500000
  0
LINE
  8
0
  6
CONTINUOUS
 62
7
 10
254.199997
 20
-155.000000
 11
254.199997
 21
-166.500000
  0
LINE
  8
0
  6
CONTINUOUS
 62
7
 10
254.000000
 20
-96.000000
 11
254.000000
 21
-95.500000
  0
LINE
  8
0
  6
CENTER
 62
2
 10
240.199997
 20
143.000000
 11
137.000000
 21
143.000000
  0
LINE
  8
0
  6
CONTINUOUS
 62
7
 10
239.199997
 20
127.000000
 11
138.000000
 21
127.000000
  0
LINE
  8
0
  6
CONTINUOUS
 62
7
 10
238.000000
 20
134.000000
 11
146.000000
 21
134.000000
  0
LINE
  8
0
  6
CONTINUOUS
 62
7
 10
148.000000
 20
159.500000
 11
160.800003
 21
159.500000
  0
LINE
  8
0
  6
CONTINUOUS
 62
7
 10
148.000000
 20
126.500000
 11
160.800003
 21
126.500000
  0
LINE
  8
0
  6
CONTINUOUS
 62
7
 10
148.000000
 20
126.500000
 11
148.000000
 21
127.000000
  0
LINE
  8
0
  6
CONTINUOUS
 62
7
 10
239.000000
 20
126.500000
 11
239.000000
 21
127.000000
  0
LINE
  8
0
  6
CONTINUOUS
 62
7
 10
148.000000
 20
159.000000
 11
148.000000
 21
159.500000
  0
LINE
  8
0
  6
CONTINUOUS
 62
7
 10
146.000000
 20
127.000000
 11
146.000000
 21
159.000000
  0
LINE
  8
0
  6
CONTINUOUS
 62
7
 10
239.199997
 20
159.000000
 11
138.000000
 21
159.000000
  0
LINE
  8
0
  6
CONTINUOUS
 62
7
 10
238.000000
 20
127.000000
 11
238.000000
 21
159.000000
  0
LINE
  8
0
  6
CONTINUOUS
 62
7
 10
238.000000
 20
152.000000
 11
146.000000
 21
152.000000
  0
LINE
  8
0
  6
CONTINUOUS
 62
7
 10
165.199997
 20
126.500000
 11
239.000000
 21
126.500000
  0
LINE
  8
0
  6
CONTINUOUS
 62
7
 10
138.000000
 20
159.000000
 11
138.000000
 21
127.000000
  0
LINE
  8
0
  6
CONTINUOUS
 62
7
 10
165.199997
 20
159.500000
 11
239.000000
 21
159.500000
  0
LINE
  8
0
  6
DASHED
 62
2
 10
160.800003
 20
131.000000
 11
160.800003
 21
127.000000
  0
LINE
  8
0
  6
DASHED
 62
2
 10
165.199997
 20
131.000000
 11
165.199997
 21
127.000000
  0
LINE
  8
0
  6
DASHED
 62
2
 10
160.800003
 20
155.000000
 11
160.800003
 21
159.000000
  0
LINE
  8
0
  6
DASHED
 62
2
 10
165.199997
 20
155.000000
 11
165.199997
 21
159.000000
  0
LINE
  8
0
  6
CONTINUOUS
 62
7
 10
160.800003
 20
127.000000
 11
160.800003
 21
126.500000
  0
LINE
  8
0
  6
CONTINUOUS
 62
7
 10
165.199997
 20
127.000000
 11
165.199997
 21
126.500000
  0
LINE
  8
0
  6
CONTINUOUS
 62
7
 10
165.199997
 20
159.500000
 11
165.199997
 21
159.000000
  0
LINE
  8
0
  6
CONTINUOUS
 62
7
 10
160.800003
 20
159.500000
 11
160.800003
 21
159.000000
  0
LINE
  8
0
  6
CONTINUOUS
 62
7
 10
146.000000
 20
100.500000
 11
238.000000
 21
100.500000
  0
LINE
  8
0
  6
CONTINUOUS
 62
7
 10
148.000000
 20
78.500000
 11
239.000000
 21
78.500000
  0
LINE
  8
0
  6
CONTINUOUS
 62
7
 10
148.000000
 20
88.500000
 11
148.000000
 21
78.500000
  0
LINE
  8
0
  6
CONTINUOUS
 62
7
 10
239.000000
 20
88.500000
 11
239.000000
 21
78.500000
  0
LINE
  8
0
  6
CONTINUOUS
 62
7
 10
146.000000
 20
100.500000
 11
146.000000
 21
79.500000
  0
LINE
  8
0
  6
CONTINUOUS
 62
7
 10
238.000000
 20
100.500000
 11
238.000000
 21
99.500000
  0
LINE
  8
0
  6
CONTINUOUS
 62
7
 10
148.000000
 20
88.000000
 11
166.500000
 21
88.000000
  0
LINE
  8
0
  6
CONTINUOUS
 62
7
 10
138.000000
 20
79.500000
 11
138.000000
 21
100.000000
  0
LINE
  8
0
  6
CONTINUOUS
 62
7
 10
146.000000
 20
79.500000
 11
138.000000
 21
79.500000
  0
LINE
  8
0
  6
CONTINUOUS
 62
7
 10
146.000000
 20
100.000000
 11
138.000000
 21
100.000000
  0
LINE
  8
0
  6
CONTINUOUS
 62
7
 10
148.000000
 20
81.500000
 11
146.000000
 21
81.500000
  0
LINE
  8
0
  6
CENTER
 62
2
 10
255.199997
 20
-218.500000
 11
137.000000
 21
-218.500000
  0
LINE
  8
0
  6
CONTINUOUS
 62
7
 10
148.000000
 20
-235.000000
 11
160.800003
 21
-235.000000
  0
LINE
  8
0
  6
CONTINUOUS
 62
7
 10
148.000000
 20
-202.000000
 11
160.800003
 21
-202.000000
  0
LINE
  8
0
  6
CONTINUOUS
 62
7
 10
148.000000
 20
-202.000000
 11
148.000000
 21
-235.000000
  0
LINE
  8
0
  6
CONTINUOUS
 62
7
 10
254.000000
 20
-202.000000
 11
254.000000
 21
-235.000000
  0
LINE
  8
0
  6
CONTINUOUS
 62
7
 10
138.000000
 20
-202.500000
 11
148.000000
 21
-202.500000
  0
LINE
  8
0
  6
CONTINUOUS
 62
7
 10
138.000000
 20
-234.500000
 11
148.000000
 21
-234.500000
  0
LINE
  8
0
  6
CONTINUOUS
 62
7
 10
146.000000
 20
-202.500000
 11
146.000000
 21
-234.500000
  0
LINE
  8
0
  6
CONTINUOUS
 62
7
 10
165.199997
 20
-202.000000
 11
254.000000
 21
-202.000000
  0
LINE
  8
0
  6
CONTINUOUS
 62
7
 10
165.199997
 20
-235.000000
 11
254.000000
 21
-235.000000
  0
LINE
  8
0
  6
CONTINUOUS
 62
7
 10
160.800003
 20
-202.500000
 11
165.199997
 21
-202.500000
  0
LINE
  8
0
  6
CONTINUOUS
 62
7
 10
160.800003
 20
-234.500000
 11
165.199997
 21
-234.500000
  0
LINE
  8
0
  6
CONTINUOUS
 62
7
 10
138.000000
 20
-202.500000
 11
138.000000
 21
-234.500000
  0
LINE
  8
0
  6
CONTINUOUS
 62
7
 10
160.800003
 20
-206.500000
 11
160.800003
 21
-202.000000
  0
LINE
  8
0
  6
CONTINUOUS
 62
7
 10
165.199997
 20
-206.500000
 11
165.199997
 21
-202.000000
  0
LINE
  8
0
  6
CONTINUOUS
 62
7
 10
160.800003
 20
-230.500000
 11
160.800003
 21
-235.000000
  0
LINE
  8
0
  6
CONTINUOUS
 62
7
 10
165.199997
 20
-230.500000
 11
165.199997
 21
-235.000000
  0
LINE
  8
0
  6
CONTINUOUS
 62
7
 10
146.000000
 20
185.500000
 11
238.000000
 21
185.500000
  0
LINE
  8
0
  6
CONTINUOUS
 62
7
 10
148.000000
 20
207.500000
 11
239.000000
 21
207.500000
  0
LINE
  8
0
  6
CONTINUOUS
 62
7
 10
148.000000
 20
197.500000
 11
148.000000
 21
207.500000
  0
LINE
  8
0
  6
CONTINUOUS
 62
7
 10
239.000000
 20
197.500000
 11
239.000000
 21
207.500000
  0
LINE
  8
0
  6
CONTINUOUS
 62
7
 10
146.000000
 20
185.500000
 11
146.000000
 21
206.500000
  0
LINE
  8
0
  6
CONTINUOUS
 62
7
 10
148.000000
 20
198.000000
 11
239.000000
 21
198.000000
  0
LINE
  8
0
  6
CENTER
 62
2
 10
218.386993
 20
189.699997
 11
221.507996
 21
189.699997
  0
LINE
  8
0
  6
CENTER
 62
2
 10
163.000000
 20
201.199997
 11
163.000000
 21
208.500000
  0
LINE
  8
0
  6
CONTINUOUS
 62
7
 10
138.000000
 20
206.500000
 11
138.000000
 21
186.000000
  0
LINE
  8
0
  6
CONTINUOUS
 62
7
 10
146.000000
 20
186.000000
 11
138.000000
 21
186.000000
  0
LINE
  8
0
  6
CONTINUOUS
 62
7
 10
146.000000
 20
206.500000
 11
138.000000
 21
206.500000
  0
LINE
  8
0
  6
CONTINUOUS
 62
7
 10
238.000000
 20
185.500000
 11
238.000000
 21
197.500000
  0
LINE
  8
0
  6
CONTINUOUS
 62
7
 10
148.000000
 20
204.500000
 11
146.000000
 21
204.500000
  0
LINE
  8
0
  6
CONTINUOUS
 62
7
 10
236.500000
 20
202.500000
 11
229.500000
 21
202.500000
  0
LINE
  8
0
  6
CONTINUOUS
 62
7
 10
236.500000
 20
201.500000
 11
229.500000
 21
201.500000
  0
LINE
  8
0
  6
CONTINUOUS
 62
7
 10
233.000000
 20
197.959000
 11
229.500000
 21
199.979004
  0
LINE
  8
0
  6
CONTINUOUS
 62
7
 10
229.500000
 20
199.979004
 11
229.500000
 21
204.020996
  0
LINE
  8
0
  6
CONTINUOUS
 62
7
 10
236.500000
 20
199.979004
 11
233.000000
 21
197.959000
  0
LINE
  8
0
  6
CONTINUOUS
 62
7
 10
236.500000
 20
199.979004
 11
236.500000
 21
204.020996
  0
LINE
  8
0
  6
CONTINUOUS
 62
7
 10
229.500000
 20
204.020996
 11
233.000000
 21
206.041000
  0
LINE
  8
0
  6
CONTINUOUS
 62
7
 10
236.500000
 20
204.020996
 11
233.000000
 21
206.041000
  0
LINE
  8
0
  6
CONTINUOUS
 62
7
 10
157.500000
 20
202.500000
 11
150.500000
 21
202.500000
  0
LINE
  8
0
  6
CONTINUOUS
 62
7
 10
157.500000
 20
201.500000
 11
150.500000
 21
201.500000
  0
LINE
  8
0
  6
CONTINUOUS
 62
7
 10
154.000000
 20
197.959000
 11
150.500000
 21
199.979004
  0
LINE
  8
0
  6
CONTINUOUS
 62
7
 10
150.500000
 20
199.979004
 11
150.500000
 21
204.020996
  0
LINE
  8
0
  6
CONTINUOUS
 62
7
 10
157.500000
 20
199.979004
 11
154.000000
 21
197.959000
  0
LINE
  8
0
  6
CONTINUOUS
 62
7
 10
157.500000
 20
199.979004
 11
157.500000
 21
204.020996
  0
LINE
  8
0
  6
CONTINUOUS
 62
7
 10
150.500000
 20
204.020996
 11
154.000000
 21
206.041000
  0
LINE
  8
0
  6
CONTINUOUS
 62
7
 10
157.500000
 20
204.020996
 11
154.000000
 21
206.041000
  0
LINE
  8
0
  6
DASHED
 62
2
 10
167.000000
 20
202.199997
 11
167.000000
 21
203.000000
  0
LINE
  8
0
  6
DASHED
 62
2
 10
159.000000
 20
202.199997
 11
159.000000
 21
203.000000
  0
LINE
  8
0
  6
DASHED
 62
2
 10
167.000000
 20
203.000000
 11
165.199997
 21
203.000000
  0
LINE
  8
0
  6
DASHED
 62
2
 10
160.800003
 20
203.000000
 11
159.000000
 21
203.000000
  0
LINE
  8
0
  6
CENTER
 62
2
 10
223.000000
 20
102.500000
 11
223.000000
 21
98.500000
  0
LINE
  8
0
  6
CENTER
 62
2
 10
183.000000
 20
102.500000
 11
183.000000
 21
98.500000
  0
LINE
  8
0
  6
CENTER
 62
2
 10
158.000000
 20
102.500000
 11
158.000000
 21
98.500000
  0
LINE
  8
0
  6
CENTER
 62
2
 10
136.000000
 20
86.500000
 11
140.000000
 21
86.500000
  0
LINE
  8
0
  6
CENTER
 62
2
 10
136.000000
 20
95.500000
 11
140.000000
 21
95.500000
  0
LINE
  8
0
  6
CENTER
 62
2
 10
136.000000
 20
190.500000
 11
140.000000
 21
190.500000
  0
LINE
  8
0
  6
CENTER
 62
2
 10
136.000000
 20
199.500000
 11
140.000000
 21
199.500000
  0
LINE
  8
0
  6
CENTER
 62
2
 10
158.000000
 20
187.500000
 11
158.000000
 21
183.500000
  0
LINE
  8
0
  6
CENTER
 62
2
 10
183.000000
 20
187.500000
 11
183.000000
 21
183.500000
  0
LINE
  8
0
  6
CENTER
 62
2
 10
223.000000
 20
187.500000
 11
223.000000
 21
183.500000
  0
LINE
  8
0
  6
DASHED
 62
2
 10
159.000000
 20
83.000000
 11
160.800003
 21
83.000000
  0
LINE
  8
0
  6
DASHED
 62
2
 10
159.000000
 20
83.800003
 11
159.000000
 21
83.000000
  0
LINE
  8
0
  6
DASHED
 62
2
 10
167.000000
 20
83.800003
 11
167.000000
 21
83.000000
  0
LINE
  8
0
  6
DASHED
 62
2
 10
165.199997
 20
83.000000
 11
167.000000
 21
83.000000
  0
LINE
  8
0
  6
CENTER
 62
2
 10
198.000000
 20
187.500000
 11
198.000000
 21
183.500000
  0
LINE
  8
0
  6
CENTER
 62
2
 10
198.000000
 20
102.500000
 11
198.000000
 21
98.500000
  0
LINE
  8
0
  6
CONTINUOUS
 62
7
 10
150.500000
 20
163.000000
 11
157.500000
 21
163.000000
  0
LINE
  8
0
  6
CENTER
 62
2
 10
154.000000
 20
164.000000
 11
154.000000
 21
158.000000
  0
LINE
  8
0
  6
CONTINUOUS
 62
7
 10
154.000000
 20
160.100006
 11
154.000000
 21
163.000000
  0
LINE
  8
0
  6
CONTINUOUS
 62
7
 10
150.100006
 20
160.100006
 11
157.899994
 21
160.100006
  0
LINE
  8
0
  6
CONTINUOUS
 62
7
 10
157.899994
 20
160.100006
 11
157.899994
 21
159.500000
  0
LINE
  8
0
  6
CONTINUOUS
 62
7
 10
150.100006
 20
160.100006
 11
150.100006
 21
159.500000
  0
LINE
  8
0
  6
CONTINUOUS
 62
7
 10
157.500000
 20
163.000000
 11
157.500000
 21
160.100006
  0
LINE
  8
0
  6
CONTINUOUS
 62
7
 10
150.500000
 20
163.000000
 11
150.500000
 21
160.100006
  0
LINE
  8
0
  6
CONTINUOUS
 62
7
 10
229.500000
 20
163.000000
 11
236.500000
 21
163.000000
  0
LINE
  8
0
  6
CENTER
 62
2
 10
233.000000
 20
164.000000
 11
233.000000
 21
158.000000
  0
LINE
  8
0
  6
CONTINUOUS
 62
7
 10
233.000000
 20
160.100006
 11
233.000000
 21
163.000000
  0
LINE
  8
0
  6
CONTINUOUS
 62
7
 10
229.100006
 20
160.100006
 11
236.899994
 21
160.100006
  0
LINE
  8
0
  6
CONTINUOUS
 62
7
 10
236.899994
 20
160.100006
 11
236.899994
 21
159.500000
  0
LINE
  8
0
  6
CONTINUOUS
 62
7
 10
229.100006
 20
160.100006
 11
229.100006
 21
159.500000
  0
LINE
  8
0
  6
CONTINUOUS
 62
7
 10
236.500000
 20
163.000000
 11
236.500000
 21
160.100006
  0
LINE
  8
0
  6
CONTINUOUS
 62
7
 10
229.500000
 20
163.000000
 11
229.500000
 21
160.100006
  0
LINE
  8
0
  6
CONTINUOUS
 62
7
 10
157.500000
 20
-238.500000
 11
150.500000
 21
-238.500000
  0
LINE
  8
0
  6
CENTER
 62
2
 10
154.000000
 20
-239.500000
 11
154.000000
 21
-233.500000
  0
LINE
  8
0
  6
CONTINUOUS
 62
7
 10
154.000000
 20
-235.600006
 11
154.000000
 21
-238.500000
  0
LINE
  8
0
  6
CONTINUOUS
 62
7
 10
157.899994
 20
-235.600006
 11
150.100006
 21
-235.600006
  0
LINE
  8
0
  6
CONTINUOUS
 62
7
 10
150.100006
 20
-235.600006
 11
150.100006
 21
-235.000000
  0
LINE
  8
0
  6
CONTINUOUS
 62
7
 10
157.899994
 20
-235.600006
 11
157.899994
 21
-235.000000
  0
LINE
  8
0
  6
CONTINUOUS
 62
7
 10
150.500000
 20
-238.500000
 11
150.500000
 21
-235.600006
  0
LINE
  8
0
  6
CONTINUOUS
 62
7
 10
157.500000
 20
-238.500000
 11
157.500000
 21
-235.600006
  0
LINE
  8
0
  6
CONTINUOUS
 62
7
 10
251.500000
 20
-238.500000
 11
244.500000
 21
-238.500000
  0
LINE
  8
0
  6
CENTER
 62
2
 10
248.000000
 20
-239.500000
 11
248.000000
 21
-233.500000
  0
LINE
  8
0
  6
CONTINUOUS
 62
7
 10
248.000000
 20
-235.600006
 11
248.000000
 21
-238.500000
  0
LINE
  8
0
  6
CONTINUOUS
 62
7
 10
251.899994
 20
-235.600006
 11
244.100006
 21
-235.600006
  0
LINE
  8
0
  6
CONTINUOUS
 62
7
 10
244.100006
 20
-235.600006
 11
244.100006
 21
-235.000000
  0
LINE
  8
0
  6
CONTINUOUS
 62
7
 10
251.899994
 20
-235.600006
 11
251.899994
 21
-235.000000
  0
LINE
  8
0
  6
CONTINUOUS
 62
7
 10
244.500000
 20
-238.500000
 11
244.500000
 21
-235.600006
  0
LINE
  8
0
  6
CONTINUOUS
 62
7
 10
251.500000
 20
-238.500000
 11
251.500000
 21
-235.600006
  0
LINE
  8
0
  6
CONTINUOUS
 62
7
 10
239.199997
 20
186.000000
 11
239.199997
 21
197.500000
  0
LINE
  8
0
  6
CONTINUOUS
 62
7
 10
239.600006
 20
186.500000
 11
239.600006
 21
190.500000
  0
LINE
  8
0
  6
CONTINUOUS
 62
7
 10
239.199997
 20
190.500000
 11
239.600006
 21
190.500000
  0
LINE
  8
0
  6
CONTINUOUS
 62
7
 10
239.199997
 20
186.500000
 11
239.600006
 21
186.500000
  0
LINE
  8
0
  6
CONTINUOUS
 62
7
 10
238.000000
 20
186.000000
 11
239.199997
 21
186.000000
  0
LINE
  8
0
  6
CONTINUOUS
 62
7
 10
146.000000
 20
197.500000
 11
239.199997
 21
197.500000
  0
LINE
  8
0
  6
CONTINUOUS
 62
7
 10
239.199997
 20
127.000000
 11
239.199997
 21
132.000000
  0
LINE
  8
0
  6
CONTINUOUS
 62
7
 10
239.199997
 20
154.000000
 11
239.199997
 21
159.000000
  0
LINE
  8
0
  6
CONTINUOUS
 62
7
 10
239.600006
 20
150.000000
 11
239.600006
 21
154.000000
  0
LINE
  8
0
  6
CONTINUOUS
 62
7
 10
239.600006
 20
154.000000
 11
238.500000
 21
154.000000
  0
LINE
  8
0
  6
CONTINUOUS
 62
7
 10
238.500000
 20
150.000000
 11
238.500000
 21
154.000000
  0
LINE
  8
0
  6
CONTINUOUS
 62
7
 10
239.600006
 20
150.000000
 11
238.500000
 21
150.000000
  0
LINE
  8
0
  6
CONTINUOUS
 62
7
 10
239.199997
 20
136.000000
 11
239.199997
 21
150.000000
  0
LINE
  8
0
  6
CONTINUOUS
 62
7
 10
239.600006
 20
136.000000
 11
238.500000
 21
136.000000
  0
LINE
  8
0
  6
CONTINUOUS
 62
7
 10
238.500000
 20
136.000000
 11
238.500000
 21
132.000000
  0
LINE
  8
0
  6
CONTINUOUS
 62
7
 10
239.600006
 20
136.000000
 11
239.600006
 21
132.000000
  0
LINE
  8
0
  6
CONTINUOUS
 62
7
 10
239.600006
 20
132.000000
 11
238.500000
 21
132.000000
  0
LINE
  8
0
  6
CONTINUOUS
 62
7
 10
238.000000
 20
100.000000
 11
239.199997
 21
100.000000
  0
LINE
  8
0
  6
CONTINUOUS
 62
7
 10
239.600006
 20
99.500000
 11
239.199997
 21
99.500000
  0
LINE
  8
0
  6
CONTINUOUS
 62
7
 10
146.000000
 20
88.500000
 11
166.500000
 21
88.500000
  0
LINE
  8
0
  6
CONTINUOUS
 62
7
 10
239.600006
 20
95.500000
 11
239.199997
 21
95.500000
  0
LINE
  8
0
  6
CONTINUOUS
 62
7
 10
239.600006
 20
99.500000
 11
239.600006
 21
95.500000
  0
LINE
  8
0
  6
CONTINUOUS
 62
7
 10
239.199997
 20
100.000000
 11
239.199997
 21
88.500000
  0
LINE
  8
0
  6
CONTINUOUS
 62
7
 10
254.600006
 20
-225.500000
 11
254.600006
 21
-229.500000
  0
LINE
  8
0
  6
CONTINUOUS
 62
7
 10
254.600006
 20
-211.500000
 11
254.199997
 21
-211.500000
  0
LINE
  8
0
  6
CONTINUOUS
 62
7
 10
254.600006
 20
-225.500000
 11
254.199997
 21
-225.500000
  0
LINE
  8
0
  6
CONTINUOUS
 62
7
 10
254.600006
 20
-229.500000
 11
254.199997
 21
-229.500000
  0
LINE
  8
0
  6
CONTINUOUS
 62
7
 10
254.600006
 20
-207.500000
 11
254.199997
 21
-207.500000
  0
LINE
  8
0
  6
CONTINUOUS
 62
7
 10
254.199997
 20
-202.500000
 11
254.199997
 21
-234.500000
  0
LINE
  8
0
  6
CONTINUOUS
 62
7
 10
254.000000
 20
-202.500000
 11
254.199997
 21
-202.500000
  0
LINE
  8
0
  6
CONTINUOUS
 62
7
 10
254.000000
 20
-234.500000
 11
254.199997
 21
-234.500000
  0
LINE
  8
0
  6
CONTINUOUS
 62
7
 10
254.600006
 20
-207.500000
 11
254.600006
 21
-211.500000
  0
LINE
  8
0
  6
CONTINUOUS
 62
7
 10
239.000000
 20
159.000000
 11
239.000000
 21
159.500000
  0
LINE
  8
0
  6
CENTER
 62
2
 10
-154.800003
 20
143.000000
 11
-233.000000
 21
143.000000
  0
LINE
  8
0
  6
CONTINUOUS
 62
7
 10
-155.800003
 20
127.000000
 11
-232.000000
 21
127.000000
  0
LINE
  8
0
  6
CONTINUOUS
 62
7
 10
-157.000000
 20
134.000000
 11
-224.000000
 21
134.000000
  0
LINE
  8
0
  6
CONTINUOUS
 62
7
 10
-222.000000
 20
159.500000
 11
-209.199997
 21
159.500000
  0
LINE
  8
0
  6
CONTINUOUS
 62
7
 10
-222.000000
 20
126.500000
 11
-209.199997
 21
126.500000
  0
LINE
  8
0
  6
CONTINUOUS
 62
7
 10
-222.000000
 20
126.500000
 11
-222.000000
 21
127.000000
  0
LINE
  8
0
  6
CONTINUOUS
 62
7
 10
-156.000000
 20
126.500000
 11
-156.000000
 21
127.000000
  0
LINE
  8
0
  6
CONTINUOUS
 62
7
 10
-222.000000
 20
159.000000
 11
-222.000000
 21
159.500000
  0
LINE
  8
0
  6
CONTINUOUS
 62
7
 10
-224.000000
 20
127.000000
 11
-224.000000
 21
159.000000
  0
LINE
  8
0
  6
CONTINUOUS
 62
7
 10
-155.800003
 20
159.000000
 11
-232.000000
 21
159.000000
  0
LINE
  8
0
  6
CONTINUOUS
 62
7
 10
-157.000000
 20
127.000000
 11
-157.000000
 21
159.000000
  0
LINE
  8
0
  6
CONTINUOUS
 62
7
 10
-157.000000
 20
152.000000
 11
-224.000000
 21
152.000000
  0
LINE
  8
0
  6
CONTINUOUS
 62
7
 10
-204.800003
 20
126.500000
 11
-156.000000
 21
126.500000
  0
LINE
  8
0
  6
CONTINUOUS
 62
7
 10
-232.000000
 20
159.000000
 11
-232.000000
 21
127.000000
  0
LINE
  8
0
  6
CONTINUOUS
 62
7
 10
-204.800003
 20
159.500000
 11
-156.000000
 21
159.500000
  0
LINE
  8
0
  6
DASHED
 62
2
 10
-209.199997
 20
131.000000
 11
-209.199997
 21
127.000000
  0
LINE
  8
0
  6
DASHED
 62
2
 10
-204.800003
 20
131.000000
 11
-204.800003
 21
127.000000
  0
LINE
  8
0
  6
DASHED
 62
2
 10
-209.199997
 20
155.000000
 11
-209.199997
 21
159.000000
  0
LINE
  8
0
  6
DASHED
 62
2
 10
-204.800003
 20
155.000000
 11
-204.800003
 21
159.000000
  0
LINE
  8
0
  6
CONTINUOUS
 62
7
 10
-209.199997
 20
127.000000
 11
-209.199997
 21
126.500000
  0
LINE
  8
0
  6
CONTINUOUS
 62
7
 10
-204.800003
 20
127.000000
 11
-204.800003
 21
126.500000
  0
LINE
  8
0
  6
CONTINUOUS
 62
7
 10
-204.800003
 20
159.500000
 11
-204.800003
 21
159.000000
  0
LINE
  8
0
  6
CONTINUOUS
 62
7
 10
-209.199997
 20
159.500000
 11
-209.199997
 21
159.000000
  0
LINE
  8
0
  6
CONTINUOUS
 62
7
 10
113.000000
 20
-128.000000
 11
113.000000
 21
-121.000000
  0
LINE
  8
0
  6
CONTINUOUS
 62
7
 10
112.699997
 20
-120.699997
 11
112.699997
 21
-103.300003
  0
LINE
  8
0
  6
CONTINUOUS
 62
7
 10
113.000000
 20
-121.000000
 11
112.699997
 21
-120.699997
  0
LINE
  8
0
  6
CONTINUOUS
 62
7
 10
113.000000
 20
-128.000000
 11
92.000000
 21
-128.000000
  0
LINE
  8
0
  6
CONTINUOUS
 62
7
 10
113.000000
 20
-96.000000
 11
113.000000
 21
-103.000000
  0
LINE
  8
0
  6
CONTINUOUS
 62
7
 10
113.000000
 20
-103.000000
 11
112.699997
 21
-103.300003
  0
LINE
  8
0
  6
CONTINUOUS
 62
7
 10
113.000000
 20
-96.000000
 11
92.000000
 21
-96.000000
  0
LINE
  8
0
  6
CONTINUOUS
 62
7
 10
100.500000
 20
-95.500000
 11
100.500000
 21
-96.000000
  0
LINE
  8
0
  6
CONTINUOUS
 62
7
 10
91.000000
 20
-95.500000
 11
91.000000
 21
-128.500000
  0
LINE
  8
0
  6
CONTINUOUS
 62
7
 10
100.500000
 20
-128.500000
 11
91.000000
 21
-128.500000
  0
LINE
  8
0
  6
CONTINUOUS
 62
7
 10
100.500000
 20
-128.500000
 11
100.500000
 21
-128.000000
  0
LINE
  8
0
  6
CENTER
 62
2
 10
113.699997
 20
-112.000000
 11
90.000000
 21
-112.000000
  0
LINE
  8
0
  6
CONTINUOUS
 62
7
 10
112.500000
 20
-96.000000
 11
112.500000
 21
-128.000000
  0
LINE
  8
0
  6
CONTINUOUS
 62
7
 10
92.000000
 20
-96.000000
 11
92.000000
 21
-128.000000
  0
LINE
  8
0
  6
CONTINUOUS
 62
7
 10
91.000000
 20
-95.500000
 11
100.500000
 21
-95.500000
  0
LINE
  8
0
  6
CENTER
 62
2
 10
99.000000
 20
-105.000000
 11
99.000000
 21
-119.000000
  0
LINE
  8
0
  6
CENTER
 62
2
 10
298.000000
 20
-119.400002
 11
298.000000
 21
-104.599998
  0
LINE
  8
0
  6
CONTINUOUS
 62
7
 10
292.885986
 20
-104.500000
 11
296.500000
 21
-104.500000
  0
LINE
  8
0
  6
CONTINUOUS
 62
7
 10
289.000000
 20
-104.500000
 11
290.114014
 21
-104.500000
  0
LINE
  8
0
  6
CONTINUOUS
 62
7
 10
284.000000
 20
-96.000000
 11
284.000000
 21
-103.000000
  0
LINE
  8
0
  6
CONTINUOUS
 62
7
 10
284.299988
 20
-103.300003
 11
284.299988
 21
-120.699997
  0
LINE
  8
0
  6
CONTINUOUS
 62
7
 10
284.000000
 20
-103.000000
 11
284.299988
 21
-103.300003
  0
LINE
  8
0
  6
CONTINUOUS
 62
7
 10
289.000000
 20
-119.500000
 11
290.114014
 21
-119.500000
  0
LINE
  8
0
  6
CONTINUOUS
 62
7
 10
284.000000
 20
-128.000000
 11
296.500000
 21
-128.000000
  0
LINE
  8
0
  6
CONTINUOUS
 62
7
 10
284.000000
 20
-128.000000
 11
284.000000
 21
-121.000000
  0
LINE
  8
0
  6
CONTINUOUS
 62
7
 10
284.000000
 20
-121.000000
 11
284.299988
 21
-120.699997
  0
LINE
  8
0
  6
CONTINUOUS
 62
7
 10
284.000000
 20
-96.000000
 11
296.500000
 21
-96.000000
  0
LINE
  8
0
  6
CONTINUOUS
 62
7
 10
306.000000
 20
-128.500000
 11
306.000000
 21
-95.500000
  0
LINE
  8
0
  6
CONTINUOUS
 62
7
 10
296.500000
 20
-95.500000
 11
296.500000
 21
-104.500000
  0
LINE
  8
0
  6
CONTINUOUS
 62
7
 10
296.500000
 20
-128.500000
 11
306.000000
 21
-128.500000
  0
LINE
  8
0
  6
CONTINUOUS
 62
7
 10
296.500000
 20
-95.500000
 11
306.000000
 21
-95.500000
  0
LINE
  8
0
  6
CENTER
 62
2
 10
283.299988
 20
-112.000000
 11
307.000000
 21
-112.000000
  0
LINE
  8
0
  6
CONTINUOUS
 62
7
 10
296.000000
 20
-128.000000
 11
296.000000
 21
-119.500000
  0
LINE
  8
0
  6
CONTINUOUS
 62
7
 10
289.000000
 20
-104.500000
 11
289.000000
 21
-119.500000
  0
LINE
  8
0
  6
CONTINUOUS
 62
7
 10
296.500000
 20
-128.500000
 11
296.500000
 21
-119.500000
  0
LINE
  8
0
  6
CONTINUOUS
 62
7
 10
292.885986
 20
-119.500000
 11
296.500000
 21
-119.500000
  0
LINE
  8
0
  6
CONTINUOUS
 62
7
 10
296.000000
 20
-96.000000
 11
296.000000
 21
-104.500000
  0
LINE
  8
0
  6
CONTINUOUS
 62
7
 10
-224.000000
 20
100.500000
 11
-157.000000
 21
100.500000
  0
LINE
  8
0
  6
CONTINUOUS
 62
7
 10
-222.000000
 20
78.500000
 11
-156.000000
 21
78.500000
  0
LINE
  8
0
  6
CONTINUOUS
 62
7
 10
-222.000000
 20
88.500000
 11
-222.000000
 21
78.500000
  0
LINE
  8
0
  6
CONTINUOUS
 62
7
 10
-156.000000
 20
88.500000
 11
-156.000000
 21
78.500000
  0
LINE
  8
0
  6
CONTINUOUS
 62
7
 10
-224.000000
 20
100.500000
 11
-224.000000
 21
79.500000
  0
LINE
  8
0
  6
CONTINUOUS
 62
7
 10
-157.000000
 20
100.500000
 11
-157.000000
 21
99.500000
  0
LINE
  8
0
  6
CONTINUOUS
 62
7
 10
-157.000000
 20
100.000000
 11
-155.800003
 21
100.000000
  0
LINE
  8
0
  6
CONTINUOUS
 62
7
 10
-222.000000
 20
88.000000
 11
-203.500000
 21
88.000000
  0
LINE
  8
0
  6
CONTINUOUS
 62
7
 10
-155.399994
 20
99.500000
 11
-155.800003
 21
99.500000
  0
LINE
  8
0
  6
CONTINUOUS
 62
7
 10
-232.000000
 20
79.500000
 11
-232.000000
 21
100.000000
  0
LINE
  8
0
  6
CONTINUOUS
 62
7
 10
-224.000000
 20
79.500000
 11
-232.000000
 21
79.500000
  0
LINE
  8
0
  6
CONTINUOUS
 62
7
 10
-224.000000
 20
100.000000
 11
-232.000000
 21
100.000000
  0
LINE
  8
0
  6
CONTINUOUS
 62
7
 10
-224.000000
 20
88.500000
 11
-203.500000
 21
88.500000
  0
LINE
  8
0
  6
CONTINUOUS
 62
7
 10
-222.000000
 20
81.500000
 11
-224.000000
 21
81.500000
  0
LINE
  8
0
  6
CONTINUOUS
 62
7
 10
-155.399994
 20
95.500000
 11
-155.800003
 21
95.500000
  0
LINE
  8
0
  6
CENTER
 62
2
 10
-144.800003
 20
-218.500000
 11
-233.000000
 21
-218.500000
  0
LINE
  8
0
  6
CONTINUOUS
 62
7
 10
-222.000000
 20
-235.000000
 11
-209.199997
 21
-235.000000
  0
LINE
  8
0
  6
CONTINUOUS
 62
7
 10
-222.000000
 20
-202.000000
 11
-209.199997
 21
-202.000000
  0
LINE
  8
0
  6
CONTINUOUS
 62
7
 10
-222.000000
 20
-202.000000
 11
-222.000000
 21
-235.000000
  0
LINE
  8
0
  6
CONTINUOUS
 62
7
 10
-146.000000
 20
-202.000000
 11
-146.000000
 21
-235.000000
  0
LINE
  8
0
  6
CONTINUOUS
 62
7
 10
-232.000000
 20
-202.500000
 11
-222.000000
 21
-202.500000
  0
LINE
  8
0
  6
CONTINUOUS
 62
7
 10
-232.000000
 20
-234.500000
 11
-222.000000
 21
-234.500000
  0
LINE
  8
0
  6
CONTINUOUS
 62
7
 10
-224.000000
 20
-202.500000
 11
-224.000000
 21
-234.500000
  0
LINE
  8
0
  6
CONTINUOUS
 62
7
 10
-145.399994
 20
-211.500000
 11
-145.800003
 21
-211.500000
  0
LINE
  8
0
  6
CONTINUOUS
 62
7
 10
-145.399994
 20
-225.500000
 11
-145.800003
 21
-225.500000
  0
LINE
  8
0
  6
CONTINUOUS
 62
7
 10
-145.399994
 20
-229.500000
 11
-145.800003
 21
-229.500000
  0
LINE
  8
0
  6
CONTINUOUS
 62
7
 10
-145.399994
 20
-207.500000
 11
-145.800003
 21
-207.500000
  0
LINE
  8
0
  6
CONTINUOUS
 62
7
 10
-204.800003
 20
-202.000000
 11
-146.000000
 21
-202.000000
  0
LINE
  8
0
  6
CONTINUOUS
 62
7
 10
-204.800003
 20
-235.000000
 11
-146.000000
 21
-235.000000
  0
LINE
  8
0
  6
CONTINUOUS
 62
7
 10
-209.199997
 20
-202.500000
 11
-204.800003
 21
-202.500000
  0
LINE
  8
0
  6
CONTINUOUS
 62
7
 10
-209.199997
 20
-234.500000
 11
-204.800003
 21
-234.500000
  0
LINE
  8
0
  6
CONTINUOUS
 62
7
 10
-232.000000
 20
-202.500000
 11
-232.000000
 21
-234.500000
  0
LINE
  8
0
  6
CONTINUOUS
 62
7
 10
-209.199997
 20
-206.500000
 11
-209.199997
 21
-202.000000
  0
LINE
  8
0
  6
CONTINUOUS
 62
7
 10
-204.800003
 20
-206.500000
 11
-204.800003
 21
-202.000000
  0
LINE
  8
0
  6
CONTINUOUS
 62
7
 10
-209.199997
 20
-230.500000
 11
-209.199997
 21
-235.000000
  0
LINE
  8
0
  6
CONTINUOUS
 62
7
 10
-204.800003
 20
-230.500000
 11
-204.800003
 21
-235.000000
  0
LINE
  8
0
  6
CONTINUOUS
 62
7
 10
-224.000000
 20
185.500000
 11
-157.000000
 21
185.500000
  0
LINE
  8
0
  6
CONTINUOUS
 62
7
 10
-222.000000
 20
207.500000
 11
-156.000000
 21
207.500000
  0
LINE
  8
0
  6
CONTINUOUS
 62
7
 10
-222.000000
 20
197.500000
 11
-222.000000
 21
207.500000
  0
LINE
  8
0
  6
CONTINUOUS
 62
7
 10
-156.000000
 20
197.500000
 11
-156.000000
 21
207.500000
  0
LINE
  8
0
  6
CONTINUOUS
 62
7
 10
-224.000000
 20
185.500000
 11
-224.000000
 21
206.500000
  0
LINE
  8
0
  6
CONTINUOUS
 62
7
 10
-157.000000
 20
186.000000
 11
-155.800003
 21
186.000000
  0
LINE
  8
0
  6
CONTINUOUS
 62
7
 10
-224.000000
 20
197.500000
 11
-155.800003
 21
197.500000
  0
LINE
  8
0
  6
CONTINUOUS
 62
7
 10
-222.000000
 20
198.000000
 11
-156.000000
 21
198.000000
  0
LINE
  8
0
  6
CENTER
 62
2
 10
-207.000000
 20
201.199997
 11
-207.000000
 21
208.500000
  0
LINE
  8
0
  6
CONTINUOUS
 62
7
 10
-232.000000
 20
206.500000
 11
-232.000000
 21
186.000000
  0
LINE
  8
0
  6
CONTINUOUS
 62
7
 10
-224.000000
 20
186.000000
 11
-232.000000
 21
186.000000
  0
LINE
  8
0
  6
CONTINUOUS
 62
7
 10
-224.000000
 20
206.500000
 11
-232.000000
 21
206.500000
  0
LINE
  8
0
  6
CONTINUOUS
 62
7
 10
-157.000000
 20
185.500000
 11
-157.000000
 21
197.500000
  0
LINE
  8
0
  6
CONTINUOUS
 62
7
 10
-222.000000
 20
204.500000
 11
-224.000000
 21
204.500000
  0
LINE
  8
0
  6
CONTINUOUS
 62
7
 10
-158.500000
 20
202.500000
 11
-165.500000
 21
202.500000
  0
LINE
  8
0
  6
CONTINUOUS
 62
7
 10
-158.500000
 20
201.500000
 11
-165.500000
 21
201.500000
  0
LINE
  8
0
  6
CONTINUOUS
 62
7
 10
-162.000000
 20
197.959000
 11
-165.500000
 21
199.979004
  0
LINE
  8
0
  6
CONTINUOUS
 62
7
 10
-165.500000
 20
199.979004
 11
-165.500000
 21
204.020996
  0
LINE
  8
0
  6
CONTINUOUS
 62
7
 10
-158.500000
 20
199.979004
 11
-162.000000
 21
197.959000
  0
LINE
  8
0
  6
CONTINUOUS
 62
7
 10
-158.500000
 20
199.979004
 11
-158.500000
 21
204.020996
  0
LINE
  8
0
  6
CONTINUOUS
 62
7
 10
-165.500000
 20
204.020996
 11
-162.000000
 21
206.041000
  0
LINE
  8
0
  6
CONTINUOUS
 62
7
 10
-158.500000
 20
204.020996
 11
-162.000000
 21
206.041000
  0
LINE
  8
0
  6
CONTINUOUS
 62
7
 10
-212.500000
 20
202.500000
 11
-219.500000
 21
202.500000
  0
LINE
  8
0
  6
CONTINUOUS
 62
7
 10
-212.500000
 20
201.500000
 11
-219.500000
 21
201.500000
  0
LINE
  8
0
  6
CONTINUOUS
 62
7
 10
-216.000000
 20
197.959000
 11
-219.500000
 21
199.979004
  0
LINE
  8
0
  6
CONTINUOUS
 62
7
 10
-219.500000
 20
199.979004
 11
-219.500000
 21
204.020996
  0
LINE
  8
0
  6
CONTINUOUS
 62
7
 10
-212.500000
 20
199.979004
 11
-216.000000
 21
197.959000
  0
LINE
  8
0
  6
CONTINUOUS
 62
7
 10
-212.500000
 20
199.979004
 11
-212.500000
 21
204.020996
  0
LINE
  8
0
  6
CONTINUOUS
 62
7
 10
-219.500000
 20
204.020996
 11
-216.000000
 21
206.041000
  0
LINE
  8
0
  6
CONTINUOUS
 62
7
 10
-212.500000
 20
204.020996
 11
-216.000000
 21
206.041000
  0
LINE
  8
0
  6
DASHED
 62
2
 10
-203.000000
 20
202.199997
 11
-203.000000
 21
203.000000
  0
LINE
  8
0
  6
DASHED
 62
2
 10
-211.000000
 20
202.199997
 11
-211.000000
 21
203.000000
  0
LINE
  8
0
  6
DASHED
 62
2
 10
-203.000000
 20
203.000000
 11
-204.800003
 21
203.000000
  0
LINE
  8
0
  6
DASHED
 62
2
 10
-209.199997
 20
203.000000
 11
-211.000000
 21
203.000000
  0
LINE
  8
0
  6
CENTER
 62
2
 10
-172.000000
 20
102.500000
 11
-172.000000
 21
98.500000
  0
LINE
  8
0
  6
CENTER
 62
2
 10
-192.000000
 20
102.500000
 11
-192.000000
 21
98.500000
  0
LINE
  8
0
  6
CENTER
 62
2
 10
-212.000000
 20
102.500000
 11
-212.000000
 21
98.500000
  0
LINE
  8
0
  6
CENTER
 62
2
 10
-234.000000
 20
86.500000
 11
-230.000000
 21
86.500000
  0
LINE
  8
0
  6
CENTER
 62
2
 10
-234.000000
 20
95.500000
 11
-230.000000
 21
95.500000
  0
LINE
  8
0
  6
CENTER
 62
2
 10
-234.000000
 20
190.500000
 11
-230.000000
 21
190.500000
  0
LINE
  8
0
  6
CENTER
 62
2
 10
-234.000000
 20
199.500000
 11
-230.000000
 21
199.500000
  0
LINE
  8
0
  6
CENTER
 62
2
 10
-212.000000
 20
187.500000
 11
-212.000000
 21
183.500000
  0
LINE
  8
0
  6
CENTER
 62
2
 10
-192.000000
 20
187.500000
 11
-192.000000
 21
183.500000
  0
LINE
  8
0
  6
CENTER
 62
2
 10
-172.000000
 20
187.500000
 11
-172.000000
 21
183.500000
  0
LINE
  8
0
  6
DASHED
 62
2
 10
-211.000000
 20
83.000000
 11
-209.199997
 21
83.000000
  0
LINE
  8
0
  6
DASHED
 62
2
 10
-211.000000
 20
83.800003
 11
-211.000000
 21
83.000000
  0
LINE
  8
0
  6
CONTINUOUS
 62
7
 10
-204.800003
 20
83.000000
 11
-209.199997
 21
83.000000
  0
LINE
  8
0
  6
DASHED
 62
2
 10
-203.000000
 20
83.800003
 11
-203.000000
 21
83.000000
  0
LINE
  8
0
  6
DASHED
 62
2
 10
-204.800003
 20
83.000000
 11
-203.000000
 21
83.000000
  0
LINE
  8
0
  6
CENTER
 62
2
 10
282.000000
 20
-99.500000
 11
286.000000
 21
-99.500000
  0
LINE
  8
0
  6
CENTER
 62
2
 10
304.000000
 20
-100.000000
 11
308.000000
 21
-100.000000
  0
LINE
  8
0
  6
CENTER
 62
2
 10
304.000000
 20
-124.000000
 11
308.000000
 21
-124.000000
  0
LINE
  8
0
  6
CENTER
 62
2
 10
282.000000
 20
-124.500000
 11
286.000000
 21
-124.500000
  0
LINE
  8
0
  6
CONTINUOUS
 62
7
 10
-155.800003
 20
154.000000
 11
-155.800003
 21
159.000000
  0
LINE
  8
0
  6
CONTINUOUS
 62
7
 10
-155.399994
 20
150.000000
 11
-155.399994
 21
154.000000
  0
LINE
  8
0
  6
CONTINUOUS
 62
7
 10
-155.399994
 20
154.000000
 11
-156.500000
 21
154.000000
  0
LINE
  8
0
  6
CONTINUOUS
 62
7
 10
-156.500000
 20
150.000000
 11
-156.500000
 21
154.000000
  0
LINE
  8
0
  6
CONTINUOUS
 62
7
 10
-155.399994
 20
150.000000
 11
-156.500000
 21
150.000000
  0
LINE
  8
0
  6
CONTINUOUS
 62
7
 10
-155.800003
 20
136.000000
 11
-155.800003
 21
150.000000
  0
LINE
  8
0
  6
CONTINUOUS
 62
7
 10
-155.399994
 20
136.000000
 11
-156.500000
 21
136.000000
  0
LINE
  8
0
  6
CONTINUOUS
 62
7
 10
-156.500000
 20
136.000000
 11
-156.500000
 21
132.000000
  0
LINE
  8
0
  6
CONTINUOUS
 62
7
 10
-155.399994
 20
136.000000
 11
-155.399994
 21
132.000000
  0
LINE
  8
0
  6
CONTINUOUS
 62
7
 10
-155.399994
 20
132.000000
 11
-156.500000
 21
132.000000
  0
LINE
  8
0
  6
CONTINUOUS
 62
7
 10
-155.800003
 20
127.000000
 11
-155.800003
 21
132.000000
  0
LINE
  8
0
  6
CONTINUOUS
 62
7
 10
-156.000000
 20
159.000000
 11
-156.000000
 21
159.500000
  0
LINE
  8
0
  6
CONTINUOUS
 62
7
 10
-219.500000
 20
163.000000
 11
-212.500000
 21
163.000000
  0
LINE
  8
0
  6
CENTER
 62
2
 10
-216.000000
 20
164.000000
 11
-216.000000
 21
158.000000
  0
LINE
  8
0
  6
CONTINUOUS
 62
7
 10
-216.000000
 20
160.100006
 11
-216.000000
 21
163.000000
  0
LINE
  8
0
  6
CONTINUOUS
 62
7
 10
-219.899994
 20
160.100006
 11
-212.100006
 21
160.100006
  0
LINE
  8
0
  6
CONTINUOUS
 62
7
 10
-212.100006
 20
160.100006
 11
-212.100006
 21
159.500000
  0
LINE
  8
0
  6
CONTINUOUS
 62
7
 10
-219.899994
 20
160.100006
 11
-219.899994
 21
159.500000
  0
LINE
  8
0
  6
CONTINUOUS
 62
7
 10
-212.500000
 20
163.000000
 11
-212.500000
 21
160.100006
  0
LINE
  8
0
  6
CONTINUOUS
 62
7
 10
-219.500000
 20
163.000000
 11
-219.500000
 21
160.100006
  0
LINE
  8
0
  6
CONTINUOUS
 62
7
 10
-165.500000
 20
163.000000
 11
-158.500000
 21
163.000000
  0
LINE
  8
0
  6
CENTER
 62
2
 10
-162.000000
 20
164.000000
 11
-162.000000
 21
158.000000
  0
LINE
  8
0
  6
CONTINUOUS
 62
7
 10
-162.000000
 20
160.100006
 11
-162.000000
 21
163.000000
  0
LINE
  8
0
  6
CONTINUOUS
 62
7
 10
-165.899994
 20
160.100006
 11
-158.100006
 21
160.100006
  0
LINE
  8
0
  6
CONTINUOUS
 62
7
 10
-158.100006
 20
160.100006
 11
-158.100006
 21
159.500000
  0
LINE
  8
0
  6
CONTINUOUS
 62
7
 10
-165.899994
 20
160.100006
 11
-165.899994
 21
159.500000
  0
LINE
  8
0
  6
CONTINUOUS
 62
7
 10
-158.500000
 20
163.000000
 11
-158.500000
 21
160.100006
  0
LINE
  8
0
  6
CONTINUOUS
 62
7
 10
-165.500000
 20
163.000000
 11
-165.500000
 21
160.100006
  0
LINE
  8
0
  6
CONTINUOUS
 62
7
 10
92.458603
 20
-92.000000
 11
92.458603
 21
-94.900002
  0
LINE
  8
0
  6
CONTINUOUS
 62
7
 10
92.599998
 20
-94.900002
 11
92.599998
 21
-95.500000
  0
LINE
  8
0
  6
CONTINUOUS
 62
7
 10
100.541000
 20
-94.900002
 11
92.458603
 21
-94.900002
  0
LINE
  8
0
  6
CONTINUOUS
 62
7
 10
94.479301
 20
-92.000000
 11
94.479301
 21
-94.900002
  0
LINE
  8
0
  6
CENTER
 62
2
 10
96.500000
 20
-91.000000
 11
96.500000
 21
-96.500000
  0
LINE
  8
0
  6
CONTINUOUS
 62
7
 10
100.541000
 20
-92.000000
 11
92.458603
 21
-92.000000
  0
LINE
  8
0
  6
CONTINUOUS
 62
7
 10
100.541000
 20
-92.000000
 11
100.541000
 21
-94.900002
  0
LINE
  8
0
  6
CONTINUOUS
 62
7
 10
98.520798
 20
-92.000000
 11
98.520798
 21
-94.900002
  0
LINE
  8
0
  6
CONTINUOUS
 62
7
 10
100.400002
 20
-94.900002
 11
100.400002
 21
-95.500000
  0
LINE
  8
0
  6
CONTINUOUS
 62
7
 10
296.459015
 20
-92.000000
 11
296.459015
 21
-94.900002
  0
LINE
  8
0
  6
CONTINUOUS
 62
7
 10
296.600006
 20
-94.900002
 11
296.600006
 21
-95.500000
  0
LINE
  8
0
  6
CONTINUOUS
 62
7
 10
304.540985
 20
-94.900002
 11
296.459015
 21
-94.900002
  0
LINE
  8
0
  6
CONTINUOUS
 62
7
 10
298.479004
 20
-92.000000
 11
298.479004
 21
-94.900002
  0
LINE
  8
0
  6
CENTER
 62
2
 10
300.500000
 20
-91.000000
 11
300.500000
 21
-96.500000
  0
LINE
  8
0
  6
CONTINUOUS
 62
7
 10
304.540985
 20
-92.000000
 11
296.459015
 21
-92.000000
  0
LINE
  8
0
  6
CONTINUOUS
 62
7
 10
304.540985
 20
-92.000000
 11
304.540985
 21
-94.900002
  0
LINE
  8
0
  6
CONTINUOUS
 62
7
 10
302.520996
 20
-92.000000
 11
302.520996
 21
-94.900002
  0
LINE
  8
0
  6
CONTINUOUS
 62
7
 10
304.399994
 20
-94.900002
 11
304.399994
 21
-95.500000
  0
LINE
  8
0
  6
CONTINUOUS
 62
7
 10
-155.800003
 20
186.000000
 11
-155.800003
 21
197.500000
  0
LINE
  8
0
  6
CONTINUOUS
 62
7
 10
-155.399994
 20
186.500000
 11
-155.399994
 21
190.500000
  0
LINE
  8
0
  6
CONTINUOUS
 62
7
 10
-155.800003
 20
186.500000
 11
-155.399994
 21
186.500000
  0
LINE
  8
0
  6
CONTINUOUS
 62
7
 10
-155.800003
 20
190.500000
 11
-155.399994
 21
190.500000
  0
LINE
  8
0
  6
CONTINUOUS
 62
7
 10
-155.399994
 20
99.500000
 11
-155.399994
 21
95.500000
  0
LINE
  8
0
  6
CONTINUOUS
 62
7
 10
-155.800003
 20
100.000000
 11
-155.800003
 21
88.500000
  0
LINE
  8
0
  6
CONTINUOUS
 62
7
 10
-145.800003
 20
-202.500000
 11
-145.800003
 21
-234.500000
  0
LINE
  8
0
  6
CONTINUOUS
 62
7
 10
-146.000000
 20
-202.500000
 11
-145.800003
 21
-202.500000
  0
LINE
  8
0
  6
CONTINUOUS
 62
7
 10
-146.000000
 20
-234.500000
 11
-145.800003
 21
-234.500000
  0
LINE
  8
0
  6
CONTINUOUS
 62
7
 10
-145.399994
 20
-207.500000
 11
-145.399994
 21
-211.500000
  0
LINE
  8
0
  6
CONTINUOUS
 62
7
 10
-145.399994
 20
-225.500000
 11
-145.399994
 21
-229.500000
  0
LINE
  8
0
  6
CONTINUOUS
 62
7
 10
-212.500000
 20
-238.500000
 11
-219.500000
 21
-238.500000
  0
LINE
  8
0
  6
CENTER
 62
2
 10
-216.000000
 20
-239.500000
 11
-216.000000
 21
-233.500000
  0
LINE
  8
0
  6
CONTINUOUS
 62
7
 10
-216.000000
 20
-235.600006
 11
-216.000000
 21
-238.500000
  0
LINE
  8
0
  6
CONTINUOUS
 62
7
 10
-212.100006
 20
-235.600006
 11
-219.899994
 21
-235.600006
  0
LINE
  8
0
  6
CONTINUOUS
 62
7
 10
-219.899994
 20
-235.600006
 11
-219.899994
 21
-235.000000
  0
LINE
  8
0
  6
CONTINUOUS
 62
7
 10
-212.100006
 20
-235.600006
 11
-212.100006
 21
-235.000000
  0
LINE
  8
0
  6
CONTINUOUS
 62
7
 10
-219.500000
 20
-238.500000
 11
-219.500000
 21
-235.600006
  0
LINE
  8
0
  6
CONTINUOUS
 62
7
 10
-212.500000
 20
-238.500000
 11
-212.500000
 21
-235.600006
  0
LINE
  8
0
  6
CONTINUOUS
 62
7
 10
-148.500000
 20
-238.500000
 11
-155.500000
 21
-238.500000
  0
LINE
  8
0
  6
CENTER
 62
2
 10
-152.000000
 20
-239.500000
 11
-152.000000
 21
-233.500000
  0
LINE
  8
0
  6
CONTINUOUS
 62
7
 10
-152.000000
 20
-235.600006
 11
-152.000000
 21
-238.500000
  0
LINE
  8
0
  6
CONTINUOUS
 62
7
 10
-148.100006
 20
-235.600006
 11
-155.899994
 21
-235.600006
  0
LINE
  8
0
  6
CONTINUOUS
 62
7
 10
-155.899994
 20
-235.600006
 11
-155.899994
 21
-235.000000
  0
LINE
  8
0
  6
CONTINUOUS
 62
7
 10
-148.100006
 20
-235.600006
 11
-148.100006
 21
-235.000000
  0
LINE
  8
0
  6
CONTINUOUS
 62
7
 10
-155.500000
 20
-238.500000
 11
-155.500000
 21
-235.600006
  0
LINE
  8
0
  6
CONTINUOUS
 62
7
 10
-148.500000
 20
-238.500000
 11
-148.500000
 21
-235.600006
  0
LINE
  8
0
  6
CENTER
 62
2
 10
-154.800003
 20
36.500000
 11
-233.000000
 21
36.500000
  0
LINE
  8
0
  6
CONTINUOUS
 62
7
 10
-222.000000
 20
20.000000
 11
-209.199997
 21
20.000000
  0
LINE
  8
0
  6
CONTINUOUS
 62
7
 10
-222.000000
 20
53.000000
 11
-209.199997
 21
53.000000
  0
LINE
  8
0
  6
CONTINUOUS
 62
7
 10
-222.000000
 20
53.000000
 11
-222.000000
 21
20.000000
  0
LINE
  8
0
  6
CONTINUOUS
 62
7
 10
-156.000000
 20
53.000000
 11
-156.000000
 21
20.000000
  0
LINE
  8
0
  6
CONTINUOUS
 62
7
 10
-232.000000
 20
52.500000
 11
-222.000000
 21
52.500000
  0
LINE
  8
0
  6
CONTINUOUS
 62
7
 10
-232.000000
 20
20.500000
 11
-222.000000
 21
20.500000
  0
LINE
  8
0
  6
CONTINUOUS
 62
7
 10
-224.000000
 20
52.500000
 11
-224.000000
 21
20.500000
  0
LINE
  8
0
  6
CONTINUOUS
 62
7
 10
-155.399994
 20
43.500000
 11
-155.800003
 21
43.500000
  0
LINE
  8
0
  6
CONTINUOUS
 62
7
 10
-155.399994
 20
29.500000
 11
-155.800003
 21
29.500000
  0
LINE
  8
0
  6
CONTINUOUS
 62
7
 10
-155.399994
 20
25.500000
 11
-155.800003
 21
25.500000
  0
LINE
  8
0
  6
CONTINUOUS
 62
7
 10
-155.399994
 20
47.500000
 11
-155.800003
 21
47.500000
  0
LINE
  8
0
  6
CONTINUOUS
 62
7
 10
-204.800003
 20
53.000000
 11
-156.000000
 21
53.000000
  0
LINE
  8
0
  6
CONTINUOUS
 62
7
 10
-204.800003
 20
20.000000
 11
-156.000000
 21
20.000000
  0
LINE
  8
0
  6
CONTINUOUS
 62
7
 10
-209.199997
 20
52.500000
 11
-204.800003
 21
52.500000
  0
LINE
  8
0
  6
CONTINUOUS
 62
7
 10
-209.199997
 20
20.500000
 11
-204.800003
 21
20.500000
  0
LINE
  8
0
  6
CONTINUOUS
 62
7
 10
-232.000000
 20
52.500000
 11
-232.000000
 21
20.500000
  0
LINE
  8
0
  6
CONTINUOUS
 62
7
 10
-209.199997
 20
48.500000
 11
-209.199997
 21
53.000000
  0
LINE
  8
0
  6
CONTINUOUS
 62
7
 10
-204.800003
 20
48.500000
 11
-204.800003
 21
53.000000
  0
LINE
  8
0
  6
CONTINUOUS
 62
7
 10
-209.199997
 20
24.500000
 11
-209.199997
 21
20.000000
  0
LINE
  8
0
  6
CONTINUOUS
 62
7
 10
-204.800003
 20
24.500000
 11
-204.800003
 21
20.000000
  0
LINE
  8
0
  6
CONTINUOUS
 62
7
 10
-155.800003
 20
52.500000
 11
-155.800003
 21
20.500000
  0
LINE
  8
0
  6
CONTINUOUS
 62
7
 10
-156.000000
 20
52.500000
 11
-155.800003
 21
52.500000
  0
LINE
  8
0
  6
CONTINUOUS
 62
7
 10
-156.000000
 20
20.500000
 11
-155.800003
 21
20.500000
  0
LINE
  8
0
  6
CONTINUOUS
 62
7
 10
-155.399994
 20
47.500000
 11
-155.399994
 21
43.500000
  0
LINE
  8
0
  6
CONTINUOUS
 62
7
 10
-155.399994
 20
29.500000
 11
-155.399994
 21
25.500000
  0
LINE
  8
0
  6
CONTINUOUS
 62
7
 10
-212.500000
 20
16.500000
 11
-219.500000
 21
16.500000
  0
LINE
  8
0
  6
CENTER
 62
2
 10
-216.000000
 20
15.500000
 11
-216.000000
 21
21.500000
  0
LINE
  8
0
  6
CONTINUOUS
 62
7
 10
-216.000000
 20
19.400000
 11
-216.000000
 21
16.500000
  0
LINE
  8
0
  6
CONTINUOUS
 62
7
 10
-212.100006
 20
19.400000
 11
-219.899994
 21
19.400000
  0
LINE
  8
0
  6
CONTINUOUS
 62
7
 10
-219.899994
 20
19.400000
 11
-219.899994
 21
20.000000
  0
LINE
  8
0
  6
CONTINUOUS
 62
7
 10
-212.100006
 20
19.400000
 11
-212.100006
 21
20.000000
  0
LINE
  8
0
  6
CONTINUOUS
 62
7
 10
-219.500000
 20
16.500000
 11
-219.500000
 21
19.400000
  0
LINE
  8
0
  6
CONTINUOUS
 62
7
 10
-212.500000
 20
16.500000
 11
-212.500000
 21
19.400000
  0
LINE
  8
0
  6
CONTINUOUS
 62
7
 10
-158.500000
 20
16.500000
 11
-165.500000
 21
16.500000
  0
LINE
  8
0
  6
CENTER
 62
2
 10
-162.000000
 20
15.500000
 11
-162.000000
 21
21.500000
  0
LINE
  8
0
  6
CONTINUOUS
 62
7
 10
-162.000000
 20
19.400000
 11
-162.000000
 21
16.500000
  0
LINE
  8
0
  6
CONTINUOUS
 62
7
 10
-158.100006
 20
19.400000
 11
-165.899994
 21
19.400000
  0
LINE
  8
0
  6
CONTINUOUS
 62
7
 10
-165.899994
 20
19.400000
 11
-165.899994
 21
20.000000
  0
LINE
  8
0
  6
CONTINUOUS
 62
7
 10
-158.100006
 20
19.400000
 11
-158.100006
 21
20.000000
  0
LINE
  8
0
  6
CONTINUOUS
 62
7
 10
-165.500000
 20
16.500000
 11
-165.500000
 21
19.400000
  0
LINE
  8
0
  6
CONTINUOUS
 62
7
 10
-158.500000
 20
16.500000
 11
-158.500000
 21
19.400000
  0
LINE
  8
0
  6
CENTER
 62
2
 10
240.199997
 20
36.500000
 11
137.000000
 21
36.500000
  0
LINE
  8
0
  6
CONTINUOUS
 62
7
 10
148.000000
 20
20.000000
 11
160.800003
 21
20.000000
  0
LINE
  8
0
  6
CONTINUOUS
 62
7
 10
148.000000
 20
53.000000
 11
160.800003
 21
53.000000
  0
LINE
  8
0
  6
CONTINUOUS
 62
7
 10
148.000000
 20
53.000000
 11
148.000000
 21
20.000000
  0
LINE
  8
0
  6
CONTINUOUS
 62
7
 10
239.000000
 20
53.000000
 11
239.000000
 21
20.000000
  0
LINE
  8
0
  6
CONTINUOUS
 62
7
 10
138.000000
 20
52.500000
 11
148.000000
 21
52.500000
  0
LINE
  8
0
  6
CONTINUOUS
 62
7
 10
138.000000
 20
20.500000
 11
148.000000
 21
20.500000
  0
LINE
  8
0
  6
CONTINUOUS
 62
7
 10
146.000000
 20
52.500000
 11
146.000000
 21
20.500000
  0
LINE
  8
0
  6
CONTINUOUS
 62
7
 10
165.199997
 20
53.000000
 11
239.000000
 21
53.000000
  0
LINE
  8
0
  6
CONTINUOUS
 62
7
 10
165.199997
 20
20.000000
 11
239.000000
 21
20.000000
  0
LINE
  8
0
  6
CONTINUOUS
 62
7
 10
160.800003
 20
52.500000
 11
165.199997
 21
52.500000
  0
LINE
  8
0
  6
CONTINUOUS
 62
7
 10
160.800003
 20
20.500000
 11
165.199997
 21
20.500000
  0
LINE
  8
0
  6
CONTINUOUS
 62
7
 10
138.000000
 20
52.500000
 11
138.000000
 21
20.500000
  0
LINE
  8
0
  6
CONTINUOUS
 62
7
 10
160.800003
 20
48.500000
 11
160.800003
 21
53.000000
  0
LINE
  8
0
  6
CONTINUOUS
 62
7
 10
165.199997
 20
48.500000
 11
165.199997
 21
53.000000
  0
LINE
  8
0
  6
CONTINUOUS
 62
7
 10
160.800003
 20
24.500000
 11
160.800003
 21
20.000000
  0
LINE
  8
0
  6
CONTINUOUS
 62
7
 10
165.199997
 20
24.500000
 11
165.199997
 21
20.000000
  0
LINE
  8
0
  6
CONTINUOUS
 62
7
 10
157.500000
 20
16.500000
 11
150.500000
 21
16.500000
  0
LINE
  8
0
  6
CENTER
 62
2
 10
154.000000
 20
15.500000
 11
154.000000
 21
21.500000
  0
LINE
  8
0
  6
CONTINUOUS
 62
7
 10
154.000000
 20
19.400000
 11
154.000000
 21
16.500000
  0
LINE
  8
0
  6
CONTINUOUS
 62
7
 10
157.899994
 20
19.400000
 11
150.100006
 21
19.400000
  0
LINE
  8
0
  6
CONTINUOUS
 62
7
 10
150.100006
 20
19.400000
 11
150.100006
 21
20.000000
  0
LINE
  8
0
  6
CONTINUOUS
 62
7
 10
157.899994
 20
19.400000
 11
157.899994
 21
20.000000
  0
LINE
  8
0
  6
CONTINUOUS
 62
7
 10
150.500000
 20
16.500000
 11
150.500000
 21
19.400000
  0
LINE
  8
0
  6
CONTINUOUS
 62
7
 10
157.500000
 20
16.500000
 11
157.500000
 21
19.400000
  0
LINE
  8
0
  6
CONTINUOUS
 62
7
 10
236.500000
 20
16.500000
 11
229.500000
 21
16.500000
  0
LINE
  8
0
  6
CENTER
 62
2
 10
233.000000
 20
15.500000
 11
233.000000
 21
21.500000
  0
LINE
  8
0
  6
CONTINUOUS
 62
7
 10
233.000000
 20
19.400000
 11
233.000000
 21
16.500000
  0
LINE
  8
0
  6
CONTINUOUS
 62
7
 10
236.899994
 20
19.400000
 11
229.100006
 21
19.400000
  0
LINE
  8
0
  6
CONTINUOUS
 62
7
 10
229.100006
 20
19.400000
 11
229.100006
 21
20.000000
  0
LINE
  8
0
  6
CONTINUOUS
 62
7
 10
236.899994
 20
19.400000
 11
236.899994
 21
20.000000
  0
LINE
  8
0
  6
CONTINUOUS
 62
7
 10
229.500000
 20
16.500000
 11
229.500000
 21
19.400000
  0
LINE
  8
0
  6
CONTINUOUS
 62
7
 10
236.500000
 20
16.500000
 11
236.500000
 21
19.400000
  0
LINE
  8
0
  6
CONTINUOUS
 62
7
 10
239.600006
 20
29.500000
 11
239.600006
 21
25.500000
  0
LINE
  8
0
  6
CONTINUOUS
 62
7
 10
239.600006
 20
43.500000
 11
239.199997
 21
43.500000
  0
LINE
  8
0
  6
CONTINUOUS
 62
7
 10
239.600006
 20
29.500000
 11
239.199997
 21
29.500000
  0
LINE
  8
0
  6
CONTINUOUS
 62
7
 10
239.600006
 20
25.500000
 11
239.199997
 21
25.500000
  0
LINE
  8
0
  6
CONTINUOUS
 62
7
 10
239.600006
 20
47.500000
 11
239.199997
 21
47.500000
  0
LINE
  8
0
  6
CONTINUOUS
 62
7
 10
239.199997
 20
52.500000
 11
239.199997
 21
20.500000
  0
LINE
  8
0
  6
CONTINUOUS
 62
7
 10
239.000000
 20
52.500000
 11
239.199997
 21
52.500000
  0
LINE
  8
0
  6
CONTINUOUS
 62
7
 10
239.000000
 20
20.500000
 11
239.199997
 21
20.500000
  0
LINE
  8
0
  6
CONTINUOUS
 62
7
 10
239.600006
 20
47.500000
 11
239.600006
 21
43.500000
  0
LINE
  8
0
  6
CONTINUOUS
 62
7
 10
-211.199997
 20
83.800003
 11
-203.500000
 21
83.800003
  0
LINE
  8
0
  6
CONTINUOUS
 62
7
 10
-204.850006
 20
83.000000
 11
-209.149994
 21
83.000000
  0
LINE
  8
0
  6
CONTINUOUS
 62
7
 10
-204.850006
 20
83.800003
 11
-204.850006
 21
78.500000
  0
LINE
  8
0
  6
CONTINUOUS
 62
7
 10
-209.149994
 20
83.800003
 11
-209.149994
 21
78.500000
  0
LINE
  8
0
  6
DASHED
 62
2
 10
-175.000000
 20
83.800003
 11
-175.000000
 21
83.000000
  0
LINE
  8
0
  6
CONTINUOUS
 62
7
 10
-166.800003
 20
83.800003
 11
-169.000000
 21
83.800003
  0
LINE
  8
0
  6
DASHED
 62
2
 10
-167.000000
 20
83.000000
 11
-175.000000
 21
83.000000
  0
LINE
  8
0
  6
CENTER
 62
2
 10
-171.000000
 20
84.800003
 11
-171.000000
 21
77.500000
  0
LINE
  8
0
  6
DASHED
 62
2
 10
-168.899994
 20
83.000000
 11
-168.899994
 21
78.500000
  0
LINE
  8
0
  6
DASHED
 62
2
 10
-168.500000
 20
83.000000
 11
-168.500000
 21
78.500000
  0
LINE
  8
0
  6
DASHED
 62
2
 10
-167.000000
 20
83.800003
 11
-167.000000
 21
83.000000
  0
LINE
  8
0
  6
DASHED
 62
2
 10
-173.100006
 20
83.000000
 11
-173.100006
 21
78.500000
  0
LINE
  8
0
  6
DASHED
 62
2
 10
-173.500000
 20
83.000000
 11
-173.500000
 21
78.500000
  0
LINE
  8
0
  6
DASHED
 62
2
 10
-188.500000
 20
85.800003
 11
-188.500000
 21
78.500000
  0
LINE
  8
0
  6
DASHED
 62
2
 10
-188.899994
 20
85.800003
 11
-188.899994
 21
78.500000
  0
LINE
  8
0
  6
CENTER
 62
2
 10
-191.000000
 20
86.800003
 11
-191.000000
 21
77.500000
  0
LINE
  8
0
  6
DASHED
 62
2
 10
-193.100006
 20
85.800003
 11
-193.100006
 21
78.500000
  0
LINE
  8
0
  6
DASHED
 62
2
 10
-193.500000
 20
85.800003
 11
-193.500000
 21
78.500000
  0
LINE
  8
0
  6
CENTER
 62
2
 10
-207.000000
 20
84.800003
 11
-207.000000
 21
77.500000
  0
LINE
  8
0
  6
CONTINUOUS
 62
7
 10
-211.199997
 20
202.199997
 11
-202.000000
 21
202.199997
  0
LINE
  8
0
  6
CONTINUOUS
 62
7
 10
-209.149994
 20
202.199997
 11
-209.149994
 21
207.500000
  0
LINE
  8
0
  6
CONTINUOUS
 62
7
 10
-204.850006
 20
203.000000
 11
-209.149994
 21
203.000000
  0
LINE
  8
0
  6
CONTINUOUS
 62
7
 10
-204.850006
 20
202.199997
 11
-204.850006
 21
207.500000
  0
LINE
  8
0
  6
CONTINUOUS
 62
7
 10
-196.764008
 20
200.199997
 11
-181.235992
 21
200.199997
  0
LINE
  8
0
  6
CENTER
 62
2
 10
-191.000000
 20
199.199997
 11
-191.000000
 21
208.500000
  0
LINE
  8
0
  6
DASHED
 62
2
 10
-193.500000
 20
200.199997
 11
-193.500000
 21
207.500000
  0
LINE
  8
0
  6
DASHED
 62
2
 10
-188.500000
 20
200.199997
 11
-188.500000
 21
207.500000
  0
LINE
  8
0
  6
DASHED
 62
2
 10
-188.899994
 20
200.199997
 11
-188.899994
 21
207.500000
  0
LINE
  8
0
  6
DASHED
 62
2
 10
-193.100006
 20
200.199997
 11
-193.100006
 21
207.500000
  0
LINE
  8
0
  6
CONTINUOUS
 62
7
 10
-166.800003
 20
202.199997
 11
-176.000000
 21
202.199997
  0
LINE
  8
0
  6
CENTER
 62
2
 10
-171.000000
 20
201.199997
 11
-171.000000
 21
208.500000
  0
LINE
  8
0
  6
DASHED
 62
2
 10
-167.000000
 20
203.000000
 11
-175.000000
 21
203.000000
  0
LINE
  8
0
  6
DASHED
 62
2
 10
-173.100006
 20
203.000000
 11
-173.100006
 21
207.500000
  0
LINE
  8
0
  6
DASHED
 62
2
 10
-168.899994
 20
203.000000
 11
-168.899994
 21
207.500000
  0
LINE
  8
0
  6
DASHED
 62
2
 10
-168.500000
 20
203.000000
 11
-168.500000
 21
207.500000
  0
LINE
  8
0
  6
DASHED
 62
2
 10
-173.500000
 20
203.000000
 11
-173.500000
 21
207.500000
  0
LINE
  8
0
  6
DASHED
 62
2
 10
-167.000000
 20
202.199997
 11
-167.000000
 21
203.000000
  0
LINE
  8
0
  6
DASHED
 62
2
 10
-175.000000
 20
202.199997
 11
-175.000000
 21
203.000000
  0
LINE
  8
0
  6
CONTINUOUS
 62
7
 10
158.800003
 20
202.199997
 11
168.000000
 21
202.199997
  0
LINE
  8
0
  6
CONTINUOUS
 62
7
 10
160.850006
 20
202.199997
 11
160.850006
 21
207.500000
  0
LINE
  8
0
  6
CONTINUOUS
 62
7
 10
165.149994
 20
203.000000
 11
160.850006
 21
203.000000
  0
LINE
  8
0
  6
CONTINUOUS
 62
7
 10
165.149994
 20
202.199997
 11
165.149994
 21
207.500000
  0
LINE
  8
0
  6
CONTINUOUS
 62
7
 10
173.235992
 20
200.199997
 11
213.764008
 21
200.199997
  0
LINE
  8
0
  6
CONTINUOUS
 62
7
 10
228.199997
 20
202.199997
 11
219.000000
 21
202.199997
  0
LINE
  8
0
  6
CENTER
 62
2
 10
179.000000
 20
199.199997
 11
179.000000
 21
208.500000
  0
LINE
  8
0
  6
CENTER
 62
2
 10
224.000000
 20
201.199997
 11
224.000000
 21
208.500000
  0
LINE
  8
0
  6
DASHED
 62
2
 10
176.500000
 20
200.199997
 11
176.500000
 21
207.500000
  0
LINE
  8
0
  6
DASHED
 62
2
 10
181.500000
 20
200.199997
 11
181.500000
 21
207.500000
  0
LINE
  8
0
  6
DASHED
 62
2
 10
181.100006
 20
200.199997
 11
181.100006
 21
207.500000
  0
LINE
  8
0
  6
DASHED
 62
2
 10
176.899994
 20
200.199997
 11
176.899994
 21
207.500000
  0
LINE
  8
0
  6
DASHED
 62
2
 10
228.000000
 20
203.000000
 11
220.000000
 21
203.000000
  0
LINE
  8
0
  6
DASHED
 62
2
 10
221.899994
 20
203.000000
 11
221.899994
 21
207.500000
  0
LINE
  8
0
  6
DASHED
 62
2
 10
226.100006
 20
203.000000
 11
226.100006
 21
207.500000
  0
LINE
  8
0
  6
DASHED
 62
2
 10
226.500000
 20
203.000000
 11
226.500000
 21
207.500000
  0
LINE
  8
0
  6
DASHED
 62
2
 10
221.500000
 20
203.000000
 11
221.500000
 21
207.500000
  0
LINE
  8
0
  6
DASHED
 62
2
 10
228.000000
 20
202.199997
 11
228.000000
 21
203.000000
  0
LINE
  8
0
  6
DASHED
 62
2
 10
220.000000
 20
202.199997
 11
220.000000
 21
203.000000
  0
LINE
  8
0
  6
CENTER
 62
2
 10
163.000000
 20
84.800003
 11
163.000000
 21
77.500000
  0
LINE
  8
0
  6
CONTINUOUS
 62
7
 10
158.800003
 20
83.800003
 11
166.500000
 21
83.800003
  0
LINE
  8
0
  6
CONTINUOUS
 62
7
 10
160.850006
 20
83.800003
 11
160.850006
 21
78.500000
  0
LINE
  8
0
  6
CONTINUOUS
 62
7
 10
165.149994
 20
83.000000
 11
160.850006
 21
83.000000
  0
LINE
  8
0
  6
CONTINUOUS
 62
7
 10
165.149994
 20
83.800003
 11
165.149994
 21
78.500000
  0
LINE
  8
0
  6
DASHED
 62
2
 10
175.000000
 20
85.800003
 11
183.000000
 21
85.800003
  0
LINE
  8
0
  6
CONTINUOUS
 62
7
 10
228.199997
 20
83.800003
 11
226.000000
 21
83.800003
  0
LINE
  8
0
  6
CENTER
 62
2
 10
179.000000
 20
86.800003
 11
179.000000
 21
77.500000
  0
LINE
  8
0
  6
CENTER
 62
2
 10
224.000000
 20
84.800003
 11
224.000000
 21
77.500000
  0
LINE
  8
0
  6
DASHED
 62
2
 10
176.500000
 20
85.800003
 11
176.500000
 21
78.500000
  0
LINE
  8
0
  6
DASHED
 62
2
 10
181.500000
 20
85.800003
 11
181.500000
 21
78.500000
  0
LINE
  8
0
  6
DASHED
 62
2
 10
181.100006
 20
85.800003
 11
181.100006
 21
78.500000
  0
LINE
  8
0
  6
DASHED
 62
2
 10
176.899994
 20
85.800003
 11
176.899994
 21
78.500000
  0
LINE
  8
0
  6
DASHED
 62
2
 10
228.000000
 20
83.000000
 11
220.000000
 21
83.000000
  0
LINE
  8
0
  6
DASHED
 62
2
 10
221.899994
 20
83.000000
 11
221.899994
 21
78.500000
  0
LINE
  8
0
  6
DASHED
 62
2
 10
226.100006
 20
83.000000
 11
226.100006
 21
78.500000
  0
LINE
  8
0
  6
DASHED
 62
2
 10
226.500000
 20
83.000000
 11
226.500000
 21
78.500000
  0
LINE
  8
0
  6
DASHED
 62
2
 10
221.500000
 20
83.000000
 11
221.500000
 21
78.500000
  0
LINE
  8
0
  6
DASHED
 62
2
 10
228.000000
 20
83.800003
 11
228.000000
 21
83.000000
  0
LINE
  8
0
  6
DASHED
 62
2
 10
220.000000
 20
83.800003
 11
220.000000
 21
83.000000
  0
LINE
  8
0
  6
CENTER
 62
2
 10
-216.000000
 20
206.899994
 11
-216.000000
 21
197.100006
  0
LINE
  8
0
  6
CENTER
 62
2
 10
-220.899994
 20
202.000000
 11
-211.100006
 21
202.000000
  0
LINE
  8
0
  6
CENTER
 62
2
 10
-199.000000
 20
204.500000
 11
-199.000000
 21
199.500000
  0
LINE
  8
0
  6
CENTER
 62
2
 10
-201.500000
 20
202.000000
 11
-196.500000
 21
202.000000
  0
LINE
  8
0
  6
CENTER
 62
2
 10
-179.000000
 20
204.500000
 11
-179.000000
 21
199.500000
  0
LINE
  8
0
  6
CENTER
 62
2
 10
-181.500000
 20
202.000000
 11
-176.500000
 21
202.000000
  0
LINE
  8
0
  6
CENTER
 62
2
 10
-162.000000
 20
206.899994
 11
-162.000000
 21
197.100006
  0
LINE
  8
0
  6
CENTER
 62
2
 10
-166.899994
 20
202.000000
 11
-157.100006
 21
202.000000
  0
LINE
  8
0
  6
CENTER
 62
2
 10
-175.199997
 20
191.699997
 11
-175.199997
 21
187.699997
  0
LINE
  8
0
  6
CENTER
 62
2
 10
-177.199997
 20
189.699997
 11
-173.199997
 21
189.699997
  0
LINE
  8
0
  6
CENTER
 62
2
 10
-168.300003
 20
192.500000
 11
-168.300003
 21
187.500000
  0
LINE
  8
0
  6
CENTER
 62
2
 10
-170.800003
 20
190.000000
 11
-165.800003
 21
190.000000
  0
LINE
  8
0
  6
CENTER
 62
2
 10
-165.199997
 20
191.699997
 11
-165.199997
 21
187.699997
  0
LINE
  8
0
  6
CENTER
 62
2
 10
-167.199997
 20
189.699997
 11
-163.199997
 21
189.699997
  0
LINE
  8
0
  6
CENTER
 62
2
 10
-161.800003
 20
192.500000
 11
-161.800003
 21
187.500000
  0
LINE
  8
0
  6
CENTER
 62
2
 10
-164.300003
 20
190.000000
 11
-159.300003
 21
190.000000
  0
LINE
  8
0
  6
CENTER
 62
2
 10
-212.000000
 20
158.000000
 11
-212.000000
 21
153.000000
  0
LINE
  8
0
  6
CENTER
 62
2
 10
-214.500000
 20
155.500000
 11
-209.500000
 21
155.500000
  0
LINE
  8
0
  6
CENTER
 62
2
 10
-207.000000
 20
160.000000
 11
-207.000000
 21
150.000000
  0
LINE
  8
0
  6
CENTER
 62
2
 10
-212.000000
 20
155.000000
 11
-202.000000
 21
155.000000
  0
LINE
  8
0
  6
CENTER
 62
2
 10
-192.000000
 20
158.000000
 11
-192.000000
 21
153.000000
  0
LINE
  8
0
  6
CENTER
 62
2
 10
-194.500000
 20
155.500000
 11
-189.500000
 21
155.500000
  0
LINE
  8
0
  6
CENTER
 62
2
 10
-187.000000
 20
158.500000
 11
-187.000000
 21
152.500000
  0
LINE
  8
0
  6
CENTER
 62
2
 10
-190.000000
 20
155.500000
 11
-184.000000
 21
155.500000
  0
LINE
  8
0
  6
CENTER
 62
2
 10
-171.000000
 20
160.000000
 11
-171.000000
 21
150.000000
  0
LINE
  8
0
  6
CENTER
 62
2
 10
-176.000000
 20
155.000000
 11
-166.000000
 21
155.000000
  0
LINE
  8
0
  6
CENTER
 62
2
 10
-172.000000
 20
158.000000
 11
-172.000000
 21
153.000000
  0
LINE
  8
0
  6
CENTER
 62
2
 10
-174.500000
 20
155.500000
 11
-169.500000
 21
155.500000
  0
LINE
  8
0
  6
CENTER
 62
2
 10
-172.000000
 20
133.000000
 11
-172.000000
 21
128.000000
  0
LINE
  8
0
  6
CENTER
 62
2
 10
-174.500000
 20
130.500000
 11
-169.500000
 21
130.500000
  0
LINE
  8
0
  6
CENTER
 62
2
 10
-171.000000
 20
136.000000
 11
-171.000000
 21
126.000000
  0
LINE
  8
0
  6
CENTER
 62
2
 10
-176.000000
 20
131.000000
 11
-166.000000
 21
131.000000
  0
LINE
  8
0
  6
CENTER
 62
2
 10
-187.000000
 20
133.500000
 11
-187.000000
 21
127.500000
  0
LINE
  8
0
  6
CENTER
 62
2
 10
-190.000000
 20
130.500000
 11
-184.000000
 21
130.500000
  0
LINE
  8
0
  6
CENTER
 62
2
 10
-192.000000
 20
133.000000
 11
-192.000000
 21
128.000000
  0
LINE
  8
0
  6
CENTER
 62
2
 10
-194.500000
 20
130.500000
 11
-189.500000
 21
130.500000
  0
LINE
  8
0
  6
CENTER
 62
2
 10
-207.000000
 20
136.000000
 11
-207.000000
 21
126.000000
  0
LINE
  8
0
  6
CENTER
 62
2
 10
-212.000000
 20
131.000000
 11
-202.000000
 21
131.000000
  0
LINE
  8
0
  6
CENTER
 62
2
 10
-212.000000
 20
133.000000
 11
-212.000000
 21
128.000000
  0
LINE
  8
0
  6
CENTER
 62
2
 10
-214.500000
 20
130.500000
 11
-209.500000
 21
130.500000
  0
LINE
  8
0
  6
CENTER
 62
2
 10
99.000000
 20
-121.000000
 11
99.000000
 21
-127.000000
  0
LINE
  8
0
  6
CENTER
 62
2
 10
96.000000
 20
-124.000000
 11
102.000000
 21
-124.000000
  0
LINE
  8
0
  6
CENTER
 62
2
 10
108.000000
 20
-118.500000
 11
108.000000
 21
-128.500000
  0
LINE
  8
0
  6
CENTER
 62
2
 10
103.000000
 20
-123.500000
 11
113.000000
 21
-123.500000
  0
LINE
  8
0
  6
CENTER
 62
2
 10
108.000000
 20
-95.500000
 11
108.000000
 21
-105.500000
  0
LINE
  8
0
  6
CENTER
 62
2
 10
103.000000
 20
-100.500000
 11
113.000000
 21
-100.500000
  0
LINE
  8
0
  6
CENTER
 62
2
 10
99.000000
 20
-97.000000
 11
99.000000
 21
-103.000000
  0
LINE
  8
0
  6
CENTER
 62
2
 10
96.000000
 20
-100.000000
 11
102.000000
 21
-100.000000
  0
LINE
  8
0
  6
CENTER
 62
2
 10
108.000000
 20
-109.000000
 11
108.000000
 21
-115.000000
  0
LINE
  8
0
  6
CENTER
 62
2
 10
-216.000000
 20
87.500000
 11
-216.000000
 21
80.500000
  0
LINE
  8
0
  6
CENTER
 62
2
 10
-219.500000
 20
84.000000
 11
-212.500000
 21
84.000000
  0
LINE
  8
0
  6
CENTER
 62
2
 10
-162.000000
 20
87.500000
 11
-162.000000
 21
80.500000
  0
LINE
  8
0
  6
CENTER
 62
2
 10
-165.500000
 20
84.000000
 11
-158.500000
 21
84.000000
  0
LINE
  8
0
  6
CENTER
 62
2
 10
-207.000000
 20
51.700001
 11
-207.000000
 21
45.299999
  0
LINE
  8
0
  6
CENTER
 62
2
 10
-210.199997
 20
48.500000
 11
-203.800003
 21
48.500000
  0
LINE
  8
0
  6
CENTER
 62
2
 10
-207.000000
 20
27.700001
 11
-207.000000
 21
21.299999
  0
LINE
  8
0
  6
CENTER
 62
2
 10
-210.199997
 20
24.500000
 11
-203.800003
 21
24.500000
  0
LINE
  8
0
  6
CENTER
 62
2
 10
-191.000000
 20
52.000000
 11
-191.000000
 21
45.000000
  0
LINE
  8
0
  6
CENTER
 62
2
 10
-194.500000
 20
48.500000
 11
-187.500000
 21
48.500000
  0
LINE
  8
0
  6
CENTER
 62
2
 10
-171.000000
 20
52.000000
 11
-171.000000
 21
45.000000
  0
LINE
  8
0
  6
CENTER
 62
2
 10
-174.500000
 20
48.500000
 11
-167.500000
 21
48.500000
  0
LINE
  8
0
  6
CENTER
 62
2
 10
-171.000000
 20
28.000000
 11
-171.000000
 21
21.000000
  0
LINE
  8
0
  6
CENTER
 62
2
 10
-174.500000
 20
24.500000
 11
-167.500000
 21
24.500000
  0
LINE
  8
0
  6
CENTER
 62
2
 10
-191.000000
 20
28.000000
 11
-191.000000
 21
21.000000
  0
LINE
  8
0
  6
CENTER
 62
2
 10
-194.500000
 20
24.500000
 11
-187.500000
 21
24.500000
  0
LINE
  8
0
  6
CENTER
 62
2
 10
-216.000000
 20
-48.099998
 11
-216.000000
 21
-57.900002
  0
LINE
  8
0
  6
CENTER
 62
2
 10
-220.899994
 20
-53.000000
 11
-211.100006
 21
-53.000000
  0
LINE
  8
0
  6
CENTER
 62
2
 10
-199.000000
 20
-50.500000
 11
-199.000000
 21
-55.500000
  0
LINE
  8
0
  6
CENTER
 62
2
 10
-201.500000
 20
-53.000000
 11
-196.500000
 21
-53.000000
  0
LINE
  8
0
  6
CENTER
 62
2
 10
-169.000000
 20
-50.500000
 11
-169.000000
 21
-55.500000
  0
LINE
  8
0
  6
CENTER
 62
2
 10
-171.500000
 20
-53.000000
 11
-166.500000
 21
-53.000000
  0
LINE
  8
0
  6
CENTER
 62
2
 10
-152.000000
 20
-48.099998
 11
-152.000000
 21
-57.900002
  0
LINE
  8
0
  6
CENTER
 62
2
 10
-156.899994
 20
-53.000000
 11
-147.100006
 21
-53.000000
  0
LINE
  8
0
  6
CENTER
 62
2
 10
-165.199997
 20
-63.299999
 11
-165.199997
 21
-67.300003
  0
LINE
  8
0
  6
CENTER
 62
2
 10
-167.199997
 20
-65.300003
 11
-163.199997
 21
-65.300003
  0
LINE
  8
0
  6
CENTER
 62
2
 10
-158.300003
 20
-62.500000
 11
-158.300003
 21
-67.500000
  0
LINE
  8
0
  6
CENTER
 62
2
 10
-160.800003
 20
-65.000000
 11
-155.800003
 21
-65.000000
  0
LINE
  8
0
  6
CENTER
 62
2
 10
-155.199997
 20
-63.299999
 11
-155.199997
 21
-67.300003
  0
LINE
  8
0
  6
CENTER
 62
2
 10
-157.199997
 20
-65.300003
 11
-153.199997
 21
-65.300003
  0
LINE
  8
0
  6
CENTER
 62
2
 10
-151.800003
 20
-62.500000
 11
-151.800003
 21
-67.500000
  0
LINE
  8
0
  6
CENTER
 62
2
 10
-154.300003
 20
-65.000000
 11
-149.300003
 21
-65.000000
  0
LINE
  8
0
  6
CENTER
 62
2
 10
-212.000000
 20
-97.000000
 11
-212.000000
 21
-102.000000
  0
LINE
  8
0
  6
CENTER
 62
2
 10
-214.500000
 20
-99.500000
 11
-209.500000
 21
-99.500000
  0
LINE
  8
0
  6
CENTER
 62
2
 10
-207.000000
 20
-95.000000
 11
-207.000000
 21
-105.000000
  0
LINE
  8
0
  6
CENTER
 62
2
 10
-212.000000
 20
-100.000000
 11
-202.000000
 21
-100.000000
  0
LINE
  8
0
  6
CENTER
 62
2
 10
-212.000000
 20
-122.000000
 11
-212.000000
 21
-127.000000
  0
LINE
  8
0
  6
CENTER
 62
2
 10
-214.500000
 20
-124.500000
 11
-209.500000
 21
-124.500000
  0
LINE
  8
0
  6
CENTER
 62
2
 10
-207.000000
 20
-119.000000
 11
-207.000000
 21
-129.000000
  0
LINE
  8
0
  6
CENTER
 62
2
 10
-212.000000
 20
-124.000000
 11
-202.000000
 21
-124.000000
  0
LINE
  8
0
  6
CENTER
 62
2
 10
-187.000000
 20
-97.000000
 11
-187.000000
 21
-102.000000
  0
LINE
  8
0
  6
CENTER
 62
2
 10
-189.500000
 20
-99.500000
 11
-184.500000
 21
-99.500000
  0
LINE
  8
0
  6
CENTER
 62
2
 10
-187.000000
 20
-122.000000
 11
-187.000000
 21
-127.000000
  0
LINE
  8
0
  6
CENTER
 62
2
 10
-189.500000
 20
-124.500000
 11
-184.500000
 21
-124.500000
  0
LINE
  8
0
  6
CENTER
 62
2
 10
-179.000000
 20
-121.500000
 11
-179.000000
 21
-127.500000
  0
LINE
  8
0
  6
CENTER
 62
2
 10
-182.000000
 20
-124.500000
 11
-176.000000
 21
-124.500000
  0
LINE
  8
0
  6
CENTER
 62
2
 10
-179.000000
 20
-96.500000
 11
-179.000000
 21
-102.500000
  0
LINE
  8
0
  6
CENTER
 62
2
 10
-182.000000
 20
-99.500000
 11
-176.000000
 21
-99.500000
  0
LINE
  8
0
  6
CENTER
 62
2
 10
-162.000000
 20
-97.000000
 11
-162.000000
 21
-102.000000
  0
LINE
  8
0
  6
CENTER
 62
2
 10
-164.500000
 20
-99.500000
 11
-159.500000
 21
-99.500000
  0
LINE
  8
0
  6
CENTER
 62
2
 10
-161.000000
 20
-95.000000
 11
-161.000000
 21
-105.000000
  0
LINE
  8
0
  6
CENTER
 62
2
 10
-166.000000
 20
-100.000000
 11
-156.000000
 21
-100.000000
  0
LINE
  8
0
  6
CENTER
 62
2
 10
-161.000000
 20
-119.000000
 11
-161.000000
 21
-129.000000
  0
LINE
  8
0
  6
CENTER
 62
2
 10
-166.000000
 20
-124.000000
 11
-156.000000
 21
-124.000000
  0
LINE
  8
0
  6
CENTER
 62
2
 10
-162.000000
 20
-122.000000
 11
-162.000000
 21
-127.000000
  0
LINE
  8
0
  6
CENTER
 62
2
 10
-164.500000
 20
-124.500000
 11
-159.500000
 21
-124.500000
  0
LINE
  8
0
  6
CENTER
 62
2
 10
-216.000000
 20
-167.500000
 11
-216.000000
 21
-174.500000
  0
LINE
  8
0
  6
CENTER
 62
2
 10
-219.500000
 20
-171.000000
 11
-212.500000
 21
-171.000000
  0
LINE
  8
0
  6
CENTER
 62
2
 10
-152.000000
 20
-167.500000
 11
-152.000000
 21
-174.500000
  0
LINE
  8
0
  6
CENTER
 62
2
 10
-155.500000
 20
-171.000000
 11
-148.500000
 21
-171.000000
  0
LINE
  8
0
  6
CENTER
 62
2
 10
-207.000000
 20
-203.300003
 11
-207.000000
 21
-209.699997
  0
LINE
  8
0
  6
CENTER
 62
2
 10
-210.199997
 20
-206.500000
 11
-203.800003
 21
-206.500000
  0
LINE
  8
0
  6
CENTER
 62
2
 10
-207.000000
 20
-227.300003
 11
-207.000000
 21
-233.699997
  0
LINE
  8
0
  6
CENTER
 62
2
 10
-210.199997
 20
-230.500000
 11
-203.800003
 21
-230.500000
  0
LINE
  8
0
  6
CENTER
 62
2
 10
-191.000000
 20
-226.500000
 11
-191.000000
 21
-234.500000
  0
LINE
  8
0
  6
CENTER
 62
2
 10
-195.000000
 20
-230.500000
 11
-187.000000
 21
-230.500000
  0
LINE
  8
0
  6
CENTER
 62
2
 10
-191.000000
 20
-202.500000
 11
-191.000000
 21
-210.500000
  0
LINE
  8
0
  6
CENTER
 62
2
 10
-195.000000
 20
-206.500000
 11
-187.000000
 21
-206.500000
  0
LINE
  8
0
  6
CENTER
 62
2
 10
-161.000000
 20
-203.000000
 11
-161.000000
 21
-210.000000
  0
LINE
  8
0
  6
CENTER
 62
2
 10
-164.500000
 20
-206.500000
 11
-157.500000
 21
-206.500000
  0
LINE
  8
0
  6
CENTER
 62
2
 10
-161.000000
 20
-227.000000
 11
-161.000000
 21
-234.000000
  0
LINE
  8
0
  6
CENTER
 62
2
 10
-164.500000
 20
-230.500000
 11
-157.500000
 21
-230.500000
  0
LINE
  8
0
  6
CENTER
 62
2
 10
154.000000
 20
206.899994
 11
154.000000
 21
197.100006
  0
LINE
  8
0
  6
CENTER
 62
2
 10
149.100006
 20
202.000000
 11
158.899994
 21
202.000000
  0
LINE
  8
0
  6
CENTER
 62
2
 10
171.000000
 20
204.500000
 11
171.000000
 21
199.500000
  0
LINE
  8
0
  6
CENTER
 62
2
 10
168.500000
 20
202.000000
 11
173.500000
 21
202.000000
  0
LINE
  8
0
  6
CENTER
 62
2
 10
216.000000
 20
204.500000
 11
216.000000
 21
199.500000
  0
LINE
  8
0
  6
CENTER
 62
2
 10
213.500000
 20
202.000000
 11
218.500000
 21
202.000000
  0
LINE
  8
0
  6
CENTER
 62
2
 10
219.800003
 20
191.699997
 11
219.800003
 21
187.699997
  0
LINE
  8
0
  6
CENTER
 62
2
 10
217.800003
 20
189.699997
 11
221.800003
 21
189.699997
  0
LINE
  8
0
  6
CENTER
 62
2
 10
226.699997
 20
192.500000
 11
226.699997
 21
187.500000
  0
LINE
  8
0
  6
CENTER
 62
2
 10
224.199997
 20
190.000000
 11
229.199997
 21
190.000000
  0
LINE
  8
0
  6
CENTER
 62
2
 10
229.800003
 20
191.699997
 11
229.800003
 21
187.699997
  0
LINE
  8
0
  6
CENTER
 62
2
 10
227.800003
 20
189.699997
 11
231.800003
 21
189.699997
  0
LINE
  8
0
  6
CENTER
 62
2
 10
233.199997
 20
192.500000
 11
233.199997
 21
187.500000
  0
LINE
  8
0
  6
CENTER
 62
2
 10
230.699997
 20
190.000000
 11
235.699997
 21
190.000000
  0
LINE
  8
0
  6
CENTER
 62
2
 10
233.000000
 20
206.899994
 11
233.000000
 21
197.100006
  0
LINE
  8
0
  6
CENTER
 62
2
 10
228.100006
 20
202.000000
 11
237.899994
 21
202.000000
  0
LINE
  8
0
  6
CENTER
 62
2
 10
158.000000
 20
158.000000
 11
158.000000
 21
153.000000
  0
LINE
  8
0
  6
CENTER
 62
2
 10
155.500000
 20
155.500000
 11
160.500000
 21
155.500000
  0
LINE
  8
0
  6
CENTER
 62
2
 10
158.000000
 20
133.000000
 11
158.000000
 21
128.000000
  0
LINE
  8
0
  6
CENTER
 62
2
 10
155.500000
 20
130.500000
 11
160.500000
 21
130.500000
  0
LINE
  8
0
  6
CENTER
 62
2
 10
163.000000
 20
136.000000
 11
163.000000
 21
126.000000
  0
LINE
  8
0
  6
CENTER
 62
2
 10
158.000000
 20
131.000000
 11
168.000000
 21
131.000000
  0
LINE
  8
0
  6
CENTER
 62
2
 10
163.000000
 20
160.000000
 11
163.000000
 21
150.000000
  0
LINE
  8
0
  6
CENTER
 62
2
 10
158.000000
 20
155.000000
 11
168.000000
 21
155.000000
  0
LINE
  8
0
  6
CENTER
 62
2
 10
183.000000
 20
158.000000
 11
183.000000
 21
153.000000
  0
LINE
  8
0
  6
CENTER
 62
2
 10
180.500000
 20
155.500000
 11
185.500000
 21
155.500000
  0
LINE
  8
0
  6
CENTER
 62
2
 10
191.000000
 20
158.500000
 11
191.000000
 21
152.500000
  0
LINE
  8
0
  6
CENTER
 62
2
 10
188.000000
 20
155.500000
 11
194.000000
 21
155.500000
  0
LINE
  8
0
  6
CENTER
 62
2
 10
183.000000
 20
133.000000
 11
183.000000
 21
128.000000
  0
LINE
  8
0
  6
CENTER
 62
2
 10
180.500000
 20
130.500000
 11
185.500000
 21
130.500000
  0
LINE
  8
0
  6
CENTER
 62
2
 10
191.000000
 20
133.500000
 11
191.000000
 21
127.500000
  0
LINE
  8
0
  6
CENTER
 62
2
 10
188.000000
 20
130.500000
 11
194.000000
 21
130.500000
  0
LINE
  8
0
  6
CENTER
 62
2
 10
198.000000
 20
133.000000
 11
198.000000
 21
128.000000
  0
LINE
  8
0
  6
CENTER
 62
2
 10
195.500000
 20
130.500000
 11
200.500000
 21
130.500000
  0
LINE
  8
0
  6
CENTER
 62
2
 10
198.000000
 20
158.000000
 11
198.000000
 21
153.000000
  0
LINE
  8
0
  6
CENTER
 62
2
 10
195.500000
 20
155.500000
 11
200.500000
 21
155.500000
  0
LINE
  8
0
  6
CENTER
 62
2
 10
224.000000
 20
160.000000
 11
224.000000
 21
150.000000
  0
LINE
  8
0
  6
CENTER
 62
2
 10
219.000000
 20
155.000000
 11
229.000000
 21
155.000000
  0
LINE
  8
0
  6
CENTER
 62
2
 10
223.000000
 20
158.000000
 11
223.000000
 21
153.000000
  0
LINE
  8
0
  6
CENTER
 62
2
 10
220.500000
 20
155.500000
 11
225.500000
 21
155.500000
  0
LINE
  8
0
  6
CENTER
 62
2
 10
223.000000
 20
133.000000
 11
223.000000
 21
128.000000
  0
LINE
  8
0
  6
CENTER
 62
2
 10
220.500000
 20
130.500000
 11
225.500000
 21
130.500000
  0
LINE
  8
0
  6
CENTER
 62
2
 10
224.000000
 20
136.000000
 11
224.000000
 21
126.000000
  0
LINE
  8
0
  6
CENTER
 62
2
 10
219.000000
 20
131.000000
 11
229.000000
 21
131.000000
  0
LINE
  8
0
  6
CENTER
 62
2
 10
154.000000
 20
87.500000
 11
154.000000
 21
80.500000
  0
LINE
  8
0
  6
CENTER
 62
2
 10
150.500000
 20
84.000000
 11
157.500000
 21
84.000000
  0
LINE
  8
0
  6
CENTER
 62
2
 10
233.000000
 20
87.500000
 11
233.000000
 21
80.500000
  0
LINE
  8
0
  6
CENTER
 62
2
 10
229.500000
 20
84.000000
 11
236.500000
 21
84.000000
  0
LINE
  8
0
  6
CENTER
 62
2
 10
163.000000
 20
27.700001
 11
163.000000
 21
21.299999
  0
LINE
  8
0
  6
CENTER
 62
2
 10
159.800003
 20
24.500000
 11
166.199997
 21
24.500000
  0
LINE
  8
0
  6
CENTER
 62
2
 10
163.000000
 20
51.700001
 11
163.000000
 21
45.299999
  0
LINE
  8
0
  6
CENTER
 62
2
 10
159.800003
 20
48.500000
 11
166.199997
 21
48.500000
  0
LINE
  8
0
  6
CENTER
 62
2
 10
179.000000
 20
52.000000
 11
179.000000
 21
45.000000
  0
LINE
  8
0
  6
CENTER
 62
2
 10
175.500000
 20
48.500000
 11
182.500000
 21
48.500000
  0
LINE
  8
0
  6
CENTER
 62
2
 10
179.000000
 20
28.000000
 11
179.000000
 21
21.000000
  0
LINE
  8
0
  6
CENTER
 62
2
 10
175.500000
 20
24.500000
 11
182.500000
 21
24.500000
  0
LINE
  8
0
  6
CENTER
 62
2
 10
224.000000
 20
28.000000
 11
224.000000
 21
21.000000
  0
LINE
  8
0
  6
CENTER
 62
2
 10
220.500000
 20
24.500000
 11
227.500000
 21
24.500000
  0
LINE
  8
0
  6
CENTER
 62
2
 10
224.000000
 20
52.000000
 11
224.000000
 21
45.000000
  0
LINE
  8
0
  6
CENTER
 62
2
 10
220.500000
 20
48.500000
 11
227.500000
 21
48.500000
  0
LINE
  8
0
  6
CENTER
 62
2
 10
154.000000
 20
-48.099998
 11
154.000000
 21
-57.900002
  0
LINE
  8
0
  6
CENTER
 62
2
 10
149.100006
 20
-53.000000
 11
158.899994
 21
-53.000000
  0
LINE
  8
0
  6
CENTER
 62
2
 10
171.000000
 20
-50.500000
 11
171.000000
 21
-55.500000
  0
LINE
  8
0
  6
CENTER
 62
2
 10
168.500000
 20
-53.000000
 11
173.500000
 21
-53.000000
  0
LINE
  8
0
  6
CENTER
 62
2
 10
248.199997
 20
-62.500000
 11
248.199997
 21
-67.500000
  0
LINE
  8
0
  6
CENTER
 62
2
 10
245.699997
 20
-65.000000
 11
250.699997
 21
-65.000000
  0
LINE
  8
0
  6
CENTER
 62
2
 10
244.800003
 20
-63.299999
 11
244.800003
 21
-67.300003
  0
LINE
  8
0
  6
CENTER
 62
2
 10
242.800003
 20
-65.300003
 11
246.800003
 21
-65.300003
  0
LINE
  8
0
  6
CENTER
 62
2
 10
241.699997
 20
-62.500000
 11
241.699997
 21
-67.500000
  0
LINE
  8
0
  6
CENTER
 62
2
 10
239.199997
 20
-65.000000
 11
244.199997
 21
-65.000000
  0
LINE
  8
0
  6
CENTER
 62
2
 10
234.800003
 20
-63.299999
 11
234.800003
 21
-67.300003
  0
LINE
  8
0
  6
CENTER
 62
2
 10
232.800003
 20
-65.300003
 11
236.800003
 21
-65.300003
  0
LINE
  8
0
  6
CENTER
 62
2
 10
231.000000
 20
-50.500000
 11
231.000000
 21
-55.500000
  0
LINE
  8
0
  6
CENTER
 62
2
 10
228.500000
 20
-53.000000
 11
233.500000
 21
-53.000000
  0
LINE
  8
0
  6
CENTER
 62
2
 10
248.000000
 20
-48.099998
 11
248.000000
 21
-57.900002
  0
LINE
  8
0
  6
CENTER
 62
2
 10
243.100006
 20
-53.000000
 11
252.899994
 21
-53.000000
  0
LINE
  8
0
  6
CENTER
 62
2
 10
163.000000
 20
-95.000000
 11
163.000000
 21
-105.000000
  0
LINE
  8
0
  6
CENTER
 62
2
 10
158.000000
 20
-100.000000
 11
168.000000
 21
-100.000000
  0
LINE
  8
0
  6
CENTER
 62
2
 10
158.000000
 20
-97.000000
 11
158.000000
 21
-102.000000
  0
LINE
  8
0
  6
CENTER
 62
2
 10
155.500000
 20
-99.500000
 11
160.500000
 21
-99.500000
  0
LINE
  8
0
  6
CENTER
 62
2
 10
158.000000
 20
-122.000000
 11
158.000000
 21
-127.000000
  0
LINE
  8
0
  6
CENTER
 62
2
 10
155.500000
 20
-124.500000
 11
160.500000
 21
-124.500000
  0
LINE
  8
0
  6
CENTER
 62
2
 10
163.000000
 20
-119.000000
 11
163.000000
 21
-129.000000
  0
LINE
  8
0
  6
CENTER
 62
2
 10
158.000000
 20
-124.000000
 11
168.000000
 21
-124.000000
  0
LINE
  8
0
  6
CENTER
 62
2
 10
183.000000
 20
-122.000000
 11
183.000000
 21
-127.000000
  0
LINE
  8
0
  6
CENTER
 62
2
 10
180.500000
 20
-124.500000
 11
185.500000
 21
-124.500000
  0
LINE
  8
0
  6
CENTER
 62
2
 10
191.000000
 20
-121.500000
 11
191.000000
 21
-127.500000
  0
LINE
  8
0
  6
CENTER
 62
2
 10
188.000000
 20
-124.500000
 11
194.000000
 21
-124.500000
  0
LINE
  8
0
  6
CENTER
 62
2
 10
191.000000
 20
-96.500000
 11
191.000000
 21
-102.500000
  0
LINE
  8
0
  6
CENTER
 62
2
 10
188.000000
 20
-99.500000
 11
194.000000
 21
-99.500000
  0
LINE
  8
0
  6
CENTER
 62
2
 10
183.000000
 20
-97.000000
 11
183.000000
 21
-102.000000
  0
LINE
  8
0
  6
CENTER
 62
2
 10
180.500000
 20
-99.500000
 11
185.500000
 21
-99.500000
  0
LINE
  8
0
  6
CENTER
 62
2
 10
239.000000
 20
-95.000000
 11
239.000000
 21
-105.000000
  0
LINE
  8
0
  6
CENTER
 62
2
 10
234.000000
 20
-100.000000
 11
244.000000
 21
-100.000000
  0
LINE
  8
0
  6
CENTER
 62
2
 10
238.000000
 20
-97.000000
 11
238.000000
 21
-102.000000
  0
LINE
  8
0
  6
CENTER
 62
2
 10
235.500000
 20
-99.500000
 11
240.500000
 21
-99.500000
  0
LINE
  8
0
  6
CENTER
 62
2
 10
238.000000
 20
-122.000000
 11
238.000000
 21
-127.000000
  0
LINE
  8
0
  6
CENTER
 62
2
 10
235.500000
 20
-124.500000
 11
240.500000
 21
-124.500000
  0
LINE
  8
0
  6
CENTER
 62
2
 10
239.000000
 20
-119.000000
 11
239.000000
 21
-129.000000
  0
LINE
  8
0
  6
CENTER
 62
2
 10
234.000000
 20
-124.000000
 11
244.000000
 21
-124.000000
  0
LINE
  8
0
  6
CENTER
 62
2
 10
213.000000
 20
-122.000000
 11
213.000000
 21
-127.000000
  0
LINE
  8
0
  6
CENTER
 62
2
 10
210.500000
 20
-124.500000
 11
215.500000
 21
-124.500000
  0
LINE
  8
0
  6
CENTER
 62
2
 10
213.000000
 20
-97.000000
 11
213.000000
 21
-102.000000
  0
LINE
  8
0
  6
CENTER
 62
2
 10
210.500000
 20
-99.500000
 11
215.500000
 21
-99.500000
  0
LINE
  8
0
  6
CENTER
 62
2
 10
154.000000
 20
-167.500000
 11
154.000000
 21
-174.500000
  0
LINE
  8
0
  6
CENTER
 62
2
 10
150.500000
 20
-171.000000
 11
157.500000
 21
-171.000000
  0
LINE
  8
0
  6
CENTER
 62
2
 10
248.000000
 20
-167.500000
 11
248.000000
 21
-174.500000
  0
LINE
  8
0
  6
CENTER
 62
2
 10
244.500000
 20
-171.000000
 11
251.500000
 21
-171.000000
  0
LINE
  8
0
  6
CENTER
 62
2
 10
163.000000
 20
-203.300003
 11
163.000000
 21
-209.699997
  0
LINE
  8
0
  6
CENTER
 62
2
 10
159.800003
 20
-206.500000
 11
166.199997
 21
-206.500000
  0
LINE
  8
0
  6
CENTER
 62
2
 10
163.000000
 20
-227.300003
 11
163.000000
 21
-233.699997
  0
LINE
  8
0
  6
CENTER
 62
2
 10
159.800003
 20
-230.500000
 11
166.199997
 21
-230.500000
  0
LINE
  8
0
  6
CENTER
 62
2
 10
179.000000
 20
-202.500000
 11
179.000000
 21
-210.500000
  0
LINE
  8
0
  6
CENTER
 62
2
 10
175.000000
 20
-206.500000
 11
183.000000
 21
-206.500000
  0
LINE
  8
0
  6
CENTER
 62
2
 10
179.000000
 20
-226.500000
 11
179.000000
 21
-234.500000
  0
LINE
  8
0
  6
CENTER
 62
2
 10
175.000000
 20
-230.500000
 11
183.000000
 21
-230.500000
  0
LINE
  8
0
  6
CENTER
 62
2
 10
239.000000
 20
-227.000000
 11
239.000000
 21
-234.000000
  0
LINE
  8
0
  6
CENTER
 62
2
 10
235.500000
 20
-230.500000
 11
242.500000
 21
-230.500000
  0
LINE
  8
0
  6
CENTER
 62
2
 10
239.000000
 20
-203.000000
 11
239.000000
 21
-210.000000
  0
LINE
  8
0
  6
CENTER
 62
2
 10
235.500000
 20
-206.500000
 11
242.500000
 21
-206.500000
  0
LINE
  8
0
  6
CONTINUOUS
 62
7
 10
-166.899994
 20
126.500000
 11
-166.899994
 21
125.000000
  0
LINE
  8
0
  6
CONTINUOUS
 62
7
 10
-173.399994
 20
126.500000
 11
-173.399994
 21
125.000000
  0
LINE
  8
0
  6
CONTINUOUS
 62
7
 10
-166.899994
 20
125.000000
 11
-173.399994
 21
125.000000
  0
LINE
  8
0
  6
CONTINUOUS
 62
7
 10
-203.500000
 20
126.500000
 11
-203.500000
 21
116.500000
  0
LINE
  8
0
  6
CONTINUOUS
 62
7
 10
-169.000000
 20
125.000000
 11
-169.000000
 21
124.000000
  0
LINE
  8
0
  6
CONTINUOUS
 62
7
 10
-156.000000
 20
124.000000
 11
-156.000000
 21
116.500000
  0
LINE
  8
0
  6
CONTINUOUS
 62
7
 10
-203.500000
 20
124.000000
 11
-156.000000
 21
124.000000
  0
LINE
  8
0
  6
CONTINUOUS
 62
7
 10
-203.500000
 20
116.500000
 11
-156.000000
 21
116.500000
  0
LINE
  8
0
  6
CONTINUOUS
 62
7
 10
100.300003
 20
-130.000000
 11
100.300003
 21
-128.500000
  0
LINE
  8
0
  6
CONTINUOUS
 62
7
 10
111.300003
 20
-130.000000
 11
100.300003
 21
-130.000000
  0
LINE
  8
0
  6
CONTINUOUS
 62
7
 10
111.300003
 20
-130.000000
 11
111.300003
 21
-128.000000
  0
LINE
  8
0
  6
CONTINUOUS
 62
7
 10
112.000000
 20
-138.500000
 11
93.000000
 21
-138.500000
  0
LINE
  8
0
  6
CONTINUOUS
 62
2
 10
107.199997
 20
-138.500000
 11
107.199997
 21
-137.500000
  0
LINE
  8
0
  6
CONTINUOUS
 62
2
 10
106.500000
 20
-137.500000
 11
106.500000
 21
-134.000000
  0
LINE
  8
0
  6
CONTINUOUS
 62
2
 10
109.000000
 20
-132.500000
 11
108.000000
 21
-132.500000
  0
LINE
  8
0
  6
CONTINUOUS
 62
2
 10
110.500000
 20
-137.500000
 11
110.500000
 21
-134.000000
  0
LINE
  8
0
  6
CONTINUOUS
 62
2
 10
109.800003
 20
-138.500000
 11
109.800003
 21
-137.500000
  0
LINE
  8
0
  6
CONTINUOUS
 62
7
 10
112.000000
 20
-131.000000
 11
99.500000
 21
-131.000000
  0
LINE
  8
0
  6
CONTINUOUS
 62
7
 10
99.500000
 20
-131.000000
 11
99.500000
 21
-128.500000
  0
LINE
  8
0
  6
CONTINUOUS
 62
7
 10
93.000000
 20
-138.500000
 11
93.000000
 21
-128.500000
  0
LINE
  8
0
  6
CONTINUOUS
 62
2
 10
110.500000
 20
-137.500000
 11
109.800003
 21
-137.500000
  0
LINE
  8
0
  6
CONTINUOUS
 62
7
 10
112.000000
 20
-138.500000
 11
112.000000
 21
-131.000000
  0
LINE
  8
0
  6
CONTINUOUS
 62
2
 10
107.199997
 20
-137.500000
 11
106.500000
 21
-137.500000
  0
LINE
  8
0
  6
CONTINUOUS
 62
7
 10
228.100006
 20
126.500000
 11
228.100006
 21
125.000000
  0
LINE
  8
0
  6
CONTINUOUS
 62
7
 10
221.600006
 20
126.500000
 11
221.600006
 21
125.000000
  0
LINE
  8
0
  6
CONTINUOUS
 62
7
 10
228.100006
 20
125.000000
 11
221.600006
 21
125.000000
  0
LINE
  8
0
  6
CONTINUOUS
 62
7
 10
166.500000
 20
126.500000
 11
166.500000
 21
116.500000
  0
LINE
  8
0
  6
CONTINUOUS
 62
7
 10
226.000000
 20
125.000000
 11
226.000000
 21
124.000000
  0
LINE
  8
0
  6
CONTINUOUS
 62
7
 10
239.000000
 20
124.000000
 11
239.000000
 21
116.500000
  0
LINE
  8
0
  6
CONTINUOUS
 62
7
 10
166.500000
 20
124.000000
 11
239.000000
 21
124.000000
  0
LINE
  8
0
  6
CONTINUOUS
 62
7
 10
166.500000
 20
116.500000
 11
239.000000
 21
116.500000
  0
LINE
  8
0
  6
CONTINUOUS
 62
7
 10
-156.899994
 20
-128.500000
 11
-156.899994
 21
-130.000000
  0
LINE
  8
0
  6
CONTINUOUS
 62
7
 10
-163.399994
 20
-128.500000
 11
-163.399994
 21
-130.000000
  0
LINE
  8
0
  6
CONTINUOUS
 62
7
 10
-156.899994
 20
-130.000000
 11
-163.399994
 21
-130.000000
  0
LINE
  8
0
  6
CONTINUOUS
 62
7
 10
-203.500000
 20
-128.500000
 11
-203.500000
 21
-138.500000
  0
LINE
  8
0
  6
CONTINUOUS
 62
7
 10
-159.000000
 20
-130.000000
 11
-159.000000
 21
-131.000000
  0
LINE
  8
0
  6
CONTINUOUS
 62
7
 10
-146.000000
 20
-131.000000
 11
-146.000000
 21
-138.500000
  0
LINE
  8
0
  6
CONTINUOUS
 62
7
 10
-203.500000
 20
-131.000000
 11
-146.000000
 21
-131.000000
  0
LINE
  8
0
  6
CONTINUOUS
 62
7
 10
-203.500000
 20
-138.500000
 11
-146.000000
 21
-138.500000
  0
LINE
  8
0
  6
CONTINUOUS
 62
7
 10
243.100006
 20
-128.500000
 11
243.100006
 21
-130.000000
  0
LINE
  8
0
  6
CONTINUOUS
 62
7
 10
236.600006
 20
-128.500000
 11
236.600006
 21
-130.000000
  0
LINE
  8
0
  6
CONTINUOUS
 62
7
 10
243.100006
 20
-130.000000
 11
236.600006
 21
-130.000000
  0
LINE
  8
0
  6
CONTINUOUS
 62
7
 10
166.500000
 20
-128.500000
 11
166.500000
 21
-138.500000
  0
LINE
  8
0
  6
CONTINUOUS
 62
7
 10
241.000000
 20
-130.000000
 11
241.000000
 21
-131.000000
  0
LINE
  8
0
  6
CONTINUOUS
 62
7
 10
254.000000
 20
-131.000000
 11
254.000000
 21
-138.500000
  0
LINE
  8
0
  6
CONTINUOUS
 62
7
 10
166.500000
 20
-131.000000
 11
254.000000
 21
-131.000000
  0
LINE
  8
0
  6
CONTINUOUS
 62
7
 10
166.500000
 20
-138.500000
 11
254.000000
 21
-138.500000
  0
LINE
  8
0
  6
CONTINUOUS
 62
7
 10
296.700012
 20
-130.000000
 11
296.700012
 21
-128.399994
  0
LINE
  8
0
  6
CONTINUOUS
 62
7
 10
285.700012
 20
-130.000000
 11
296.700012
 21
-130.000000
  0
LINE
  8
0
  6
CONTINUOUS
 62
7
 10
285.700012
 20
-130.000000
 11
285.700012
 21
-128.000000
  0
LINE
  8
0
  6
CONTINUOUS
 62
7
 10
285.000000
 20
-138.500000
 11
304.000000
 21
-138.500000
  0
LINE
  8
0
  6
CONTINUOUS
 62
2
 10
289.799988
 20
-138.500000
 11
289.799988
 21
-137.500000
  0
LINE
  8
0
  6
CONTINUOUS
 62
2
 10
286.500000
 20
-137.500000
 11
287.200012
 21
-137.500000
  0
LINE
  8
0
  6
CONTINUOUS
 62
2
 10
290.500000
 20
-137.500000
 11
290.500000
 21
-134.000000
  0
LINE
  8
0
  6
CONTINUOUS
 62
2
 10
288.000000
 20
-132.500000
 11
289.000000
 21
-132.500000
  0
LINE
  8
0
  6
CONTINUOUS
 62
2
 10
286.500000
 20
-137.500000
 11
286.500000
 21
-134.000000
  0
LINE
  8
0
  6
CONTINUOUS
 62
2
 10
287.200012
 20
-138.500000
 11
287.200012
 21
-137.500000
  0
LINE
  8
0
  6
CONTINUOUS
 62
7
 10
285.000000
 20
-138.500000
 11
285.000000
 21
-131.000000
  0
LINE
  8
0
  6
CONTINUOUS
 62
7
 10
285.000000
 20
-131.000000
 11
297.500000
 21
-131.000000
  0
LINE
  8
0
  6
CONTINUOUS
 62
7
 10
297.500000
 20
-131.000000
 11
297.500000
 21
-128.500000
  0
LINE
  8
0
  6
CONTINUOUS
 62
7
 10
304.000000
 20
-138.500000
 11
304.000000
 21
-128.500000
  0
LINE
  8
0
  6
CONTINUOUS
 62
2
 10
289.799988
 20
-137.500000
 11
290.500000
 21
-137.500000
  0
LINE
  8
0
  6
CONTINUOUS
 62
7
 10
292.299988
 20
-131.000000
 11
292.299988
 21
-138.500000
  0
LINE
  8
0
  6
CONTINUOUS
 62
7
 10
-203.500000
 20
80.500000
 11
-203.500000
 21
99.500000
  0
LINE
  8
0
  6
CONTINUOUS
 62
7
 10
-169.000000
 20
80.500000
 11
-203.500000
 21
80.500000
  0
LINE
  8
0
  6
CONTINUOUS
 62
7
 10
-169.000000
 20
87.199997
 11
-169.000000
 21
80.500000
  0
LINE
  8
0
  6
CONTINUOUS
 62
7
 10
-156.000000
 20
92.199997
 11
-164.000000
 21
92.199997
  0
LINE
  8
0
  6
CONTINUOUS
 62
7
 10
-156.000000
 20
99.500000
 11
-203.500000
 21
99.500000
  0
LINE
  8
0
  6
CONTINUOUS
 62
7
 10
-156.000000
 20
99.500000
 11
-156.000000
 21
92.199997
  0
LINE
  8
0
  6
CONTINUOUS
 62
2
 10
-156.000000
 20
97.300003
 11
-203.500000
 21
97.300003
  0
LINE
  8
0
  6
CONTINUOUS
 62
2
 10
-156.000000
 20
94.699997
 11
-203.500000
 21
94.699997
  0
LINE
  8
0
  6
CONTINUOUS
 62
2
 10
-166.862000
 20
91.300003
 11
-203.500000
 21
91.300003
  0
LINE
  8
0
  6
CONTINUOUS
 62
2
 10
-168.770004
 20
88.699997
 11
-203.500000
 21
88.699997
  0
LINE
  8
0
  6
CONTINUOUS
 62
7
 10
-168.936005
 20
88.000000
 11
-156.000000
 21
88.000000
  0
LINE
  8
0
  6
CONTINUOUS
 62
7
 10
-168.828003
 20
88.500000
 11
-155.800003
 21
88.500000
  0
LINE
  8
0
  6
CONTINUOUS
 62
7
 10
-157.000000
 20
92.199997
 11
-157.000000
 21
88.500000
  0
LINE
  8
0
  6
DASHED
 62
2
 10
-195.000000
 20
85.800003
 11
-187.000000
 21
85.800003
  0
LINE
  8
0
  6
CONTINUOUS
 62
7
 10
166.500000
 20
80.500000
 11
166.500000
 21
99.500000
  0
LINE
  8
0
  6
CONTINUOUS
 62
7
 10
226.000000
 20
80.500000
 11
166.500000
 21
80.500000
  0
LINE
  8
0
  6
CONTINUOUS
 62
7
 10
226.000000
 20
87.199997
 11
226.000000
 21
80.500000
  0
LINE
  8
0
  6
CONTINUOUS
 62
7
 10
239.000000
 20
92.199997
 11
231.000000
 21
92.199997
  0
LINE
  8
0
  6
CONTINUOUS
 62
7
 10
239.000000
 20
99.500000
 11
166.500000
 21
99.500000
  0
LINE
  8
0
  6
CONTINUOUS
 62
7
 10
239.000000
 20
99.500000
 11
239.000000
 21
92.199997
  0
LINE
  8
0
  6
CONTINUOUS
 62
2
 10
239.000000
 20
97.300003
 11
166.500000
 21
97.300003
  0
LINE
  8
0
  6
CONTINUOUS
 62
2
 10
239.000000
 20
94.699997
 11
166.500000
 21
94.699997
  0
LINE
  8
0
  6
CONTINUOUS
 62
2
 10
228.138000
 20
91.300003
 11
166.500000
 21
91.300003
  0
LINE
  8
0
  6
CONTINUOUS
 62
2
 10
226.229996
 20
88.699997
 11
166.500000
 21
88.699997
  0
LINE
  8
0
  6
CONTINUOUS
 62
7
 10
226.171997
 20
88.500000
 11
239.199997
 21
88.500000
  0
LINE
  8
0
  6
CONTINUOUS
 62
7
 10
226.063995
 20
88.000000
 11
239.000000
 21
88.000000
  0
LINE
  8
0
  6
CONTINUOUS
 62
7
 10
238.000000
 20
92.199997
 11
238.000000
 21
88.500000
  0
LINE
  8
0
  6
CONTINUOUS
 62
7
 10
-203.500000
 20
-174.500000
 11
-203.500000
 21
-155.500000
  0
LINE
  8
0
  6
CONTINUOUS
 62
7
 10
-159.000000
 20
-174.500000
 11
-203.500000
 21
-174.500000
  0
LINE
  8
0
  6
CONTINUOUS
 62
7
 10
-159.000000
 20
-162.800003
 11
-159.000000
 21
-174.500000
  0
LINE
  8
0
  6
CONTINUOUS
 62
7
 10
-146.000000
 20
-162.800003
 11
-159.000000
 21
-162.800003
  0
LINE
  8
0
  6
CONTINUOUS
 62
7
 10
-146.000000
 20
-155.500000
 11
-203.500000
 21
-155.500000
  0
LINE
  8
0
  6
CONTINUOUS
 62
7
 10
-146.000000
 20
-155.500000
 11
-146.000000
 21
-162.800003
  0
LINE
  8
0
  6
CONTINUOUS
 62
2
 10
-146.000000
 20
-157.699997
 11
-203.500000
 21
-157.699997
  0
LINE
  8
0
  6
CONTINUOUS
 62
2
 10
-146.000000
 20
-160.300003
 11
-203.500000
 21
-160.300003
  0
LINE
  8
0
  6
CONTINUOUS
 62
2
 10
-159.000000
 20
-163.699997
 11
-203.500000
 21
-163.699997
  0
LINE
  8
0
  6
CONTINUOUS
 62
2
 10
-159.000000
 20
-166.300003
 11
-203.500000
 21
-166.300003
  0
LINE
  8
0
  6
CONTINUOUS
 62
7
 10
-159.000000
 20
-166.500000
 11
-145.800003
 21
-166.500000
  0
LINE
  8
0
  6
CONTINUOUS
 62
7
 10
-159.000000
 20
-167.000000
 11
-146.000000
 21
-167.000000
  0
LINE
  8
0
  6
CONTINUOUS
 62
7
 10
-147.000000
 20
-162.800003
 11
-147.000000
 21
-166.500000
  0
LINE
  8
0
  6
CONTINUOUS
 62
7
 10
166.500000
 20
-174.500000
 11
166.500000
 21
-155.500000
  0
LINE
  8
0
  6
CONTINUOUS
 62
7
 10
241.000000
 20
-174.500000
 11
166.500000
 21
-174.500000
  0
LINE
  8
0
  6
CONTINUOUS
 62
7
 10
241.000000
 20
-162.800003
 11
241.000000
 21
-174.500000
  0
LINE
  8
0
  6
CONTINUOUS
 62
7
 10
254.000000
 20
-162.800003
 11
241.000000
 21
-162.800003
  0
LINE
  8
0
  6
CONTINUOUS
 62
7
 10
254.000000
 20
-155.500000
 11
166.500000
 21
-155.500000
  0
LINE
  8
0
  6
CONTINUOUS
 62
7
 10
254.000000
 20
-155.500000
 11
254.000000
 21
-162.800003
  0
LINE
  8
0
  6
CONTINUOUS
 62
2
 10
254.000000
 20
-157.699997
 11
166.500000
 21
-157.699997
  0
LINE
  8
0
  6
CONTINUOUS
 62
2
 10
254.000000
 20
-160.300003
 11
166.500000
 21
-160.300003
  0
LINE
  8
0
  6
CONTINUOUS
 62
2
 10
241.000000
 20
-163.699997
 11
166.500000
 21
-163.699997
  0
LINE
  8
0
  6
CONTINUOUS
 62
2
 10
241.000000
 20
-166.300003
 11
166.500000
 21
-166.300003
  0
LINE
  8
0
  6
CONTINUOUS
 62
7
 10
241.000000
 20
-166.500000
 11
254.199997
 21
-166.500000
  0
LINE
  8
0
  6
CONTINUOUS
 62
7
 10
241.000000
 20
-167.000000
 11
254.000000
 21
-167.000000
  0
LINE
  8
0
  6
CONTINUOUS
 62
7
 10
253.000000
 20
-162.800003
 11
253.000000
 21
-166.500000
  0
LINE
  8
0
  6
CONTINUOUS
 62
7
 10
-222.000000
 20
41.500000
 11
-224.000000
 21
41.500000
  0
LINE
  8
0
  6
CONTINUOUS
 62
7
 10
-222.000000
 20
31.500000
 11
-224.000000
 21
31.500000
  0
LINE
  8
0
  6
CONTINUOUS
 62
7
 10
-203.500000
 20
63.000000
 11
-156.000000
 21
63.000000
  0
LINE
  8
0
  6
CONTINUOUS
 62
7
 10
-203.500000
 20
53.000000
 11
-203.500000
 21
63.000000
  0
LINE
  8
0
  6
CONTINUOUS
 62
7
 10
-169.000000
 20
53.000000
 11
-169.000000
 21
63.000000
  0
LINE
  8
0
  6
CONTINUOUS
 62
7
 10
-169.000000
 20
55.500000
 11
-156.000000
 21
55.500000
  0
LINE
  8
0
  6
CONTINUOUS
 62
7
 10
-156.000000
 20
55.500000
 11
-156.000000
 21
63.000000
  0
LINE
  8
0
  6
CONTINUOUS
 62
7
 10
-166.899994
 20
54.500000
 11
-169.000000
 21
54.500000
  0
LINE
  8
0
  6
CONTINUOUS
 62
7
 10
-166.899994
 20
53.000000
 11
-166.899994
 21
54.500000
  0
LINE
  8
0
  6
CONTINUOUS
 62
7
 10
148.000000
 20
41.500000
 11
146.000000
 21
41.500000
  0
LINE
  8
0
  6
CONTINUOUS
 62
7
 10
148.000000
 20
31.500000
 11
146.000000
 21
31.500000
  0
LINE
  8
0
  6
CONTINUOUS
 62
7
 10
166.500000
 20
63.000000
 11
239.000000
 21
63.000000
  0
LINE
  8
0
  6
CONTINUOUS
 62
7
 10
166.500000
 20
53.000000
 11
166.500000
 21
63.000000
  0
LINE
  8
0
  6
CONTINUOUS
 62
7
 10
226.000000
 20
53.000000
 11
226.000000
 21
63.000000
  0
LINE
  8
0
  6
CONTINUOUS
 62
7
 10
226.000000
 20
55.500000
 11
239.000000
 21
55.500000
  0
LINE
  8
0
  6
CONTINUOUS
 62
7
 10
239.000000
 20
55.500000
 11
239.000000
 21
63.000000
  0
LINE
  8
0
  6
CONTINUOUS
 62
7
 10
228.100006
 20
54.500000
 11
226.000000
 21
54.500000
  0
LINE
  8
0
  6
CONTINUOUS
 62
7
 10
228.100006
 20
53.000000
 11
228.100006
 21
54.500000
  0
LINE
  8
0
  6
CONTINUOUS
 62
7
 10
-222.000000
 20
-213.500000
 11
-224.000000
 21
-213.500000
  0
LINE
  8
0
  6
CONTINUOUS
 62
7
 10
-222.000000
 20
-223.500000
 11
-224.000000
 21
-223.500000
  0
LINE
  8
0
  6
CONTINUOUS
 62
7
 10
-203.500000
 20
-192.000000
 11
-146.000000
 21
-192.000000
  0
LINE
  8
0
  6
CONTINUOUS
 62
7
 10
-203.500000
 20
-202.000000
 11
-203.500000
 21
-192.000000
  0
LINE
  8
0
  6
CONTINUOUS
 62
7
 10
-159.000000
 20
-202.000000
 11
-159.000000
 21
-192.000000
  0
LINE
  8
0
  6
CONTINUOUS
 62
7
 10
-159.000000
 20
-199.500000
 11
-146.000000
 21
-199.500000
  0
LINE
  8
0
  6
CONTINUOUS
 62
7
 10
-146.000000
 20
-199.500000
 11
-146.000000
 21
-192.000000
  0
LINE
  8
0
  6
CONTINUOUS
 62
7
 10
-156.899994
 20
-200.500000
 11
-159.000000
 21
-200.500000
  0
LINE
  8
0
  6
CONTINUOUS
 62
7
 10
-156.899994
 20
-202.000000
 11
-156.899994
 21
-200.500000
  0
LINE
  8
0
  6
CONTINUOUS
 62
7
 10
148.000000
 20
-213.500000
 11
146.000000
 21
-213.500000
  0
LINE
  8
0
  6
CONTINUOUS
 62
7
 10
148.000000
 20
-223.500000
 11
146.000000
 21
-223.500000
  0
LINE
  8
0
  6
CONTINUOUS
 62
7
 10
166.500000
 20
-192.000000
 11
254.000000
 21
-192.000000
  0
LINE
  8
0
  6
CONTINUOUS
 62
7
 10
166.500000
 20
-202.000000
 11
166.500000
 21
-192.000000
  0
LINE
  8
0
  6
CONTINUOUS
 62
7
 10
241.000000
 20
-202.000000
 11
241.000000
 21
-192.000000
  0
LINE
  8
0
  6
CONTINUOUS
 62
7
 10
241.000000
 20
-199.500000
 11
254.000000
 21
-199.500000
  0
LINE
  8
0
  6
CONTINUOUS
 62
7
 10
254.000000
 20
-199.500000
 11
254.000000
 21
-192.000000
  0
LINE
  8
0
  6
CONTINUOUS
 62
7
 10
243.100006
 20
-200.500000
 11
241.000000
 21
-200.500000
  0
LINE
  8
0
  6
CONTINUOUS
 62
7
 10
243.100006
 20
-202.000000
 11
243.100006
 21
-200.500000
  0
LINE
  8
0
  6
CENTER
 62
2
 10
-234.000000
 20
131.000000
 11
-230.000000
 21
131.000000
  0
LINE
  8
0
  6
CENTER
 62
2
 10
-234.000000
 20
155.000000
 11
-230.000000
 21
155.000000
  0
LINE
  8
0
  6
CENTER
 62
2
 10
136.000000
 20
131.000000
 11
140.000000
 21
131.000000
  0
LINE
  8
0
  6
CENTER
 62
2
 10
136.000000
 20
155.000000
 11
140.000000
 21
155.000000
  0
LINE
  8
0
  6
CENTER
 62
2
 10
-234.000000
 20
-124.000000
 11
-230.000000
 21
-124.000000
  0
LINE
  8
0
  6
CENTER
 62
2
 10
-234.000000
 20
-100.000000
 11
-230.000000
 21
-100.000000
  0
LINE
  8
0
  6
CENTER
 62
2
 10
136.000000
 20
-124.000000
 11
140.000000
 21
-124.000000
  0
LINE
  8
0
  6
CENTER
 62
2
 10
136.000000
 20
-100.000000
 11
140.000000
 21
-100.000000
  0
LINE
  8
0
  6
CENTER
 62
2
 10
108.500000
 20
-139.500000
 11
108.500000
 21
-131.500000
  0
LINE
  8
0
  6
CENTER
 62
2
 10
102.500000
 20
-139.500000
 11
102.500000
 21
-131.500000
  0
LINE
  8
0
  6
CENTER
 62
2
 10
288.500000
 20
-139.500000
 11
288.500000
 21
-131.500000
  0
LINE
  8
0
  6
CENTER
 62
2
 10
294.500000
 20
-139.500000
 11
294.500000
 21
-131.500000
  0
LINE
  8
0
  6
CENTER
 62
2
 10
-112.000000
 20
-119.400002
 11
-112.000000
 21
-104.599998
  0
LINE
  8
0
  6
CONTINUOUS
 62
7
 10
-117.113998
 20
-104.500000
 11
-113.500000
 21
-104.500000
  0
LINE
  8
0
  6
CONTINUOUS
 62
7
 10
-121.000000
 20
-104.500000
 11
-119.886002
 21
-104.500000
  0
LINE
  8
0
  6
CONTINUOUS
 62
7
 10
-126.000000
 20
-96.000000
 11
-126.000000
 21
-103.000000
  0
LINE
  8
0
  6
CONTINUOUS
 62
7
 10
-125.699997
 20
-103.300003
 11
-125.699997
 21
-120.699997
  0
LINE
  8
0
  6
CONTINUOUS
 62
7
 10
-126.000000
 20
-103.000000
 11
-125.699997
 21
-103.300003
  0
LINE
  8
0
  6
CONTINUOUS
 62
7
 10
-121.000000
 20
-119.500000
 11
-119.886002
 21
-119.500000
  0
LINE
  8
0
  6
CONTINUOUS
 62
7
 10
-126.000000
 20
-128.000000
 11
-113.500000
 21
-128.000000
  0
LINE
  8
0
  6
CONTINUOUS
 62
7
 10
-126.000000
 20
-128.000000
 11
-126.000000
 21
-121.000000
  0
LINE
  8
0
  6
CONTINUOUS
 62
7
 10
-126.000000
 20
-121.000000
 11
-125.699997
 21
-120.699997
  0
LINE
  8
0
  6
CONTINUOUS
 62
7
 10
-126.000000
 20
-96.000000
 11
-113.500000
 21
-96.000000
  0
LINE
  8
0
  6
CONTINUOUS
 62
7
 10
-104.000000
 20
-128.500000
 11
-104.000000
 21
-95.500000
  0
LINE
  8
0
  6
CONTINUOUS
 62
7
 10
-113.500000
 20
-95.500000
 11
-113.500000
 21
-104.500000
  0
LINE
  8
0
  6
CONTINUOUS
 62
7
 10
-113.500000
 20
-128.500000
 11
-104.000000
 21
-128.500000
  0
LINE
  8
0
  6
CONTINUOUS
 62
7
 10
-113.500000
 20
-95.500000
 11
-104.000000
 21
-95.500000
  0
LINE
  8
0
  6
CENTER
 62
2
 10
-126.699997
 20
-112.000000
 11
-103.000000
 21
-112.000000
  0
LINE
  8
0
  6
CONTINUOUS
 62
7
 10
-114.000000
 20
-128.000000
 11
-114.000000
 21
-119.500000
  0
LINE
  8
0
  6
CONTINUOUS
 62
7
 10
-121.000000
 20
-104.500000
 11
-121.000000
 21
-119.500000
  0
LINE
  8
0
  6
CONTINUOUS
 62
7
 10
-113.500000
 20
-128.500000
 11
-113.500000
 21
-119.500000
  0
LINE
  8
0
  6
CONTINUOUS
 62
7
 10
-117.113998
 20
-119.500000
 11
-113.500000
 21
-119.500000
  0
LINE
  8
0
  6
CONTINUOUS
 62
7
 10
-114.000000
 20
-96.000000
 11
-114.000000
 21
-104.500000
  0
LINE
  8
0
  6
CENTER
 62
2
 10
-128.000000
 20
-99.500000
 11
-124.000000
 21
-99.500000
  0
LINE
  8
0
  6
CENTER
 62
2
 10
-106.000000
 20
-100.000000
 11
-102.000000
 21
-100.000000
  0
LINE
  8
0
  6
CENTER
 62
2
 10
-106.000000
 20
-124.000000
 11
-102.000000
 21
-124.000000
  0
LINE
  8
0
  6
CENTER
 62
2
 10
-128.000000
 20
-124.500000
 11
-124.000000
 21
-124.500000
  0
LINE
  8
0
  6
CONTINUOUS
 62
7
 10
-113.541000
 20
-92.000000
 11
-113.541000
 21
-94.900002
  0
LINE
  8
0
  6
CONTINUOUS
 62
7
 10
-113.400002
 20
-94.900002
 11
-113.400002
 21
-95.500000
  0
LINE
  8
0
  6
CONTINUOUS
 62
7
 10
-105.459000
 20
-94.900002
 11
-113.541000
 21
-94.900002
  0
LINE
  8
0
  6
CONTINUOUS
 62
7
 10
-111.521004
 20
-92.000000
 11
-111.521004
 21
-94.900002
  0
LINE
  8
0
  6
CENTER
 62
2
 10
-109.500000
 20
-91.000000
 11
-109.500000
 21
-96.500000
  0
LINE
  8
0
  6
CONTINUOUS
 62
7
 10
-105.459000
 20
-92.000000
 11
-113.541000
 21
-92.000000
  0
LINE
  8
0
  6
CONTINUOUS
 62
7
 10
-105.459000
 20
-92.000000
 11
-105.459000
 21
-94.900002
  0
LINE
  8
0
  6
CONTINUOUS
 62
7
 10
-107.478996
 20
-92.000000
 11
-107.478996
 21
-94.900002
  0
LINE
  8
0
  6
CONTINUOUS
 62
7
 10
-105.599998
 20
-94.900002
 11
-105.599998
 21
-95.500000
  0
LINE
  8
0
  6
CONTINUOUS
 62
7
 10
-113.300003
 20
-130.000000
 11
-113.300003
 21
-128.399994
  0
LINE
  8
0
  6
CONTINUOUS
 62
7
 10
-124.300003
 20
-130.000000
 11
-113.300003
 21
-130.000000
  0
LINE
  8
0
  6
CONTINUOUS
 62
7
 10
-124.300003
 20
-130.000000
 11
-124.300003
 21
-128.000000
  0
LINE
  8
0
  6
CONTINUOUS
 62
7
 10
-125.000000
 20
-138.500000
 11
-106.000000
 21
-138.500000
  0
LINE
  8
0
  6
CONTINUOUS
 62
2
 10
-120.199997
 20
-138.500000
 11
-120.199997
 21
-137.500000
  0
LINE
  8
0
  6
CONTINUOUS
 62
2
 10
-123.500000
 20
-137.500000
 11
-122.800003
 21
-137.500000
  0
LINE
  8
0
  6
CONTINUOUS
 62
2
 10
-119.500000
 20
-137.500000
 11
-119.500000
 21
-134.000000
  0
LINE
  8
0
  6
CONTINUOUS
 62
2
 10
-122.000000
 20
-132.500000
 11
-121.000000
 21
-132.500000
  0
LINE
  8
0
  6
CONTINUOUS
 62
2
 10
-123.500000
 20
-137.500000
 11
-123.500000
 21
-134.000000
  0
LINE
  8
0
  6
CONTINUOUS
 62
2
 10
-122.800003
 20
-138.500000
 11
-122.800003
 21
-137.500000
  0
LINE
  8
0
  6
CONTINUOUS
 62
7
 10
-125.000000
 20
-138.500000
 11
-125.000000
 21
-131.000000
  0
LINE
  8
0
  6
CONTINUOUS
 62
7
 10
-125.000000
 20
-131.000000
 11
-112.500000
 21
-131.000000
  0
LINE
  8
0
  6
CONTINUOUS
 62
7
 10
-112.500000
 20
-131.000000
 11
-112.500000
 21
-128.500000
  0
LINE
  8
0
  6
CONTINUOUS
 62
7
 10
-106.000000
 20
-138.500000
 11
-106.000000
 21
-128.500000
  0
LINE
  8
0
  6
CONTINUOUS
 62
2
 10
-120.199997
 20
-137.500000
 11
-119.500000
 21
-137.500000
  0
LINE
  8
0
  6
CONTINUOUS
 62
7
 10
-117.699997
 20
-131.000000
 11
-117.699997
 21
-138.500000
  0
LINE
  8
0
  6
CENTER
 62
2
 10
-121.500000
 20
-139.500000
 11
-121.500000
 21
-131.500000
  0
LINE
  8
0
  6
CENTER
 62
2
 10
-115.500000
 20
-139.500000
 11
-115.500000
 21
-131.500000
  0
LINE
  8
0
  6
CONTINUOUS
 62
7
 10
-257.000000
 20
-128.000000
 11
-257.000000
 21
-121.000000
  0
LINE
  8
0
  6
CONTINUOUS
 62
7
 10
-257.299988
 20
-120.699997
 11
-257.299988
 21
-103.300003
  0
LINE
  8
0
  6
CONTINUOUS
 62
7
 10
-257.000000
 20
-121.000000
 11
-257.299988
 21
-120.699997
  0
LINE
  8
0
  6
CONTINUOUS
 62
7
 10
-257.000000
 20
-128.000000
 11
-278.000000
 21
-128.000000
  0
LINE
  8
0
  6
CONTINUOUS
 62
7
 10
-257.000000
 20
-96.000000
 11
-257.000000
 21
-103.000000
  0
LINE
  8
0
  6
CONTINUOUS
 62
7
 10
-257.000000
 20
-103.000000
 11
-257.299988
 21
-103.300003
  0
LINE
  8
0
  6
CONTINUOUS
 62
7
 10
-257.000000
 20
-96.000000
 11
-278.000000
 21
-96.000000
  0
LINE
  8
0
  6
CONTINUOUS
 62
7
 10
-269.500000
 20
-95.500000
 11
-269.500000
 21
-96.000000
  0
LINE
  8
0
  6
CONTINUOUS
 62
7
 10
-279.000000
 20
-95.500000
 11
-279.000000
 21
-128.500000
  0
LINE
  8
0
  6
CONTINUOUS
 62
7
 10
-269.500000
 20
-128.500000
 11
-279.000000
 21
-128.500000
  0
LINE
  8
0
  6
CONTINUOUS
 62
7
 10
-269.500000
 20
-128.500000
 11
-269.500000
 21
-128.000000
  0
LINE
  8
0
  6
CENTER
 62
2
 10
-256.299988
 20
-112.000000
 11
-280.000000
 21
-112.000000
  0
LINE
  8
0
  6
CONTINUOUS
 62
7
 10
-257.500000
 20
-96.000000
 11
-257.500000
 21
-128.000000
  0
LINE
  8
0
  6
CONTINUOUS
 62
7
 10
-278.000000
 20
-96.000000
 11
-278.000000
 21
-128.000000
  0
LINE
  8
0
  6
CONTINUOUS
 62
7
 10
-279.000000
 20
-95.500000
 11
-269.500000
 21
-95.500000
  0
LINE
  8
0
  6
CENTER
 62
2
 10
-271.000000
 20
-105.000000
 11
-271.000000
 21
-119.000000
  0
LINE
  8
0
  6
CONTINUOUS
 62
7
 10
-277.540985
 20
-92.000000
 11
-277.540985
 21
-94.900002
  0
LINE
  8
0
  6
CONTINUOUS
 62
7
 10
-277.399994
 20
-94.900002
 11
-277.399994
 21
-95.500000
  0
LINE
  8
0
  6
CONTINUOUS
 62
7
 10
-269.459015
 20
-94.900002
 11
-277.540985
 21
-94.900002
  0
LINE
  8
0
  6
CONTINUOUS
 62
7
 10
-275.520996
 20
-92.000000
 11
-275.520996
 21
-94.900002
  0
LINE
  8
0
  6
CENTER
 62
2
 10
-273.500000
 20
-91.000000
 11
-273.500000
 21
-96.500000
  0
LINE
  8
0
  6
CONTINUOUS
 62
7
 10
-269.459015
 20
-92.000000
 11
-277.540985
 21
-92.000000
  0
LINE
  8
0
  6
CONTINUOUS
 62
7
 10
-269.459015
 20
-92.000000
 11
-269.459015
 21
-94.900002
  0
LINE
  8
0
  6
CONTINUOUS
 62
7
 10
-271.479004
 20
-92.000000
 11
-271.479004
 21
-94.900002
  0
LINE
  8
0
  6
CONTINUOUS
 62
7
 10
-269.600006
 20
-94.900002
 11
-269.600006
 21
-95.500000
  0
LINE
  8
0
  6
CENTER
 62
2
 10
-271.000000
 20
-121.000000
 11
-271.000000
 21
-127.000000
  0
LINE
  8
0
  6
CENTER
 62
2
 10
-274.000000
 20
-124.000000
 11
-268.000000
 21
-124.000000
  0
LINE
  8
0
  6
CENTER
 62
2
 10
-262.000000
 20
-118.500000
 11
-262.000000
 21
-128.500000
  0
LINE
  8
0
  6
CENTER
 62
2
 10
-267.000000
 20
-123.500000
 11
-257.000000
 21
-123.500000
  0
LINE
  8
0
  6
CENTER
 62
2
 10
-262.000000
 20
-95.500000
 11
-262.000000
 21
-105.500000
  0
LINE
  8
0
  6
CENTER
 62
2
 10
-267.000000
 20
-100.500000
 11
-257.000000
 21
-100.500000
  0
LINE
  8
0
  6
CENTER
 62
2
 10
-271.000000
 20
-97.000000
 11
-271.000000
 21
-103.000000
  0
LINE
  8
0
  6
CENTER
 62
2
 10
-274.000000
 20
-100.000000
 11
-268.000000
 21
-100.000000
  0
LINE
  8
0
  6
CENTER
 62
2
 10
-262.000000
 20
-109.000000
 11
-262.000000
 21
-115.000000
  0
LINE
  8
0
  6
CONTINUOUS
 62
7
 10
-269.700012
 20
-130.000000
 11
-269.700012
 21
-128.500000
  0
LINE
  8
0
  6
CONTINUOUS
 62
7
 10
-258.700012
 20
-130.000000
 11
-269.700012
 21
-130.000000
  0
LINE
  8
0
  6
CONTINUOUS
 62
7
 10
-258.700012
 20
-130.000000
 11
-258.700012
 21
-128.000000
  0
LINE
  8
0
  6
CONTINUOUS
 62
7
 10
-258.000000
 20
-138.500000
 11
-277.000000
 21
-138.500000
  0
LINE
  8
0
  6
CONTINUOUS
 62
2
 10
-262.799988
 20
-138.500000
 11
-262.799988
 21
-137.500000
  0
LINE
  8
0
  6
CONTINUOUS
 62
2
 10
-263.500000
 20
-137.500000
 11
-263.500000
 21
-134.000000
  0
LINE
  8
0
  6
CONTINUOUS
 62
2
 10
-261.000000
 20
-132.500000
 11
-262.000000
 21
-132.500000
  0
LINE
  8
0
  6
CONTINUOUS
 62
2
 10
-259.500000
 20
-137.500000
 11
-259.500000
 21
-134.000000
  0
LINE
  8
0
  6
CONTINUOUS
 62
2
 10
-260.200012
 20
-138.500000
 11
-260.200012
 21
-137.500000
  0
LINE
  8
0
  6
CONTINUOUS
 62
7
 10
-258.000000
 20
-131.000000
 11
-270.500000
 21
-131.000000
  0
LINE
  8
0
  6
CONTINUOUS
 62
7
 10
-270.500000
 20
-131.000000
 11
-270.500000
 21
-128.500000
  0
LINE
  8
0
  6
CONTINUOUS
 62
7
 10
-277.000000
 20
-138.500000
 11
-277.000000
 21
-128.500000
  0
LINE
  8
0
  6
CONTINUOUS
 62
2
 10
-259.500000
 20
-137.500000
 11
-260.200012
 21
-137.500000
  0
LINE
  8
0
  6
CONTINUOUS
 62
7
 10
-258.000000
 20
-138.500000
 11
-258.000000
 21
-131.000000
  0
LINE
  8
0
  6
CONTINUOUS
 62
2
 10
-262.799988
 20
-137.500000
 11
-263.500000
 21
-137.500000
  0
LINE
  8
0
  6
CENTER
 62
2
 10
-261.500000
 20
-139.500000
 11
-261.500000
 21
-131.500000
  0
LINE
  8
0
  6
CENTER
 62
2
 10
-267.500000
 20
-139.500000
 11
-267.500000
 21
-131.500000
  0
LINE
  8
0
  6
CONTINUOUS
 62
7
 10
-257.000000
 20
127.000000
 11
-257.000000
 21
134.000000
  0
LINE
  8
0
  6
CONTINUOUS
 62
7
 10
-257.299988
 20
134.300003
 11
-257.299988
 21
151.699997
  0
LINE
  8
0
  6
CONTINUOUS
 62
7
 10
-257.000000
 20
134.000000
 11
-257.299988
 21
134.300003
  0
LINE
  8
0
  6
CONTINUOUS
 62
7
 10
-257.000000
 20
127.000000
 11
-278.000000
 21
127.000000
  0
LINE
  8
0
  6
CONTINUOUS
 62
7
 10
-257.000000
 20
159.000000
 11
-257.000000
 21
152.000000
  0
LINE
  8
0
  6
CONTINUOUS
 62
7
 10
-257.000000
 20
152.000000
 11
-257.299988
 21
151.699997
  0
LINE
  8
0
  6
CONTINUOUS
 62
7
 10
-257.000000
 20
159.000000
 11
-278.000000
 21
159.000000
  0
LINE
  8
0
  6
CONTINUOUS
 62
7
 10
-269.500000
 20
159.500000
 11
-269.500000
 21
159.000000
  0
LINE
  8
0
  6
CONTINUOUS
 62
7
 10
-279.000000
 20
159.500000
 11
-279.000000
 21
126.500000
  0
LINE
  8
0
  6
CONTINUOUS
 62
7
 10
-269.500000
 20
126.500000
 11
-279.000000
 21
126.500000
  0
LINE
  8
0
  6
CONTINUOUS
 62
7
 10
-269.500000
 20
126.500000
 11
-269.500000
 21
127.000000
  0
LINE
  8
0
  6
CENTER
 62
2
 10
-256.299988
 20
143.000000
 11
-280.000000
 21
143.000000
  0
LINE
  8
0
  6
CONTINUOUS
 62
7
 10
-257.500000
 20
159.000000
 11
-257.500000
 21
127.000000
  0
LINE
  8
0
  6
CONTINUOUS
 62
7
 10
-278.000000
 20
159.000000
 11
-278.000000
 21
127.000000
  0
LINE
  8
0
  6
CONTINUOUS
 62
7
 10
-279.000000
 20
159.500000
 11
-269.500000
 21
159.500000
  0
LINE
  8
0
  6
CENTER
 62
2
 10
-271.000000
 20
150.000000
 11
-271.000000
 21
136.000000
  0
LINE
  8
0
  6
CONTINUOUS
 62
7
 10
-277.540985
 20
163.000000
 11
-277.540985
 21
160.100006
  0
LINE
  8
0
  6
CONTINUOUS
 62
7
 10
-277.399994
 20
160.100006
 11
-277.399994
 21
159.500000
  0
LINE
  8
0
  6
CONTINUOUS
 62
7
 10
-269.459015
 20
160.100006
 11
-277.540985
 21
160.100006
  0
LINE
  8
0
  6
CONTINUOUS
 62
7
 10
-275.520996
 20
163.000000
 11
-275.520996
 21
160.100006
  0
LINE
  8
0
  6
CENTER
 62
2
 10
-273.500000
 20
164.000000
 11
-273.500000
 21
158.500000
  0
LINE
  8
0
  6
CONTINUOUS
 62
7
 10
-269.459015
 20
163.000000
 11
-277.540985
 21
163.000000
  0
LINE
  8
0
  6
CONTINUOUS
 62
7
 10
-269.459015
 20
163.000000
 11
-269.459015
 21
160.100006
  0
LINE
  8
0
  6
CONTINUOUS
 62
7
 10
-271.479004
 20
163.000000
 11
-271.479004
 21
160.100006
  0
LINE
  8
0
  6
CONTINUOUS
 62
7
 10
-269.600006
 20
160.100006
 11
-269.600006
 21
159.500000
  0
LINE
  8
0
  6
CENTER
 62
2
 10
-271.000000
 20
134.000000
 11
-271.000000
 21
128.000000
  0
LINE
  8
0
  6
CENTER
 62
2
 10
-274.000000
 20
131.000000
 11
-268.000000
 21
131.000000
  0
LINE
  8
0
  6
CENTER
 62
2
 10
-262.000000
 20
136.500000
 11
-262.000000
 21
126.500000
  0
LINE
  8
0
  6
CENTER
 62
2
 10
-267.000000
 20
131.500000
 11
-257.000000
 21
131.500000
  0
LINE
  8
0
  6
CENTER
 62
2
 10
-262.000000
 20
159.500000
 11
-262.000000
 21
149.500000
  0
LINE
  8
0
  6
CENTER
 62
2
 10
-267.000000
 20
154.500000
 11
-257.000000
 21
154.500000
  0
LINE
  8
0
  6
CENTER
 62
2
 10
-271.000000
 20
158.000000
 11
-271.000000
 21
152.000000
  0
LINE
  8
0
  6
CENTER
 62
2
 10
-274.000000
 20
155.000000
 11
-268.000000
 21
155.000000
  0
LINE
  8
0
  6
CENTER
 62
2
 10
-262.000000
 20
146.000000
 11
-262.000000
 21
140.000000
  0
LINE
  8
0
  6
CONTINUOUS
 62
7
 10
-269.700012
 20
125.000000
 11
-269.700012
 21
126.500000
  0
LINE
  8
0
  6
CONTINUOUS
 62
7
 10
-258.700012
 20
125.000000
 11
-269.700012
 21
125.000000
  0
LINE
  8
0
  6
CONTINUOUS
 62
7
 10
-258.700012
 20
125.000000
 11
-258.700012
 21
127.000000
  0
LINE
  8
0
  6
CONTINUOUS
 62
7
 10
-258.000000
 20
116.500000
 11
-277.000000
 21
116.500000
  0
LINE
  8
0
  6
CONTINUOUS
 62
2
 10
-262.799988
 20
116.500000
 11
-262.799988
 21
117.500000
  0
LINE
  8
0
  6
CONTINUOUS
 62
2
 10
-263.500000
 20
117.500000
 11
-263.500000
 21
121.000000
  0
LINE
  8
0
  6
CONTINUOUS
 62
2
 10
-261.000000
 20
122.500000
 11
-262.000000
 21
122.500000
  0
LINE
  8
0
  6
CONTINUOUS
 62
2
 10
-259.500000
 20
117.500000
 11
-259.500000
 21
121.000000
  0
LINE
  8
0
  6
CONTINUOUS
 62
2
 10
-260.200012
 20
116.500000
 11
-260.200012
 21
117.500000
  0
LINE
  8
0
  6
CONTINUOUS
 62
7
 10
-258.000000
 20
124.000000
 11
-270.500000
 21
124.000000
  0
LINE
  8
0
  6
CONTINUOUS
 62
7
 10
-270.500000
 20
124.000000
 11
-270.500000
 21
126.500000
  0
LINE
  8
0
  6
CONTINUOUS
 62
7
 10
-277.000000
 20
116.500000
 11
-277.000000
 21
126.500000
  0
LINE
  8
0
  6
CONTINUOUS
 62
2
 10
-259.500000
 20
117.500000
 11
-260.200012
 21
117.500000
  0
LINE
  8
0
  6
CONTINUOUS
 62
7
 10
-258.000000
 20
116.500000
 11
-258.000000
 21
124.000000
  0
LINE
  8
0
  6
CONTINUOUS
 62
2
 10
-262.799988
 20
117.500000
 11
-263.500000
 21
117.500000
  0
LINE
  8
0
  6
CENTER
 62
2
 10
-261.500000
 20
115.500000
 11
-261.500000
 21
123.500000
  0
LINE
  8
0
  6
CENTER
 62
2
 10
-267.500000
 20
115.500000
 11
-267.500000
 21
123.500000
  0
LINE
  8
0
  6
CENTER
 62
2
 10
-112.000000
 20
135.600006
 11
-112.000000
 21
150.399994
  0
LINE
  8
0
  6
CONTINUOUS
 62
7
 10
-117.113998
 20
150.500000
 11
-113.500000
 21
150.500000
  0
LINE
  8
0
  6
CONTINUOUS
 62
7
 10
-121.000000
 20
150.500000
 11
-119.886002
 21
150.500000
  0
LINE
  8
0
  6
CONTINUOUS
 62
7
 10
-126.000000
 20
159.000000
 11
-126.000000
 21
152.000000
  0
LINE
  8
0
  6
CONTINUOUS
 62
7
 10
-125.699997
 20
151.699997
 11
-125.699997
 21
134.300003
  0
LINE
  8
0
  6
CONTINUOUS
 62
7
 10
-126.000000
 20
152.000000
 11
-125.699997
 21
151.699997
  0
LINE
  8
0
  6
CONTINUOUS
 62
7
 10
-121.000000
 20
135.500000
 11
-119.886002
 21
135.500000
  0
LINE
  8
0
  6
CONTINUOUS
 62
7
 10
-126.000000
 20
127.000000
 11
-113.500000
 21
127.000000
  0
LINE
  8
0
  6
CONTINUOUS
 62
7
 10
-126.000000
 20
127.000000
 11
-126.000000
 21
134.000000
  0
LINE
  8
0
  6
CONTINUOUS
 62
7
 10
-126.000000
 20
134.000000
 11
-125.699997
 21
134.300003
  0
LINE
  8
0
  6
CONTINUOUS
 62
7
 10
-126.000000
 20
159.000000
 11
-113.500000
 21
159.000000
  0
LINE
  8
0
  6
CONTINUOUS
 62
7
 10
-104.000000
 20
126.500000
 11
-104.000000
 21
159.500000
  0
LINE
  8
0
  6
CONTINUOUS
 62
7
 10
-113.500000
 20
159.500000
 11
-113.500000
 21
150.500000
  0
LINE
  8
0
  6
CONTINUOUS
 62
7
 10
-113.500000
 20
126.500000
 11
-104.000000
 21
126.500000
  0
LINE
  8
0
  6
CONTINUOUS
 62
7
 10
-113.500000
 20
159.500000
 11
-104.000000
 21
159.500000
  0
LINE
  8
0
  6
CENTER
 62
2
 10
-126.699997
 20
143.000000
 11
-103.000000
 21
143.000000
  0
LINE
  8
0
  6
CONTINUOUS
 62
7
 10
-114.000000
 20
127.000000
 11
-114.000000
 21
135.500000
  0
LINE
  8
0
  6
CONTINUOUS
 62
7
 10
-121.000000
 20
150.500000
 11
-121.000000
 21
135.500000
  0
LINE
  8
0
  6
CONTINUOUS
 62
7
 10
-113.500000
 20
126.500000
 11
-113.500000
 21
135.500000
  0
LINE
  8
0
  6
CONTINUOUS
 62
7
 10
-117.113998
 20
135.500000
 11
-113.500000
 21
135.500000
  0
LINE
  8
0
  6
CONTINUOUS
 62
7
 10
-114.000000
 20
159.000000
 11
-114.000000
 21
150.500000
  0
LINE
  8
0
  6
CENTER
 62
2
 10
-128.000000
 20
155.500000
 11
-124.000000
 21
155.500000
  0
LINE
  8
0
  6
CENTER
 62
2
 10
-106.000000
 20
155.000000
 11
-102.000000
 21
155.000000
  0
LINE
  8
0
  6
CENTER
 62
2
 10
-106.000000
 20
131.000000
 11
-102.000000
 21
131.000000
  0
LINE
  8
0
  6
CENTER
 62
2
 10
-128.000000
 20
130.500000
 11
-124.000000
 21
130.500000
  0
LINE
  8
0
  6
CONTINUOUS
 62
7
 10
-113.541000
 20
163.000000
 11
-113.541000
 21
160.100006
  0
LINE
  8
0
  6
CONTINUOUS
 62
7
 10
-113.400002
 20
160.100006
 11
-113.400002
 21
159.500000
  0
LINE
  8
0
  6
CONTINUOUS
 62
7
 10
-105.459000
 20
160.100006
 11
-113.541000
 21
160.100006
  0
LINE
  8
0
  6
CONTINUOUS
 62
7
 10
-111.521004
 20
163.000000
 11
-111.521004
 21
160.100006
  0
LINE
  8
0
  6
CENTER
 62
2
 10
-109.500000
 20
164.000000
 11
-109.500000
 21
158.500000
  0
LINE
  8
0
  6
CONTINUOUS
 62
7
 10
-105.459000
 20
163.000000
 11
-113.541000
 21
163.000000
  0
LINE
  8
0
  6
CONTINUOUS
 62
7
 10
-105.459000
 20
163.000000
 11
-105.459000
 21
160.100006
  0
LINE
  8
0
  6
CONTINUOUS
 62
7
 10
-107.478996
 20
163.000000
 11
-107.478996
 21
160.100006
  0
LINE
  8
0
  6
CONTINUOUS
 62
7
 10
-105.599998
 20
160.100006
 11
-105.599998
 21
159.500000
  0
LINE
  8
0
  6
CONTINUOUS
 62
7
 10
-113.300003
 20
125.000000
 11
-113.300003
 21
126.599998
  0
LINE
  8
0
  6
CONTINUOUS
 62
7
 10
-124.300003
 20
125.000000
 11
-113.300003
 21
125.000000
  0
LINE
  8
0
  6
CONTINUOUS
 62
7
 10
-124.300003
 20
125.000000
 11
-124.300003
 21
127.000000
  0
LINE
  8
0
  6
CONTINUOUS
 62
7
 10
-125.000000
 20
116.500000
 11
-106.000000
 21
116.500000
  0
LINE
  8
0
  6
CONTINUOUS
 62
2
 10
-120.199997
 20
116.500000
 11
-120.199997
 21
117.500000
  0
LINE
  8
0
  6
CONTINUOUS
 62
2
 10
-123.500000
 20
117.500000
 11
-122.800003
 21
117.500000
  0
LINE
  8
0
  6
CONTINUOUS
 62
2
 10
-119.500000
 20
117.500000
 11
-119.500000
 21
121.000000
  0
LINE
  8
0
  6
CONTINUOUS
 62
2
 10
-122.000000
 20
122.500000
 11
-121.000000
 21
122.500000
  0
LINE
  8
0
  6
CONTINUOUS
 62
2
 10
-123.500000
 20
117.500000
 11
-123.500000
 21
121.000000
  0
LINE
  8
0
  6
CONTINUOUS
 62
2
 10
-122.800003
 20
116.500000
 11
-122.800003
 21
117.500000
  0
LINE
  8
0
  6
CONTINUOUS
 62
7
 10
-125.000000
 20
116.500000
 11
-125.000000
 21
124.000000
  0
LINE
  8
0
  6
CONTINUOUS
 62
7
 10
-125.000000
 20
124.000000
 11
-112.500000
 21
124.000000
  0
LINE
  8
0
  6
CONTINUOUS
 62
7
 10
-112.500000
 20
124.000000
 11
-112.500000
 21
126.500000
  0
LINE
  8
0
  6
CONTINUOUS
 62
7
 10
-106.000000
 20
116.500000
 11
-106.000000
 21
126.500000
  0
LINE
  8
0
  6
CONTINUOUS
 62
2
 10
-120.199997
 20
117.500000
 11
-119.500000
 21
117.500000
  0
LINE
  8
0
  6
CONTINUOUS
 62
7
 10
-117.699997
 20
124.000000
 11
-117.699997
 21
116.500000
  0
LINE
  8
0
  6
CENTER
 62
2
 10
-121.500000
 20
115.500000
 11
-121.500000
 21
123.500000
  0
LINE
  8
0
  6
CENTER
 62
2
 10
-115.500000
 20
115.500000
 11
-115.500000
 21
123.500000
  0
LINE
  8
0
  6
CONTINUOUS
 62
7
 10
113.000000
 20
127.000000
 11
113.000000
 21
134.000000
  0
LINE
  8
0
  6
CONTINUOUS
 62
7
 10
112.699997
 20
134.300003
 11
112.699997
 21
151.699997
  0
LINE
  8
0
  6
CONTINUOUS
 62
7
 10
113.000000
 20
134.000000
 11
112.699997
 21
134.300003
  0
LINE
  8
0
  6
CONTINUOUS
 62
7
 10
113.000000
 20
127.000000
 11
92.000000
 21
127.000000
  0
LINE
  8
0
  6
CONTINUOUS
 62
7
 10
113.000000
 20
159.000000
 11
113.000000
 21
152.000000
  0
LINE
  8
0
  6
CONTINUOUS
 62
7
 10
113.000000
 20
152.000000
 11
112.699997
 21
151.699997
  0
LINE
  8
0
  6
CONTINUOUS
 62
7
 10
113.000000
 20
159.000000
 11
92.000000
 21
159.000000
  0
LINE
  8
0
  6
CONTINUOUS
 62
7
 10
100.500000
 20
159.500000
 11
100.500000
 21
159.000000
  0
LINE
  8
0
  6
CONTINUOUS
 62
7
 10
91.000000
 20
159.500000
 11
91.000000
 21
126.500000
  0
LINE
  8
0
  6
CONTINUOUS
 62
7
 10
100.500000
 20
126.500000
 11
91.000000
 21
126.500000
  0
LINE
  8
0
  6
CONTINUOUS
 62
7
 10
100.500000
 20
126.500000
 11
100.500000
 21
127.000000
  0
LINE
  8
0
  6
CENTER
 62
2
 10
113.699997
 20
143.000000
 11
90.000000
 21
143.000000
  0
LINE
  8
0
  6
CONTINUOUS
 62
7
 10
112.500000
 20
159.000000
 11
112.500000
 21
127.000000
  0
LINE
  8
0
  6
CONTINUOUS
 62
7
 10
92.000000
 20
159.000000
 11
92.000000
 21
127.000000
  0
LINE
  8
0
  6
CONTINUOUS
 62
7
 10
91.000000
 20
159.500000
 11
100.500000
 21
159.500000
  0
LINE
  8
0
  6
CENTER
 62
2
 10
99.000000
 20
150.000000
 11
99.000000
 21
136.000000
  0
LINE
  8
0
  6
CONTINUOUS
 62
7
 10
92.458603
 20
163.000000
 11
92.458603
 21
160.100006
  0
LINE
  8
0
  6
CONTINUOUS
 62
7
 10
92.599998
 20
160.100006
 11
92.599998
 21
159.500000
  0
LINE
  8
0
  6
CONTINUOUS
 62
7
 10
100.541000
 20
160.100006
 11
92.458603
 21
160.100006
  0
LINE
  8
0
  6
CONTINUOUS
 62
7
 10
94.479301
 20
163.000000
 11
94.479301
 21
160.100006
  0
LINE
  8
0
  6
CENTER
 62
2
 10
96.500000
 20
164.000000
 11
96.500000
 21
158.500000
  0
LINE
  8
0
  6
CONTINUOUS
 62
7
 10
100.541000
 20
163.000000
 11
92.458603
 21
163.000000
  0
LINE
  8
0
  6
CONTINUOUS
 62
7
 10
100.541000
 20
163.000000
 11
100.541000
 21
160.100006
  0
LINE
  8
0
  6
CONTINUOUS
 62
7
 10
98.520798
 20
163.000000
 11
98.520798
 21
160.100006
  0
LINE
  8
0
  6
CONTINUOUS
 62
7
 10
100.400002
 20
160.100006
 11
100.400002
 21
159.500000
  0
LINE
  8
0
  6
CENTER
 62
2
 10
99.000000
 20
134.000000
 11
99.000000
 21
128.000000
  0
LINE
  8
0
  6
CENTER
 62
2
 10
96.000000
 20
131.000000
 11
102.000000
 21
131.000000
  0
LINE
  8
0
  6
CENTER
 62
2
 10
108.000000
 20
136.500000
 11
108.000000
 21
126.500000
  0
LINE
  8
0
  6
CENTER
 62
2
 10
103.000000
 20
131.500000
 11
113.000000
 21
131.500000
  0
LINE
  8
0
  6
CENTER
 62
2
 10
108.000000
 20
159.500000
 11
108.000000
 21
149.500000
  0
LINE
  8
0
  6
CENTER
 62
2
 10
103.000000
 20
154.500000
 11
113.000000
 21
154.500000
  0
LINE
  8
0
  6
CENTER
 62
2
 10
99.000000
 20
158.000000
 11
99.000000
 21
152.000000
  0
LINE
  8
0
  6
CENTER
 62
2
 10
96.000000
 20
155.000000
 11
102.000000
 21
155.000000
  0
LINE
  8
0
  6
CENTER
 62
2
 10
108.000000
 20
146.000000
 11
108.000000
 21
140.000000
  0
LINE
  8
0
  6
CONTINUOUS
 62
7
 10
100.300003
 20
125.000000
 11
100.300003
 21
126.500000
  0
LINE
  8
0
  6
CONTINUOUS
 62
7
 10
111.300003
 20
125.000000
 11
100.300003
 21
125.000000
  0
LINE
  8
0
  6
CONTINUOUS
 62
7
 10
111.300003
 20
125.000000
 11
111.300003
 21
127.000000
  0
LINE
  8
0
  6
CONTINUOUS
 62
7
 10
112.000000
 20
116.500000
 11
93.000000
 21
116.500000
  0
LINE
  8
0
  6
CONTINUOUS
 62
2
 10
107.199997
 20
116.500000
 11
107.199997
 21
117.500000
  0
LINE
  8
0
  6
CONTINUOUS
 62
2
 10
106.500000
 20
117.500000
 11
106.500000
 21
121.000000
  0
LINE
  8
0
  6
CONTINUOUS
 62
2
 10
109.000000
 20
122.500000
 11
108.000000
 21
122.500000
  0
LINE
  8
0
  6
CONTINUOUS
 62
2
 10
110.500000
 20
117.500000
 11
110.500000
 21
121.000000
  0
LINE
  8
0
  6
CONTINUOUS
 62
2
 10
109.800003
 20
116.500000
 11
109.800003
 21
117.500000
  0
LINE
  8
0
  6
CONTINUOUS
 62
7
 10
112.000000
 20
124.000000
 11
99.500000
 21
124.000000
  0
LINE
  8
0
  6
CONTINUOUS
 62
7
 10
99.500000
 20
124.000000
 11
99.500000
 21
126.500000
  0
LINE
  8
0
  6
CONTINUOUS
 62
7
 10
93.000000
 20
116.500000
 11
93.000000
 21
126.500000
  0
LINE
  8
0
  6
CONTINUOUS
 62
2
 10
110.500000
 20
117.500000
 11
109.800003
 21
117.500000
  0
LINE
  8
0
  6
CONTINUOUS
 62
7
 10
112.000000
 20
116.500000
 11
112.000000
 21
124.000000
  0
LINE
  8
0
  6
CONTINUOUS
 62
2
 10
107.199997
 20
117.500000
 11
106.500000
 21
117.500000
  0
LINE
  8
0
  6
CENTER
 62
2
 10
108.500000
 20
115.500000
 11
108.500000
 21
123.500000
  0
LINE
  8
0
  6
CENTER
 62
2
 10
102.500000
 20
115.500000
 11
102.500000
 21
123.500000
  0
LINE
  8
0
  6
CENTER
 62
2
 10
298.000000
 20
135.600006
 11
298.000000
 21
150.399994
  0
LINE
  8
0
  6
CONTINUOUS
 62
7
 10
292.885986
 20
150.500000
 11
296.500000
 21
150.500000
  0
LINE
  8
0
  6
CONTINUOUS
 62
7
 10
289.000000
 20
150.500000
 11
290.114014
 21
150.500000
  0
LINE
  8
0
  6
CONTINUOUS
 62
7
 10
284.000000
 20
159.000000
 11
284.000000
 21
152.000000
  0
LINE
  8
0
  6
CONTINUOUS
 62
7
 10
284.299988
 20
151.699997
 11
284.299988
 21
134.300003
  0
LINE
  8
0
  6
CONTINUOUS
 62
7
 10
284.000000
 20
152.000000
 11
284.299988
 21
151.699997
  0
LINE
  8
0
  6
CONTINUOUS
 62
7
 10
289.000000
 20
135.500000
 11
290.114014
 21
135.500000
  0
LINE
  8
0
  6
CONTINUOUS
 62
7
 10
284.000000
 20
127.000000
 11
296.500000
 21
127.000000
  0
LINE
  8
0
  6
CONTINUOUS
 62
7
 10
284.000000
 20
127.000000
 11
284.000000
 21
134.000000
  0
LINE
  8
0
  6
CONTINUOUS
 62
7
 10
284.000000
 20
134.000000
 11
284.299988
 21
134.300003
  0
LINE
  8
0
  6
CONTINUOUS
 62
7
 10
284.000000
 20
159.000000
 11
296.500000
 21
159.000000
  0
LINE
  8
0
  6
CONTINUOUS
 62
7
 10
306.000000
 20
126.500000
 11
306.000000
 21
159.500000
  0
LINE
  8
0
  6
CONTINUOUS
 62
7
 10
296.500000
 20
159.500000
 11
296.500000
 21
150.500000
  0
LINE
  8
0
  6
CONTINUOUS
 62
7
 10
296.500000
 20
126.500000
 11
306.000000
 21
126.500000
  0
LINE
  8
0
  6
CONTINUOUS
 62
7
 10
296.500000
 20
159.500000
 11
306.000000
 21
159.500000
  0
LINE
  8
0
  6
CENTER
 62
2
 10
283.299988
 20
143.000000
 11
307.000000
 21
143.000000
  0
LINE
  8
0
  6
CONTINUOUS
 62
7
 10
296.000000
 20
127.000000
 11
296.000000
 21
135.500000
  0
LINE
  8
0
  6
CONTINUOUS
 62
7
 10
289.000000
 20
150.500000
 11
289.000000
 21
135.500000
  0
LINE
  8
0
  6
CONTINUOUS
 62
7
 10
296.500000
 20
126.500000
 11
296.500000
 21
135.500000
  0
LINE
  8
0
  6
CONTINUOUS
 62
7
 10
292.885986
 20
135.500000
 11
296.500000
 21
135.500000
  0
LINE
  8
0
  6
CONTINUOUS
 62
7
 10
296.000000
 20
159.000000
 11
296.000000
 21
150.500000
  0
LINE
  8
0
  6
CENTER
 62
2
 10
282.000000
 20
155.500000
 11
286.000000
 21
155.500000
  0
LINE
  8
0
  6
CENTER
 62
2
 10
304.000000
 20
155.000000
 11
308.000000
 21
155.000000
  0
LINE
  8
0
  6
CENTER
 62
2
 10
304.000000
 20
131.000000
 11
308.000000
 21
131.000000
  0
LINE
  8
0
  6
CENTER
 62
2
 10
282.000000
 20
130.500000
 11
286.000000
 21
130.500000
  0
LINE
  8
0
  6
CONTINUOUS
 62
7
 10
296.459015
 20
163.000000
 11
296.459015
 21
160.100006
  0
LINE
  8
0
  6
CONTINUOUS
 62
7
 10
296.600006
 20
160.100006
 11
296.600006
 21
159.500000
  0
LINE
  8
0
  6
CONTINUOUS
 62
7
 10
304.540985
 20
160.100006
 11
296.459015
 21
160.100006
  0
LINE
  8
0
  6
CONTINUOUS
 62
7
 10
298.479004
 20
163.000000
 11
298.479004
 21
160.100006
  0
LINE
  8
0
  6
CENTER
 62
2
 10
300.500000
 20
164.000000
 11
300.500000
 21
158.500000
  0
LINE
  8
0
  6
CONTINUOUS
 62
7
 10
304.540985
 20
163.000000
 11
296.459015
 21
163.000000
  0
LINE
  8
0
  6
CONTINUOUS
 62
7
 10
304.540985
 20
163.000000
 11
304.540985
 21
160.100006
  0
LINE
  8
0
  6
CONTINUOUS
 62
7
 10
302.520996
 20
163.000000
 11
302.520996
 21
160.100006
  0
LINE
  8
0
  6
CONTINUOUS
 62
7
 10
304.399994
 20
160.100006
 11
304.399994
 21
159.500000
  0
LINE
  8
0
  6
CONTINUOUS
 62
7
 10
296.700012
 20
125.000000
 11
296.700012
 21
126.599998
  0
LINE
  8
0
  6
CONTINUOUS
 62
7
 10
285.700012
 20
125.000000
 11
296.700012
 21
125.000000
  0
LINE
  8
0
  6
CONTINUOUS
 62
7
 10
285.700012
 20
125.000000
 11
285.700012
 21
127.000000
  0
LINE
  8
0
  6
CONTINUOUS
 62
7
 10
285.000000
 20
116.500000
 11
304.000000
 21
116.500000
  0
LINE
  8
0
  6
CONTINUOUS
 62
2
 10
289.799988
 20
116.500000
 11
289.799988
 21
117.500000
  0
LINE
  8
0
  6
CONTINUOUS
 62
2
 10
286.500000
 20
117.500000
 11
287.200012
 21
117.500000
  0
LINE
  8
0
  6
CONTINUOUS
 62
2
 10
290.500000
 20
117.500000
 11
290.500000
 21
121.000000
  0
LINE
  8
0
  6
CONTINUOUS
 62
2
 10
288.000000
 20
122.500000
 11
289.000000
 21
122.500000
  0
LINE
  8
0
  6
CONTINUOUS
 62
2
 10
286.500000
 20
117.500000
 11
286.500000
 21
121.000000
  0
LINE
  8
0
  6
CONTINUOUS
 62
2
 10
287.200012
 20
116.500000
 11
287.200012
 21
117.500000
  0
LINE
  8
0
  6
CONTINUOUS
 62
7
 10
285.000000
 20
116.500000
 11
285.000000
 21
124.000000
  0
LINE
  8
0
  6
CONTINUOUS
 62
7
 10
285.000000
 20
124.000000
 11
297.500000
 21
124.000000
  0
LINE
  8
0
  6
CONTINUOUS
 62
7
 10
297.500000
 20
124.000000
 11
297.500000
 21
126.500000
  0
LINE
  8
0
  6
CONTINUOUS
 62
7
 10
304.000000
 20
116.500000
 11
304.000000
 21
126.500000
  0
LINE
  8
0
  6
CONTINUOUS
 62
2
 10
289.799988
 20
117.500000
 11
290.500000
 21
117.500000
  0
LINE
  8
0
  6
CONTINUOUS
 62
7
 10
292.299988
 20
124.000000
 11
292.299988
 21
116.500000
  0
LINE
  8
0
  6
CENTER
 62
2
 10
288.500000
 20
115.500000
 11
288.500000
 21
123.500000
  0
LINE
  8
0
  6
CENTER
 62
2
 10
294.500000
 20
115.500000
 11
294.500000
 21
123.500000
  0
LINE
  8
0
  6
CONTINUOUS
 62
7
 10
0.274994
 20
276.250000
 11
0.274994
 21
-276.750000
  0
LINE
  8
0
  6
CONTINUOUS
 62
7
 10
-399.250000
 20
-0.250000
 11
399.799988
 21
-0.250000
  0
CIRCLE
  8
0
  6
CONTINUOUS
 62
7
 10
191.000000
 20
-99.500000
 40
2.000000
  0
CIRCLE
  8
0
  6
CONTINUOUS
 62
2
 10
213.000000
 20
-124.500000
 40
1.500000
  0
CIRCLE
  8
0
  6
CONTINUOUS
 62
7
 10
213.000000
 20
-124.500000
 40
1.200000
  0
CIRCLE
  8
0
  6
CONTINUOUS
 62
7
 10
158.000000
 20
-124.500000
 40
1.200000
  0
CIRCLE
  8
0
  6
CONTINUOUS
 62
2
 10
158.000000
 20
-124.500000
 40
1.500000
  0
CIRCLE
  8
0
  6
CONTINUOUS
 62
7
 10
191.000000
 20
-124.500000
 40
2.000000
  0
CIRCLE
  8
0
  6
CONTINUOUS
 62
2
 10
238.000000
 20
-124.500000
 40
1.500000
  0
CIRCLE
  8
0
  6
CONTINUOUS
 62
7
 10
238.000000
 20
-124.500000
 40
1.200000
  0
CIRCLE
  8
0
  6
CONTINUOUS
 62
7
 10
158.000000
 20
-99.500000
 40
1.200000
  0
CIRCLE
  8
0
  6
CONTINUOUS
 62
2
 10
158.000000
 20
-99.500000
 40
1.500000
  0
CIRCLE
  8
0
  6
CONTINUOUS
 62
7
 10
238.000000
 20
-99.500000
 40
1.200000
  0
CIRCLE
  8
0
  6
CONTINUOUS
 62
2
 10
238.000000
 20
-99.500000
 40
1.500000
  0
CIRCLE
  8
0
  6
CONTINUOUS
 62
7
 10
213.000000
 20
-99.500000
 40
1.200000
  0
CIRCLE
  8
0
  6
CONTINUOUS
 62
2
 10
213.000000
 20
-99.500000
 40
1.500000
  0
ARC
  8
0
  6
DASHED
 62
2
 10
163.000000
 20
-100.000000
 40
2.200000
 50
180.000000
 51
0.000000
  0
ARC
  8
0
  6
DASHED
 62
2
 10
163.000000
 20
-124.000000
 40
2.200000
 50
0.000000
 51
180.000000
  0
CIRCLE
  8
0
  6
DASHED
 62
2
 10
239.000000
 20
-100.000000
 40
4.000000
  0
ARC
  8
0
  6
DASHED
 62
2
 10
163.000000
 20
-100.000000
 40
4.000000
 50
123.366997
 51
416.632996
  0
CIRCLE
  8
0
  6
DASHED
 62
2
 10
239.000000
 20
-124.000000
 40
4.000000
  0
ARC
  8
0
  6
DASHED
 62
2
 10
163.000000
 20
-124.000000
 40
4.000000
 50
303.367004
 51
236.632996
  0
CIRCLE
  8
0
  6
DASHED
 62
2
 10
239.000000
 20
-100.000000
 40
2.500000
  0
CIRCLE
  8
0
  6
DASHED
 62
2
 10
239.000000
 20
-124.000000
 40
2.500000
  0
CIRCLE
  8
0
  6
DASHED
 62
2
 10
239.000000
 20
-124.000000
 40
2.100000
  0
CIRCLE
  8
0
  6
DASHED
 62
2
 10
239.000000
 20
-100.000000
 40
2.100000
  0
CIRCLE
  8
0
  6
CONTINUOUS
 62
2
 10
154.000000
 20
-171.000000
 40
2.500000
  0
CIRCLE
  8
0
  6
CONTINUOUS
 62
7
 10
154.000000
 20
-171.000000
 40
2.100000
  0
CIRCLE
  8
0
  6
CONTINUOUS
 62
2
 10
248.000000
 20
-171.000000
 40
2.500000
  0
CIRCLE
  8
0
  6
CONTINUOUS
 62
7
 10
248.000000
 20
-171.000000
 40
2.100000
  0
ARC
  8
0
  6
CONTINUOUS
 62
7
 10
154.000000
 20
-171.000000
 40
4.800000
 50
0.000000
 51
56.442600
  0
ARC
  8
0
  6
CONTINUOUS
 62
7
 10
248.000000
 20
-171.000000
 40
4.800000
 50
123.556999
 51
180.000000
  0
ARC
  8
0
  6
CONTINUOUS
 62
7
 10
154.000000
 20
-53.000000
 40
4.800000
 50
303.557007
 51
0.000000
  0
ARC
  8
0
  6
CONTINUOUS
 62
7
 10
248.000000
 20
-53.000000
 40
4.800000
 50
180.000000
 51
236.442993
  0
CIRCLE
  8
0
  6
CONTINUOUS
 62
2
 10
234.800003
 20
-65.300003
 40
1.000000
  0
CIRCLE
  8
0
  6
CONTINUOUS
 62
2
 10
244.800003
 20
-65.300003
 40
1.000000
  0
CIRCLE
  8
0
  6
CONTINUOUS
 62
2
 10
241.699997
 20
-65.000000
 40
1.500000
  0
ARC
  8
0
  6
CONTINUOUS
 62
7
 10
171.000000
 20
-53.000000
 40
3.000000
 50
180.000000
 51
0.000000
  0
ARC
  8
0
  6
CONTINUOUS
 62
7
 10
231.000000
 20
-53.000000
 40
3.000000
 50
180.000000
 51
0.000000
  0
CIRCLE
  8
0
  6
CONTINUOUS
 62
2
 10
231.000000
 20
-53.000000
 40
1.500000
  0
CIRCLE
  8
0
  6
CONTINUOUS
 62
2
 10
171.000000
 20
-53.000000
 40
1.500000
  0
CIRCLE
  8
0
  6
CONTINUOUS
 62
2
 10
248.199997
 20
-65.000000
 40
1.500000
  0
CIRCLE
  8
0
  6
CONTINUOUS
 62
7
 10
-179.000000
 20
-99.500000
 40
2.000000
  0
CIRCLE
  8
0
  6
CONTINUOUS
 62
2
 10
-187.000000
 20
-124.500000
 40
1.500000
  0
CIRCLE
  8
0
  6
CONTINUOUS
 62
7
 10
-187.000000
 20
-124.500000
 40
1.200000
  0
CIRCLE
  8
0
  6
CONTINUOUS
 62
7
 10
-212.000000
 20
-124.500000
 40
1.200000
  0
CIRCLE
  8
0
  6
CONTINUOUS
 62
2
 10
-212.000000
 20
-124.500000
 40
1.500000
  0
CIRCLE
  8
0
  6
CONTINUOUS
 62
7
 10
-179.000000
 20
-124.500000
 40
2.000000
  0
CIRCLE
  8
0
  6
CONTINUOUS
 62
2
 10
-162.000000
 20
-124.500000
 40
1.500000
  0
CIRCLE
  8
0
  6
CONTINUOUS
 62
7
 10
-162.000000
 20
-124.500000
 40
1.200000
  0
CIRCLE
  8
0
  6
CONTINUOUS
 62
7
 10
-212.000000
 20
-99.500000
 40
1.200000
  0
CIRCLE
  8
0
  6
CONTINUOUS
 62
2
 10
-212.000000
 20
-99.500000
 40
1.500000
  0
CIRCLE
  8
0
  6
CONTINUOUS
 62
7
 10
-162.000000
 20
-99.500000
 40
1.200000
  0
CIRCLE
  8
0
  6
CONTINUOUS
 62
2
 10
-162.000000
 20
-99.500000
 40
1.500000
  0
CIRCLE
  8
0
  6
CONTINUOUS
 62
7
 10
-187.000000
 20
-99.500000
 40
1.200000
  0
CIRCLE
  8
0
  6
CONTINUOUS
 62
2
 10
-187.000000
 20
-99.500000
 40
1.500000
  0
ARC
  8
0
  6
DASHED
 62
2
 10
-207.000000
 20
-100.000000
 40
2.200000
 50
180.000000
 51
0.000000
  0
ARC
  8
0
  6
DASHED
 62
2
 10
-207.000000
 20
-124.000000
 40
2.200000
 50
0.000000
 51
180.000000
  0
CIRCLE
  8
0
  6
DASHED
 62
2
 10
-161.000000
 20
-100.000000
 40
4.000000
  0
ARC
  8
0
  6
DASHED
 62
2
 10
-207.000000
 20
-100.000000
 40
4.000000
 50
123.366997
 51
416.632996
  0
CIRCLE
  8
0
  6
DASHED
 62
2
 10
-161.000000
 20
-124.000000
 40
4.000000
  0
ARC
  8
0
  6
DASHED
 62
2
 10
-207.000000
 20
-124.000000
 40
4.000000
 50
303.367004
 51
236.632996
  0
CIRCLE
  8
0
  6
DASHED
 62
2
 10
-161.000000
 20
-100.000000
 40
2.500000
  0
CIRCLE
  8
0
  6
DASHED
 62
2
 10
-161.000000
 20
-124.000000
 40
2.500000
  0
CIRCLE
  8
0
  6
DASHED
 62
2
 10
-161.000000
 20
-124.000000
 40
2.100000
  0
CIRCLE
  8
0
  6
DASHED
 62
2
 10
-161.000000
 20
-100.000000
 40
2.100000
  0
CIRCLE
  8
0
  6
CONTINUOUS
 62
2
 10
-216.000000
 20
-171.000000
 40
2.500000
  0
CIRCLE
  8
0
  6
CONTINUOUS
 62
7
 10
-216.000000
 20
-171.000000
 40
2.100000
  0
CIRCLE
  8
0
  6
CONTINUOUS
 62
2
 10
-152.000000
 20
-171.000000
 40
2.500000
  0
CIRCLE
  8
0
  6
CONTINUOUS
 62
7
 10
-152.000000
 20
-171.000000
 40
2.100000
  0
ARC
  8
0
  6
CONTINUOUS
 62
7
 10
-216.000000
 20
-171.000000
 40
4.800000
 50
0.000000
 51
56.442600
  0
ARC
  8
0
  6
CONTINUOUS
 62
7
 10
-152.000000
 20
-171.000000
 40
4.800000
 50
123.556999
 51
180.000000
  0
ARC
  8
0
  6
CONTINUOUS
 62
7
 10
-216.000000
 20
-53.000000
 40
4.800000
 50
303.557007
 51
0.000000
  0
ARC
  8
0
  6
CONTINUOUS
 62
7
 10
-152.000000
 20
-53.000000
 40
4.800000
 50
180.000000
 51
236.442993
  0
CIRCLE
  8
0
  6
CONTINUOUS
 62
2
 10
-165.199997
 20
-65.300003
 40
1.000000
  0
CIRCLE
  8
0
  6
CONTINUOUS
 62
2
 10
-155.199997
 20
-65.300003
 40
1.000000
  0
CIRCLE
  8
0
  6
CONTINUOUS
 62
2
 10
-158.300003
 20
-65.000000
 40
1.500000
  0
ARC
  8
0
  6
CONTINUOUS
 62
7
 10
-199.000000
 20
-53.000000
 40
3.000000
 50
180.000000
 51
0.000000
  0
ARC
  8
0
  6
CONTINUOUS
 62
7
 10
-169.000000
 20
-53.000000
 40
3.000000
 50
180.000000
 51
0.000000
  0
CIRCLE
  8
0
  6
CONTINUOUS
 62
2
 10
-169.000000
 20
-53.000000
 40
1.500000
  0
CIRCLE
  8
0
  6
CONTINUOUS
 62
2
 10
-199.000000
 20
-53.000000
 40
1.500000
  0
CIRCLE
  8
0
  6
CONTINUOUS
 62
2
 10
-151.800003
 20
-65.000000
 40
1.500000
  0
CIRCLE
  8
0
  6
CONTINUOUS
 62
7
 10
183.000000
 20
-99.500000
 40
1.200000
  0
CIRCLE
  8
0
  6
CONTINUOUS
 62
2
 10
183.000000
 20
-99.500000
 40
1.500000
  0
CIRCLE
  8
0
  6
CONTINUOUS
 62
2
 10
183.000000
 20
-124.500000
 40
1.500000
  0
CIRCLE
  8
0
  6
CONTINUOUS
 62
7
 10
183.000000
 20
-124.500000
 40
1.200000
  0
CIRCLE
  8
0
  6
CONTINUOUS
 62
7
 10
191.000000
 20
155.500000
 40
2.000000
  0
CIRCLE
  8
0
  6
CONTINUOUS
 62
2
 10
198.000000
 20
130.500000
 40
1.500000
  0
CIRCLE
  8
0
  6
CONTINUOUS
 62
7
 10
198.000000
 20
130.500000
 40
1.200000
  0
CIRCLE
  8
0
  6
CONTINUOUS
 62
7
 10
158.000000
 20
130.500000
 40
1.200000
  0
CIRCLE
  8
0
  6
CONTINUOUS
 62
2
 10
158.000000
 20
130.500000
 40
1.500000
  0
CIRCLE
  8
0
  6
CONTINUOUS
 62
7
 10
191.000000
 20
130.500000
 40
2.000000
  0
CIRCLE
  8
0
  6
CONTINUOUS
 62
2
 10
223.000000
 20
130.500000
 40
1.500000
  0
CIRCLE
  8
0
  6
CONTINUOUS
 62
7
 10
223.000000
 20
130.500000
 40
1.200000
  0
CIRCLE
  8
0
  6
CONTINUOUS
 62
7
 10
158.000000
 20
155.500000
 40
1.200000
  0
CIRCLE
  8
0
  6
CONTINUOUS
 62
2
 10
158.000000
 20
155.500000
 40
1.500000
  0
CIRCLE
  8
0
  6
CONTINUOUS
 62
7
 10
223.000000
 20
155.500000
 40
1.200000
  0
CIRCLE
  8
0
  6
CONTINUOUS
 62
2
 10
223.000000
 20
155.500000
 40
1.500000
  0
CIRCLE
  8
0
  6
CONTINUOUS
 62
7
 10
198.000000
 20
155.500000
 40
1.200000
  0
CIRCLE
  8
0
  6
CONTINUOUS
 62
2
 10
198.000000
 20
155.500000
 40
1.500000
  0
ARC
  8
0
  6
DASHED
 62
2
 10
163.000000
 20
155.000000
 40
2.200000
 50
180.000000
 51
0.000000
  0
ARC
  8
0
  6
DASHED
 62
2
 10
163.000000
 20
131.000000
 40
2.200000
 50
0.000000
 51
180.000000
  0
CIRCLE
  8
0
  6
DASHED
 62
2
 10
224.000000
 20
155.000000
 40
4.000000
  0
ARC
  8
0
  6
DASHED
 62
2
 10
163.000000
 20
155.000000
 40
3.999990
 50
123.366997
 51
416.632996
  0
CIRCLE
  8
0
  6
DASHED
 62
2
 10
224.000000
 20
131.000000
 40
4.000000
  0
ARC
  8
0
  6
DASHED
 62
2
 10
163.000000
 20
131.000000
 40
4.000000
 50
303.367004
 51
236.632996
  0
CIRCLE
  8
0
  6
DASHED
 62
2
 10
224.000000
 20
155.000000
 40
2.500000
  0
CIRCLE
  8
0
  6
DASHED
 62
2
 10
224.000000
 20
131.000000
 40
2.500000
  0
CIRCLE
  8
0
  6
DASHED
 62
2
 10
224.000000
 20
131.000000
 40
2.100000
  0
CIRCLE
  8
0
  6
DASHED
 62
2
 10
224.000000
 20
155.000000
 40
2.100000
  0
CIRCLE
  8
0
  6
CONTINUOUS
 62
2
 10
154.000000
 20
84.000000
 40
2.500000
  0
CIRCLE
  8
0
  6
CONTINUOUS
 62
7
 10
154.000000
 20
84.000000
 40
2.100000
  0
CIRCLE
  8
0
  6
CONTINUOUS
 62
2
 10
233.000000
 20
84.000000
 40
2.500000
  0
CIRCLE
  8
0
  6
CONTINUOUS
 62
7
 10
233.000000
 20
84.000000
 40
2.100000
  0
ARC
  8
0
  6
CONTINUOUS
 62
7
 10
163.000000
 20
-206.500000
 40
2.200000
 50
180.000000
 51
0.000000
  0
ARC
  8
0
  6
CONTINUOUS
 62
7
 10
163.000000
 20
-230.500000
 40
2.200000
 50
0.000000
 51
180.000000
  0
CIRCLE
  8
0
  6
CONTINUOUS
 62
2
 10
179.000000
 20
-230.500000
 40
2.500000
  0
CIRCLE
  8
0
  6
CONTINUOUS
 62
7
 10
179.000000
 20
-230.500000
 40
2.100000
  0
CIRCLE
  8
0
  6
CONTINUOUS
 62
7
 10
179.000000
 20
-230.500000
 40
3.000000
  0
CIRCLE
  8
0
  6
CONTINUOUS
 62
2
 10
179.000000
 20
-206.500000
 40
2.500000
  0
CIRCLE
  8
0
  6
CONTINUOUS
 62
7
 10
179.000000
 20
-206.500000
 40
2.100000
  0
CIRCLE
  8
0
  6
CONTINUOUS
 62
7
 10
179.000000
 20
-206.500000
 40
3.000000
  0
CIRCLE
  8
0
  6
CONTINUOUS
 62
2
 10
239.000000
 20
-206.500000
 40
2.500000
  0
CIRCLE
  8
0
  6
CONTINUOUS
 62
7
 10
239.000000
 20
-206.500000
 40
2.100000
  0
CIRCLE
  8
0
  6
CONTINUOUS
 62
7
 10
239.000000
 20
-230.500000
 40
2.100000
  0
CIRCLE
  8
0
  6
CONTINUOUS
 62
2
 10
239.000000
 20
-230.500000
 40
2.500000
  0
CIRCLE
  8
0
  6
CONTINUOUS
 62
2
 10
219.800003
 20
189.699997
 40
1.000000
  0
CIRCLE
  8
0
  6
CONTINUOUS
 62
2
 10
229.800003
 20
189.699997
 40
1.000000
  0
CIRCLE
  8
0
  6
CONTINUOUS
 62
2
 10
226.699997
 20
190.000000
 40
1.500000
  0
CIRCLE
  8
0
  6
CONTINUOUS
 62
2
 10
216.000000
 20
202.000000
 40
1.500000
  0
CIRCLE
  8
0
  6
CONTINUOUS
 62
2
 10
171.000000
 20
202.000000
 40
1.500000
  0
CIRCLE
  8
0
  6
CONTINUOUS
 62
2
 10
233.199997
 20
190.000000
 40
1.500000
  0
CIRCLE
  8
0
  6
CONTINUOUS
 62
7
 10
183.000000
 20
155.500000
 40
1.200000
  0
CIRCLE
  8
0
  6
CONTINUOUS
 62
2
 10
183.000000
 20
155.500000
 40
1.500000
  0
CIRCLE
  8
0
  6
CONTINUOUS
 62
2
 10
183.000000
 20
130.500000
 40
1.500000
  0
CIRCLE
  8
0
  6
CONTINUOUS
 62
7
 10
183.000000
 20
130.500000
 40
1.200000
  0
CIRCLE
  8
0
  6
CONTINUOUS
 62
7
 10
-187.000000
 20
155.500000
 40
2.000000
  0
CIRCLE
  8
0
  6
CONTINUOUS
 62
2
 10
-192.000000
 20
130.500000
 40
1.500000
  0
CIRCLE
  8
0
  6
CONTINUOUS
 62
7
 10
-192.000000
 20
130.500000
 40
1.200000
  0
CIRCLE
  8
0
  6
CONTINUOUS
 62
7
 10
-212.000000
 20
130.500000
 40
1.200000
  0
CIRCLE
  8
0
  6
CONTINUOUS
 62
2
 10
-212.000000
 20
130.500000
 40
1.500000
  0
CIRCLE
  8
0
  6
CONTINUOUS
 62
7
 10
-187.000000
 20
130.500000
 40
2.000000
  0
CIRCLE
  8
0
  6
CONTINUOUS
 62
2
 10
-172.000000
 20
130.500000
 40
1.500000
  0
CIRCLE
  8
0
  6
CONTINUOUS
 62
7
 10
-172.000000
 20
130.500000
 40
1.200000
  0
CIRCLE
  8
0
  6
CONTINUOUS
 62
7
 10
-212.000000
 20
155.500000
 40
1.200000
  0
CIRCLE
  8
0
  6
CONTINUOUS
 62
2
 10
-212.000000
 20
155.500000
 40
1.500000
  0
CIRCLE
  8
0
  6
CONTINUOUS
 62
7
 10
-172.000000
 20
155.500000
 40
1.200000
  0
CIRCLE
  8
0
  6
CONTINUOUS
 62
2
 10
-172.000000
 20
155.500000
 40
1.500000
  0
CIRCLE
  8
0
  6
CONTINUOUS
 62
7
 10
-192.000000
 20
155.500000
 40
1.200000
  0
CIRCLE
  8
0
  6
CONTINUOUS
 62
2
 10
-192.000000
 20
155.500000
 40
1.500000
  0
ARC
  8
0
  6
DASHED
 62
2
 10
-207.000000
 20
155.000000
 40
2.200000
 50
180.000000
 51
0.000000
  0
ARC
  8
0
  6
DASHED
 62
2
 10
-207.000000
 20
131.000000
 40
2.200000
 50
0.000000
 51
180.000000
  0
CIRCLE
  8
0
  6
DASHED
 62
2
 10
-171.000000
 20
155.000000
 40
4.000000
  0
ARC
  8
0
  6
DASHED
 62
2
 10
-207.000000
 20
155.000000
 40
3.999990
 50
123.366997
 51
416.632996
  0
CIRCLE
  8
0
  6
DASHED
 62
2
 10
-171.000000
 20
131.000000
 40
4.000000
  0
ARC
  8
0
  6
DASHED
 62
2
 10
-207.000000
 20
131.000000
 40
4.000000
 50
303.367004
 51
236.632996
  0
CIRCLE
  8
0
  6
DASHED
 62
2
 10
-171.000000
 20
155.000000
 40
2.500000
  0
CIRCLE
  8
0
  6
DASHED
 62
2
 10
-171.000000
 20
131.000000
 40
2.500000
  0
CIRCLE
  8
0
  6
DASHED
 62
2
 10
-171.000000
 20
131.000000
 40
2.100000
  0
CIRCLE
  8
0
  6
DASHED
 62
2
 10
-171.000000
 20
155.000000
 40
2.100000
  0
CIRCLE
  8
0
  6
CONTINUOUS
 62
7
 10
99.000000
 20
-112.000000
 40
6.000000
  0
CIRCLE
  8
0
  6
CONTINUOUS
 62
7
 10
108.000000
 20
-123.500000
 40
4.000000
  0
CIRCLE
  8
0
  6
CONTINUOUS
 62
7
 10
108.000000
 20
-100.500000
 40
4.000000
  0
CIRCLE
  8
0
  6
CONTINUOUS
 62
2
 10
99.000000
 20
-100.000000
 40
2.000000
  0
CIRCLE
  8
0
  6
CONTINUOUS
 62
7
 10
99.000000
 20
-100.000000
 40
1.650000
  0
CIRCLE
  8
0
  6
CONTINUOUS
 62
2
 10
108.000000
 20
-112.000000
 40
2.000000
  0
CIRCLE
  8
0
  6
CONTINUOUS
 62
7
 10
108.000000
 20
-112.000000
 40
1.650000
  0
CIRCLE
  8
0
  6
CONTINUOUS
 62
2
 10
99.000000
 20
-124.000000
 40
2.000000
  0
CIRCLE
  8
0
  6
CONTINUOUS
 62
7
 10
99.000000
 20
-124.000000
 40
1.650000
  0
ARC
  8
0
  6
CONTINUOUS
 62
7
 10
289.500000
 20
-119.000000
 40
2.300020
 50
180.000000
 51
183.186996
  0
ARC
  8
0
  6
CONTINUOUS
 62
7
 10
289.500000
 20
-105.000000
 40
2.300000
 50
176.815002
 51
180.000000
  0
ARC
  8
0
  6
CONTINUOUS
 62
7
 10
291.500000
 20
-103.699997
 40
1.600000
 50
209.998993
 51
330.001007
  0
ARC
  8
0
  6
CONTINUOUS
 62
7
 10
291.500000
 20
-120.300003
 40
1.600000
 50
29.999399
 51
150.001007
  0
CIRCLE
  8
0
  6
CONTINUOUS
 62
7
 10
298.000000
 20
-112.000000
 40
6.400000
  0
CIRCLE
  8
0
  6
CONTINUOUS
 62
2
 10
-216.000000
 20
84.000000
 40
2.500000
  0
CIRCLE
  8
0
  6
CONTINUOUS
 62
7
 10
-216.000000
 20
84.000000
 40
2.100000
  0
CIRCLE
  8
0
  6
CONTINUOUS
 62
2
 10
-162.000000
 20
84.000000
 40
2.500000
  0
CIRCLE
  8
0
  6
CONTINUOUS
 62
7
 10
-162.000000
 20
84.000000
 40
2.100000
  0
ARC
  8
0
  6
CONTINUOUS
 62
7
 10
-207.000000
 20
-206.500000
 40
2.200000
 50
180.000000
 51
0.000000
  0
ARC
  8
0
  6
CONTINUOUS
 62
7
 10
-207.000000
 20
-230.500000
 40
2.200000
 50
0.000000
 51
180.000000
  0
CIRCLE
  8
0
  6
CONTINUOUS
 62
2
 10
-191.000000
 20
-230.500000
 40
2.500000
  0
CIRCLE
  8
0
  6
CONTINUOUS
 62
7
 10
-191.000000
 20
-230.500000
 40
2.100000
  0
CIRCLE
  8
0
  6
CONTINUOUS
 62
7
 10
-191.000000
 20
-230.500000
 40
3.000000
  0
CIRCLE
  8
0
  6
CONTINUOUS
 62
2
 10
-191.000000
 20
-206.500000
 40
2.500000
  0
CIRCLE
  8
0
  6
CONTINUOUS
 62
7
 10
-191.000000
 20
-206.500000
 40
2.100000
  0
CIRCLE
  8
0
  6
CONTINUOUS
 62
7
 10
-191.000000
 20
-206.500000
 40
3.000000
  0
CIRCLE
  8
0
  6
CONTINUOUS
 62
2
 10
-161.000000
 20
-206.500000
 40
2.500000
  0
CIRCLE
  8
0
  6
CONTINUOUS
 62
7
 10
-161.000000
 20
-206.500000
 40
2.100000
  0
CIRCLE
  8
0
  6
CONTINUOUS
 62
7
 10
-161.000000
 20
-230.500000
 40
2.100000
  0
CIRCLE
  8
0
  6
CONTINUOUS
 62
2
 10
-161.000000
 20
-230.500000
 40
2.500000
  0
CIRCLE
  8
0
  6
CONTINUOUS
 62
2
 10
-175.199997
 20
189.699997
 40
1.000000
  0
CIRCLE
  8
0
  6
CONTINUOUS
 62
2
 10
-165.199997
 20
189.699997
 40
1.000000
  0
CIRCLE
  8
0
  6
CONTINUOUS
 62
2
 10
-168.300003
 20
190.000000
 40
1.500000
  0
CIRCLE
  8
0
  6
CONTINUOUS
 62
2
 10
-179.000000
 20
202.000000
 40
1.500000
  0
CIRCLE
  8
0
  6
CONTINUOUS
 62
2
 10
-199.000000
 20
202.000000
 40
1.500000
  0
CIRCLE
  8
0
  6
CONTINUOUS
 62
2
 10
-161.800003
 20
190.000000
 40
1.500000
  0
ARC
  8
0
  6
CONTINUOUS
 62
7
 10
-207.000000
 20
48.500000
 40
2.200000
 50
180.000000
 51
0.000000
  0
ARC
  8
0
  6
CONTINUOUS
 62
7
 10
-207.000000
 20
24.500000
 40
2.200000
 50
0.000000
 51
180.000000
  0
CIRCLE
  8
0
  6
CONTINUOUS
 62
2
 10
-191.000000
 20
24.500000
 40
2.500000
  0
CIRCLE
  8
0
  6
CONTINUOUS
 62
7
 10
-191.000000
 20
24.500000
 40
2.100000
  0
CIRCLE
  8
0
  6
CONTINUOUS
 62
2
 10
-191.000000
 20
48.500000
 40
2.500000
  0
CIRCLE
  8
0
  6
CONTINUOUS
 62
7
 10
-191.000000
 20
48.500000
 40
2.100000
  0
CIRCLE
  8
0
  6
CONTINUOUS
 62
2
 10
-171.000000
 20
48.500000
 40
2.500000
  0
CIRCLE
  8
0
  6
CONTINUOUS
 62
7
 10
-171.000000
 20
48.500000
 40
2.100000
  0
CIRCLE
  8
0
  6
CONTINUOUS
 62
7
 10
-171.000000
 20
24.500000
 40
2.100000
  0
CIRCLE
  8
0
  6
CONTINUOUS
 62
2
 10
-171.000000
 20
24.500000
 40
2.500000
  0
ARC
  8
0
  6
CONTINUOUS
 62
7
 10
163.000000
 20
48.500000
 40
2.200000
 50
180.000000
 51
0.000000
  0
ARC
  8
0
  6
CONTINUOUS
 62
7
 10
163.000000
 20
24.500000
 40
2.200000
 50
0.000000
 51
180.000000
  0
CIRCLE
  8
0
  6
CONTINUOUS
 62
2
 10
179.000000
 20
24.500000
 40
2.500000
  0
CIRCLE
  8
0
  6
CONTINUOUS
 62
7
 10
179.000000
 20
24.500000
 40
2.100000
  0
CIRCLE
  8
0
  6
CONTINUOUS
 62
2
 10
179.000000
 20
48.500000
 40
2.500000
  0
CIRCLE
  8
0
  6
CONTINUOUS
 62
7
 10
179.000000
 20
48.500000
 40
2.100000
  0
CIRCLE
  8
0
  6
CONTINUOUS
 62
2
 10
224.000000
 20
48.500000
 40
2.500000
  0
CIRCLE
  8
0
  6
CONTINUOUS
 62
7
 10
224.000000
 20
48.500000
 40
2.100000
  0
CIRCLE
  8
0
  6
CONTINUOUS
 62
7
 10
224.000000
 20
24.500000
 40
2.100000
  0
CIRCLE
  8
0
  6
CONTINUOUS
 62
2
 10
224.000000
 20
24.500000
 40
2.500000
  0
ARC
  8
0
  6
CONTINUOUS
 62
7
 10
-216.000000
 20
83.800003
 40
4.800000
 50
0.000000
 51
61.044498
  0
ARC
  8
0
  6
CONTINUOUS
 62
7
 10
-162.000000
 20
83.800003
 40
4.800000
 50
118.955002
 51
180.000000
  0
ARC
  8
0
  6
CONTINUOUS
 62
7
 10
-216.000000
 20
202.199997
 40
4.800000
 50
298.954987
 51
0.000000
  0
ARC
  8
0
  6
CONTINUOUS
 62
7
 10
-199.000000
 20
202.199997
 40
3.000000
 50
180.000000
 51
318.190002
  0
ARC
  8
0
  6
CONTINUOUS
 62
7
 10
-179.000000
 20
202.199997
 40
3.000000
 50
221.809998
 51
0.000000
  0
ARC
  8
0
  6
CONTINUOUS
 62
7
 10
-162.000000
 20
202.199997
 40
4.800000
 50
180.000000
 51
241.044998
  0
ARC
  8
0
  6
CONTINUOUS
 62
7
 10
154.000000
 20
202.199997
 40
4.800000
 50
298.954987
 51
0.000000
  0
ARC
  8
0
  6
CONTINUOUS
 62
7
 10
171.000000
 20
202.199997
 40
3.000000
 50
180.000000
 51
318.190002
  0
ARC
  8
0
  6
CONTINUOUS
 62
7
 10
216.000000
 20
202.199997
 40
3.000000
 50
221.809998
 51
0.000000
  0
ARC
  8
0
  6
CONTINUOUS
 62
7
 10
233.000000
 20
202.199997
 40
4.800000
 50
180.000000
 51
241.044998
  0
ARC
  8
0
  6
CONTINUOUS
 62
7
 10
154.000000
 20
83.800003
 40
4.800000
 50
0.000000
 51
61.044899
  0
ARC
  8
0
  6
CONTINUOUS
 62
7
 10
233.000000
 20
83.800003
 40
4.800000
 50
118.955002
 51
180.000000
  0
CIRCLE
  8
0
  6
CONTINUOUS
 62
7
 10
-199.000000
 20
202.000000
 40
1.200000
  0
CIRCLE
  8
0
  6
CONTINUOUS
 62
7
 10
-179.000000
 20
202.000000
 40
1.200000
  0
CIRCLE
  8
0
  6
CONTINUOUS
 62
7
 10
-168.300003
 20
190.000000
 40
1.200000
  0
CIRCLE
  8
0
  6
CONTINUOUS
 62
7
 10
-161.800003
 20
190.000000
 40
1.200000
  0
CIRCLE
  8
0
  6
CONTINUOUS
 62
7
 10
-199.000000
 20
-53.000000
 40
1.200000
  0
CIRCLE
  8
0
  6
CONTINUOUS
 62
7
 10
-169.000000
 20
-53.000000
 40
1.200000
  0
CIRCLE
  8
0
  6
CONTINUOUS
 62
7
 10
-158.300003
 20
-65.000000
 40
1.200000
  0
CIRCLE
  8
0
  6
CONTINUOUS
 62
7
 10
-151.800003
 20
-65.000000
 40
1.200000
  0
CIRCLE
  8
0
  6
CONTINUOUS
 62
7
 10
171.000000
 20
202.000000
 40
1.200000
  0
CIRCLE
  8
0
  6
CONTINUOUS
 62
7
 10
216.000000
 20
202.000000
 40
1.200000
  0
CIRCLE
  8
0
  6
CONTINUOUS
 62
7
 10
226.699997
 20
190.000000
 40
1.200000
  0
CIRCLE
  8
0
  6
CONTINUOUS
 62
7
 10
233.199997
 20
190.000000
 40
1.200000
  0
CIRCLE
  8
0
  6
CONTINUOUS
 62
7
 10
248.199997
 20
-65.000000
 40
1.200000
  0
CIRCLE
  8
0
  6
CONTINUOUS
 62
7
 10
241.699997
 20
-65.000000
 40
1.200000
  0
CIRCLE
  8
0
  6
CONTINUOUS
 62
7
 10
231.000000
 20
-53.000000
 40
1.200000
  0
CIRCLE
  8
0
  6
CONTINUOUS
 62
7
 10
171.000000
 20
-53.000000
 40
1.200000
  0
CIRCLE
  8
0
  6
CONTINUOUS
 62
7
 10
234.800003
 20
-65.300003
 40
0.800000
  0
CIRCLE
  8
0
  6
CONTINUOUS
 62
7
 10
244.800003
 20
-65.300003
 40
0.800000
  0
CIRCLE
  8
0
  6
CONTINUOUS
 62
7
 10
-175.199997
 20
189.699997
 40
0.800000
  0
CIRCLE
  8
0
  6
CONTINUOUS
 62
7
 10
-165.199997
 20
189.699997
 40
0.800000
  0
CIRCLE
  8
0
  6
CONTINUOUS
 62
7
 10
-165.199997
 20
-65.300003
 40
0.800000
  0
CIRCLE
  8
0
  6
CONTINUOUS
 62
7
 10
-155.199997
 20
-65.300003
 40
0.800000
  0
CIRCLE
  8
0
  6
CONTINUOUS
 62
7
 10
219.800003
 20
189.699997
 40
0.800000
  0
CIRCLE
  8
0
  6
CONTINUOUS
 62
7
 10
229.800003
 20
189.699997
 40
0.800000
  0
ARC
  8
0
  6
CONTINUOUS
 62
2
 10
108.000000
 20
-134.000000
 40
1.500000
 50
90.000000
 51
180.000000
  0
ARC
  8
0
  6
CONTINUOUS
 62
2
 10
109.000000
 20
-134.000000
 40
1.500000
 50
0.000000
 51
90.000000
  0
ARC
  8
0
  6
CONTINUOUS
 62
2
 10
289.000000
 20
-134.000000
 40
1.500000
 50
0.000000
 51
90.000000
  0
ARC
  8
0
  6
CONTINUOUS
 62
2
 10
288.000000
 20
-134.000000
 40
1.500000
 50
90.000000
 51
180.000000
  0
ARC
  8
0
  6
CONTINUOUS
 62
7
 10
-164.000000
 20
87.199997
 40
5.000000
 50
90.000000
 51
180.000000
  0
ARC
  8
0
  6
CONTINUOUS
 62
7
 10
231.000000
 20
87.199997
 40
5.000000
 50
90.000000
 51
180.000000
  0
ARC
  8
0
  6
CONTINUOUS
 62
7
 10
-120.500000
 20
-119.000000
 40
2.300000
 50
180.000000
 51
183.186996
  0
ARC
  8
0
  6
CONTINUOUS
 62
7
 10
-120.500000
 20
-105.000000
 40
2.300000
 50
176.815002
 51
180.000000
  0
ARC
  8
0
  6
CONTINUOUS
 62
7
 10
-118.500000
 20
-103.699997
 40
1.600000
 50
209.998993
 51
330.001007
  0
ARC
  8
0
  6
CONTINUOUS
 62
7
 10
-118.500000
 20
-120.300003
 40
1.600000
 50
29.999399
 51
150.001007
  0
CIRCLE
  8
0
  6
CONTINUOUS
 62
7
 10
-112.000000
 20
-112.000000
 40
6.400000
  0
ARC
  8
0
  6
CONTINUOUS
 62
2
 10
-121.000000
 20
-134.000000
 40
1.500000
 50
0.000000
 51
90.000000
  0
ARC
  8
0
  6
CONTINUOUS
 62
2
 10
-122.000000
 20
-134.000000
 40
1.500000
 50
90.000000
 51
180.000000
  0
CIRCLE
  8
0
  6
CONTINUOUS
 62
7
 10
-271.000000
 20
-112.000000
 40
6.000000
  0
CIRCLE
  8
0
  6
CONTINUOUS
 62
7
 10
-262.000000
 20
-123.500000
 40
4.000000
  0
CIRCLE
  8
0
  6
CONTINUOUS
 62
7
 10
-262.000000
 20
-100.500000
 40
4.000000
  0
CIRCLE
  8
0
  6
CONTINUOUS
 62
2
 10
-271.000000
 20
-100.000000
 40
2.000000
  0
CIRCLE
  8
0
  6
CONTINUOUS
 62
7
 10
-271.000000
 20
-100.000000
 40
1.650000
  0
CIRCLE
  8
0
  6
CONTINUOUS
 62
2
 10
-262.000000
 20
-112.000000
 40
2.000000
  0
CIRCLE
  8
0
  6
CONTINUOUS
 62
7
 10
-262.000000
 20
-112.000000
 40
1.650000
  0
CIRCLE
  8
0
  6
CONTINUOUS
 62
2
 10
-271.000000
 20
-124.000000
 40
2.000000
  0
CIRCLE
  8
0
  6
CONTINUOUS
 62
7
 10
-271.000000
 20
-124.000000
 40
1.650000
  0
ARC
  8
0
  6
CONTINUOUS
 62
2
 10
-262.000000
 20
-134.000000
 40
1.500000
 50
90.000000
 51
180.000000
  0
ARC
  8
0
  6
CONTINUOUS
 62
2
 10
-261.000000
 20
-134.000000
 40
1.500000
 50
0.000000
 51
90.000000
  0
CIRCLE
  8
0
  6
CONTINUOUS
 62
7
 10
-271.000000
 20
143.000000
 40
6.000000
  0
CIRCLE
  8
0
  6
CONTINUOUS
 62
7
 10
-262.000000
 20
131.500000
 40
4.000000
  0
CIRCLE
  8
0
  6
CONTINUOUS
 62
7
 10
-262.000000
 20
154.500000
 40
4.000000
  0
CIRCLE
  8
0
  6
CONTINUOUS
 62
2
 10
-271.000000
 20
155.000000
 40
2.000000
  0
CIRCLE
  8
0
  6
CONTINUOUS
 62
7
 10
-271.000000
 20
155.000000
 40
1.650000
  0
CIRCLE
  8
0
  6
CONTINUOUS
 62
2
 10
-262.000000
 20
143.000000
 40
2.000000
  0
CIRCLE
  8
0
  6
CONTINUOUS
 62
7
 10
-262.000000
 20
143.000000
 40
1.650000
  0
CIRCLE
  8
0
  6
CONTINUOUS
 62
2
 10
-271.000000
 20
131.000000
 40
2.000000
  0
CIRCLE
  8
0
  6
CONTINUOUS
 62
7
 10
-271.000000
 20
131.000000
 40
1.650000
  0
ARC
  8
0
  6
CONTINUOUS
 62
2
 10
-262.000000
 20
121.000000
 40
1.500000
 50
90.000000
 51
180.000000
  0
ARC
  8
0
  6
CONTINUOUS
 62
2
 10
-261.000000
 20
121.000000
 40
1.500000
 50
0.000000
 51
90.000000
  0
ARC
  8
0
  6
CONTINUOUS
 62
7
 10
-120.500000
 20
136.000000
 40
2.300000
 50
180.000000
 51
183.186996
  0
ARC
  8
0
  6
CONTINUOUS
 62
7
 10
-120.500000
 20
150.000000
 40
2.300000
 50
176.815002
 51
180.000000
  0
ARC
  8
0
  6
CONTINUOUS
 62
7
 10
-118.500000
 20
151.300003
 40
1.600000
 50
209.998993
 51
330.001007
  0
ARC
  8
0
  6
CONTINUOUS
 62
7
 10
-118.500000
 20
134.699997
 40
1.600000
 50
29.999399
 51
150.001007
  0
CIRCLE
  8
0
  6
CONTINUOUS
 62
7
 10
-112.000000
 20
143.000000
 40
6.400000
  0
ARC
  8
0
  6
CONTINUOUS
 62
2
 10
-121.000000
 20
121.000000
 40
1.500000
 50
0.000000
 51
90.000000
  0
ARC
  8
0
  6
CONTINUOUS
 62
2
 10
-122.000000
 20
121.000000
 40
1.500000
 50
90.000000
 51
180.000000
  0
CIRCLE
  8
0
  6
CONTINUOUS
 62
7
 10
99.000000
 20
143.000000
 40
6.000000
  0
CIRCLE
  8
0
  6
CONTINUOUS
 62
7
 10
108.000000
 20
131.500000
 40
4.000000
  0
CIRCLE
  8
0
  6
CONTINUOUS
 62
7
 10
108.000000
 20
154.500000
 40
4.000000
  0
CIRCLE
  8
0
  6
CONTINUOUS
 62
2
 10
99.000000
 20
155.000000
 40
2.000000
  0
CIRCLE
  8
0
  6
CONTINUOUS
 62
7
 10
99.000000
 20
155.000000
 40
1.650000
  0
CIRCLE
  8
0
  6
CONTINUOUS
 62
2
 10
108.000000
 20
143.000000
 40
2.000000
  0
CIRCLE
  8
0
  6
CONTINUOUS
 62
7
 10
108.000000
 20
143.000000
 40
1.650000
  0
CIRCLE
  8
0
  6
CONTINUOUS
 62
2
 10
99.000000
 20
131.000000
 40
2.000000
  0
CIRCLE
  8
0
  6
CONTINUOUS
 62
7
 10
99.000000
 20
131.000000
 40
1.650000
  0
ARC
  8
0
  6
CONTINUOUS
 62
2
 10
108.000000
 20
121.000000
 40
1.500000
 50
90.000000
 51
180.000000
  0
ARC
  8
0
  6
CONTINUOUS
 62
2
 10
109.000000
 20
121.000000
 40
1.500000
 50
0.000000
 51
90.000000
  0
ARC
  8
0
  6
CONTINUOUS
 62
7
 10
289.500000
 20
136.000000
 40
2.300020
 50
180.000000
 51
183.186996
  0
ARC
  8
0
  6
CONTINUOUS
 62
7
 10
289.500000
 20
150.000000
 40
2.300000
 50
176.815002
 51
180.000000
  0
ARC
  8
0
  6
CONTINUOUS
 62
7
 10
291.500000
 20
151.300003
 40
1.600000
 50
209.998993
 51
330.001007
  0
ARC
  8
0
  6
CONTINUOUS
 62
7
 10
291.500000
 20
134.699997
 40
1.600000
 50
29.999399
 51
150.001007
  0
CIRCLE
  8
0
  6
CONTINUOUS
 62
7
 10
298.000000
 20
143.000000
 40
6.400000
  0
ARC
  8
0
  6
CONTINUOUS
 62
2
 10
289.000000
 20
121.000000
 40
1.500000
 50
0.000000
 51
90.000000
  0
ARC
  8
0
  6
CONTINUOUS
 62
2
 10
288.000000
 20
121.000000
 40
1.500000
 50
90.000000
 51
180.000000
  0
TEXT
  8
0
 62
7
 10
249.264832
 20
-267.375000
 40
12.500000
  1
KOGANEI CORP.
 50
0.000000
 41
0.771525
 51
0.000000
  7
STANDARD
  0
TEXT
  8
0
 62
7
 10
292.414673
 20
261.500000
 40
9.000000
  1
Ver.1.0
 50
0.000000
 41
1.010331
 51
0.000000
  7
STANDARD
  0
TEXT
  8
0
 62
7
 10
15.774433
 20
229.000000
 40
9.000000
  1
MODEL:APUS-SD12-45-TP
 50
0.000000
 41
0.774534
 51
0.000000
  7
STANDARD
  0
TEXT
  8
0
 62
7
 10
-346.635315
 20
261.500000
 40
9.000000
  1
AP UNIT
 50
0.000000
 41
0.832036
 51
0.000000
  7
STANDARD
  0
TEXT
  8
0
 62
7
 10
-383.750580
 20
229.000000
 40
9.000000
  1
MODEL:APUS-SD12-20-TP
 50
0.000000
 41
0.781388
 51
0.000000
  7
STANDARD
  0
TEXT
  8
0
 62
7
 10
-383.750580
 20
-22.500000
 40
9.000000
  1
MODEL:APUS-SD12-30-TP
 50
0.000000
 41
0.781388
 51
0.000000
  7
STANDARD
  0
TEXT
  8
0
 62
7
 10
15.774433
 20
-22.500000
 40
9.000000
  1
MODEL:APUS-SD12-60-TP
 50
0.000000
 41
0.781388
 51
0.000000
  7
STANDARD
  0
ENDSEC
  0
EOF
