  0
SECTION
  2
HEADER
  0
ENDSEC
  0
SECTION
  2
TABLES
  0
TABLE
  2
LTYPE
 70
     4
  0
LTYPE
  2
CONTINUOUS
 70
    64
  3
Solid line
 72
    65
 73
     0
 40
0.000000
  0
LTYPE
  2
DASHED
 70
    64
  3
__ __ __ __ __ __ __ __ __ __ __ __ __ __ __
 72
    65
 73
     2
 40
3.500000
 49
2.000000
 49
-1.500000
  0
LTYPE
  2
CENTER
 70
    64
  3
____ _ ____ _ ____ _ ____ _ ____ _ ____ _ ____
 72
    65
 73
     4
 40
17.500000
 49
13.000000
 49
-1.500000
 49
1.500000
 49
-1.500000
  0
LTYPE
  2
PHANTOM
 70
    64
  3
_____ _ _ _____ _ _ _____ _ _ _____ _ _ ____  
 72
    65
 73
     6
 40
15.500000
 49
8.000000
 49
-1.500000
 49
1.500000
 49
-1.500000
 49
1.500000
 49
-1.500000
  0
ENDTAB
  0
TABLE
  2
LAYER
 70
     1
  0
LAYER
  2
0
 70
     0
 62
     7
  6
CONTINUOUS
  0
ENDTAB
  0
TABLE
  2
STYLE
 70
     1
  0
STYLE
  2
STANDARD
 70
     0
 40
0.000000
 41
1.000000
 50
0.000000
 71
     0
 42
0.200000
  3
txt
  4
BIGFONT
  0
ENDTAB
  0
TABLE
  2
VIEW
 70
     0
  0
ENDTAB
  0
ENDSEC
  0
SECTION
  2
BLOCKS
  0
ENDSEC
  0
SECTION
  2
ENTITIES
  0
LINE
  8
0
  6
CONTINUOUS
 62
7
 10
-281.250000
 20
195.500000
 11
282.100006
 21
195.500000
  0
LINE
  8
0
  6
CONTINUOUS
 62
7
 10
-281.250000
 20
195.500000
 11
-281.250000
 21
-195.000000
  0
LINE
  8
0
  6
CONTINUOUS
 62
7
 10
282.100006
 20
195.500000
 11
282.100006
 21
-195.000000
  0
LINE
  8
0
  6
CONTINUOUS
 62
7
 10
-281.250000
 20
-195.000000
 11
282.100006
 21
-195.000000
  0
LINE
  8
0
  6
CONTINUOUS
 62
7
 10
162.100006
 20
-175.000000
 11
162.100006
 21
-195.000000
  0
LINE
  8
0
  6
CONTINUOUS
 62
7
 10
162.100006
 20
-175.000000
 11
282.100006
 21
-175.000000
  0
LINE
  8
0
  6
CONTINUOUS
 62
7
 10
162.100006
 20
175.500000
 11
282.100006
 21
175.500000
  0
LINE
  8
0
  6
CONTINUOUS
 62
7
 10
-281.250000
 20
175.500000
 11
-161.250000
 21
175.500000
  0
LINE
  8
0
  6
CONTINUOUS
 62
7
 10
162.100006
 20
195.500000
 11
162.100006
 21
175.500000
  0
LINE
  8
0
  6
CONTINUOUS
 62
7
 10
-161.250000
 20
195.500000
 11
-161.250000
 21
175.500000
  0
LINE
  8
0
  6
CENTER
 62
2
 10
230.000000
 20
28.000000
 11
128.000000
 21
28.000000
  0
LINE
  8
0
  6
CONTINUOUS
 62
7
 10
226.699997
 20
41.500000
 11
129.000000
 21
41.500000
  0
LINE
  8
0
  6
CONTINUOUS
 62
7
 10
226.000000
 20
14.500000
 11
129.000000
 21
14.500000
  0
LINE
  8
0
  6
CONTINUOUS
 62
7
 10
226.000000
 20
21.000000
 11
137.000000
 21
21.000000
  0
LINE
  8
0
  6
CONTINUOUS
 62
7
 10
226.000000
 20
35.000000
 11
137.000000
 21
35.000000
  0
LINE
  8
0
  6
CONTINUOUS
 62
7
 10
229.000000
 20
14.000000
 11
154.649994
 21
14.000000
  0
LINE
  8
0
  6
CONTINUOUS
 62
7
 10
229.000000
 20
42.000000
 11
229.000000
 21
14.000000
  0
LINE
  8
0
  6
CONTINUOUS
 62
7
 10
137.000000
 20
41.500000
 11
137.000000
 21
14.500000
  0
LINE
  8
0
  6
CONTINUOUS
 62
7
 10
226.000000
 20
41.500000
 11
226.000000
 21
14.500000
  0
LINE
  8
0
  6
CONTINUOUS
 62
7
 10
139.000000
 20
14.500000
 11
139.000000
 21
14.000000
  0
LINE
  8
0
  6
CONTINUOUS
 62
7
 10
139.000000
 20
42.000000
 11
139.000000
 21
41.500000
  0
LINE
  8
0
  6
CONTINUOUS
 62
7
 10
151.350006
 20
14.000000
 11
151.350006
 21
14.500000
  0
LINE
  8
0
  6
CONTINUOUS
 62
7
 10
154.649994
 20
14.000000
 11
154.649994
 21
14.500000
  0
LINE
  8
0
  6
CONTINUOUS
 62
7
 10
154.649994
 20
41.500000
 11
154.649994
 21
42.000000
  0
LINE
  8
0
  6
CONTINUOUS
 62
7
 10
151.350006
 20
41.500000
 11
151.350006
 21
42.000000
  0
LINE
  8
0
  6
CONTINUOUS
 62
7
 10
151.350006
 20
14.000000
 11
139.000000
 21
14.000000
  0
LINE
  8
0
  6
CONTINUOUS
 62
7
 10
151.350006
 20
42.000000
 11
139.000000
 21
42.000000
  0
LINE
  8
0
  6
CONTINUOUS
 62
7
 10
129.000000
 20
41.500000
 11
129.000000
 21
14.500000
  0
LINE
  8
0
  6
CENTER
 62
2
 10
146.000000
 20
40.500000
 11
146.000000
 21
35.500000
  0
LINE
  8
0
  6
CENTER
 62
2
 10
143.500000
 20
38.000000
 11
148.500000
 21
38.000000
  0
LINE
  8
0
  6
CENTER
 62
2
 10
146.000000
 20
20.500000
 11
146.000000
 21
15.500000
  0
LINE
  8
0
  6
CENTER
 62
2
 10
143.500000
 20
18.000000
 11
148.500000
 21
18.000000
  0
LINE
  8
0
  6
CENTER
 62
2
 10
212.000000
 20
40.500000
 11
212.000000
 21
35.500000
  0
LINE
  8
0
  6
CENTER
 62
2
 10
209.500000
 20
38.000000
 11
214.500000
 21
38.000000
  0
LINE
  8
0
  6
CENTER
 62
2
 10
178.000000
 20
41.099998
 11
178.000000
 21
35.900002
  0
LINE
  8
0
  6
CENTER
 62
2
 10
175.399994
 20
38.500000
 11
180.600006
 21
38.500000
  0
LINE
  8
0
  6
CENTER
 62
2
 10
212.000000
 20
20.500000
 11
212.000000
 21
15.500000
  0
LINE
  8
0
  6
CENTER
 62
2
 10
209.500000
 20
18.000000
 11
214.500000
 21
18.000000
  0
LINE
  8
0
  6
CENTER
 62
2
 10
194.000000
 20
40.500000
 11
194.000000
 21
35.500000
  0
LINE
  8
0
  6
CENTER
 62
2
 10
191.500000
 20
38.000000
 11
196.500000
 21
38.000000
  0
LINE
  8
0
  6
CENTER
 62
2
 10
194.000000
 20
20.500000
 11
194.000000
 21
15.500000
  0
LINE
  8
0
  6
CENTER
 62
2
 10
191.500000
 20
18.000000
 11
196.500000
 21
18.000000
  0
LINE
  8
0
  6
CONTINUOUS
 62
7
 10
227.199997
 20
14.700000
 11
226.000000
 21
14.700000
  0
LINE
  8
0
  6
CONTINUOUS
 62
7
 10
227.199997
 20
19.250000
 11
227.199997
 21
14.700000
  0
LINE
  8
0
  6
CONTINUOUS
 62
7
 10
227.199997
 20
33.250000
 11
227.199997
 21
22.750000
  0
LINE
  8
0
  6
CONTINUOUS
 62
7
 10
226.600006
 20
33.250000
 11
226.600006
 21
36.750000
  0
LINE
  8
0
  6
CONTINUOUS
 62
7
 10
226.600006
 20
33.250000
 11
227.600006
 21
33.250000
  0
LINE
  8
0
  6
CONTINUOUS
 62
7
 10
227.600006
 20
33.250000
 11
227.600006
 21
36.750000
  0
LINE
  8
0
  6
CONTINUOUS
 62
7
 10
226.600006
 20
36.750000
 11
227.600006
 21
36.750000
  0
LINE
  8
0
  6
CONTINUOUS
 62
7
 10
227.199997
 20
36.750000
 11
227.199997
 21
41.299999
  0
LINE
  8
0
  6
CONTINUOUS
 62
7
 10
227.199997
 20
41.299999
 11
226.000000
 21
41.299999
  0
LINE
  8
0
  6
CONTINUOUS
 62
7
 10
141.100006
 20
42.599998
 11
141.100006
 21
42.000000
  0
LINE
  8
0
  6
CONTINUOUS
 62
7
 10
226.600006
 20
22.750000
 11
226.600006
 21
19.250000
  0
LINE
  8
0
  6
CONTINUOUS
 62
7
 10
226.600006
 20
22.750000
 11
227.600006
 21
22.750000
  0
LINE
  8
0
  6
CONTINUOUS
 62
7
 10
227.600006
 20
19.250000
 11
227.600006
 21
22.750000
  0
LINE
  8
0
  6
CONTINUOUS
 62
7
 10
226.600006
 20
19.250000
 11
227.600006
 21
19.250000
  0
LINE
  8
0
  6
DASHED
 62
2
 10
154.649994
 20
17.500000
 11
154.649994
 21
14.500000
  0
LINE
  8
0
  6
DASHED
 62
2
 10
151.350006
 20
17.500000
 11
151.350006
 21
14.500000
  0
LINE
  8
0
  6
DASHED
 62
2
 10
154.649994
 20
38.500000
 11
154.649994
 21
41.500000
  0
LINE
  8
0
  6
DASHED
 62
2
 10
151.350006
 20
38.500000
 11
151.350006
 21
41.500000
  0
LINE
  8
0
  6
CENTER
 62
2
 10
215.000000
 20
42.500000
 11
215.000000
 21
34.500000
  0
LINE
  8
0
  6
CENTER
 62
2
 10
211.000000
 20
38.500000
 11
219.000000
 21
38.500000
  0
LINE
  8
0
  6
CENTER
 62
2
 10
215.000000
 20
21.500000
 11
215.000000
 21
13.500000
  0
LINE
  8
0
  6
CENTER
 62
2
 10
211.000000
 20
17.500000
 11
219.000000
 21
17.500000
  0
LINE
  8
0
  6
CENTER
 62
2
 10
153.000000
 20
21.500000
 11
153.000000
 21
13.500000
  0
LINE
  8
0
  6
CENTER
 62
2
 10
149.000000
 20
17.500000
 11
157.000000
 21
17.500000
  0
LINE
  8
0
  6
CENTER
 62
2
 10
153.000000
 20
42.500000
 11
153.000000
 21
34.500000
  0
LINE
  8
0
  6
CENTER
 62
2
 10
149.000000
 20
38.500000
 11
157.000000
 21
38.500000
  0
LINE
  8
0
  6
CENTER
 62
2
 10
145.000000
 20
44.500000
 11
145.000000
 21
41.000000
  0
LINE
  8
0
  6
CONTINUOUS
 62
7
 10
149.000000
 20
42.599998
 11
149.000000
 21
42.000000
  0
LINE
  8
0
  6
CONTINUOUS
 62
7
 10
141.500000
 20
43.500000
 11
141.500000
 21
42.599998
  0
LINE
  8
0
  6
CONTINUOUS
 62
7
 10
148.500000
 20
43.500000
 11
148.500000
 21
42.599998
  0
LINE
  8
0
  6
CONTINUOUS
 62
7
 10
149.000000
 20
42.599998
 11
141.100006
 21
42.599998
  0
LINE
  8
0
  6
CENTER
 62
2
 10
127.000000
 20
38.000000
 11
131.000000
 21
38.000000
  0
LINE
  8
0
  6
CENTER
 62
2
 10
127.000000
 20
18.000000
 11
131.000000
 21
18.000000
  0
LINE
  8
0
  6
CONTINUOUS
 62
7
 10
122.000000
 20
41.500000
 11
122.000000
 21
35.000000
  0
LINE
  8
0
  6
CONTINUOUS
 62
7
 10
121.699997
 20
34.700001
 11
121.699997
 21
21.299999
  0
LINE
  8
0
  6
CONTINUOUS
 62
7
 10
122.000000
 20
14.500000
 11
122.000000
 21
21.000000
  0
LINE
  8
0
  6
CONTINUOUS
 62
7
 10
122.000000
 20
14.500000
 11
103.000000
 21
14.500000
  0
LINE
  8
0
  6
CONTINUOUS
 62
7
 10
122.000000
 20
41.500000
 11
103.000000
 21
41.500000
  0
LINE
  8
0
  6
CONTINUOUS
 62
7
 10
122.000000
 20
35.000000
 11
121.699997
 21
34.700001
  0
LINE
  8
0
  6
CONTINUOUS
 62
7
 10
122.000000
 20
21.000000
 11
121.699997
 21
21.299999
  0
LINE
  8
0
  6
CONTINUOUS
 62
7
 10
111.500000
 20
14.000000
 11
111.500000
 21
14.500000
  0
LINE
  8
0
  6
CONTINUOUS
 62
7
 10
102.000000
 20
14.000000
 11
102.000000
 21
42.000000
  0
LINE
  8
0
  6
CONTINUOUS
 62
7
 10
111.500000
 20
14.000000
 11
102.000000
 21
14.000000
  0
LINE
  8
0
  6
CONTINUOUS
 62
7
 10
103.000000
 20
14.500000
 11
103.000000
 21
41.500000
  0
LINE
  8
0
  6
CONTINUOUS
 62
7
 10
121.500000
 20
41.500000
 11
121.500000
 21
14.500000
  0
LINE
  8
0
  6
CONTINUOUS
 62
7
 10
121.500000
 20
42.000000
 11
102.000000
 21
42.000000
  0
LINE
  8
0
  6
CONTINUOUS
 62
7
 10
111.500000
 20
42.000000
 11
111.500000
 21
41.500000
  0
LINE
  8
0
  6
CONTINUOUS
 62
7
 10
103.459000
 20
45.500000
 11
103.459000
 21
42.599998
  0
LINE
  8
0
  6
CONTINUOUS
 62
7
 10
105.478996
 20
45.500000
 11
105.478996
 21
42.599998
  0
LINE
  8
0
  6
CONTINUOUS
 62
7
 10
109.521004
 20
45.500000
 11
109.521004
 21
42.599998
  0
LINE
  8
0
  6
CONTINUOUS
 62
7
 10
111.541000
 20
45.500000
 11
103.459000
 21
45.500000
  0
LINE
  8
0
  6
CONTINUOUS
 62
7
 10
111.541000
 20
45.500000
 11
111.541000
 21
42.599998
  0
LINE
  8
0
  6
CONTINUOUS
 62
7
 10
111.541000
 20
42.599998
 11
103.459000
 21
42.599998
  0
LINE
  8
0
  6
CONTINUOUS
 62
7
 10
111.400002
 20
42.599998
 11
111.400002
 21
42.000000
  0
LINE
  8
0
  6
CONTINUOUS
 62
7
 10
103.599998
 20
42.599998
 11
103.599998
 21
42.000000
  0
LINE
  8
0
  6
CENTER
 62
2
 10
109.000000
 20
41.000000
 11
109.000000
 21
15.000000
  0
LINE
  8
0
  6
CENTER
 62
2
 10
101.000000
 20
28.000000
 11
123.000000
 21
28.000000
  0
LINE
  8
0
  6
CENTER
 62
2
 10
118.000000
 20
31.000000
 11
118.000000
 21
25.000000
  0
LINE
  8
0
  6
CENTER
 62
2
 10
106.000000
 20
38.000000
 11
122.000000
 21
38.000000
  0
LINE
  8
0
  6
CENTER
 62
2
 10
118.000000
 20
42.000000
 11
118.000000
 21
34.000000
  0
LINE
  8
0
  6
CENTER
 62
2
 10
106.000000
 20
18.000000
 11
122.000000
 21
18.000000
  0
LINE
  8
0
  6
CENTER
 62
2
 10
118.000000
 20
22.000000
 11
118.000000
 21
14.000000
  0
LINE
  8
0
  6
CENTER
 62
2
 10
107.500000
 20
46.500000
 11
107.500000
 21
41.000000
  0
LINE
  8
0
  6
CONTINUOUS
 62
7
 10
137.000000
 20
91.500000
 11
137.000000
 21
81.000000
  0
LINE
  8
0
  6
CONTINUOUS
 62
7
 10
129.000000
 20
91.500000
 11
129.000000
 21
73.000000
  0
LINE
  8
0
  6
CONTINUOUS
 62
7
 10
137.000000
 20
89.500000
 11
139.000000
 21
89.500000
  0
LINE
  8
0
  6
CONTINUOUS
 62
7
 10
129.000000
 20
91.500000
 11
137.000000
 21
91.500000
  0
LINE
  8
0
  6
CONTINUOUS
 62
7
 10
129.000000
 20
73.000000
 11
137.000000
 21
73.000000
  0
LINE
  8
0
  6
CONTINUOUS
 62
7
 10
137.000000
 20
72.500000
 11
226.000000
 21
72.500000
  0
LINE
  8
0
  6
CONTINUOUS
 62
7
 10
139.000000
 20
92.500000
 11
139.000000
 21
82.500000
  0
LINE
  8
0
  6
CONTINUOUS
 62
7
 10
229.000000
 20
92.500000
 11
229.000000
 21
92.000000
  0
LINE
  8
0
  6
CONTINUOUS
 62
7
 10
139.000000
 20
92.500000
 11
229.000000
 21
92.500000
  0
LINE
  8
0
  6
DASHED
 62
2
 10
218.000000
 20
87.000000
 11
212.000000
 21
87.000000
  0
LINE
  8
0
  6
CONTINUOUS
 62
7
 10
139.000000
 20
83.000000
 11
155.500000
 21
83.000000
  0
LINE
  8
0
  6
DASHED
 62
2
 10
168.000000
 20
88.500000
 11
162.000000
 21
88.500000
  0
LINE
  8
0
  6
CONTINUOUS
 62
7
 10
137.000000
 20
82.500000
 11
155.500000
 21
82.500000
  0
LINE
  8
0
  6
CONTINUOUS
 62
7
 10
149.800003
 20
87.000000
 11
155.500000
 21
87.000000
  0
LINE
  8
0
  6
CONTINUOUS
 62
7
 10
226.000000
 20
82.500000
 11
226.000000
 21
82.000000
  0
LINE
  8
0
  6
CONTINUOUS
 62
7
 10
151.350006
 20
92.500000
 11
151.350006
 21
87.000000
  0
LINE
  8
0
  6
DASHED
 62
2
 10
150.000000
 20
87.500000
 11
151.350006
 21
87.500000
  0
LINE
  8
0
  6
CENTER
 62
2
 10
153.000000
 20
93.500000
 11
153.000000
 21
86.000000
  0
LINE
  8
0
  6
CONTINUOUS
 62
7
 10
154.649994
 20
92.500000
 11
154.649994
 21
87.000000
  0
LINE
  8
0
  6
CONTINUOUS
 62
7
 10
145.000000
 20
82.958603
 11
148.500000
 21
84.979301
  0
LINE
  8
0
  6
CONTINUOUS
 62
7
 10
148.500000
 20
89.020798
 11
148.500000
 21
84.979301
  0
LINE
  8
0
  6
CONTINUOUS
 62
7
 10
145.000000
 20
91.041397
 11
148.500000
 21
89.020699
  0
LINE
  8
0
  6
CONTINUOUS
 62
7
 10
141.500000
 20
89.020798
 11
145.000000
 21
91.041496
  0
LINE
  8
0
  6
CONTINUOUS
 62
7
 10
141.500000
 20
84.979301
 11
141.500000
 21
89.020798
  0
LINE
  8
0
  6
CONTINUOUS
 62
7
 10
148.500000
 20
87.500000
 11
141.500000
 21
87.500000
  0
LINE
  8
0
  6
CONTINUOUS
 62
7
 10
148.500000
 20
86.500000
 11
141.500000
 21
86.500000
  0
LINE
  8
0
  6
CONTINUOUS
 62
7
 10
141.500000
 20
84.979301
 11
145.000000
 21
82.958603
  0
LINE
  8
0
  6
CONTINUOUS
 62
7
 10
226.000000
 20
73.000000
 11
229.000000
 21
73.000000
  0
LINE
  8
0
  6
CONTINUOUS
 62
7
 10
227.199997
 20
82.500000
 11
227.199997
 21
79.949997
  0
LINE
  8
0
  6
CONTINUOUS
 62
7
 10
227.600006
 20
77.050003
 11
227.600006
 21
73.750000
  0
LINE
  8
0
  6
CONTINUOUS
 62
7
 10
227.199997
 20
73.750000
 11
227.600006
 21
73.750000
  0
LINE
  8
0
  6
CENTER
 62
2
 10
145.000000
 20
92.041496
 11
145.000000
 21
81.958603
  0
LINE
  8
0
  6
CENTER
 62
2
 10
139.959000
 20
87.000000
 11
149.800003
 21
87.000000
  0
LINE
  8
0
  6
CENTER
 62
2
 10
208.850006
 20
78.199997
 11
208.850006
 21
74.199997
  0
LINE
  8
0
  6
CENTER
 62
2
 10
206.850006
 20
76.199997
 11
210.850006
 21
76.199997
  0
LINE
  8
0
  6
CENTER
 62
2
 10
165.000000
 20
93.500000
 11
165.000000
 21
87.500000
  0
LINE
  8
0
  6
DASHED
 62
2
 10
162.500000
 20
92.500000
 11
162.500000
 21
90.900002
  0
LINE
  8
0
  6
DASHED
 62
2
 10
167.500000
 20
92.500000
 11
167.500000
 21
90.900002
  0
LINE
  8
0
  6
DASHED
 62
2
 10
162.500000
 20
90.900002
 11
167.500000
 21
90.900002
  0
LINE
  8
0
  6
DASHED
 62
2
 10
213.000000
 20
92.500000
 11
213.000000
 21
87.500000
  0
LINE
  8
0
  6
CENTER
 62
2
 10
215.000000
 20
93.500000
 11
215.000000
 21
86.000000
  0
LINE
  8
0
  6
DASHED
 62
2
 10
212.000000
 20
87.500000
 11
212.000000
 21
86.992500
  0
LINE
  8
0
  6
DASHED
 62
2
 10
212.000000
 20
87.500000
 11
218.000000
 21
87.500000
  0
LINE
  8
0
  6
DASHED
 62
2
 10
218.000000
 20
87.500000
 11
218.000000
 21
87.000000
  0
LINE
  8
0
  6
DASHED
 62
2
 10
217.000000
 20
92.500000
 11
217.000000
 21
87.500000
  0
LINE
  8
0
  6
CENTER
 62
2
 10
146.000000
 20
74.500000
 11
146.000000
 21
70.500000
  0
LINE
  8
0
  6
CENTER
 62
2
 10
164.000000
 20
74.500000
 11
164.000000
 21
70.500000
  0
LINE
  8
0
  6
CENTER
 62
2
 10
212.000000
 20
74.500000
 11
212.000000
 21
70.500000
  0
LINE
  8
0
  6
CENTER
 62
2
 10
127.000000
 20
85.500000
 11
131.000000
 21
85.500000
  0
LINE
  8
0
  6
CENTER
 62
2
 10
127.000000
 20
76.500000
 11
131.000000
 21
76.500000
  0
LINE
  8
0
  6
DASHED
 62
2
 10
150.000000
 20
87.500000
 11
150.000000
 21
87.000000
  0
LINE
  8
0
  6
DASHED
 62
2
 10
156.000000
 20
87.500000
 11
156.000000
 21
87.000000
  0
LINE
  8
0
  6
CONTINUOUS
 62
7
 10
151.350006
 20
87.500000
 11
154.649994
 21
87.500000
  0
LINE
  8
0
  6
DASHED
 62
2
 10
154.649994
 20
87.500000
 11
156.000000
 21
87.500000
  0
LINE
  8
0
  6
CONTINUOUS
 62
7
 10
137.000000
 20
-102.000000
 11
137.000000
 21
-75.000000
  0
LINE
  8
0
  6
CONTINUOUS
 62
7
 10
154.649994
 20
-102.000000
 11
151.350006
 21
-102.000000
  0
LINE
  8
0
  6
CONTINUOUS
 62
7
 10
154.649994
 20
-75.000000
 11
151.350006
 21
-75.000000
  0
LINE
  8
0
  6
CONTINUOUS
 62
7
 10
139.000000
 20
-102.500000
 11
139.000000
 21
-74.500000
  0
LINE
  8
0
  6
CONTINUOUS
 62
7
 10
229.000000
 20
-74.500000
 11
154.649994
 21
-74.500000
  0
LINE
  8
0
  6
CONTINUOUS
 62
7
 10
229.000000
 20
-102.500000
 11
229.000000
 21
-74.500000
  0
LINE
  8
0
  6
CENTER
 62
2
 10
230.000000
 20
-88.500000
 11
128.000000
 21
-88.500000
  0
LINE
  8
0
  6
CONTINUOUS
 62
7
 10
239.500000
 20
-102.500000
 11
154.649994
 21
-102.500000
  0
LINE
  8
0
  6
CONTINUOUS
 62
7
 10
151.350006
 20
-74.500000
 11
139.000000
 21
-74.500000
  0
LINE
  8
0
  6
CONTINUOUS
 62
7
 10
151.350006
 20
-102.500000
 11
139.000000
 21
-102.500000
  0
LINE
  8
0
  6
CONTINUOUS
 62
7
 10
139.000000
 20
-75.000000
 11
129.000000
 21
-75.000000
  0
LINE
  8
0
  6
CONTINUOUS
 62
7
 10
139.000000
 20
-102.000000
 11
129.000000
 21
-102.000000
  0
LINE
  8
0
  6
CONTINUOUS
 62
7
 10
129.000000
 20
-102.000000
 11
129.000000
 21
-75.000000
  0
LINE
  8
0
  6
CONTINUOUS
 62
7
 10
139.000000
 20
-92.500000
 11
137.000000
 21
-92.500000
  0
LINE
  8
0
  6
CONTINUOUS
 62
7
 10
139.000000
 20
-84.500000
 11
137.000000
 21
-84.500000
  0
LINE
  8
0
  6
CONTINUOUS
 62
7
 10
148.500000
 20
-106.000000
 11
141.500000
 21
-106.000000
  0
LINE
  8
0
  6
CENTER
 62
2
 10
153.000000
 20
-75.349998
 11
153.000000
 21
-80.650002
  0
LINE
  8
0
  6
CENTER
 62
2
 10
150.350006
 20
-78.000000
 11
155.649994
 21
-78.000000
  0
LINE
  8
0
  6
CENTER
 62
2
 10
153.000000
 20
-96.349998
 11
153.000000
 21
-101.650002
  0
LINE
  8
0
  6
CENTER
 62
2
 10
150.350006
 20
-99.000000
 11
155.649994
 21
-99.000000
  0
LINE
  8
0
  6
CENTER
 62
2
 10
165.000000
 20
-95.500000
 11
165.000000
 21
-102.500000
  0
LINE
  8
0
  6
CENTER
 62
2
 10
161.500000
 20
-99.000000
 11
168.500000
 21
-99.000000
  0
LINE
  8
0
  6
CENTER
 62
2
 10
165.000000
 20
-74.500000
 11
165.000000
 21
-81.500000
  0
LINE
  8
0
  6
CENTER
 62
2
 10
161.500000
 20
-78.000000
 11
168.500000
 21
-78.000000
  0
LINE
  8
0
  6
CENTER
 62
2
 10
215.000000
 20
-75.000000
 11
215.000000
 21
-81.000000
  0
LINE
  8
0
  6
CENTER
 62
2
 10
212.000000
 20
-78.000000
 11
218.000000
 21
-78.000000
  0
LINE
  8
0
  6
CENTER
 62
2
 10
215.000000
 20
-96.000000
 11
215.000000
 21
-102.000000
  0
LINE
  8
0
  6
CENTER
 62
2
 10
212.000000
 20
-99.000000
 11
218.000000
 21
-99.000000
  0
LINE
  8
0
  6
CONTINUOUS
 62
7
 10
151.350006
 20
-74.500000
 11
151.350006
 21
-78.000000
  0
LINE
  8
0
  6
CONTINUOUS
 62
7
 10
154.649994
 20
-74.500000
 11
154.649994
 21
-78.000000
  0
LINE
  8
0
  6
CONTINUOUS
 62
7
 10
151.350006
 20
-99.000000
 11
151.350006
 21
-102.500000
  0
LINE
  8
0
  6
CONTINUOUS
 62
7
 10
154.649994
 20
-99.000000
 11
154.649994
 21
-102.500000
  0
LINE
  8
0
  6
CENTER
 62
2
 10
145.000000
 20
-101.500000
 11
145.000000
 21
-107.000000
  0
LINE
  8
0
  6
CONTINUOUS
 62
7
 10
148.899994
 20
-103.099998
 11
141.100006
 21
-103.099998
  0
LINE
  8
0
  6
CONTINUOUS
 62
7
 10
141.100006
 20
-102.500000
 11
141.100006
 21
-103.099998
  0
LINE
  8
0
  6
CONTINUOUS
 62
7
 10
148.899994
 20
-102.500000
 11
148.899994
 21
-103.099998
  0
LINE
  8
0
  6
CONTINUOUS
 62
7
 10
148.500000
 20
-103.099998
 11
148.500000
 21
-106.000000
  0
LINE
  8
0
  6
CONTINUOUS
 62
7
 10
141.500000
 20
-103.099998
 11
141.500000
 21
-106.000000
  0
LINE
  8
0
  6
CONTINUOUS
 62
7
 10
-39.000000
 20
-102.000000
 11
-39.000000
 21
-75.000000
  0
LINE
  8
0
  6
CONTINUOUS
 62
7
 10
-21.350000
 20
-102.000000
 11
-24.650000
 21
-102.000000
  0
LINE
  8
0
  6
CONTINUOUS
 62
7
 10
-21.350000
 20
-75.000000
 11
-24.650000
 21
-75.000000
  0
LINE
  8
0
  6
CONTINUOUS
 62
7
 10
-37.000000
 20
-102.500000
 11
-37.000000
 21
-74.500000
  0
LINE
  8
0
  6
CONTINUOUS
 62
7
 10
38.000000
 20
-74.500000
 11
-21.350000
 21
-74.500000
  0
LINE
  8
0
  6
CONTINUOUS
 62
7
 10
38.000000
 20
-102.500000
 11
38.000000
 21
-74.500000
  0
LINE
  8
0
  6
CENTER
 62
2
 10
39.000000
 20
-88.500000
 11
-48.000000
 21
-88.500000
  0
LINE
  8
0
  6
CONTINUOUS
 62
7
 10
48.500000
 20
-102.500000
 11
-21.350000
 21
-102.500000
  0
LINE
  8
0
  6
CONTINUOUS
 62
7
 10
-24.650000
 20
-74.500000
 11
-37.000000
 21
-74.500000
  0
LINE
  8
0
  6
CONTINUOUS
 62
7
 10
-24.650000
 20
-102.500000
 11
-37.000000
 21
-102.500000
  0
LINE
  8
0
  6
CONTINUOUS
 62
7
 10
-37.000000
 20
-75.000000
 11
-47.000000
 21
-75.000000
  0
LINE
  8
0
  6
CONTINUOUS
 62
7
 10
-37.000000
 20
-102.000000
 11
-47.000000
 21
-102.000000
  0
LINE
  8
0
  6
CONTINUOUS
 62
7
 10
-47.000000
 20
-102.000000
 11
-47.000000
 21
-75.000000
  0
LINE
  8
0
  6
CONTINUOUS
 62
7
 10
-37.000000
 20
-92.500000
 11
-39.000000
 21
-92.500000
  0
LINE
  8
0
  6
CONTINUOUS
 62
7
 10
-37.000000
 20
-84.500000
 11
-39.000000
 21
-84.500000
  0
LINE
  8
0
  6
CONTINUOUS
 62
7
 10
-27.500000
 20
-106.000000
 11
-34.500000
 21
-106.000000
  0
LINE
  8
0
  6
CENTER
 62
2
 10
-23.000000
 20
-75.349998
 11
-23.000000
 21
-80.650002
  0
LINE
  8
0
  6
CENTER
 62
2
 10
-25.650000
 20
-78.000000
 11
-20.350000
 21
-78.000000
  0
LINE
  8
0
  6
CENTER
 62
2
 10
-23.000000
 20
-96.349998
 11
-23.000000
 21
-101.650002
  0
LINE
  8
0
  6
CENTER
 62
2
 10
-25.650000
 20
-99.000000
 11
-20.350000
 21
-99.000000
  0
LINE
  8
0
  6
CENTER
 62
2
 10
-11.000000
 20
-95.500000
 11
-11.000000
 21
-102.500000
  0
LINE
  8
0
  6
CENTER
 62
2
 10
-14.500000
 20
-99.000000
 11
-7.500000
 21
-99.000000
  0
LINE
  8
0
  6
CENTER
 62
2
 10
-11.000000
 20
-74.500000
 11
-11.000000
 21
-81.500000
  0
LINE
  8
0
  6
CENTER
 62
2
 10
-14.500000
 20
-78.000000
 11
-7.500000
 21
-78.000000
  0
LINE
  8
0
  6
CENTER
 62
2
 10
24.000000
 20
-75.000000
 11
24.000000
 21
-81.000000
  0
LINE
  8
0
  6
CENTER
 62
2
 10
21.000000
 20
-78.000000
 11
27.000000
 21
-78.000000
  0
LINE
  8
0
  6
CENTER
 62
2
 10
24.000000
 20
-96.000000
 11
24.000000
 21
-102.000000
  0
LINE
  8
0
  6
CENTER
 62
2
 10
21.000000
 20
-99.000000
 11
27.000000
 21
-99.000000
  0
LINE
  8
0
  6
CONTINUOUS
 62
7
 10
-24.650000
 20
-74.500000
 11
-24.650000
 21
-78.000000
  0
LINE
  8
0
  6
CONTINUOUS
 62
7
 10
-21.350000
 20
-74.500000
 11
-21.350000
 21
-78.000000
  0
LINE
  8
0
  6
CONTINUOUS
 62
7
 10
-24.650000
 20
-99.000000
 11
-24.650000
 21
-102.500000
  0
LINE
  8
0
  6
CONTINUOUS
 62
7
 10
-21.350000
 20
-99.000000
 11
-21.350000
 21
-102.500000
  0
LINE
  8
0
  6
CENTER
 62
2
 10
-31.000000
 20
-101.500000
 11
-31.000000
 21
-107.000000
  0
LINE
  8
0
  6
CONTINUOUS
 62
7
 10
-27.100000
 20
-103.099998
 11
-34.900002
 21
-103.099998
  0
LINE
  8
0
  6
CONTINUOUS
 62
7
 10
-34.900002
 20
-102.500000
 11
-34.900002
 21
-103.099998
  0
LINE
  8
0
  6
CONTINUOUS
 62
7
 10
-27.100000
 20
-102.500000
 11
-27.100000
 21
-103.099998
  0
LINE
  8
0
  6
CONTINUOUS
 62
7
 10
-27.500000
 20
-103.099998
 11
-27.500000
 21
-106.000000
  0
LINE
  8
0
  6
CONTINUOUS
 62
7
 10
-34.500000
 20
-103.099998
 11
-34.500000
 21
-106.000000
  0
LINE
  8
0
  6
CENTER
 62
2
 10
39.000000
 20
28.000000
 11
-48.000000
 21
28.000000
  0
LINE
  8
0
  6
CONTINUOUS
 62
7
 10
35.700001
 20
41.500000
 11
-47.000000
 21
41.500000
  0
LINE
  8
0
  6
CONTINUOUS
 62
7
 10
35.000000
 20
14.500000
 11
-47.000000
 21
14.500000
  0
LINE
  8
0
  6
CONTINUOUS
 62
7
 10
35.000000
 20
21.000000
 11
-39.000000
 21
21.000000
  0
LINE
  8
0
  6
CONTINUOUS
 62
7
 10
35.000000
 20
35.000000
 11
-39.000000
 21
35.000000
  0
LINE
  8
0
  6
CONTINUOUS
 62
7
 10
38.000000
 20
14.000000
 11
-21.350000
 21
14.000000
  0
LINE
  8
0
  6
CONTINUOUS
 62
7
 10
38.000000
 20
42.000000
 11
38.000000
 21
14.000000
  0
LINE
  8
0
  6
CONTINUOUS
 62
7
 10
-39.000000
 20
41.500000
 11
-39.000000
 21
14.500000
  0
LINE
  8
0
  6
CONTINUOUS
 62
7
 10
35.000000
 20
41.500000
 11
35.000000
 21
14.500000
  0
LINE
  8
0
  6
CONTINUOUS
 62
7
 10
-37.000000
 20
14.500000
 11
-37.000000
 21
14.000000
  0
LINE
  8
0
  6
CONTINUOUS
 62
7
 10
-37.000000
 20
42.000000
 11
-37.000000
 21
41.500000
  0
LINE
  8
0
  6
CONTINUOUS
 62
7
 10
-24.650000
 20
14.000000
 11
-24.650000
 21
14.500000
  0
LINE
  8
0
  6
CONTINUOUS
 62
7
 10
-21.350000
 20
14.000000
 11
-21.350000
 21
14.500000
  0
LINE
  8
0
  6
CONTINUOUS
 62
7
 10
-21.350000
 20
41.500000
 11
-21.350000
 21
42.000000
  0
LINE
  8
0
  6
CONTINUOUS
 62
7
 10
-24.650000
 20
41.500000
 11
-24.650000
 21
42.000000
  0
LINE
  8
0
  6
CONTINUOUS
 62
7
 10
-24.650000
 20
14.000000
 11
-37.000000
 21
14.000000
  0
LINE
  8
0
  6
CONTINUOUS
 62
7
 10
-24.650000
 20
42.000000
 11
-37.000000
 21
42.000000
  0
LINE
  8
0
  6
CONTINUOUS
 62
7
 10
-47.000000
 20
41.500000
 11
-47.000000
 21
14.500000
  0
LINE
  8
0
  6
CENTER
 62
2
 10
-30.000000
 20
40.500000
 11
-30.000000
 21
35.500000
  0
LINE
  8
0
  6
CENTER
 62
2
 10
-32.500000
 20
38.000000
 11
-27.500000
 21
38.000000
  0
LINE
  8
0
  6
CENTER
 62
2
 10
-30.000000
 20
20.500000
 11
-30.000000
 21
15.500000
  0
LINE
  8
0
  6
CENTER
 62
2
 10
-32.500000
 20
18.000000
 11
-27.500000
 21
18.000000
  0
LINE
  8
0
  6
CENTER
 62
2
 10
21.000000
 20
40.500000
 11
21.000000
 21
35.500000
  0
LINE
  8
0
  6
CENTER
 62
2
 10
18.500000
 20
38.000000
 11
23.500000
 21
38.000000
  0
LINE
  8
0
  6
CENTER
 62
2
 10
-8.000030
 20
41.099998
 11
-8.000030
 21
35.900002
  0
LINE
  8
0
  6
CENTER
 62
2
 10
-10.600000
 20
38.500000
 11
-5.400020
 21
38.500000
  0
LINE
  8
0
  6
CENTER
 62
2
 10
21.000000
 20
20.500000
 11
21.000000
 21
15.500000
  0
LINE
  8
0
  6
CENTER
 62
2
 10
18.500000
 20
18.000000
 11
23.500000
 21
18.000000
  0
LINE
  8
0
  6
CENTER
 62
2
 10
-12.000000
 20
40.500000
 11
-12.000000
 21
35.500000
  0
LINE
  8
0
  6
CENTER
 62
2
 10
-14.500000
 20
38.000000
 11
-9.500030
 21
38.000000
  0
LINE
  8
0
  6
CENTER
 62
2
 10
-12.000000
 20
20.500000
 11
-12.000000
 21
15.500000
  0
LINE
  8
0
  6
CENTER
 62
2
 10
-14.500000
 20
18.000000
 11
-9.500030
 21
18.000000
  0
LINE
  8
0
  6
CONTINUOUS
 62
7
 10
36.200001
 20
14.700000
 11
35.000000
 21
14.700000
  0
LINE
  8
0
  6
CONTINUOUS
 62
7
 10
36.200001
 20
19.250000
 11
36.200001
 21
14.700000
  0
LINE
  8
0
  6
CONTINUOUS
 62
7
 10
36.200001
 20
33.250000
 11
36.200001
 21
22.750000
  0
LINE
  8
0
  6
CONTINUOUS
 62
7
 10
35.599998
 20
33.250000
 11
35.599998
 21
36.750000
  0
LINE
  8
0
  6
CONTINUOUS
 62
7
 10
35.599998
 20
33.250000
 11
36.599998
 21
33.250000
  0
LINE
  8
0
  6
CONTINUOUS
 62
7
 10
36.599998
 20
33.250000
 11
36.599998
 21
36.750000
  0
LINE
  8
0
  6
CONTINUOUS
 62
7
 10
35.599998
 20
36.750000
 11
36.599998
 21
36.750000
  0
LINE
  8
0
  6
CONTINUOUS
 62
7
 10
36.200001
 20
36.750000
 11
36.200001
 21
41.299999
  0
LINE
  8
0
  6
CONTINUOUS
 62
7
 10
36.200001
 20
41.299999
 11
35.000000
 21
41.299999
  0
LINE
  8
0
  6
CONTINUOUS
 62
7
 10
-34.900002
 20
42.599998
 11
-34.900002
 21
42.000000
  0
LINE
  8
0
  6
CONTINUOUS
 62
7
 10
35.599998
 20
22.750000
 11
35.599998
 21
19.250000
  0
LINE
  8
0
  6
CONTINUOUS
 62
7
 10
35.599998
 20
22.750000
 11
36.599998
 21
22.750000
  0
LINE
  8
0
  6
CONTINUOUS
 62
7
 10
36.599998
 20
19.250000
 11
36.599998
 21
22.750000
  0
LINE
  8
0
  6
CONTINUOUS
 62
7
 10
35.599998
 20
19.250000
 11
36.599998
 21
19.250000
  0
LINE
  8
0
  6
DASHED
 62
2
 10
-21.350000
 20
17.500000
 11
-21.350000
 21
14.500000
  0
LINE
  8
0
  6
DASHED
 62
2
 10
-24.650000
 20
17.500000
 11
-24.650000
 21
14.500000
  0
LINE
  8
0
  6
DASHED
 62
2
 10
-21.350000
 20
38.500000
 11
-21.350000
 21
41.500000
  0
LINE
  8
0
  6
DASHED
 62
2
 10
-24.650000
 20
38.500000
 11
-24.650000
 21
41.500000
  0
LINE
  8
0
  6
CENTER
 62
2
 10
24.000000
 20
42.500000
 11
24.000000
 21
34.500000
  0
LINE
  8
0
  6
CENTER
 62
2
 10
20.000000
 20
38.500000
 11
28.000000
 21
38.500000
  0
LINE
  8
0
  6
CENTER
 62
2
 10
24.000000
 20
21.500000
 11
24.000000
 21
13.500000
  0
LINE
  8
0
  6
CENTER
 62
2
 10
20.000000
 20
17.500000
 11
28.000000
 21
17.500000
  0
LINE
  8
0
  6
CENTER
 62
2
 10
-23.000000
 20
21.500000
 11
-23.000000
 21
13.500000
  0
LINE
  8
0
  6
CENTER
 62
2
 10
-27.000000
 20
17.500000
 11
-19.000000
 21
17.500000
  0
LINE
  8
0
  6
CENTER
 62
2
 10
-23.000000
 20
42.500000
 11
-23.000000
 21
34.500000
  0
LINE
  8
0
  6
CENTER
 62
2
 10
-27.000000
 20
38.500000
 11
-19.000000
 21
38.500000
  0
LINE
  8
0
  6
CENTER
 62
2
 10
-31.000000
 20
44.500000
 11
-31.000000
 21
41.000000
  0
LINE
  8
0
  6
CONTINUOUS
 62
7
 10
-27.000000
 20
42.599998
 11
-27.000000
 21
42.000000
  0
LINE
  8
0
  6
CONTINUOUS
 62
7
 10
-34.500000
 20
43.500000
 11
-34.500000
 21
42.599998
  0
LINE
  8
0
  6
CONTINUOUS
 62
7
 10
-27.500000
 20
43.500000
 11
-27.500000
 21
42.599998
  0
LINE
  8
0
  6
CONTINUOUS
 62
7
 10
-27.000000
 20
42.599998
 11
-34.900002
 21
42.599998
  0
LINE
  8
0
  6
CENTER
 62
2
 10
-49.000000
 20
38.000000
 11
-45.000000
 21
38.000000
  0
LINE
  8
0
  6
CENTER
 62
2
 10
-49.000000
 20
18.000000
 11
-45.000000
 21
18.000000
  0
LINE
  8
0
  6
CENTER
 62
2
 10
2.999980
 20
20.500000
 11
2.999980
 21
15.500000
  0
LINE
  8
0
  6
CENTER
 62
2
 10
0.499985
 20
18.000000
 11
5.499980
 21
18.000000
  0
LINE
  8
0
  6
CENTER
 62
2
 10
2.999980
 20
40.500000
 11
2.999980
 21
35.500000
  0
LINE
  8
0
  6
CENTER
 62
2
 10
0.499985
 20
38.000000
 11
5.499980
 21
38.000000
  0
LINE
  8
0
  6
CONTINUOUS
 62
7
 10
-39.000000
 20
91.500000
 11
-39.000000
 21
81.000000
  0
LINE
  8
0
  6
CONTINUOUS
 62
7
 10
-47.000000
 20
91.500000
 11
-47.000000
 21
73.000000
  0
LINE
  8
0
  6
CONTINUOUS
 62
7
 10
-39.000000
 20
89.500000
 11
-37.000000
 21
89.500000
  0
LINE
  8
0
  6
CONTINUOUS
 62
7
 10
-47.000000
 20
91.500000
 11
-39.000000
 21
91.500000
  0
LINE
  8
0
  6
CONTINUOUS
 62
7
 10
-47.000000
 20
73.000000
 11
-39.000000
 21
73.000000
  0
LINE
  8
0
  6
CONTINUOUS
 62
7
 10
-39.000000
 20
72.500000
 11
35.000000
 21
72.500000
  0
LINE
  8
0
  6
CONTINUOUS
 62
7
 10
-37.000000
 20
92.500000
 11
-37.000000
 21
82.500000
  0
LINE
  8
0
  6
CONTINUOUS
 62
7
 10
38.000000
 20
92.500000
 11
38.000000
 21
92.000000
  0
LINE
  8
0
  6
CONTINUOUS
 62
7
 10
-37.000000
 20
92.500000
 11
38.000000
 21
92.500000
  0
LINE
  8
0
  6
CONTINUOUS
 62
7
 10
-37.000000
 20
83.000000
 11
-20.500000
 21
83.000000
  0
LINE
  8
0
  6
CONTINUOUS
 62
7
 10
-39.000000
 20
82.500000
 11
-20.500000
 21
82.500000
  0
LINE
  8
0
  6
CONTINUOUS
 62
7
 10
35.000000
 20
82.500000
 11
35.000000
 21
82.000000
  0
LINE
  8
0
  6
CONTINUOUS
 62
7
 10
-31.000000
 20
82.958603
 11
-27.500000
 21
84.979301
  0
LINE
  8
0
  6
CONTINUOUS
 62
7
 10
-27.500000
 20
89.020798
 11
-27.500000
 21
84.979301
  0
LINE
  8
0
  6
CONTINUOUS
 62
7
 10
-31.000000
 20
91.041496
 11
-27.500000
 21
89.020798
  0
LINE
  8
0
  6
CONTINUOUS
 62
7
 10
-34.500000
 20
89.020798
 11
-31.000000
 21
91.041496
  0
LINE
  8
0
  6
CONTINUOUS
 62
7
 10
-34.500000
 20
84.979301
 11
-34.500000
 21
89.020798
  0
LINE
  8
0
  6
CONTINUOUS
 62
7
 10
-27.500000
 20
87.500000
 11
-34.500000
 21
87.500000
  0
LINE
  8
0
  6
CONTINUOUS
 62
7
 10
-27.500000
 20
86.500000
 11
-34.500000
 21
86.500000
  0
LINE
  8
0
  6
CONTINUOUS
 62
7
 10
-34.500000
 20
84.979301
 11
-31.000000
 21
82.958603
  0
LINE
  8
0
  6
CONTINUOUS
 62
7
 10
35.000000
 20
73.000000
 11
38.000000
 21
73.000000
  0
LINE
  8
0
  6
CONTINUOUS
 62
7
 10
36.200001
 20
82.500000
 11
36.200001
 21
79.949997
  0
LINE
  8
0
  6
CONTINUOUS
 62
7
 10
36.599998
 20
77.050003
 11
36.599998
 21
73.750000
  0
LINE
  8
0
  6
CONTINUOUS
 62
7
 10
36.200001
 20
73.750000
 11
36.599998
 21
73.750000
  0
LINE
  8
0
  6
CENTER
 62
2
 10
-31.000000
 20
92.041496
 11
-31.000000
 21
81.958603
  0
LINE
  8
0
  6
CENTER
 62
2
 10
-36.041500
 20
87.000000
 11
-25.958500
 21
87.000000
  0
LINE
  8
0
  6
CENTER
 62
2
 10
-11.000000
 20
93.500000
 11
-11.000000
 21
85.500000
  0
LINE
  8
0
  6
DASHED
 62
2
 10
-13.000000
 20
92.500000
 11
-13.000000
 21
86.500000
  0
LINE
  8
0
  6
DASHED
 62
2
 10
-9.000000
 20
92.500000
 11
-9.000000
 21
86.500000
  0
LINE
  8
0
  6
DASHED
 62
2
 10
22.000000
 20
92.500000
 11
22.000000
 21
87.500000
  0
LINE
  8
0
  6
CENTER
 62
2
 10
24.000000
 20
93.500000
 11
24.000000
 21
86.199997
  0
LINE
  8
0
  6
DASHED
 62
2
 10
21.000000
 20
87.500000
 11
21.000000
 21
87.199997
  0
LINE
  8
0
  6
DASHED
 62
2
 10
21.000000
 20
87.500000
 11
27.000000
 21
87.500000
  0
LINE
  8
0
  6
DASHED
 62
2
 10
27.000000
 20
87.500000
 11
27.000000
 21
87.199997
  0
LINE
  8
0
  6
DASHED
 62
2
 10
26.000000
 20
92.500000
 11
26.000000
 21
87.500000
  0
LINE
  8
0
  6
CENTER
 62
2
 10
-30.000000
 20
74.500000
 11
-30.000000
 21
70.500000
  0
LINE
  8
0
  6
CENTER
 62
2
 10
-12.000000
 20
74.500000
 11
-12.000000
 21
70.500000
  0
LINE
  8
0
  6
CENTER
 62
2
 10
21.000000
 20
74.500000
 11
21.000000
 21
70.500000
  0
LINE
  8
0
  6
CENTER
 62
2
 10
-49.000000
 20
85.500000
 11
-45.000000
 21
85.500000
  0
LINE
  8
0
  6
CENTER
 62
2
 10
-49.000000
 20
76.500000
 11
-45.000000
 21
76.500000
  0
LINE
  8
0
  6
CENTER
 62
2
 10
3.000000
 20
74.500000
 11
3.000000
 21
70.500000
  0
LINE
  8
0
  6
CONTINUOUS
 62
7
 10
-20.500000
 20
87.199997
 11
-26.200001
 21
87.199997
  0
LINE
  8
0
  6
DASHED
 62
2
 10
-26.000000
 20
87.500000
 11
-24.650000
 21
87.500000
  0
LINE
  8
0
  6
CONTINUOUS
 62
7
 10
-24.650000
 20
92.500000
 11
-24.650000
 21
87.199997
  0
LINE
  8
0
  6
CONTINUOUS
 62
7
 10
-21.350000
 20
92.500000
 11
-21.350000
 21
87.199997
  0
LINE
  8
0
  6
CENTER
 62
2
 10
-23.000000
 20
93.500000
 11
-23.000000
 21
86.199997
  0
LINE
  8
0
  6
DASHED
 62
2
 10
-8.000000
 20
86.500000
 11
-14.000000
 21
86.500000
  0
LINE
  8
0
  6
DASHED
 62
2
 10
27.000000
 20
87.199997
 11
21.000000
 21
87.199997
  0
LINE
  8
0
  6
CONTINUOUS
 62
7
 10
-31.000000
 20
-103.099998
 11
-31.000000
 21
-106.000000
  0
LINE
  8
0
  6
CONTINUOUS
 62
7
 10
145.000000
 20
-103.099998
 11
145.000000
 21
-106.000000
  0
LINE
  8
0
  6
CONTINUOUS
 62
7
 10
155.500000
 20
92.000000
 11
239.500000
 21
92.000000
  0
LINE
  8
0
  6
CONTINUOUS
 62
7
 10
155.500000
 20
92.000000
 11
155.500000
 21
73.000000
  0
LINE
  8
0
  6
CONTINUOUS
 62
7
 10
163.500000
 20
80.000000
 11
163.500000
 21
73.000000
  0
LINE
  8
0
  6
CENTER
 62
2
 10
135.199997
 20
78.500000
 11
167.199997
 21
78.500000
  0
LINE
  8
0
  6
CONTINUOUS
 62
7
 10
151.500000
 20
74.800003
 11
155.500000
 21
74.800003
  0
LINE
  8
0
  6
CONTINUOUS
 62
7
 10
151.500000
 20
82.199997
 11
151.500000
 21
74.800003
  0
LINE
  8
0
  6
CONTINUOUS
 62
7
 10
151.500000
 20
82.199997
 11
155.500000
 21
82.199997
  0
LINE
  8
0
  6
CONTINUOUS
 62
7
 10
151.500000
 20
79.699997
 11
155.500000
 21
79.699997
  0
LINE
  8
0
  6
CONTINUOUS
 62
7
 10
151.500000
 20
80.931099
 11
155.500000
 21
80.931099
  0
LINE
  8
0
  6
CONTINUOUS
 62
7
 10
151.500000
 20
77.300003
 11
155.500000
 21
77.300003
  0
LINE
  8
0
  6
CONTINUOUS
 62
7
 10
151.500000
 20
76.068901
 11
155.500000
 21
76.068901
  0
LINE
  8
0
  6
CONTINUOUS
 62
7
 10
136.199997
 20
76.000000
 11
136.199997
 21
81.000000
  0
LINE
  8
0
  6
CONTINUOUS
 62
7
 10
136.199997
 20
81.000000
 11
151.500000
 21
81.000000
  0
LINE
  8
0
  6
CONTINUOUS
 62
7
 10
136.199997
 20
76.000000
 11
151.500000
 21
76.000000
  0
LINE
  8
0
  6
CONTINUOUS
 62
2
 10
136.199997
 20
76.400002
 11
151.500000
 21
76.400002
  0
LINE
  8
0
  6
CONTINUOUS
 62
2
 10
136.199997
 20
80.599998
 11
151.500000
 21
80.599998
  0
LINE
  8
0
  6
CONTINUOUS
 62
7
 10
155.500000
 20
73.000000
 11
163.500000
 21
73.000000
  0
LINE
  8
0
  6
CONTINUOUS
 62
7
 10
211.199997
 20
82.000000
 11
226.699997
 21
82.000000
  0
LINE
  8
0
  6
CONTINUOUS
 62
7
 10
226.699997
 20
74.000000
 11
226.699997
 21
82.000000
  0
LINE
  8
0
  6
CONTINUOUS
 62
7
 10
211.199997
 20
74.000000
 11
226.699997
 21
74.000000
  0
LINE
  8
0
  6
CONTINUOUS
 62
7
 10
211.199997
 20
74.000000
 11
211.199997
 21
82.000000
  0
LINE
  8
0
  6
CONTINUOUS
 62
7
 10
137.000000
 20
76.000000
 11
137.000000
 21
72.500000
  0
LINE
  8
0
  6
CONTINUOUS
 62
7
 10
164.841995
 20
82.500000
 11
227.199997
 21
82.500000
  0
LINE
  8
0
  6
CONTINUOUS
 62
7
 10
166.500000
 20
83.000000
 11
228.500000
 21
83.000000
  0
LINE
  8
0
  6
CONTINUOUS
 62
7
 10
226.000000
 20
74.000000
 11
226.000000
 21
72.500000
  0
LINE
  8
0
  6
CONTINUOUS
 62
7
 10
163.500000
 20
42.000000
 11
163.500000
 21
50.000000
  0
LINE
  8
0
  6
CONTINUOUS
 62
7
 10
211.199997
 20
50.000000
 11
155.500000
 21
50.000000
  0
LINE
  8
0
  6
CENTER
 62
2
 10
167.199997
 20
46.000000
 11
135.199997
 21
46.000000
  0
LINE
  8
0
  6
CONTINUOUS
 62
7
 10
136.199997
 20
48.500000
 11
151.500000
 21
48.500000
  0
LINE
  8
0
  6
CONTINUOUS
 62
2
 10
136.199997
 20
48.099998
 11
151.500000
 21
48.099998
  0
LINE
  8
0
  6
CONTINUOUS
 62
2
 10
136.199997
 20
43.900002
 11
151.500000
 21
43.900002
  0
LINE
  8
0
  6
CONTINUOUS
 62
7
 10
136.199997
 20
48.500000
 11
136.199997
 21
43.500000
  0
LINE
  8
0
  6
CONTINUOUS
 62
7
 10
136.199997
 20
43.500000
 11
151.500000
 21
43.500000
  0
LINE
  8
0
  6
CONTINUOUS
 62
7
 10
155.500000
 20
42.000000
 11
155.500000
 21
50.000000
  0
LINE
  8
0
  6
CONTINUOUS
 62
7
 10
211.199997
 20
41.500000
 11
211.199997
 21
50.500000
  0
LINE
  8
0
  6
CONTINUOUS
 62
7
 10
155.500000
 20
49.500000
 11
151.500000
 21
49.500000
  0
LINE
  8
0
  6
CONTINUOUS
 62
7
 10
151.500000
 20
49.500000
 11
151.500000
 21
42.500000
  0
LINE
  8
0
  6
CONTINUOUS
 62
7
 10
155.500000
 20
48.789299
 11
151.500000
 21
48.789299
  0
LINE
  8
0
  6
CONTINUOUS
 62
7
 10
155.500000
 20
46.710800
 11
151.500000
 21
46.710800
  0
LINE
  8
0
  6
CONTINUOUS
 62
7
 10
155.500000
 20
45.289299
 11
151.500000
 21
45.289299
  0
LINE
  8
0
  6
CONTINUOUS
 62
7
 10
155.500000
 20
43.210800
 11
151.500000
 21
43.210800
  0
LINE
  8
0
  6
CONTINUOUS
 62
7
 10
155.500000
 20
42.500000
 11
151.500000
 21
42.500000
  0
LINE
  8
0
  6
CONTINUOUS
 62
7
 10
226.699997
 20
50.500000
 11
211.199997
 21
50.500000
  0
LINE
  8
0
  6
CONTINUOUS
 62
7
 10
226.699997
 20
41.500000
 11
226.699997
 21
50.500000
  0
LINE
  8
0
  6
CONTINUOUS
 62
7
 10
145.000000
 20
43.500000
 11
145.000000
 21
42.599998
  0
LINE
  8
0
  6
CONTINUOUS
 62
7
 10
211.199997
 20
42.000000
 11
154.649994
 21
42.000000
  0
LINE
  8
0
  6
CONTINUOUS
 62
7
 10
102.500000
 20
50.000000
 11
102.500000
 21
42.000000
  0
LINE
  8
0
  6
CONTINUOUS
 62
7
 10
102.500000
 20
50.000000
 11
121.500000
 21
50.000000
  0
LINE
  8
0
  6
CONTINUOUS
 62
7
 10
113.569000
 20
48.789299
 11
112.369003
 21
46.710800
  0
LINE
  8
0
  6
CONTINUOUS
 62
7
 10
117.199997
 20
49.500000
 11
114.800003
 21
49.500000
  0
LINE
  8
0
  6
CONTINUOUS
 62
7
 10
118.431000
 20
48.789200
 11
119.630997
 21
46.710800
  0
LINE
  8
0
  6
CONTINUOUS
 62
7
 10
119.630997
 20
45.289200
 11
118.431000
 21
43.210800
  0
LINE
  8
0
  6
CONTINUOUS
 62
7
 10
114.800003
 20
42.500000
 11
117.199997
 21
42.500000
  0
LINE
  8
0
  6
CONTINUOUS
 62
7
 10
112.369003
 20
45.289200
 11
113.569000
 21
43.210800
  0
LINE
  8
0
  6
CONTINUOUS
 62
7
 10
112.500000
 20
50.500000
 11
112.500000
 21
50.000000
  0
LINE
  8
0
  6
CONTINUOUS
 62
7
 10
120.500000
 20
50.500000
 11
120.500000
 21
50.000000
  0
LINE
  8
0
  6
CONTINUOUS
 62
7
 10
120.500000
 20
50.500000
 11
112.500000
 21
50.500000
  0
LINE
  8
0
  6
CONTINUOUS
 62
7
 10
120.500000
 20
42.000000
 11
120.500000
 21
41.500000
  0
LINE
  8
0
  6
CONTINUOUS
 62
7
 10
116.722000
 20
47.250000
 11
117.443001
 21
46.000000
  0
LINE
  8
0
  6
CONTINUOUS
 62
7
 10
117.443001
 20
46.000000
 11
116.722000
 21
44.750000
  0
LINE
  8
0
  6
CONTINUOUS
 62
7
 10
115.278000
 20
44.750000
 11
116.722000
 21
44.750000
  0
LINE
  8
0
  6
CONTINUOUS
 62
7
 10
114.556999
 20
46.000000
 11
115.278000
 21
44.750000
  0
LINE
  8
0
  6
CONTINUOUS
 62
7
 10
115.278000
 20
47.250000
 11
114.556999
 21
46.000000
  0
LINE
  8
0
  6
CONTINUOUS
 62
7
 10
116.722000
 20
47.250000
 11
115.278000
 21
47.250000
  0
LINE
  8
0
  6
CENTER
 62
2
 10
120.699997
 20
46.000000
 11
111.300003
 21
46.000000
  0
LINE
  8
0
  6
CENTER
 62
2
 10
116.000000
 20
41.299999
 11
116.000000
 21
50.700001
  0
LINE
  8
0
  6
CONTINUOUS
 62
7
 10
121.500000
 20
50.000000
 11
121.500000
 21
42.000000
  0
LINE
  8
0
  6
CONTINUOUS
 62
7
 10
112.500000
 20
42.000000
 11
112.500000
 21
41.500000
  0
LINE
  8
0
  6
CONTINUOUS
 62
7
 10
226.699997
 20
-110.500000
 11
226.699997
 21
-111.000000
  0
LINE
  8
0
  6
CONTINUOUS
 62
7
 10
136.199997
 20
-109.000000
 11
136.199997
 21
-104.000000
  0
LINE
  8
0
  6
CONTINUOUS
 62
7
 10
239.500000
 20
-110.500000
 11
155.500000
 21
-110.500000
  0
LINE
  8
0
  6
CENTER
 62
2
 10
156.500000
 20
-106.500000
 11
135.199997
 21
-106.500000
  0
LINE
  8
0
  6
CONTINUOUS
 62
7
 10
136.199997
 20
-109.000000
 11
151.500000
 21
-109.000000
  0
LINE
  8
0
  6
CONTINUOUS
 62
2
 10
136.199997
 20
-108.599998
 11
151.500000
 21
-108.599998
  0
LINE
  8
0
  6
CONTINUOUS
 62
2
 10
136.199997
 20
-104.400002
 11
141.500000
 21
-104.400002
  0
LINE
  8
0
  6
CONTINUOUS
 62
7
 10
136.199997
 20
-104.000000
 11
141.500000
 21
-104.000000
  0
LINE
  8
0
  6
CONTINUOUS
 62
7
 10
155.500000
 20
-102.500000
 11
155.500000
 21
-110.500000
  0
LINE
  8
0
  6
CONTINUOUS
 62
7
 10
211.199997
 20
-110.500000
 11
211.199997
 21
-111.000000
  0
LINE
  8
0
  6
CONTINUOUS
 62
7
 10
155.500000
 20
-110.000000
 11
151.500000
 21
-110.000000
  0
LINE
  8
0
  6
CONTINUOUS
 62
7
 10
151.500000
 20
-110.000000
 11
151.500000
 21
-103.000000
  0
LINE
  8
0
  6
CONTINUOUS
 62
7
 10
155.500000
 20
-109.289001
 11
151.500000
 21
-109.289001
  0
LINE
  8
0
  6
CONTINUOUS
 62
7
 10
155.500000
 20
-107.210999
 11
151.500000
 21
-107.210999
  0
LINE
  8
0
  6
CONTINUOUS
 62
7
 10
155.500000
 20
-105.789001
 11
151.500000
 21
-105.789001
  0
LINE
  8
0
  6
CONTINUOUS
 62
7
 10
155.500000
 20
-103.710999
 11
151.500000
 21
-103.710999
  0
LINE
  8
0
  6
CONTINUOUS
 62
7
 10
155.500000
 20
-103.000000
 11
151.500000
 21
-103.000000
  0
LINE
  8
0
  6
CONTINUOUS
 62
7
 10
226.699997
 20
-111.000000
 11
211.199997
 21
-111.000000
  0
LINE
  8
0
  6
CONTINUOUS
 62
7
 10
148.500000
 20
-104.000000
 11
151.500000
 21
-104.000000
  0
LINE
  8
0
  6
CONTINUOUS
 62
2
 10
148.500000
 20
-104.400002
 11
151.500000
 21
-104.400002
  0
LINE
  8
0
  6
CENTER
 62
2
 10
-161.000000
 20
28.000000
 11
-233.000000
 21
28.000000
  0
LINE
  8
0
  6
CONTINUOUS
 62
7
 10
-164.300003
 20
41.500000
 11
-232.000000
 21
41.500000
  0
LINE
  8
0
  6
CONTINUOUS
 62
7
 10
-165.000000
 20
14.500000
 11
-232.000000
 21
14.500000
  0
LINE
  8
0
  6
CONTINUOUS
 62
7
 10
-165.000000
 20
21.000000
 11
-224.000000
 21
21.000000
  0
LINE
  8
0
  6
CONTINUOUS
 62
7
 10
-165.000000
 20
35.000000
 11
-224.000000
 21
35.000000
  0
LINE
  8
0
  6
CONTINUOUS
 62
7
 10
-162.000000
 20
14.000000
 11
-206.350006
 21
14.000000
  0
LINE
  8
0
  6
CONTINUOUS
 62
7
 10
-162.000000
 20
42.000000
 11
-162.000000
 21
14.000000
  0
LINE
  8
0
  6
CONTINUOUS
 62
7
 10
-224.000000
 20
41.500000
 11
-224.000000
 21
14.500000
  0
LINE
  8
0
  6
CONTINUOUS
 62
7
 10
-165.000000
 20
41.500000
 11
-165.000000
 21
14.500000
  0
LINE
  8
0
  6
CONTINUOUS
 62
7
 10
-222.000000
 20
14.500000
 11
-222.000000
 21
14.000000
  0
LINE
  8
0
  6
CONTINUOUS
 62
7
 10
-222.000000
 20
42.000000
 11
-222.000000
 21
41.500000
  0
LINE
  8
0
  6
CONTINUOUS
 62
7
 10
-209.649994
 20
14.000000
 11
-209.649994
 21
14.500000
  0
LINE
  8
0
  6
CONTINUOUS
 62
7
 10
-206.350006
 20
14.000000
 11
-206.350006
 21
14.500000
  0
LINE
  8
0
  6
CONTINUOUS
 62
7
 10
-206.350006
 20
41.500000
 11
-206.350006
 21
42.000000
  0
LINE
  8
0
  6
CONTINUOUS
 62
7
 10
-209.649994
 20
41.500000
 11
-209.649994
 21
42.000000
  0
LINE
  8
0
  6
CONTINUOUS
 62
7
 10
-209.649994
 20
14.000000
 11
-222.000000
 21
14.000000
  0
LINE
  8
0
  6
CONTINUOUS
 62
7
 10
-209.649994
 20
42.000000
 11
-222.000000
 21
42.000000
  0
LINE
  8
0
  6
CONTINUOUS
 62
7
 10
-232.000000
 20
41.500000
 11
-232.000000
 21
14.500000
  0
LINE
  8
0
  6
CENTER
 62
2
 10
-215.000000
 20
40.500000
 11
-215.000000
 21
35.500000
  0
LINE
  8
0
  6
CENTER
 62
2
 10
-217.500000
 20
38.000000
 11
-212.500000
 21
38.000000
  0
LINE
  8
0
  6
CENTER
 62
2
 10
-215.000000
 20
20.500000
 11
-215.000000
 21
15.500000
  0
LINE
  8
0
  6
CENTER
 62
2
 10
-217.500000
 20
18.000000
 11
-212.500000
 21
18.000000
  0
LINE
  8
0
  6
CENTER
 62
2
 10
-179.000000
 20
40.500000
 11
-179.000000
 21
35.500000
  0
LINE
  8
0
  6
CENTER
 62
2
 10
-181.500000
 20
38.000000
 11
-176.500000
 21
38.000000
  0
LINE
  8
0
  6
CENTER
 62
2
 10
-193.000000
 20
41.099998
 11
-193.000000
 21
35.900002
  0
LINE
  8
0
  6
CENTER
 62
2
 10
-195.600006
 20
38.500000
 11
-190.399994
 21
38.500000
  0
LINE
  8
0
  6
CENTER
 62
2
 10
-179.000000
 20
20.500000
 11
-179.000000
 21
15.500000
  0
LINE
  8
0
  6
CENTER
 62
2
 10
-181.500000
 20
18.000000
 11
-176.500000
 21
18.000000
  0
LINE
  8
0
  6
CENTER
 62
2
 10
-197.000000
 20
40.500000
 11
-197.000000
 21
35.500000
  0
LINE
  8
0
  6
CENTER
 62
2
 10
-199.500000
 20
38.000000
 11
-194.500000
 21
38.000000
  0
LINE
  8
0
  6
CENTER
 62
2
 10
-197.000000
 20
20.500000
 11
-197.000000
 21
15.500000
  0
LINE
  8
0
  6
CENTER
 62
2
 10
-199.500000
 20
18.000000
 11
-194.500000
 21
18.000000
  0
LINE
  8
0
  6
CONTINUOUS
 62
7
 10
-163.800003
 20
14.700000
 11
-165.000000
 21
14.700000
  0
LINE
  8
0
  6
CONTINUOUS
 62
7
 10
-163.800003
 20
19.250000
 11
-163.800003
 21
14.700000
  0
LINE
  8
0
  6
CONTINUOUS
 62
7
 10
-163.800003
 20
33.250000
 11
-163.800003
 21
22.750000
  0
LINE
  8
0
  6
CONTINUOUS
 62
7
 10
-164.399994
 20
33.250000
 11
-164.399994
 21
36.750000
  0
LINE
  8
0
  6
CONTINUOUS
 62
7
 10
-164.399994
 20
33.250000
 11
-163.399994
 21
33.250000
  0
LINE
  8
0
  6
CONTINUOUS
 62
7
 10
-163.399994
 20
33.250000
 11
-163.399994
 21
36.750000
  0
LINE
  8
0
  6
CONTINUOUS
 62
7
 10
-164.399994
 20
36.750000
 11
-163.399994
 21
36.750000
  0
LINE
  8
0
  6
CONTINUOUS
 62
7
 10
-163.800003
 20
36.750000
 11
-163.800003
 21
41.299999
  0
LINE
  8
0
  6
CONTINUOUS
 62
7
 10
-163.800003
 20
41.299999
 11
-165.000000
 21
41.299999
  0
LINE
  8
0
  6
CONTINUOUS
 62
7
 10
-219.899994
 20
42.599998
 11
-219.899994
 21
42.000000
  0
LINE
  8
0
  6
CONTINUOUS
 62
7
 10
-164.399994
 20
22.750000
 11
-164.399994
 21
19.250000
  0
LINE
  8
0
  6
CONTINUOUS
 62
7
 10
-164.399994
 20
22.750000
 11
-163.399994
 21
22.750000
  0
LINE
  8
0
  6
CONTINUOUS
 62
7
 10
-163.399994
 20
19.250000
 11
-163.399994
 21
22.750000
  0
LINE
  8
0
  6
CONTINUOUS
 62
7
 10
-164.399994
 20
19.250000
 11
-163.399994
 21
19.250000
  0
LINE
  8
0
  6
DASHED
 62
2
 10
-206.350006
 20
17.500000
 11
-206.350006
 21
14.500000
  0
LINE
  8
0
  6
DASHED
 62
2
 10
-209.649994
 20
17.500000
 11
-209.649994
 21
14.500000
  0
LINE
  8
0
  6
DASHED
 62
2
 10
-206.350006
 20
38.500000
 11
-206.350006
 21
41.500000
  0
LINE
  8
0
  6
DASHED
 62
2
 10
-209.649994
 20
38.500000
 11
-209.649994
 21
41.500000
  0
LINE
  8
0
  6
CENTER
 62
2
 10
-176.000000
 20
42.500000
 11
-176.000000
 21
34.500000
  0
LINE
  8
0
  6
CENTER
 62
2
 10
-180.000000
 20
38.500000
 11
-172.000000
 21
38.500000
  0
LINE
  8
0
  6
CENTER
 62
2
 10
-176.000000
 20
21.500000
 11
-176.000000
 21
13.500000
  0
LINE
  8
0
  6
CENTER
 62
2
 10
-180.000000
 20
17.500000
 11
-172.000000
 21
17.500000
  0
LINE
  8
0
  6
CENTER
 62
2
 10
-208.000000
 20
21.500000
 11
-208.000000
 21
13.500000
  0
LINE
  8
0
  6
CENTER
 62
2
 10
-212.000000
 20
17.500000
 11
-204.000000
 21
17.500000
  0
LINE
  8
0
  6
CENTER
 62
2
 10
-208.000000
 20
42.500000
 11
-208.000000
 21
34.500000
  0
LINE
  8
0
  6
CENTER
 62
2
 10
-212.000000
 20
38.500000
 11
-204.000000
 21
38.500000
  0
LINE
  8
0
  6
CENTER
 62
2
 10
-216.000000
 20
44.500000
 11
-216.000000
 21
41.000000
  0
LINE
  8
0
  6
CONTINUOUS
 62
7
 10
-212.000000
 20
42.599998
 11
-212.000000
 21
42.000000
  0
LINE
  8
0
  6
CONTINUOUS
 62
7
 10
-219.500000
 20
43.500000
 11
-219.500000
 21
42.599998
  0
LINE
  8
0
  6
CONTINUOUS
 62
7
 10
-212.500000
 20
43.500000
 11
-212.500000
 21
42.599998
  0
LINE
  8
0
  6
CONTINUOUS
 62
7
 10
-212.000000
 20
42.599998
 11
-219.899994
 21
42.599998
  0
LINE
  8
0
  6
CENTER
 62
2
 10
-234.000000
 20
38.000000
 11
-230.000000
 21
38.000000
  0
LINE
  8
0
  6
CENTER
 62
2
 10
-234.000000
 20
18.000000
 11
-230.000000
 21
18.000000
  0
LINE
  8
0
  6
CONTINUOUS
 62
7
 10
-63.000000
 20
41.500000
 11
-63.000000
 21
35.000000
  0
LINE
  8
0
  6
CONTINUOUS
 62
7
 10
-63.299999
 20
34.700001
 11
-63.299999
 21
21.299999
  0
LINE
  8
0
  6
CONTINUOUS
 62
7
 10
-63.000000
 20
14.500000
 11
-63.000000
 21
21.000000
  0
LINE
  8
0
  6
CONTINUOUS
 62
7
 10
-63.000000
 20
14.500000
 11
-82.000000
 21
14.500000
  0
LINE
  8
0
  6
CONTINUOUS
 62
7
 10
-63.000000
 20
41.500000
 11
-82.000000
 21
41.500000
  0
LINE
  8
0
  6
CONTINUOUS
 62
7
 10
-63.000000
 20
35.000000
 11
-63.299999
 21
34.700001
  0
LINE
  8
0
  6
CONTINUOUS
 62
7
 10
-63.000000
 20
21.000000
 11
-63.299999
 21
21.299999
  0
LINE
  8
0
  6
CONTINUOUS
 62
7
 10
-73.500000
 20
14.000000
 11
-73.500000
 21
14.500000
  0
LINE
  8
0
  6
CONTINUOUS
 62
7
 10
-83.000000
 20
14.000000
 11
-83.000000
 21
42.000000
  0
LINE
  8
0
  6
CONTINUOUS
 62
7
 10
-73.500000
 20
14.000000
 11
-83.000000
 21
14.000000
  0
LINE
  8
0
  6
CONTINUOUS
 62
7
 10
-82.000000
 20
14.500000
 11
-82.000000
 21
41.500000
  0
LINE
  8
0
  6
CONTINUOUS
 62
7
 10
-63.500000
 20
41.500000
 11
-63.500000
 21
14.500000
  0
LINE
  8
0
  6
CONTINUOUS
 62
7
 10
-63.500000
 20
42.000000
 11
-83.000000
 21
42.000000
  0
LINE
  8
0
  6
CONTINUOUS
 62
7
 10
-73.500000
 20
42.000000
 11
-73.500000
 21
41.500000
  0
LINE
  8
0
  6
CONTINUOUS
 62
7
 10
-81.541397
 20
45.500000
 11
-81.541397
 21
42.599998
  0
LINE
  8
0
  6
CONTINUOUS
 62
7
 10
-79.520699
 20
45.500000
 11
-79.520699
 21
42.599998
  0
LINE
  8
0
  6
CONTINUOUS
 62
7
 10
-75.479202
 20
45.500000
 11
-75.479202
 21
42.599998
  0
LINE
  8
0
  6
CONTINUOUS
 62
7
 10
-73.458603
 20
45.500000
 11
-81.541397
 21
45.500000
  0
LINE
  8
0
  6
CONTINUOUS
 62
7
 10
-73.458603
 20
45.500000
 11
-73.458603
 21
42.599998
  0
LINE
  8
0
  6
CONTINUOUS
 62
7
 10
-73.458603
 20
42.599998
 11
-81.541397
 21
42.599998
  0
LINE
  8
0
  6
CONTINUOUS
 62
7
 10
-73.599998
 20
42.599998
 11
-73.599998
 21
42.000000
  0
LINE
  8
0
  6
CONTINUOUS
 62
7
 10
-81.400002
 20
42.599998
 11
-81.400002
 21
42.000000
  0
LINE
  8
0
  6
CENTER
 62
2
 10
-76.000000
 20
41.000000
 11
-76.000000
 21
15.000000
  0
LINE
  8
0
  6
CENTER
 62
2
 10
-84.000000
 20
28.000000
 11
-62.000000
 21
28.000000
  0
LINE
  8
0
  6
CENTER
 62
2
 10
-67.000000
 20
31.000000
 11
-67.000000
 21
25.000000
  0
LINE
  8
0
  6
CENTER
 62
2
 10
-79.000000
 20
38.000000
 11
-63.000000
 21
38.000000
  0
LINE
  8
0
  6
CENTER
 62
2
 10
-67.000000
 20
42.000000
 11
-67.000000
 21
34.000000
  0
LINE
  8
0
  6
CENTER
 62
2
 10
-79.000000
 20
18.000000
 11
-63.000000
 21
18.000000
  0
LINE
  8
0
  6
CENTER
 62
2
 10
-67.000000
 20
22.000000
 11
-67.000000
 21
14.000000
  0
LINE
  8
0
  6
CENTER
 62
2
 10
-77.500000
 20
46.500000
 11
-77.500000
 21
41.000000
  0
LINE
  8
0
  6
CONTINUOUS
 62
7
 10
-224.000000
 20
91.500000
 11
-224.000000
 21
81.000000
  0
LINE
  8
0
  6
CONTINUOUS
 62
7
 10
-232.000000
 20
91.500000
 11
-232.000000
 21
73.000000
  0
LINE
  8
0
  6
CONTINUOUS
 62
7
 10
-224.000000
 20
89.500000
 11
-222.000000
 21
89.500000
  0
LINE
  8
0
  6
CONTINUOUS
 62
7
 10
-232.000000
 20
91.500000
 11
-224.000000
 21
91.500000
  0
LINE
  8
0
  6
CONTINUOUS
 62
7
 10
-232.000000
 20
73.000000
 11
-224.000000
 21
73.000000
  0
LINE
  8
0
  6
CONTINUOUS
 62
7
 10
-224.000000
 20
72.500000
 11
-165.000000
 21
72.500000
  0
LINE
  8
0
  6
CONTINUOUS
 62
7
 10
-222.000000
 20
92.500000
 11
-222.000000
 21
82.500000
  0
LINE
  8
0
  6
CONTINUOUS
 62
7
 10
-162.000000
 20
92.500000
 11
-162.000000
 21
92.000000
  0
LINE
  8
0
  6
CONTINUOUS
 62
7
 10
-222.000000
 20
92.500000
 11
-162.000000
 21
92.500000
  0
LINE
  8
0
  6
DASHED
 62
2
 10
-173.000000
 20
87.000000
 11
-179.000000
 21
87.000000
  0
LINE
  8
0
  6
CONTINUOUS
 62
7
 10
-222.000000
 20
83.000000
 11
-205.500000
 21
83.000000
  0
LINE
  8
0
  6
DASHED
 62
2
 10
-193.000000
 20
88.500000
 11
-199.000000
 21
88.500000
  0
LINE
  8
0
  6
CONTINUOUS
 62
7
 10
-224.000000
 20
82.500000
 11
-205.500000
 21
82.500000
  0
LINE
  8
0
  6
CONTINUOUS
 62
7
 10
-211.199997
 20
87.000000
 11
-205.500000
 21
87.000000
  0
LINE
  8
0
  6
CONTINUOUS
 62
7
 10
-165.000000
 20
82.500000
 11
-165.000000
 21
82.000000
  0
LINE
  8
0
  6
CONTINUOUS
 62
7
 10
-209.649994
 20
92.500000
 11
-209.649994
 21
87.000000
  0
LINE
  8
0
  6
DASHED
 62
2
 10
-211.000000
 20
87.500000
 11
-209.649994
 21
87.500000
  0
LINE
  8
0
  6
CENTER
 62
2
 10
-208.000000
 20
93.500000
 11
-208.000000
 21
86.000000
  0
LINE
  8
0
  6
CONTINUOUS
 62
7
 10
-206.350006
 20
92.500000
 11
-206.350006
 21
87.000000
  0
LINE
  8
0
  6
CONTINUOUS
 62
7
 10
-216.000000
 20
82.958603
 11
-212.500000
 21
84.979301
  0
LINE
  8
0
  6
CONTINUOUS
 62
7
 10
-212.500000
 20
89.020798
 11
-212.500000
 21
84.979301
  0
LINE
  8
0
  6
CONTINUOUS
 62
7
 10
-216.000000
 20
91.041496
 11
-212.500000
 21
89.020798
  0
LINE
  8
0
  6
CONTINUOUS
 62
7
 10
-219.500000
 20
89.020699
 11
-216.000000
 21
91.041496
  0
LINE
  8
0
  6
CONTINUOUS
 62
7
 10
-219.500000
 20
84.979301
 11
-219.500000
 21
89.020798
  0
LINE
  8
0
  6
CONTINUOUS
 62
7
 10
-212.500000
 20
87.500000
 11
-219.500000
 21
87.500000
  0
LINE
  8
0
  6
CONTINUOUS
 62
7
 10
-212.500000
 20
86.500000
 11
-219.500000
 21
86.500000
  0
LINE
  8
0
  6
CONTINUOUS
 62
7
 10
-219.500000
 20
84.979301
 11
-216.000000
 21
82.958603
  0
LINE
  8
0
  6
CONTINUOUS
 62
7
 10
-165.000000
 20
73.000000
 11
-162.000000
 21
73.000000
  0
LINE
  8
0
  6
CONTINUOUS
 62
7
 10
-163.800003
 20
82.500000
 11
-163.800003
 21
79.949997
  0
LINE
  8
0
  6
CONTINUOUS
 62
7
 10
-163.399994
 20
77.050003
 11
-163.399994
 21
73.750000
  0
LINE
  8
0
  6
CONTINUOUS
 62
7
 10
-163.800003
 20
73.750000
 11
-163.399994
 21
73.750000
  0
LINE
  8
0
  6
CENTER
 62
2
 10
-216.000000
 20
92.041496
 11
-216.000000
 21
81.958603
  0
LINE
  8
0
  6
CENTER
 62
2
 10
-221.041000
 20
87.000000
 11
-211.199997
 21
87.000000
  0
LINE
  8
0
  6
CENTER
 62
2
 10
17.850000
 20
78.199997
 11
17.850000
 21
74.199997
  0
LINE
  8
0
  6
CENTER
 62
2
 10
15.850000
 20
76.199997
 11
19.850000
 21
76.199997
  0
LINE
  8
0
  6
CENTER
 62
2
 10
-196.000000
 20
93.500000
 11
-196.000000
 21
87.500000
  0
LINE
  8
0
  6
DASHED
 62
2
 10
-198.000000
 20
90.900002
 11
-198.000000
 21
88.500000
  0
LINE
  8
0
  6
DASHED
 62
2
 10
-194.000000
 20
90.900002
 11
-194.000000
 21
88.500000
  0
LINE
  8
0
  6
DASHED
 62
2
 10
-198.500000
 20
92.500000
 11
-198.500000
 21
90.900002
  0
LINE
  8
0
  6
DASHED
 62
2
 10
-193.500000
 20
92.500000
 11
-193.500000
 21
90.900002
  0
LINE
  8
0
  6
DASHED
 62
2
 10
-178.000000
 20
92.500000
 11
-178.000000
 21
87.500000
  0
LINE
  8
0
  6
CENTER
 62
2
 10
-176.000000
 20
93.500000
 11
-176.000000
 21
86.000000
  0
LINE
  8
0
  6
DASHED
 62
2
 10
-179.000000
 20
87.500000
 11
-179.000000
 21
86.992500
  0
LINE
  8
0
  6
DASHED
 62
2
 10
-179.000000
 20
87.500000
 11
-173.000000
 21
87.500000
  0
LINE
  8
0
  6
DASHED
 62
2
 10
-173.000000
 20
87.500000
 11
-173.000000
 21
87.000000
  0
LINE
  8
0
  6
DASHED
 62
2
 10
-174.000000
 20
92.500000
 11
-174.000000
 21
87.500000
  0
LINE
  8
0
  6
CENTER
 62
2
 10
-215.000000
 20
74.500000
 11
-215.000000
 21
70.500000
  0
LINE
  8
0
  6
CENTER
 62
2
 10
-197.000000
 20
74.500000
 11
-197.000000
 21
70.500000
  0
LINE
  8
0
  6
CENTER
 62
2
 10
-179.000000
 20
74.500000
 11
-179.000000
 21
70.500000
  0
LINE
  8
0
  6
CENTER
 62
2
 10
-234.000000
 20
85.500000
 11
-230.000000
 21
85.500000
  0
LINE
  8
0
  6
CENTER
 62
2
 10
-234.000000
 20
76.500000
 11
-230.000000
 21
76.500000
  0
LINE
  8
0
  6
DASHED
 62
2
 10
-211.000000
 20
87.500000
 11
-211.000000
 21
87.000000
  0
LINE
  8
0
  6
DASHED
 62
2
 10
-205.000000
 20
87.500000
 11
-205.000000
 21
87.000000
  0
LINE
  8
0
  6
CONTINUOUS
 62
7
 10
-209.649994
 20
87.500000
 11
-206.350006
 21
87.500000
  0
LINE
  8
0
  6
DASHED
 62
2
 10
-206.350006
 20
87.500000
 11
-205.000000
 21
87.500000
  0
LINE
  8
0
  6
CONTINUOUS
 62
7
 10
-224.000000
 20
-102.000000
 11
-224.000000
 21
-75.000000
  0
LINE
  8
0
  6
CONTINUOUS
 62
7
 10
-206.350006
 20
-102.000000
 11
-209.649994
 21
-102.000000
  0
LINE
  8
0
  6
CONTINUOUS
 62
7
 10
-206.350006
 20
-75.000000
 11
-209.649994
 21
-75.000000
  0
LINE
  8
0
  6
CONTINUOUS
 62
7
 10
-222.000000
 20
-102.500000
 11
-222.000000
 21
-74.500000
  0
LINE
  8
0
  6
CONTINUOUS
 62
7
 10
-162.000000
 20
-74.500000
 11
-206.350006
 21
-74.500000
  0
LINE
  8
0
  6
CONTINUOUS
 62
7
 10
-162.000000
 20
-102.500000
 11
-162.000000
 21
-74.500000
  0
LINE
  8
0
  6
CENTER
 62
2
 10
-161.000000
 20
-88.500000
 11
-233.000000
 21
-88.500000
  0
LINE
  8
0
  6
CONTINUOUS
 62
7
 10
-209.649994
 20
-74.500000
 11
-222.000000
 21
-74.500000
  0
LINE
  8
0
  6
CONTINUOUS
 62
7
 10
-209.649994
 20
-102.500000
 11
-222.000000
 21
-102.500000
  0
LINE
  8
0
  6
CONTINUOUS
 62
7
 10
-222.000000
 20
-75.000000
 11
-232.000000
 21
-75.000000
  0
LINE
  8
0
  6
CONTINUOUS
 62
7
 10
-222.000000
 20
-102.000000
 11
-232.000000
 21
-102.000000
  0
LINE
  8
0
  6
CONTINUOUS
 62
7
 10
-232.000000
 20
-102.000000
 11
-232.000000
 21
-75.000000
  0
LINE
  8
0
  6
CONTINUOUS
 62
7
 10
-222.000000
 20
-92.500000
 11
-224.000000
 21
-92.500000
  0
LINE
  8
0
  6
CONTINUOUS
 62
7
 10
-222.000000
 20
-84.500000
 11
-224.000000
 21
-84.500000
  0
LINE
  8
0
  6
CONTINUOUS
 62
7
 10
-212.500000
 20
-106.000000
 11
-219.500000
 21
-106.000000
  0
LINE
  8
0
  6
CENTER
 62
2
 10
-208.000000
 20
-75.349998
 11
-208.000000
 21
-80.650002
  0
LINE
  8
0
  6
CENTER
 62
2
 10
-210.649994
 20
-78.000000
 11
-205.350006
 21
-78.000000
  0
LINE
  8
0
  6
CENTER
 62
2
 10
-208.000000
 20
-96.349998
 11
-208.000000
 21
-101.650002
  0
LINE
  8
0
  6
CENTER
 62
2
 10
-210.649994
 20
-99.000000
 11
-205.350006
 21
-99.000000
  0
LINE
  8
0
  6
CENTER
 62
2
 10
-196.000000
 20
-95.500000
 11
-196.000000
 21
-102.500000
  0
LINE
  8
0
  6
CENTER
 62
2
 10
-199.500000
 20
-99.000000
 11
-192.500000
 21
-99.000000
  0
LINE
  8
0
  6
CENTER
 62
2
 10
-196.000000
 20
-74.500000
 11
-196.000000
 21
-81.500000
  0
LINE
  8
0
  6
CENTER
 62
2
 10
-199.500000
 20
-78.000000
 11
-192.500000
 21
-78.000000
  0
LINE
  8
0
  6
CENTER
 62
2
 10
-176.000000
 20
-75.000000
 11
-176.000000
 21
-81.000000
  0
LINE
  8
0
  6
CENTER
 62
2
 10
-179.000000
 20
-78.000000
 11
-173.000000
 21
-78.000000
  0
LINE
  8
0
  6
CENTER
 62
2
 10
-176.000000
 20
-96.000000
 11
-176.000000
 21
-102.000000
  0
LINE
  8
0
  6
CENTER
 62
2
 10
-179.000000
 20
-99.000000
 11
-173.000000
 21
-99.000000
  0
LINE
  8
0
  6
CONTINUOUS
 62
7
 10
-209.649994
 20
-74.500000
 11
-209.649994
 21
-78.000000
  0
LINE
  8
0
  6
CONTINUOUS
 62
7
 10
-206.350006
 20
-74.500000
 11
-206.350006
 21
-78.000000
  0
LINE
  8
0
  6
CONTINUOUS
 62
7
 10
-209.649994
 20
-99.000000
 11
-209.649994
 21
-102.500000
  0
LINE
  8
0
  6
CONTINUOUS
 62
7
 10
-206.350006
 20
-99.000000
 11
-206.350006
 21
-102.500000
  0
LINE
  8
0
  6
CENTER
 62
2
 10
-216.000000
 20
-101.500000
 11
-216.000000
 21
-107.000000
  0
LINE
  8
0
  6
CONTINUOUS
 62
7
 10
-212.100006
 20
-103.099998
 11
-219.899994
 21
-103.099998
  0
LINE
  8
0
  6
CONTINUOUS
 62
7
 10
-219.899994
 20
-102.500000
 11
-219.899994
 21
-103.099998
  0
LINE
  8
0
  6
CONTINUOUS
 62
7
 10
-212.100006
 20
-102.500000
 11
-212.100006
 21
-103.099998
  0
LINE
  8
0
  6
CONTINUOUS
 62
7
 10
-212.500000
 20
-103.099998
 11
-212.500000
 21
-106.000000
  0
LINE
  8
0
  6
CONTINUOUS
 62
7
 10
-219.500000
 20
-103.099998
 11
-219.500000
 21
-106.000000
  0
LINE
  8
0
  6
CONTINUOUS
 62
7
 10
-216.000000
 20
-103.099998
 11
-216.000000
 21
-106.000000
  0
LINE
  8
0
  6
CONTINUOUS
 62
7
 10
-205.500000
 20
92.000000
 11
-205.500000
 21
73.000000
  0
LINE
  8
0
  6
CONTINUOUS
 62
7
 10
-197.500000
 20
80.000000
 11
-197.500000
 21
73.000000
  0
LINE
  8
0
  6
CENTER
 62
2
 10
-225.800003
 20
78.500000
 11
-193.800003
 21
78.500000
  0
LINE
  8
0
  6
CONTINUOUS
 62
7
 10
-209.500000
 20
74.800003
 11
-205.500000
 21
74.800003
  0
LINE
  8
0
  6
CONTINUOUS
 62
7
 10
-209.500000
 20
82.199997
 11
-209.500000
 21
74.800003
  0
LINE
  8
0
  6
CONTINUOUS
 62
7
 10
-209.500000
 20
82.199997
 11
-205.500000
 21
82.199997
  0
LINE
  8
0
  6
CONTINUOUS
 62
7
 10
-209.500000
 20
79.699997
 11
-205.500000
 21
79.699997
  0
LINE
  8
0
  6
CONTINUOUS
 62
7
 10
-209.500000
 20
80.931099
 11
-205.500000
 21
80.931099
  0
LINE
  8
0
  6
CONTINUOUS
 62
7
 10
-209.500000
 20
77.300003
 11
-205.500000
 21
77.300003
  0
LINE
  8
0
  6
CONTINUOUS
 62
7
 10
-209.500000
 20
76.068901
 11
-205.500000
 21
76.068901
  0
LINE
  8
0
  6
CONTINUOUS
 62
7
 10
-224.800003
 20
76.000000
 11
-224.800003
 21
81.000000
  0
LINE
  8
0
  6
CONTINUOUS
 62
7
 10
-224.800003
 20
81.000000
 11
-209.500000
 21
81.000000
  0
LINE
  8
0
  6
CONTINUOUS
 62
7
 10
-224.800003
 20
76.000000
 11
-209.500000
 21
76.000000
  0
LINE
  8
0
  6
CONTINUOUS
 62
2
 10
-224.800003
 20
76.400002
 11
-209.500000
 21
76.400002
  0
LINE
  8
0
  6
CONTINUOUS
 62
2
 10
-224.800003
 20
80.599998
 11
-209.500000
 21
80.599998
  0
LINE
  8
0
  6
CONTINUOUS
 62
7
 10
-205.500000
 20
73.000000
 11
-197.500000
 21
73.000000
  0
LINE
  8
0
  6
CONTINUOUS
 62
7
 10
-179.800003
 20
82.000000
 11
-164.300003
 21
82.000000
  0
LINE
  8
0
  6
CONTINUOUS
 62
7
 10
-164.300003
 20
74.000000
 11
-164.300003
 21
82.000000
  0
LINE
  8
0
  6
CONTINUOUS
 62
7
 10
-179.800003
 20
74.000000
 11
-164.300003
 21
74.000000
  0
LINE
  8
0
  6
CONTINUOUS
 62
7
 10
-179.800003
 20
74.000000
 11
-179.800003
 21
82.000000
  0
LINE
  8
0
  6
CONTINUOUS
 62
7
 10
-224.000000
 20
76.000000
 11
-224.000000
 21
72.500000
  0
LINE
  8
0
  6
CONTINUOUS
 62
7
 10
-196.158005
 20
82.500000
 11
-163.800003
 21
82.500000
  0
LINE
  8
0
  6
CONTINUOUS
 62
7
 10
-194.500000
 20
83.000000
 11
-162.500000
 21
83.000000
  0
LINE
  8
0
  6
CONTINUOUS
 62
7
 10
-165.000000
 20
74.000000
 11
-165.000000
 21
72.500000
  0
LINE
  8
0
  6
CONTINUOUS
 62
7
 10
-197.500000
 20
42.000000
 11
-197.500000
 21
50.000000
  0
LINE
  8
0
  6
CONTINUOUS
 62
7
 10
-179.800003
 20
50.000000
 11
-205.500000
 21
50.000000
  0
LINE
  8
0
  6
CENTER
 62
2
 10
-193.800003
 20
46.000000
 11
-225.800003
 21
46.000000
  0
LINE
  8
0
  6
CONTINUOUS
 62
7
 10
-224.800003
 20
48.500000
 11
-209.500000
 21
48.500000
  0
LINE
  8
0
  6
CONTINUOUS
 62
2
 10
-224.800003
 20
48.099998
 11
-209.500000
 21
48.099998
  0
LINE
  8
0
  6
CONTINUOUS
 62
2
 10
-224.800003
 20
43.900002
 11
-209.500000
 21
43.900002
  0
LINE
  8
0
  6
CONTINUOUS
 62
7
 10
-224.800003
 20
48.500000
 11
-224.800003
 21
43.500000
  0
LINE
  8
0
  6
CONTINUOUS
 62
7
 10
-224.800003
 20
43.500000
 11
-209.500000
 21
43.500000
  0
LINE
  8
0
  6
CONTINUOUS
 62
7
 10
-205.500000
 20
42.000000
 11
-205.500000
 21
50.000000
  0
LINE
  8
0
  6
CONTINUOUS
 62
7
 10
-179.800003
 20
41.500000
 11
-179.800003
 21
50.500000
  0
LINE
  8
0
  6
CONTINUOUS
 62
7
 10
-205.500000
 20
49.500000
 11
-209.500000
 21
49.500000
  0
LINE
  8
0
  6
CONTINUOUS
 62
7
 10
-209.500000
 20
49.500000
 11
-209.500000
 21
42.500000
  0
LINE
  8
0
  6
CONTINUOUS
 62
7
 10
-205.500000
 20
48.789299
 11
-209.500000
 21
48.789299
  0
LINE
  8
0
  6
CONTINUOUS
 62
7
 10
-205.500000
 20
46.710800
 11
-209.500000
 21
46.710800
  0
LINE
  8
0
  6
CONTINUOUS
 62
7
 10
-205.500000
 20
45.289299
 11
-209.500000
 21
45.289299
  0
LINE
  8
0
  6
CONTINUOUS
 62
7
 10
-205.500000
 20
43.210800
 11
-209.500000
 21
43.210800
  0
LINE
  8
0
  6
CONTINUOUS
 62
7
 10
-205.500000
 20
42.500000
 11
-209.500000
 21
42.500000
  0
LINE
  8
0
  6
CONTINUOUS
 62
7
 10
-164.300003
 20
50.500000
 11
-179.800003
 21
50.500000
  0
LINE
  8
0
  6
CONTINUOUS
 62
7
 10
-164.300003
 20
41.500000
 11
-164.300003
 21
50.500000
  0
LINE
  8
0
  6
CONTINUOUS
 62
7
 10
-216.000000
 20
43.500000
 11
-216.000000
 21
42.599998
  0
LINE
  8
0
  6
CONTINUOUS
 62
7
 10
-179.800003
 20
42.000000
 11
-206.350006
 21
42.000000
  0
LINE
  8
0
  6
CONTINUOUS
 62
7
 10
-82.500000
 20
50.000000
 11
-82.500000
 21
42.000000
  0
LINE
  8
0
  6
CONTINUOUS
 62
7
 10
-82.500000
 20
50.000000
 11
-63.500000
 21
50.000000
  0
LINE
  8
0
  6
CONTINUOUS
 62
7
 10
-71.431099
 20
48.789299
 11
-72.631104
 21
46.710800
  0
LINE
  8
0
  6
CONTINUOUS
 62
7
 10
-67.800003
 20
49.500000
 11
-70.199997
 21
49.500000
  0
LINE
  8
0
  6
CONTINUOUS
 62
7
 10
-66.568802
 20
48.789299
 11
-65.368797
 21
46.710800
  0
LINE
  8
0
  6
CONTINUOUS
 62
7
 10
-65.368896
 20
45.289299
 11
-66.568901
 21
43.210800
  0
LINE
  8
0
  6
CONTINUOUS
 62
7
 10
-70.199997
 20
42.500000
 11
-67.800003
 21
42.500000
  0
LINE
  8
0
  6
CONTINUOUS
 62
7
 10
-72.630997
 20
45.289299
 11
-71.431000
 21
43.210800
  0
LINE
  8
0
  6
CONTINUOUS
 62
7
 10
-72.500000
 20
50.500000
 11
-72.500000
 21
50.000000
  0
LINE
  8
0
  6
CONTINUOUS
 62
7
 10
-64.500000
 20
50.500000
 11
-64.500000
 21
50.000000
  0
LINE
  8
0
  6
CONTINUOUS
 62
7
 10
-64.500000
 20
50.500000
 11
-72.500000
 21
50.500000
  0
LINE
  8
0
  6
CONTINUOUS
 62
7
 10
-64.500000
 20
42.000000
 11
-64.500000
 21
41.500000
  0
LINE
  8
0
  6
CONTINUOUS
 62
7
 10
-68.278297
 20
47.250000
 11
-67.556602
 21
46.000000
  0
LINE
  8
0
  6
CONTINUOUS
 62
7
 10
-67.556602
 20
46.000000
 11
-68.278297
 21
44.750000
  0
LINE
  8
0
  6
CONTINUOUS
 62
7
 10
-69.721703
 20
44.750000
 11
-68.278297
 21
44.750000
  0
LINE
  8
0
  6
CONTINUOUS
 62
7
 10
-70.443298
 20
46.000000
 11
-69.721603
 21
44.750000
  0
LINE
  8
0
  6
CONTINUOUS
 62
7
 10
-69.721703
 20
47.250000
 11
-70.443298
 21
46.000000
  0
LINE
  8
0
  6
CONTINUOUS
 62
7
 10
-68.278297
 20
47.250000
 11
-69.721703
 21
47.250000
  0
LINE
  8
0
  6
CENTER
 62
2
 10
-64.300003
 20
46.000000
 11
-73.699997
 21
46.000000
  0
LINE
  8
0
  6
CENTER
 62
2
 10
-69.000000
 20
41.299999
 11
-69.000000
 21
50.700001
  0
LINE
  8
0
  6
CONTINUOUS
 62
7
 10
-63.500000
 20
50.000000
 11
-63.500000
 21
42.000000
  0
LINE
  8
0
  6
CONTINUOUS
 62
7
 10
-72.500000
 20
42.000000
 11
-72.500000
 21
41.500000
  0
LINE
  8
0
  6
CONTINUOUS
 62
7
 10
-164.300003
 20
-110.500000
 11
-164.300003
 21
-111.000000
  0
LINE
  8
0
  6
CONTINUOUS
 62
7
 10
-224.800003
 20
-109.000000
 11
-224.800003
 21
-104.000000
  0
LINE
  8
0
  6
CENTER
 62
2
 10
-204.500000
 20
-106.500000
 11
-225.800003
 21
-106.500000
  0
LINE
  8
0
  6
CONTINUOUS
 62
7
 10
-224.800003
 20
-109.000000
 11
-209.500000
 21
-109.000000
  0
LINE
  8
0
  6
CONTINUOUS
 62
2
 10
-224.800003
 20
-108.599998
 11
-209.500000
 21
-108.599998
  0
LINE
  8
0
  6
CONTINUOUS
 62
2
 10
-224.800003
 20
-104.400002
 11
-219.500000
 21
-104.400002
  0
LINE
  8
0
  6
CONTINUOUS
 62
7
 10
-224.800003
 20
-104.000000
 11
-219.500000
 21
-104.000000
  0
LINE
  8
0
  6
CONTINUOUS
 62
7
 10
-205.500000
 20
-102.500000
 11
-205.500000
 21
-110.500000
  0
LINE
  8
0
  6
CONTINUOUS
 62
7
 10
-179.800003
 20
-110.500000
 11
-179.800003
 21
-111.000000
  0
LINE
  8
0
  6
CONTINUOUS
 62
7
 10
-205.500000
 20
-110.000000
 11
-209.500000
 21
-110.000000
  0
LINE
  8
0
  6
CONTINUOUS
 62
7
 10
-209.500000
 20
-110.000000
 11
-209.500000
 21
-103.000000
  0
LINE
  8
0
  6
CONTINUOUS
 62
7
 10
-205.500000
 20
-109.289001
 11
-209.500000
 21
-109.289001
  0
LINE
  8
0
  6
CONTINUOUS
 62
7
 10
-205.500000
 20
-107.210999
 11
-209.500000
 21
-107.210999
  0
LINE
  8
0
  6
CONTINUOUS
 62
7
 10
-205.500000
 20
-105.789001
 11
-209.500000
 21
-105.789001
  0
LINE
  8
0
  6
CONTINUOUS
 62
7
 10
-205.500000
 20
-103.710999
 11
-209.500000
 21
-103.710999
  0
LINE
  8
0
  6
CONTINUOUS
 62
7
 10
-205.500000
 20
-103.000000
 11
-209.500000
 21
-103.000000
  0
LINE
  8
0
  6
CONTINUOUS
 62
7
 10
-164.300003
 20
-111.000000
 11
-179.800003
 21
-111.000000
  0
LINE
  8
0
  6
CONTINUOUS
 62
7
 10
-212.500000
 20
-104.000000
 11
-209.500000
 21
-104.000000
  0
LINE
  8
0
  6
CONTINUOUS
 62
2
 10
-212.500000
 20
-104.400002
 11
-209.500000
 21
-104.400002
  0
LINE
  8
0
  6
CENTER
 62
2
 10
194.000000
 20
74.500000
 11
194.000000
 21
70.500000
  0
LINE
  8
0
  6
CENTER
 62
2
 10
164.000000
 20
20.500000
 11
164.000000
 21
15.500000
  0
LINE
  8
0
  6
CENTER
 62
2
 10
161.500000
 20
18.000000
 11
166.500000
 21
18.000000
  0
LINE
  8
0
  6
CENTER
 62
2
 10
164.000000
 20
40.500000
 11
164.000000
 21
35.500000
  0
LINE
  8
0
  6
CENTER
 62
2
 10
161.500000
 20
38.000000
 11
166.500000
 21
38.000000
  0
LINE
  8
0
  6
CONTINUOUS
 62
7
 10
-248.000000
 20
41.500000
 11
-248.000000
 21
35.000000
  0
LINE
  8
0
  6
CONTINUOUS
 62
7
 10
-248.300003
 20
34.700001
 11
-248.300003
 21
21.299999
  0
LINE
  8
0
  6
CONTINUOUS
 62
7
 10
-248.000000
 20
14.500000
 11
-248.000000
 21
21.000000
  0
LINE
  8
0
  6
CONTINUOUS
 62
7
 10
-248.000000
 20
14.500000
 11
-267.000000
 21
14.500000
  0
LINE
  8
0
  6
CONTINUOUS
 62
7
 10
-248.000000
 20
41.500000
 11
-267.000000
 21
41.500000
  0
LINE
  8
0
  6
CONTINUOUS
 62
7
 10
-248.000000
 20
35.000000
 11
-248.300003
 21
34.700001
  0
LINE
  8
0
  6
CONTINUOUS
 62
7
 10
-248.000000
 20
21.000000
 11
-248.300003
 21
21.299999
  0
LINE
  8
0
  6
CONTINUOUS
 62
7
 10
-258.500000
 20
14.000000
 11
-258.500000
 21
14.500000
  0
LINE
  8
0
  6
CONTINUOUS
 62
7
 10
-268.000000
 20
14.000000
 11
-268.000000
 21
42.000000
  0
LINE
  8
0
  6
CONTINUOUS
 62
7
 10
-258.500000
 20
14.000000
 11
-268.000000
 21
14.000000
  0
LINE
  8
0
  6
CONTINUOUS
 62
7
 10
-267.000000
 20
14.500000
 11
-267.000000
 21
41.500000
  0
LINE
  8
0
  6
CONTINUOUS
 62
7
 10
-248.500000
 20
41.500000
 11
-248.500000
 21
14.500000
  0
LINE
  8
0
  6
CONTINUOUS
 62
7
 10
-248.500000
 20
42.000000
 11
-268.000000
 21
42.000000
  0
LINE
  8
0
  6
CONTINUOUS
 62
7
 10
-258.500000
 20
42.000000
 11
-258.500000
 21
41.500000
  0
LINE
  8
0
  6
CONTINUOUS
 62
7
 10
-266.540985
 20
45.500000
 11
-266.540985
 21
42.599998
  0
LINE
  8
0
  6
CONTINUOUS
 62
7
 10
-264.520996
 20
45.500000
 11
-264.520996
 21
42.599998
  0
LINE
  8
0
  6
CONTINUOUS
 62
7
 10
-260.479004
 20
45.500000
 11
-260.479004
 21
42.599998
  0
LINE
  8
0
  6
CONTINUOUS
 62
7
 10
-258.459015
 20
45.500000
 11
-266.540985
 21
45.500000
  0
LINE
  8
0
  6
CONTINUOUS
 62
7
 10
-258.459015
 20
45.500000
 11
-258.459015
 21
42.599998
  0
LINE
  8
0
  6
CONTINUOUS
 62
7
 10
-258.459015
 20
42.599998
 11
-266.540985
 21
42.599998
  0
LINE
  8
0
  6
CONTINUOUS
 62
7
 10
-258.600006
 20
42.599998
 11
-258.600006
 21
42.000000
  0
LINE
  8
0
  6
CONTINUOUS
 62
7
 10
-266.399994
 20
42.599998
 11
-266.399994
 21
42.000000
  0
LINE
  8
0
  6
CENTER
 62
2
 10
-261.000000
 20
41.000000
 11
-261.000000
 21
15.000000
  0
LINE
  8
0
  6
CENTER
 62
2
 10
-269.000000
 20
28.000000
 11
-247.000000
 21
28.000000
  0
LINE
  8
0
  6
CENTER
 62
2
 10
-252.000000
 20
31.000000
 11
-252.000000
 21
25.000000
  0
LINE
  8
0
  6
CENTER
 62
2
 10
-264.000000
 20
38.000000
 11
-248.000000
 21
38.000000
  0
LINE
  8
0
  6
CENTER
 62
2
 10
-252.000000
 20
42.000000
 11
-252.000000
 21
34.000000
  0
LINE
  8
0
  6
CENTER
 62
2
 10
-264.000000
 20
18.000000
 11
-248.000000
 21
18.000000
  0
LINE
  8
0
  6
CENTER
 62
2
 10
-252.000000
 20
22.000000
 11
-252.000000
 21
14.000000
  0
LINE
  8
0
  6
CENTER
 62
2
 10
-262.500000
 20
46.500000
 11
-262.500000
 21
41.000000
  0
LINE
  8
0
  6
CONTINUOUS
 62
7
 10
-267.500000
 20
50.000000
 11
-267.500000
 21
42.000000
  0
LINE
  8
0
  6
CONTINUOUS
 62
7
 10
-267.500000
 20
50.000000
 11
-248.500000
 21
50.000000
  0
LINE
  8
0
  6
CONTINUOUS
 62
7
 10
-256.431000
 20
48.789200
 11
-257.631012
 21
46.710800
  0
LINE
  8
0
  6
CONTINUOUS
 62
7
 10
-252.800003
 20
49.500000
 11
-255.199997
 21
49.500000
  0
LINE
  8
0
  6
CONTINUOUS
 62
7
 10
-251.569000
 20
48.789200
 11
-250.369003
 21
46.710800
  0
LINE
  8
0
  6
CONTINUOUS
 62
7
 10
-250.369003
 20
45.289200
 11
-251.569000
 21
43.210800
  0
LINE
  8
0
  6
CONTINUOUS
 62
7
 10
-255.199997
 20
42.500000
 11
-252.800003
 21
42.500000
  0
LINE
  8
0
  6
CONTINUOUS
 62
7
 10
-257.631012
 20
45.289200
 11
-256.431000
 21
43.210800
  0
LINE
  8
0
  6
CONTINUOUS
 62
7
 10
-257.500000
 20
50.500000
 11
-257.500000
 21
50.000000
  0
LINE
  8
0
  6
CONTINUOUS
 62
7
 10
-249.500000
 20
50.500000
 11
-249.500000
 21
50.000000
  0
LINE
  8
0
  6
CONTINUOUS
 62
7
 10
-249.500000
 20
50.500000
 11
-257.500000
 21
50.500000
  0
LINE
  8
0
  6
CONTINUOUS
 62
7
 10
-249.500000
 20
42.000000
 11
-249.500000
 21
41.500000
  0
LINE
  8
0
  6
CONTINUOUS
 62
7
 10
-253.278000
 20
47.250099
 11
-252.557007
 21
46.000000
  0
LINE
  8
0
  6
CONTINUOUS
 62
7
 10
-252.557007
 20
46.000000
 11
-253.278000
 21
44.750000
  0
LINE
  8
0
  6
CONTINUOUS
 62
7
 10
-254.722000
 20
44.750000
 11
-253.278000
 21
44.750000
  0
LINE
  8
0
  6
CONTINUOUS
 62
7
 10
-255.442993
 20
46.000000
 11
-254.722000
 21
44.750000
  0
LINE
  8
0
  6
CONTINUOUS
 62
7
 10
-254.722000
 20
47.250000
 11
-255.442993
 21
46.000000
  0
LINE
  8
0
  6
CONTINUOUS
 62
7
 10
-253.278000
 20
47.250000
 11
-254.722000
 21
47.250000
  0
LINE
  8
0
  6
CENTER
 62
2
 10
-249.300003
 20
46.000000
 11
-258.700012
 21
46.000000
  0
LINE
  8
0
  6
CENTER
 62
2
 10
-254.000000
 20
41.299999
 11
-254.000000
 21
50.700001
  0
LINE
  8
0
  6
CONTINUOUS
 62
7
 10
-248.500000
 20
50.000000
 11
-248.500000
 21
42.000000
  0
LINE
  8
0
  6
CONTINUOUS
 62
7
 10
-257.500000
 20
42.000000
 11
-257.500000
 21
41.500000
  0
LINE
  8
0
  6
CONTINUOUS
 62
7
 10
265.500000
 20
14.000000
 11
275.000000
 21
14.000000
  0
LINE
  8
0
  6
CENTER
 62
2
 10
268.000000
 20
34.400002
 11
268.000000
 21
21.600000
  0
LINE
  8
0
  6
CENTER
 62
2
 10
254.000000
 20
28.000000
 11
276.000000
 21
28.000000
  0
LINE
  8
0
  6
CONTINUOUS
 62
7
 10
259.500000
 20
34.000000
 11
259.500000
 21
22.000000
  0
LINE
  8
0
  6
CONTINUOUS
 62
7
 10
262.709015
 20
34.000000
 11
265.500000
 21
34.000000
  0
LINE
  8
0
  6
CONTINUOUS
 62
7
 10
259.500000
 20
34.000000
 11
260.290985
 21
34.000000
  0
LINE
  8
0
  6
CONTINUOUS
 62
7
 10
262.709015
 20
22.000000
 11
265.500000
 21
22.000000
  0
LINE
  8
0
  6
CONTINUOUS
 62
7
 10
259.500000
 20
22.000000
 11
260.290985
 21
22.000000
  0
LINE
  8
0
  6
CONTINUOUS
 62
7
 10
265.500000
 20
14.000000
 11
265.500000
 21
22.000000
  0
LINE
  8
0
  6
CONTINUOUS
 62
7
 10
275.000000
 20
14.000000
 11
275.000000
 21
42.000000
  0
LINE
  8
0
  6
CONTINUOUS
 62
7
 10
265.500000
 20
42.000000
 11
265.500000
 21
34.000000
  0
LINE
  8
0
  6
CONTINUOUS
 62
7
 10
255.500000
 20
42.000000
 11
275.000000
 21
42.000000
  0
LINE
  8
0
  6
CONTINUOUS
 62
7
 10
255.300003
 20
34.700001
 11
255.300003
 21
21.299999
  0
LINE
  8
0
  6
CONTINUOUS
 62
7
 10
255.000000
 20
14.500000
 11
255.000000
 21
21.000000
  0
LINE
  8
0
  6
CONTINUOUS
 62
7
 10
255.000000
 20
14.500000
 11
265.500000
 21
14.500000
  0
LINE
  8
0
  6
CONTINUOUS
 62
7
 10
265.000000
 20
14.500000
 11
265.000000
 21
22.000000
  0
LINE
  8
0
  6
CONTINUOUS
 62
7
 10
255.000000
 20
21.000099
 11
255.300003
 21
21.300100
  0
LINE
  8
0
  6
CONTINUOUS
 62
7
 10
255.000000
 20
41.500000
 11
255.000000
 21
35.000000
  0
LINE
  8
0
  6
CONTINUOUS
 62
7
 10
255.000000
 20
35.000000
 11
255.300003
 21
34.700001
  0
LINE
  8
0
  6
CONTINUOUS
 62
7
 10
265.000000
 20
41.500000
 11
265.000000
 21
34.000000
  0
LINE
  8
0
  6
CONTINUOUS
 62
7
 10
255.000000
 20
41.500000
 11
265.500000
 21
41.500000
  0
LINE
  8
0
  6
CENTER
 62
2
 10
273.000000
 20
38.500000
 11
277.000000
 21
38.500000
  0
LINE
  8
0
  6
CENTER
 62
2
 10
273.000000
 20
17.500000
 11
277.000000
 21
17.500000
  0
LINE
  8
0
  6
CENTER
 62
2
 10
253.000000
 20
38.000000
 11
257.000000
 21
38.000000
  0
LINE
  8
0
  6
CENTER
 62
2
 10
253.000000
 20
18.000000
 11
257.000000
 21
18.000000
  0
LINE
  8
0
  6
CONTINUOUS
 62
7
 10
274.500000
 20
50.000000
 11
274.500000
 21
42.000000
  0
LINE
  8
0
  6
CONTINUOUS
 62
7
 10
274.500000
 20
50.000000
 11
255.500000
 21
50.000000
  0
LINE
  8
0
  6
CONTINUOUS
 62
7
 10
264.500000
 20
50.500000
 11
264.500000
 21
50.000000
  0
LINE
  8
0
  6
CONTINUOUS
 62
7
 10
256.500000
 20
50.500000
 11
256.500000
 21
50.000000
  0
LINE
  8
0
  6
CONTINUOUS
 62
7
 10
256.500000
 20
50.500000
 11
264.500000
 21
50.500000
  0
LINE
  8
0
  6
CONTINUOUS
 62
7
 10
255.500000
 20
50.000000
 11
255.500000
 21
42.000000
  0
LINE
  8
0
  6
CONTINUOUS
 62
7
 10
-20.500000
 20
92.000000
 11
21.500000
 21
92.000000
  0
LINE
  8
0
  6
CONTINUOUS
 62
7
 10
-20.500000
 20
92.000000
 11
-20.500000
 21
73.000000
  0
LINE
  8
0
  6
CONTINUOUS
 62
7
 10
-12.500000
 20
80.000000
 11
-12.500000
 21
73.000000
  0
LINE
  8
0
  6
CENTER
 62
2
 10
-40.799999
 20
78.500000
 11
-8.800000
 21
78.500000
  0
LINE
  8
0
  6
CONTINUOUS
 62
7
 10
-24.500000
 20
74.800003
 11
-20.500000
 21
74.800003
  0
LINE
  8
0
  6
CONTINUOUS
 62
7
 10
-24.500000
 20
82.199997
 11
-24.500000
 21
74.800003
  0
LINE
  8
0
  6
CONTINUOUS
 62
7
 10
-24.500000
 20
82.199997
 11
-20.500000
 21
82.199997
  0
LINE
  8
0
  6
CONTINUOUS
 62
7
 10
-24.500000
 20
79.699997
 11
-20.500000
 21
79.699997
  0
LINE
  8
0
  6
CONTINUOUS
 62
7
 10
-24.500000
 20
80.931099
 11
-20.500000
 21
80.931099
  0
LINE
  8
0
  6
CONTINUOUS
 62
7
 10
-24.500000
 20
77.300003
 11
-20.500000
 21
77.300003
  0
LINE
  8
0
  6
CONTINUOUS
 62
7
 10
-24.500000
 20
76.068901
 11
-20.500000
 21
76.068901
  0
LINE
  8
0
  6
CONTINUOUS
 62
7
 10
-39.799999
 20
76.000000
 11
-39.799999
 21
81.000000
  0
LINE
  8
0
  6
CONTINUOUS
 62
7
 10
-39.799999
 20
81.000000
 11
-24.500000
 21
81.000000
  0
LINE
  8
0
  6
CONTINUOUS
 62
7
 10
-39.799999
 20
76.000000
 11
-24.500000
 21
76.000000
  0
LINE
  8
0
  6
CONTINUOUS
 62
2
 10
-39.799999
 20
76.400002
 11
-24.500000
 21
76.400002
  0
LINE
  8
0
  6
CONTINUOUS
 62
2
 10
-39.799999
 20
80.599998
 11
-24.500000
 21
80.599998
  0
LINE
  8
0
  6
CONTINUOUS
 62
7
 10
-20.500000
 20
73.000000
 11
-12.500000
 21
73.000000
  0
LINE
  8
0
  6
CONTINUOUS
 62
7
 10
20.200001
 20
82.000000
 11
35.700001
 21
82.000000
  0
LINE
  8
0
  6
CONTINUOUS
 62
7
 10
35.700001
 20
74.000000
 11
35.700001
 21
82.000000
  0
LINE
  8
0
  6
CONTINUOUS
 62
7
 10
20.200001
 20
74.000000
 11
35.700001
 21
74.000000
  0
LINE
  8
0
  6
CONTINUOUS
 62
7
 10
20.200001
 20
74.000000
 11
20.200001
 21
82.000000
  0
LINE
  8
0
  6
CONTINUOUS
 62
7
 10
-9.500000
 20
83.000000
 11
37.500000
 21
83.000000
  0
LINE
  8
0
  6
CONTINUOUS
 62
7
 10
-11.158300
 20
82.500000
 11
36.200001
 21
82.500000
  0
LINE
  8
0
  6
CONTINUOUS
 62
7
 10
-39.000000
 20
76.000000
 11
-39.000000
 21
72.500000
  0
LINE
  8
0
  6
DASHED
 62
2
 10
-26.000000
 20
87.500000
 11
-26.000000
 21
87.199997
  0
LINE
  8
0
  6
DASHED
 62
2
 10
-20.000000
 20
87.500000
 11
-20.000000
 21
87.199997
  0
LINE
  8
0
  6
CONTINUOUS
 62
7
 10
-24.650000
 20
87.500000
 11
-21.350000
 21
87.500000
  0
LINE
  8
0
  6
DASHED
 62
2
 10
-21.350000
 20
87.500000
 11
-20.000000
 21
87.500000
  0
LINE
  8
0
  6
CONTINUOUS
 62
7
 10
35.000000
 20
74.000000
 11
35.000000
 21
72.500000
  0
LINE
  8
0
  6
CONTINUOUS
 62
7
 10
-12.500000
 20
42.000000
 11
-12.500000
 21
50.000000
  0
LINE
  8
0
  6
CONTINUOUS
 62
7
 10
20.200001
 20
50.000000
 11
-20.500000
 21
50.000000
  0
LINE
  8
0
  6
CENTER
 62
2
 10
-8.800000
 20
46.000000
 11
-40.799999
 21
46.000000
  0
LINE
  8
0
  6
CONTINUOUS
 62
7
 10
-39.799999
 20
48.500000
 11
-24.500000
 21
48.500000
  0
LINE
  8
0
  6
CONTINUOUS
 62
2
 10
-39.799999
 20
48.099998
 11
-24.500000
 21
48.099998
  0
LINE
  8
0
  6
CONTINUOUS
 62
2
 10
-39.799999
 20
43.900002
 11
-24.500000
 21
43.900002
  0
LINE
  8
0
  6
CONTINUOUS
 62
7
 10
-39.799999
 20
48.500000
 11
-39.799999
 21
43.500000
  0
LINE
  8
0
  6
CONTINUOUS
 62
7
 10
-39.799999
 20
43.500000
 11
-24.500000
 21
43.500000
  0
LINE
  8
0
  6
CONTINUOUS
 62
7
 10
-20.500000
 20
42.000000
 11
-20.500000
 21
50.000000
  0
LINE
  8
0
  6
CONTINUOUS
 62
7
 10
20.200001
 20
41.500000
 11
20.200001
 21
50.500000
  0
LINE
  8
0
  6
CONTINUOUS
 62
7
 10
-20.500000
 20
49.500000
 11
-24.500000
 21
49.500000
  0
LINE
  8
0
  6
CONTINUOUS
 62
7
 10
-24.500000
 20
49.500000
 11
-24.500000
 21
42.500000
  0
LINE
  8
0
  6
CONTINUOUS
 62
7
 10
-20.500000
 20
48.789299
 11
-24.500000
 21
48.789299
  0
LINE
  8
0
  6
CONTINUOUS
 62
7
 10
-20.500000
 20
46.710800
 11
-24.500000
 21
46.710800
  0
LINE
  8
0
  6
CONTINUOUS
 62
7
 10
-20.500000
 20
45.289299
 11
-24.500000
 21
45.289299
  0
LINE
  8
0
  6
CONTINUOUS
 62
7
 10
-20.500000
 20
43.210800
 11
-24.500000
 21
43.210800
  0
LINE
  8
0
  6
CONTINUOUS
 62
7
 10
-20.500000
 20
42.500000
 11
-24.500000
 21
42.500000
  0
LINE
  8
0
  6
CONTINUOUS
 62
7
 10
35.700001
 20
50.500000
 11
20.200001
 21
50.500000
  0
LINE
  8
0
  6
CONTINUOUS
 62
7
 10
35.700001
 20
41.500000
 11
35.700001
 21
50.500000
  0
LINE
  8
0
  6
CONTINUOUS
 62
7
 10
-31.000000
 20
43.500000
 11
-31.000000
 21
42.599998
  0
LINE
  8
0
  6
CONTINUOUS
 62
7
 10
20.200001
 20
42.000000
 11
-21.350000
 21
42.000000
  0
LINE
  8
0
  6
CENTER
 62
2
 10
-19.500000
 20
-106.500000
 11
-40.799999
 21
-106.500000
  0
LINE
  8
0
  6
CONTINUOUS
 62
7
 10
-39.799999
 20
-109.000000
 11
-24.500000
 21
-109.000000
  0
LINE
  8
0
  6
CONTINUOUS
 62
2
 10
-39.799999
 20
-108.599998
 11
-24.500000
 21
-108.599998
  0
LINE
  8
0
  6
CONTINUOUS
 62
2
 10
-39.799999
 20
-104.400002
 11
-34.500000
 21
-104.400002
  0
LINE
  8
0
  6
CONTINUOUS
 62
7
 10
-39.799999
 20
-109.000000
 11
-39.799999
 21
-104.000000
  0
LINE
  8
0
  6
CONTINUOUS
 62
7
 10
-39.799999
 20
-104.000000
 11
-34.500000
 21
-104.000000
  0
LINE
  8
0
  6
CONTINUOUS
 62
7
 10
-20.500000
 20
-110.000000
 11
-24.500000
 21
-110.000000
  0
LINE
  8
0
  6
CONTINUOUS
 62
7
 10
-24.500000
 20
-110.000000
 11
-24.500000
 21
-103.000000
  0
LINE
  8
0
  6
CONTINUOUS
 62
7
 10
-20.500000
 20
-109.289001
 11
-24.500000
 21
-109.289001
  0
LINE
  8
0
  6
CONTINUOUS
 62
7
 10
-20.500000
 20
-107.210999
 11
-24.500000
 21
-107.210999
  0
LINE
  8
0
  6
CONTINUOUS
 62
7
 10
-20.500000
 20
-105.789001
 11
-24.500000
 21
-105.789001
  0
LINE
  8
0
  6
CONTINUOUS
 62
7
 10
-20.500000
 20
-103.710999
 11
-24.500000
 21
-103.710999
  0
LINE
  8
0
  6
CONTINUOUS
 62
7
 10
-20.500000
 20
-103.000000
 11
-24.500000
 21
-103.000000
  0
LINE
  8
0
  6
CONTINUOUS
 62
7
 10
-20.500000
 20
-102.500000
 11
-20.500000
 21
-110.500000
  0
LINE
  8
0
  6
CONTINUOUS
 62
7
 10
48.500000
 20
-110.500000
 11
-20.500000
 21
-110.500000
  0
LINE
  8
0
  6
CONTINUOUS
 62
7
 10
20.200001
 20
-110.500000
 11
20.200001
 21
-111.000000
  0
LINE
  8
0
  6
CONTINUOUS
 62
7
 10
35.700001
 20
-110.500000
 11
35.700001
 21
-111.000000
  0
LINE
  8
0
  6
CONTINUOUS
 62
7
 10
35.700001
 20
-111.000000
 11
20.200001
 21
-111.000000
  0
LINE
  8
0
  6
CONTINUOUS
 62
7
 10
-27.500000
 20
-104.000000
 11
-24.500000
 21
-104.000000
  0
LINE
  8
0
  6
CONTINUOUS
 62
2
 10
-27.500000
 20
-104.400002
 11
-24.500000
 21
-104.400002
  0
LINE
  8
0
  6
CENTER
 62
2
 10
-182.149994
 20
78.199997
 11
-182.149994
 21
74.199997
  0
LINE
  8
0
  6
CENTER
 62
2
 10
-184.149994
 20
76.199997
 11
-180.149994
 21
76.199997
  0
LINE
  8
0
  6
CONTINUOUS
 62
7
 10
263.431000
 20
48.789200
 11
264.631012
 21
46.710701
  0
LINE
  8
0
  6
CONTINUOUS
 62
7
 10
259.799988
 20
49.500000
 11
262.200012
 21
49.500000
  0
LINE
  8
0
  6
CONTINUOUS
 62
7
 10
258.569000
 20
48.789299
 11
257.368988
 21
46.710800
  0
LINE
  8
0
  6
CONTINUOUS
 62
7
 10
257.368988
 20
45.289200
 11
258.569000
 21
43.210701
  0
LINE
  8
0
  6
CONTINUOUS
 62
7
 10
262.200012
 20
42.500000
 11
259.799988
 21
42.500000
  0
LINE
  8
0
  6
CONTINUOUS
 62
7
 10
264.631012
 20
45.289299
 11
263.431000
 21
43.210899
  0
LINE
  8
0
  6
CONTINUOUS
 62
7
 10
260.278015
 20
47.250099
 11
259.557007
 21
46.000099
  0
LINE
  8
0
  6
CONTINUOUS
 62
7
 10
259.557007
 20
46.000000
 11
260.278015
 21
44.750000
  0
LINE
  8
0
  6
CONTINUOUS
 62
7
 10
261.721985
 20
44.750000
 11
260.278015
 21
44.750000
  0
LINE
  8
0
  6
CONTINUOUS
 62
7
 10
262.442993
 20
46.000099
 11
261.721985
 21
44.750000
  0
LINE
  8
0
  6
CONTINUOUS
 62
7
 10
261.721985
 20
47.250000
 11
262.442993
 21
46.000000
  0
LINE
  8
0
  6
CONTINUOUS
 62
7
 10
260.278015
 20
47.250000
 11
261.721985
 21
47.250000
  0
LINE
  8
0
  6
CENTER
 62
2
 10
256.299988
 20
46.000000
 11
265.700012
 21
46.000000
  0
LINE
  8
0
  6
CENTER
 62
2
 10
261.000000
 20
41.299999
 11
261.000000
 21
50.700001
  0
LINE
  8
0
  6
CONTINUOUS
 62
7
 10
256.500000
 20
42.000000
 11
256.500000
 21
41.500000
  0
LINE
  8
0
  6
CONTINUOUS
 62
7
 10
264.500000
 20
42.000000
 11
264.500000
 21
41.500000
  0
LINE
  8
0
  6
CONTINUOUS
 62
7
 10
-163.800003
 20
78.250000
 11
-163.800003
 21
78.250000
  0
LINE
  8
0
  6
CENTER
 62
2
 10
225.699997
 20
78.500000
 11
249.699997
 21
78.500000
  0
LINE
  8
0
  6
CONTINUOUS
 62
2
 10
243.500000
 20
80.599998
 11
248.699997
 21
80.599998
  0
LINE
  8
0
  6
CONTINUOUS
 62
7
 10
231.500000
 20
73.000000
 11
239.500000
 21
73.000000
  0
LINE
  8
0
  6
CONTINUOUS
 62
7
 10
231.500000
 20
80.000000
 11
231.500000
 21
73.000000
  0
LINE
  8
0
  6
CONTINUOUS
 62
7
 10
239.500000
 20
92.000000
 11
239.500000
 21
73.000000
  0
LINE
  8
0
  6
CONTINUOUS
 62
7
 10
243.500000
 20
82.199997
 11
243.500000
 21
74.800003
  0
LINE
  8
0
  6
CONTINUOUS
 62
7
 10
239.500000
 20
74.800003
 11
243.500000
 21
74.800003
  0
LINE
  8
0
  6
CONTINUOUS
 62
7
 10
239.500000
 20
82.199997
 11
243.500000
 21
82.199997
  0
LINE
  8
0
  6
CONTINUOUS
 62
7
 10
239.500000
 20
79.699997
 11
243.500000
 21
79.699997
  0
LINE
  8
0
  6
CONTINUOUS
 62
7
 10
239.500000
 20
80.931099
 11
243.500000
 21
80.931099
  0
LINE
  8
0
  6
CONTINUOUS
 62
7
 10
239.500000
 20
77.300003
 11
243.500000
 21
77.300003
  0
LINE
  8
0
  6
CONTINUOUS
 62
7
 10
239.500000
 20
76.068901
 11
243.500000
 21
76.068901
  0
LINE
  8
0
  6
CONTINUOUS
 62
7
 10
248.699997
 20
76.000000
 11
248.699997
 21
81.000000
  0
LINE
  8
0
  6
CONTINUOUS
 62
7
 10
243.500000
 20
76.000000
 11
248.699997
 21
76.000000
  0
LINE
  8
0
  6
CONTINUOUS
 62
7
 10
243.500000
 20
81.000000
 11
248.699997
 21
81.000000
  0
LINE
  8
0
  6
CONTINUOUS
 62
2
 10
243.500000
 20
76.400002
 11
248.699997
 21
76.400002
  0
LINE
  8
0
  6
CONTINUOUS
 62
7
 10
-163.800003
 20
77.050003
 11
-163.800003
 21
73.000000
  0
LINE
  8
0
  6
CONTINUOUS
 62
7
 10
-162.000000
 20
82.958099
 11
-162.000000
 21
81.000000
  0
LINE
  8
0
  6
CONTINUOUS
 62
7
 10
239.500000
 20
50.000000
 11
226.699997
 21
50.000000
  0
LINE
  8
0
  6
CONTINUOUS
 62
7
 10
239.500000
 20
42.000000
 11
226.699997
 21
42.000000
  0
LINE
  8
0
  6
CENTER
 62
2
 10
249.699997
 20
46.000000
 11
225.699997
 21
46.000000
  0
LINE
  8
0
  6
CONTINUOUS
 62
7
 10
231.500000
 20
50.000000
 11
231.500000
 21
42.000000
  0
LINE
  8
0
  6
CONTINUOUS
 62
7
 10
239.500000
 20
50.000000
 11
239.500000
 21
42.000000
  0
LINE
  8
0
  6
CONTINUOUS
 62
7
 10
239.500000
 20
49.500000
 11
243.500000
 21
49.500000
  0
LINE
  8
0
  6
CONTINUOUS
 62
7
 10
243.500000
 20
42.500000
 11
243.500000
 21
49.500000
  0
LINE
  8
0
  6
CONTINUOUS
 62
7
 10
239.500000
 20
48.789299
 11
243.500000
 21
48.789299
  0
LINE
  8
0
  6
CONTINUOUS
 62
7
 10
239.500000
 20
42.500000
 11
243.500000
 21
42.500000
  0
LINE
  8
0
  6
CONTINUOUS
 62
7
 10
239.500000
 20
43.210800
 11
243.500000
 21
43.210800
  0
LINE
  8
0
  6
CONTINUOUS
 62
7
 10
239.500000
 20
45.289200
 11
243.500000
 21
45.289200
  0
LINE
  8
0
  6
CONTINUOUS
 62
7
 10
239.500000
 20
46.710800
 11
243.500000
 21
46.710800
  0
LINE
  8
0
  6
CONTINUOUS
 62
7
 10
243.500000
 20
48.500000
 11
248.699997
 21
48.500000
  0
LINE
  8
0
  6
CONTINUOUS
 62
2
 10
243.500000
 20
48.099998
 11
248.699997
 21
48.099998
  0
LINE
  8
0
  6
CONTINUOUS
 62
7
 10
248.699997
 20
43.500000
 11
248.699997
 21
48.500000
  0
LINE
  8
0
  6
CONTINUOUS
 62
2
 10
243.500000
 20
43.900002
 11
248.699997
 21
43.900002
  0
LINE
  8
0
  6
CONTINUOUS
 62
7
 10
243.500000
 20
43.500000
 11
248.699997
 21
43.500000
  0
LINE
  8
0
  6
CENTER
 62
2
 10
249.699997
 20
-106.500000
 11
238.500000
 21
-106.500000
  0
LINE
  8
0
  6
CONTINUOUS
 62
7
 10
239.500000
 20
-110.500000
 11
239.500000
 21
-102.500000
  0
LINE
  8
0
  6
CONTINUOUS
 62
7
 10
239.500000
 20
-110.000000
 11
243.500000
 21
-110.000000
  0
LINE
  8
0
  6
CONTINUOUS
 62
7
 10
243.500000
 20
-103.000000
 11
243.500000
 21
-110.000000
  0
LINE
  8
0
  6
CONTINUOUS
 62
7
 10
239.500000
 20
-109.289001
 11
243.500000
 21
-109.289001
  0
LINE
  8
0
  6
CONTINUOUS
 62
7
 10
239.500000
 20
-103.000000
 11
243.500000
 21
-103.000000
  0
LINE
  8
0
  6
CONTINUOUS
 62
7
 10
239.500000
 20
-103.710999
 11
243.500000
 21
-103.710999
  0
LINE
  8
0
  6
CONTINUOUS
 62
7
 10
239.500000
 20
-105.789001
 11
243.500000
 21
-105.789001
  0
LINE
  8
0
  6
CONTINUOUS
 62
7
 10
239.500000
 20
-107.210999
 11
243.500000
 21
-107.210999
  0
LINE
  8
0
  6
CONTINUOUS
 62
7
 10
243.500000
 20
-109.000000
 11
248.699997
 21
-109.000000
  0
LINE
  8
0
  6
CONTINUOUS
 62
2
 10
243.500000
 20
-108.599998
 11
248.699997
 21
-108.599998
  0
LINE
  8
0
  6
CONTINUOUS
 62
7
 10
248.699997
 20
-104.000000
 11
248.699997
 21
-109.000000
  0
LINE
  8
0
  6
CONTINUOUS
 62
2
 10
243.500000
 20
-104.400002
 11
248.699997
 21
-104.400002
  0
LINE
  8
0
  6
CONTINUOUS
 62
7
 10
243.500000
 20
-104.000000
 11
248.699997
 21
-104.000000
  0
LINE
  8
0
  6
CONTINUOUS
 62
7
 10
229.000000
 20
-36.000000
 11
239.500000
 21
-36.000000
  0
LINE
  8
0
  6
CENTER
 62
2
 10
228.000000
 20
-22.500000
 11
249.699997
 21
-22.500000
  0
LINE
  8
0
  6
CONTINUOUS
 62
2
 10
243.500000
 20
-24.600000
 11
248.699997
 21
-24.600000
  0
LINE
  8
0
  6
CONTINUOUS
 62
7
 10
231.500000
 20
-17.000000
 11
239.500000
 21
-17.000000
  0
LINE
  8
0
  6
CONTINUOUS
 62
7
 10
231.500000
 20
-24.000000
 11
231.500000
 21
-17.000000
  0
LINE
  8
0
  6
CONTINUOUS
 62
7
 10
239.500000
 20
-36.000000
 11
239.500000
 21
-17.000000
  0
LINE
  8
0
  6
CONTINUOUS
 62
7
 10
243.500000
 20
-26.200001
 11
243.500000
 21
-18.799999
  0
LINE
  8
0
  6
CONTINUOUS
 62
7
 10
239.500000
 20
-18.799999
 11
243.500000
 21
-18.799999
  0
LINE
  8
0
  6
CONTINUOUS
 62
7
 10
239.500000
 20
-26.200001
 11
243.500000
 21
-26.200001
  0
LINE
  8
0
  6
CONTINUOUS
 62
7
 10
239.500000
 20
-23.700001
 11
243.500000
 21
-23.700001
  0
LINE
  8
0
  6
CONTINUOUS
 62
7
 10
239.500000
 20
-24.931101
 11
243.500000
 21
-24.931101
  0
LINE
  8
0
  6
CONTINUOUS
 62
7
 10
239.500000
 20
-21.299999
 11
243.500000
 21
-21.299999
  0
LINE
  8
0
  6
CONTINUOUS
 62
7
 10
239.500000
 20
-20.068899
 11
243.500000
 21
-20.068899
  0
LINE
  8
0
  6
CONTINUOUS
 62
7
 10
248.699997
 20
-20.000000
 11
248.699997
 21
-25.000000
  0
LINE
  8
0
  6
CONTINUOUS
 62
7
 10
229.000000
 20
-25.000000
 11
231.328003
 21
-25.000000
  0
LINE
  8
0
  6
CONTINUOUS
 62
7
 10
229.000000
 20
-20.000000
 11
231.500000
 21
-20.000000
  0
LINE
  8
0
  6
CONTINUOUS
 62
2
 10
229.000000
 20
-20.400000
 11
231.500000
 21
-20.400000
  0
LINE
  8
0
  6
CONTINUOUS
 62
2
 10
229.000000
 20
-24.600000
 11
231.438995
 21
-24.600000
  0
LINE
  8
0
  6
CONTINUOUS
 62
7
 10
243.500000
 20
-20.000000
 11
248.699997
 21
-20.000000
  0
LINE
  8
0
  6
CONTINUOUS
 62
7
 10
243.500000
 20
-25.000000
 11
248.699997
 21
-25.000000
  0
LINE
  8
0
  6
CONTINUOUS
 62
2
 10
243.500000
 20
-20.400000
 11
248.699997
 21
-20.400000
  0
LINE
  8
0
  6
CONTINUOUS
 62
7
 10
-5.500000
 20
92.000000
 11
48.500000
 21
92.000000
  0
LINE
  8
0
  6
CENTER
 62
2
 10
34.700001
 20
78.500000
 11
58.700001
 21
78.500000
  0
LINE
  8
0
  6
CONTINUOUS
 62
2
 10
52.500000
 20
80.599998
 11
57.700001
 21
80.599998
  0
LINE
  8
0
  6
CONTINUOUS
 62
7
 10
40.500000
 20
73.000000
 11
48.500000
 21
73.000000
  0
LINE
  8
0
  6
CONTINUOUS
 62
7
 10
40.500000
 20
80.000000
 11
40.500000
 21
73.000000
  0
LINE
  8
0
  6
CONTINUOUS
 62
7
 10
48.500000
 20
92.000000
 11
48.500000
 21
73.000000
  0
LINE
  8
0
  6
CONTINUOUS
 62
7
 10
52.500000
 20
82.199997
 11
52.500000
 21
74.800003
  0
LINE
  8
0
  6
CONTINUOUS
 62
7
 10
48.500000
 20
74.800003
 11
52.500000
 21
74.800003
  0
LINE
  8
0
  6
CONTINUOUS
 62
7
 10
48.500000
 20
82.199997
 11
52.500000
 21
82.199997
  0
LINE
  8
0
  6
CONTINUOUS
 62
7
 10
48.500000
 20
79.699997
 11
52.500000
 21
79.699997
  0
LINE
  8
0
  6
CONTINUOUS
 62
7
 10
48.500000
 20
80.931099
 11
52.500000
 21
80.931099
  0
LINE
  8
0
  6
CONTINUOUS
 62
7
 10
48.500000
 20
77.300003
 11
52.500000
 21
77.300003
  0
LINE
  8
0
  6
CONTINUOUS
 62
7
 10
48.500000
 20
76.069000
 11
52.500000
 21
76.069000
  0
LINE
  8
0
  6
CONTINUOUS
 62
7
 10
57.700001
 20
76.000000
 11
57.700001
 21
81.000000
  0
LINE
  8
0
  6
CONTINUOUS
 62
7
 10
52.500000
 20
76.000000
 11
57.700001
 21
76.000000
  0
LINE
  8
0
  6
CONTINUOUS
 62
7
 10
52.500000
 20
81.000000
 11
57.700001
 21
81.000000
  0
LINE
  8
0
  6
CONTINUOUS
 62
2
 10
52.500000
 20
76.400002
 11
57.700001
 21
76.400002
  0
LINE
  8
0
  6
CONTINUOUS
 62
7
 10
48.500000
 20
50.000000
 11
35.700001
 21
50.000000
  0
LINE
  8
0
  6
CONTINUOUS
 62
7
 10
48.500000
 20
42.000000
 11
35.700001
 21
42.000000
  0
LINE
  8
0
  6
CENTER
 62
2
 10
58.700001
 20
46.000000
 11
34.700001
 21
46.000000
  0
LINE
  8
0
  6
CONTINUOUS
 62
7
 10
40.500000
 20
50.000000
 11
40.500000
 21
42.000000
  0
LINE
  8
0
  6
CONTINUOUS
 62
7
 10
48.500000
 20
50.000000
 11
48.500000
 21
42.000000
  0
LINE
  8
0
  6
CONTINUOUS
 62
7
 10
48.500000
 20
49.500000
 11
52.500000
 21
49.500000
  0
LINE
  8
0
  6
CONTINUOUS
 62
7
 10
52.500000
 20
42.500000
 11
52.500000
 21
49.500000
  0
LINE
  8
0
  6
CONTINUOUS
 62
7
 10
48.500000
 20
48.789299
 11
52.500000
 21
48.789299
  0
LINE
  8
0
  6
CONTINUOUS
 62
7
 10
48.500000
 20
42.500000
 11
52.500000
 21
42.500000
  0
LINE
  8
0
  6
CONTINUOUS
 62
7
 10
48.500000
 20
43.210800
 11
52.500000
 21
43.210800
  0
LINE
  8
0
  6
CONTINUOUS
 62
7
 10
48.500000
 20
45.289200
 11
52.500000
 21
45.289200
  0
LINE
  8
0
  6
CONTINUOUS
 62
7
 10
48.500000
 20
46.710800
 11
52.500000
 21
46.710800
  0
LINE
  8
0
  6
CONTINUOUS
 62
7
 10
52.500000
 20
48.500000
 11
57.700001
 21
48.500000
  0
LINE
  8
0
  6
CONTINUOUS
 62
2
 10
52.500000
 20
48.099998
 11
57.700001
 21
48.099998
  0
LINE
  8
0
  6
CONTINUOUS
 62
7
 10
57.700001
 20
43.500000
 11
57.700001
 21
48.500000
  0
LINE
  8
0
  6
CONTINUOUS
 62
2
 10
52.500000
 20
43.900002
 11
57.700001
 21
43.900002
  0
LINE
  8
0
  6
CONTINUOUS
 62
7
 10
52.500000
 20
43.500000
 11
57.700001
 21
43.500000
  0
LINE
  8
0
  6
CONTINUOUS
 62
7
 10
38.000000
 20
-36.000000
 11
48.500000
 21
-36.000000
  0
LINE
  8
0
  6
CENTER
 62
2
 10
37.000000
 20
-22.500000
 11
58.700001
 21
-22.500000
  0
LINE
  8
0
  6
CONTINUOUS
 62
2
 10
52.500000
 20
-24.600000
 11
57.700001
 21
-24.600000
  0
LINE
  8
0
  6
CONTINUOUS
 62
7
 10
40.500000
 20
-17.000000
 11
48.500000
 21
-17.000000
  0
LINE
  8
0
  6
CONTINUOUS
 62
7
 10
40.500000
 20
-24.000000
 11
40.500000
 21
-17.000000
  0
LINE
  8
0
  6
CONTINUOUS
 62
7
 10
48.500000
 20
-36.000000
 11
48.500000
 21
-17.000000
  0
LINE
  8
0
  6
CONTINUOUS
 62
7
 10
52.500000
 20
-26.200001
 11
52.500000
 21
-18.799999
  0
LINE
  8
0
  6
CONTINUOUS
 62
7
 10
48.500000
 20
-18.799999
 11
52.500000
 21
-18.799999
  0
LINE
  8
0
  6
CONTINUOUS
 62
7
 10
48.500000
 20
-26.200001
 11
52.500000
 21
-26.200001
  0
LINE
  8
0
  6
CONTINUOUS
 62
7
 10
48.500000
 20
-23.700001
 11
52.500000
 21
-23.700001
  0
LINE
  8
0
  6
CONTINUOUS
 62
7
 10
48.500000
 20
-24.931101
 11
52.500000
 21
-24.931101
  0
LINE
  8
0
  6
CONTINUOUS
 62
7
 10
48.500000
 20
-21.299999
 11
52.500000
 21
-21.299999
  0
LINE
  8
0
  6
CONTINUOUS
 62
7
 10
48.500000
 20
-20.068899
 11
52.500000
 21
-20.068899
  0
LINE
  8
0
  6
CONTINUOUS
 62
7
 10
57.700001
 20
-20.000000
 11
57.700001
 21
-25.000000
  0
LINE
  8
0
  6
CONTINUOUS
 62
7
 10
38.000000
 20
-25.000000
 11
40.328400
 21
-25.000000
  0
LINE
  8
0
  6
CONTINUOUS
 62
7
 10
38.000000
 20
-20.000000
 11
40.500000
 21
-20.000000
  0
LINE
  8
0
  6
CONTINUOUS
 62
2
 10
38.000000
 20
-20.400000
 11
40.500000
 21
-20.400000
  0
LINE
  8
0
  6
CONTINUOUS
 62
2
 10
38.000000
 20
-24.600000
 11
40.439400
 21
-24.600000
  0
LINE
  8
0
  6
CONTINUOUS
 62
7
 10
52.500000
 20
-20.000000
 11
57.700001
 21
-20.000000
  0
LINE
  8
0
  6
CONTINUOUS
 62
7
 10
52.500000
 20
-25.000000
 11
57.700001
 21
-25.000000
  0
LINE
  8
0
  6
CONTINUOUS
 62
2
 10
52.500000
 20
-20.400000
 11
57.700001
 21
-20.400000
  0
LINE
  8
0
  6
CENTER
 62
2
 10
58.700001
 20
-106.500000
 11
47.500000
 21
-106.500000
  0
LINE
  8
0
  6
CONTINUOUS
 62
7
 10
48.500000
 20
-110.500000
 11
48.500000
 21
-102.500000
  0
LINE
  8
0
  6
CONTINUOUS
 62
7
 10
48.500000
 20
-110.000000
 11
52.500000
 21
-110.000000
  0
LINE
  8
0
  6
CONTINUOUS
 62
7
 10
52.500000
 20
-103.000000
 11
52.500000
 21
-110.000000
  0
LINE
  8
0
  6
CONTINUOUS
 62
7
 10
48.500000
 20
-109.289001
 11
52.500000
 21
-109.289001
  0
LINE
  8
0
  6
CONTINUOUS
 62
7
 10
48.500000
 20
-103.000000
 11
52.500000
 21
-103.000000
  0
LINE
  8
0
  6
CONTINUOUS
 62
7
 10
48.500000
 20
-103.710999
 11
52.500000
 21
-103.710999
  0
LINE
  8
0
  6
CONTINUOUS
 62
7
 10
48.500000
 20
-105.789001
 11
52.500000
 21
-105.789001
  0
LINE
  8
0
  6
CONTINUOUS
 62
7
 10
48.500000
 20
-107.210999
 11
52.500000
 21
-107.210999
  0
LINE
  8
0
  6
CONTINUOUS
 62
7
 10
52.500000
 20
-109.000000
 11
57.700001
 21
-109.000000
  0
LINE
  8
0
  6
CONTINUOUS
 62
2
 10
52.500000
 20
-108.599998
 11
57.700001
 21
-108.599998
  0
LINE
  8
0
  6
CONTINUOUS
 62
7
 10
57.700001
 20
-104.000000
 11
57.700001
 21
-109.000000
  0
LINE
  8
0
  6
CONTINUOUS
 62
2
 10
52.500000
 20
-104.400002
 11
57.700001
 21
-104.400002
  0
LINE
  8
0
  6
CONTINUOUS
 62
7
 10
52.500000
 20
-104.000000
 11
57.700001
 21
-104.000000
  0
LINE
  8
0
  6
CONTINUOUS
 62
7
 10
227.199997
 20
77.050003
 11
227.199997
 21
73.000000
  0
LINE
  8
0
  6
CONTINUOUS
 62
7
 10
229.000000
 20
82.958099
 11
229.000000
 21
81.000000
  0
LINE
  8
0
  6
CONTINUOUS
 62
7
 10
75.500000
 20
14.000000
 11
85.000000
 21
14.000000
  0
LINE
  8
0
  6
CENTER
 62
2
 10
78.000000
 20
34.400002
 11
78.000000
 21
21.600000
  0
LINE
  8
0
  6
CENTER
 62
2
 10
64.000000
 20
28.000000
 11
86.000000
 21
28.000000
  0
LINE
  8
0
  6
CONTINUOUS
 62
7
 10
69.500000
 20
34.000000
 11
69.500000
 21
22.000000
  0
LINE
  8
0
  6
CONTINUOUS
 62
7
 10
72.709396
 20
34.000000
 11
75.500000
 21
34.000000
  0
LINE
  8
0
  6
CONTINUOUS
 62
7
 10
69.500000
 20
34.000000
 11
70.290604
 21
34.000000
  0
LINE
  8
0
  6
CONTINUOUS
 62
7
 10
72.709297
 20
22.000000
 11
75.500000
 21
22.000000
  0
LINE
  8
0
  6
CONTINUOUS
 62
7
 10
69.500000
 20
22.000000
 11
70.290703
 21
22.000000
  0
LINE
  8
0
  6
CONTINUOUS
 62
7
 10
75.500000
 20
14.000000
 11
75.500000
 21
22.000000
  0
LINE
  8
0
  6
CONTINUOUS
 62
7
 10
85.000000
 20
14.000000
 11
85.000000
 21
42.000000
  0
LINE
  8
0
  6
CONTINUOUS
 62
7
 10
75.500000
 20
42.000000
 11
75.500000
 21
34.000000
  0
LINE
  8
0
  6
CONTINUOUS
 62
7
 10
65.500000
 20
42.000000
 11
85.000000
 21
42.000000
  0
LINE
  8
0
  6
CONTINUOUS
 62
7
 10
65.300003
 20
34.700001
 11
65.300003
 21
21.299999
  0
LINE
  8
0
  6
CONTINUOUS
 62
7
 10
65.000000
 20
14.500000
 11
65.000000
 21
21.000000
  0
LINE
  8
0
  6
CONTINUOUS
 62
7
 10
65.000000
 20
14.500000
 11
75.500000
 21
14.500000
  0
LINE
  8
0
  6
CONTINUOUS
 62
7
 10
75.000000
 20
14.500000
 11
75.000000
 21
22.000000
  0
LINE
  8
0
  6
CONTINUOUS
 62
7
 10
65.000000
 20
21.000099
 11
65.300003
 21
21.299999
  0
LINE
  8
0
  6
CONTINUOUS
 62
7
 10
65.000000
 20
41.500000
 11
65.000000
 21
35.000000
  0
LINE
  8
0
  6
CONTINUOUS
 62
7
 10
65.000000
 20
35.000000
 11
65.300003
 21
34.700001
  0
LINE
  8
0
  6
CONTINUOUS
 62
7
 10
75.000000
 20
41.500000
 11
75.000000
 21
34.000000
  0
LINE
  8
0
  6
CONTINUOUS
 62
7
 10
65.000000
 20
41.500000
 11
75.500000
 21
41.500000
  0
LINE
  8
0
  6
CENTER
 62
2
 10
83.000000
 20
38.500000
 11
87.000000
 21
38.500000
  0
LINE
  8
0
  6
CENTER
 62
2
 10
83.000000
 20
17.500000
 11
87.000000
 21
17.500000
  0
LINE
  8
0
  6
CENTER
 62
2
 10
63.000000
 20
38.000000
 11
67.000000
 21
38.000000
  0
LINE
  8
0
  6
CENTER
 62
2
 10
63.000000
 20
18.000000
 11
67.000000
 21
18.000000
  0
LINE
  8
0
  6
CONTINUOUS
 62
7
 10
84.500000
 20
50.000000
 11
84.500000
 21
42.000000
  0
LINE
  8
0
  6
CONTINUOUS
 62
7
 10
84.500000
 20
50.000000
 11
65.500000
 21
50.000000
  0
LINE
  8
0
  6
CONTINUOUS
 62
7
 10
74.500000
 20
50.500000
 11
74.500000
 21
50.000000
  0
LINE
  8
0
  6
CONTINUOUS
 62
7
 10
66.500000
 20
50.500000
 11
66.500000
 21
50.000000
  0
LINE
  8
0
  6
CONTINUOUS
 62
7
 10
66.500000
 20
50.500000
 11
74.500000
 21
50.500000
  0
LINE
  8
0
  6
CONTINUOUS
 62
7
 10
65.500000
 20
50.000000
 11
65.500000
 21
42.000000
  0
LINE
  8
0
  6
CONTINUOUS
 62
7
 10
73.431099
 20
48.789299
 11
74.631104
 21
46.710800
  0
LINE
  8
0
  6
CONTINUOUS
 62
7
 10
69.800003
 20
49.500000
 11
72.199997
 21
49.500000
  0
LINE
  8
0
  6
CONTINUOUS
 62
7
 10
68.568901
 20
48.789200
 11
67.368896
 21
46.710800
  0
LINE
  8
0
  6
CONTINUOUS
 62
7
 10
67.368896
 20
45.289299
 11
68.569000
 21
43.210800
  0
LINE
  8
0
  6
CONTINUOUS
 62
7
 10
72.199997
 20
42.500000
 11
69.800003
 21
42.500000
  0
LINE
  8
0
  6
CONTINUOUS
 62
7
 10
74.631104
 20
45.289200
 11
73.431099
 21
43.210800
  0
LINE
  8
0
  6
CONTINUOUS
 62
7
 10
70.278297
 20
47.250000
 11
69.556602
 21
46.000000
  0
LINE
  8
0
  6
CONTINUOUS
 62
7
 10
69.556602
 20
46.000000
 11
70.278297
 21
44.750000
  0
LINE
  8
0
  6
CONTINUOUS
 62
7
 10
71.721703
 20
44.750000
 11
70.278297
 21
44.750000
  0
LINE
  8
0
  6
CONTINUOUS
 62
7
 10
72.443398
 20
46.000000
 11
71.721703
 21
44.750000
  0
LINE
  8
0
  6
CONTINUOUS
 62
7
 10
71.721703
 20
47.250000
 11
72.443398
 21
46.000000
  0
LINE
  8
0
  6
CONTINUOUS
 62
7
 10
70.278297
 20
47.250000
 11
71.721703
 21
47.250000
  0
LINE
  8
0
  6
CENTER
 62
2
 10
66.300003
 20
46.000000
 11
75.699997
 21
46.000000
  0
LINE
  8
0
  6
CENTER
 62
2
 10
71.000000
 20
41.299999
 11
71.000000
 21
50.700001
  0
LINE
  8
0
  6
CONTINUOUS
 62
7
 10
66.500000
 20
42.000000
 11
66.500000
 21
41.500000
  0
LINE
  8
0
  6
CONTINUOUS
 62
7
 10
74.500000
 20
42.000000
 11
74.500000
 21
41.500000
  0
LINE
  8
0
  6
CONTINUOUS
 62
7
 10
-119.500000
 20
14.000000
 11
-110.000000
 21
14.000000
  0
LINE
  8
0
  6
CENTER
 62
2
 10
-117.000000
 20
34.400002
 11
-117.000000
 21
21.600000
  0
LINE
  8
0
  6
CENTER
 62
2
 10
-131.000000
 20
28.000000
 11
-109.000000
 21
28.000000
  0
LINE
  8
0
  6
CONTINUOUS
 62
7
 10
-125.500000
 20
34.000000
 11
-125.500000
 21
22.000000
  0
LINE
  8
0
  6
CONTINUOUS
 62
7
 10
-122.291000
 20
34.000000
 11
-119.500000
 21
34.000000
  0
LINE
  8
0
  6
CONTINUOUS
 62
7
 10
-125.500000
 20
34.000000
 11
-124.709000
 21
34.000000
  0
LINE
  8
0
  6
CONTINUOUS
 62
7
 10
-122.291000
 20
22.000000
 11
-119.500000
 21
22.000000
  0
LINE
  8
0
  6
CONTINUOUS
 62
7
 10
-125.500000
 20
22.000000
 11
-124.709000
 21
22.000000
  0
LINE
  8
0
  6
CONTINUOUS
 62
7
 10
-119.500000
 20
14.000000
 11
-119.500000
 21
22.000000
  0
LINE
  8
0
  6
CONTINUOUS
 62
7
 10
-110.000000
 20
14.000000
 11
-110.000000
 21
42.000000
  0
LINE
  8
0
  6
CONTINUOUS
 62
7
 10
-119.500000
 20
42.000000
 11
-119.500000
 21
34.000000
  0
LINE
  8
0
  6
CONTINUOUS
 62
7
 10
-129.500000
 20
42.000000
 11
-110.000000
 21
42.000000
  0
LINE
  8
0
  6
CONTINUOUS
 62
7
 10
-129.699997
 20
34.700001
 11
-129.699997
 21
21.299999
  0
LINE
  8
0
  6
CONTINUOUS
 62
7
 10
-130.000000
 20
14.500000
 11
-130.000000
 21
21.000000
  0
LINE
  8
0
  6
CONTINUOUS
 62
7
 10
-130.000000
 20
14.500000
 11
-119.500000
 21
14.500000
  0
LINE
  8
0
  6
CONTINUOUS
 62
7
 10
-120.000000
 20
14.500000
 11
-120.000000
 21
22.000000
  0
LINE
  8
0
  6
CONTINUOUS
 62
7
 10
-130.000000
 20
21.000000
 11
-129.699997
 21
21.299999
  0
LINE
  8
0
  6
CONTINUOUS
 62
7
 10
-130.000000
 20
41.500000
 11
-130.000000
 21
35.000000
  0
LINE
  8
0
  6
CONTINUOUS
 62
7
 10
-130.000000
 20
35.000000
 11
-129.699997
 21
34.700001
  0
LINE
  8
0
  6
CONTINUOUS
 62
7
 10
-120.000000
 20
41.500000
 11
-120.000000
 21
34.000000
  0
LINE
  8
0
  6
CONTINUOUS
 62
7
 10
-130.000000
 20
41.500000
 11
-119.500000
 21
41.500000
  0
LINE
  8
0
  6
CENTER
 62
2
 10
-112.000000
 20
38.500000
 11
-108.000000
 21
38.500000
  0
LINE
  8
0
  6
CENTER
 62
2
 10
-112.000000
 20
17.500000
 11
-108.000000
 21
17.500000
  0
LINE
  8
0
  6
CENTER
 62
2
 10
-132.000000
 20
38.000000
 11
-128.000000
 21
38.000000
  0
LINE
  8
0
  6
CENTER
 62
2
 10
-132.000000
 20
18.000000
 11
-128.000000
 21
18.000000
  0
LINE
  8
0
  6
CONTINUOUS
 62
7
 10
-110.500000
 20
50.000000
 11
-110.500000
 21
42.000000
  0
LINE
  8
0
  6
CONTINUOUS
 62
7
 10
-110.500000
 20
50.000000
 11
-129.500000
 21
50.000000
  0
LINE
  8
0
  6
CONTINUOUS
 62
7
 10
-120.500000
 20
50.500000
 11
-120.500000
 21
50.000000
  0
LINE
  8
0
  6
CONTINUOUS
 62
7
 10
-128.500000
 20
50.500000
 11
-128.500000
 21
50.000000
  0
LINE
  8
0
  6
CONTINUOUS
 62
7
 10
-128.500000
 20
50.500000
 11
-120.500000
 21
50.500000
  0
LINE
  8
0
  6
CONTINUOUS
 62
7
 10
-129.500000
 20
50.000000
 11
-129.500000
 21
42.000000
  0
LINE
  8
0
  6
CONTINUOUS
 62
7
 10
-121.569000
 20
48.789200
 11
-120.369003
 21
46.710800
  0
LINE
  8
0
  6
CONTINUOUS
 62
7
 10
-125.199997
 20
49.500000
 11
-122.800003
 21
49.500000
  0
LINE
  8
0
  6
CONTINUOUS
 62
7
 10
-126.431000
 20
48.789299
 11
-127.630997
 21
46.710800
  0
LINE
  8
0
  6
CONTINUOUS
 62
7
 10
-127.630997
 20
45.289299
 11
-126.431000
 21
43.210800
  0
LINE
  8
0
  6
CONTINUOUS
 62
7
 10
-122.800003
 20
42.500000
 11
-125.199997
 21
42.500000
  0
LINE
  8
0
  6
CONTINUOUS
 62
7
 10
-120.369003
 20
45.289200
 11
-121.569000
 21
43.210800
  0
LINE
  8
0
  6
CONTINUOUS
 62
7
 10
-124.722000
 20
47.250000
 11
-125.443001
 21
46.000000
  0
LINE
  8
0
  6
CONTINUOUS
 62
7
 10
-125.443001
 20
46.000000
 11
-124.722000
 21
44.750000
  0
LINE
  8
0
  6
CONTINUOUS
 62
7
 10
-123.278000
 20
44.750000
 11
-124.722000
 21
44.750000
  0
LINE
  8
0
  6
CONTINUOUS
 62
7
 10
-122.556999
 20
46.000000
 11
-123.278000
 21
44.750000
  0
LINE
  8
0
  6
CONTINUOUS
 62
7
 10
-123.278000
 20
47.250000
 11
-122.556999
 21
46.000000
  0
LINE
  8
0
  6
CONTINUOUS
 62
7
 10
-124.722000
 20
47.250000
 11
-123.278000
 21
47.250000
  0
LINE
  8
0
  6
CENTER
 62
2
 10
-128.699997
 20
46.000000
 11
-119.300003
 21
46.000000
  0
LINE
  8
0
  6
CENTER
 62
2
 10
-124.000000
 20
41.299999
 11
-124.000000
 21
50.700001
  0
LINE
  8
0
  6
CONTINUOUS
 62
7
 10
-128.500000
 20
42.000000
 11
-128.500000
 21
41.500000
  0
LINE
  8
0
  6
CONTINUOUS
 62
7
 10
-120.500000
 20
42.000000
 11
-120.500000
 21
41.500000
  0
LINE
  8
0
  6
CONTINUOUS
 62
7
 10
-205.500000
 20
92.000000
 11
-151.500000
 21
92.000000
  0
LINE
  8
0
  6
CENTER
 62
2
 10
-165.300003
 20
78.500000
 11
-141.300003
 21
78.500000
  0
LINE
  8
0
  6
CONTINUOUS
 62
2
 10
-147.500000
 20
80.599998
 11
-142.300003
 21
80.599998
  0
LINE
  8
0
  6
CONTINUOUS
 62
7
 10
-159.500000
 20
73.000000
 11
-151.500000
 21
73.000000
  0
LINE
  8
0
  6
CONTINUOUS
 62
7
 10
-159.500000
 20
80.000000
 11
-159.500000
 21
73.000000
  0
LINE
  8
0
  6
CONTINUOUS
 62
7
 10
-151.500000
 20
92.000000
 11
-151.500000
 21
73.000000
  0
LINE
  8
0
  6
CONTINUOUS
 62
7
 10
-147.500000
 20
82.199997
 11
-147.500000
 21
74.800003
  0
LINE
  8
0
  6
CONTINUOUS
 62
7
 10
-151.500000
 20
74.800003
 11
-147.500000
 21
74.800003
  0
LINE
  8
0
  6
CONTINUOUS
 62
7
 10
-151.500000
 20
82.199997
 11
-147.500000
 21
82.199997
  0
LINE
  8
0
  6
CONTINUOUS
 62
7
 10
-151.500000
 20
79.699997
 11
-147.500000
 21
79.699997
  0
LINE
  8
0
  6
CONTINUOUS
 62
7
 10
-151.500000
 20
80.931099
 11
-147.500000
 21
80.931099
  0
LINE
  8
0
  6
CONTINUOUS
 62
7
 10
-151.500000
 20
77.300003
 11
-147.500000
 21
77.300003
  0
LINE
  8
0
  6
CONTINUOUS
 62
7
 10
-151.500000
 20
76.068901
 11
-147.500000
 21
76.068901
  0
LINE
  8
0
  6
CONTINUOUS
 62
7
 10
-142.300003
 20
76.000000
 11
-142.300003
 21
81.000000
  0
LINE
  8
0
  6
CONTINUOUS
 62
7
 10
-147.500000
 20
76.000000
 11
-142.300003
 21
76.000000
  0
LINE
  8
0
  6
CONTINUOUS
 62
7
 10
-147.500000
 20
81.000000
 11
-142.300003
 21
81.000000
  0
LINE
  8
0
  6
CONTINUOUS
 62
2
 10
-147.500000
 20
76.400002
 11
-142.300003
 21
76.400002
  0
LINE
  8
0
  6
CONTINUOUS
 62
7
 10
-151.500000
 20
50.000000
 11
-164.300003
 21
50.000000
  0
LINE
  8
0
  6
CONTINUOUS
 62
7
 10
-151.500000
 20
42.000000
 11
-164.300003
 21
42.000000
  0
LINE
  8
0
  6
CENTER
 62
2
 10
-141.300003
 20
46.000000
 11
-165.300003
 21
46.000000
  0
LINE
  8
0
  6
CONTINUOUS
 62
7
 10
-159.500000
 20
50.000000
 11
-159.500000
 21
42.000000
  0
LINE
  8
0
  6
CONTINUOUS
 62
7
 10
-151.500000
 20
50.000000
 11
-151.500000
 21
42.000000
  0
LINE
  8
0
  6
CONTINUOUS
 62
7
 10
-151.500000
 20
49.500000
 11
-147.500000
 21
49.500000
  0
LINE
  8
0
  6
CONTINUOUS
 62
7
 10
-147.500000
 20
42.500000
 11
-147.500000
 21
49.500000
  0
LINE
  8
0
  6
CONTINUOUS
 62
7
 10
-151.500000
 20
48.789299
 11
-147.500000
 21
48.789299
  0
LINE
  8
0
  6
CONTINUOUS
 62
7
 10
-151.500000
 20
42.500000
 11
-147.500000
 21
42.500000
  0
LINE
  8
0
  6
CONTINUOUS
 62
7
 10
-151.500000
 20
43.210800
 11
-147.500000
 21
43.210800
  0
LINE
  8
0
  6
CONTINUOUS
 62
7
 10
-151.500000
 20
45.289200
 11
-147.500000
 21
45.289200
  0
LINE
  8
0
  6
CONTINUOUS
 62
7
 10
-151.500000
 20
46.710800
 11
-147.500000
 21
46.710800
  0
LINE
  8
0
  6
CONTINUOUS
 62
7
 10
-147.500000
 20
48.500000
 11
-142.300003
 21
48.500000
  0
LINE
  8
0
  6
CONTINUOUS
 62
2
 10
-147.500000
 20
48.099998
 11
-142.300003
 21
48.099998
  0
LINE
  8
0
  6
CONTINUOUS
 62
7
 10
-142.300003
 20
43.500000
 11
-142.300003
 21
48.500000
  0
LINE
  8
0
  6
CONTINUOUS
 62
2
 10
-147.500000
 20
43.900002
 11
-142.300003
 21
43.900002
  0
LINE
  8
0
  6
CONTINUOUS
 62
7
 10
-147.500000
 20
43.500000
 11
-142.300003
 21
43.500000
  0
LINE
  8
0
  6
CONTINUOUS
 62
7
 10
-162.000000
 20
-36.000000
 11
-151.500000
 21
-36.000000
  0
LINE
  8
0
  6
CENTER
 62
2
 10
-163.000000
 20
-22.500000
 11
-141.300003
 21
-22.500000
  0
LINE
  8
0
  6
CONTINUOUS
 62
2
 10
-147.500000
 20
-24.600000
 11
-142.300003
 21
-24.600000
  0
LINE
  8
0
  6
CONTINUOUS
 62
7
 10
-159.500000
 20
-17.000000
 11
-151.500000
 21
-17.000000
  0
LINE
  8
0
  6
CONTINUOUS
 62
7
 10
-159.500000
 20
-24.000000
 11
-159.500000
 21
-17.000000
  0
LINE
  8
0
  6
CONTINUOUS
 62
7
 10
-151.500000
 20
-36.000000
 11
-151.500000
 21
-17.000000
  0
LINE
  8
0
  6
CONTINUOUS
 62
7
 10
-147.500000
 20
-26.200001
 11
-147.500000
 21
-18.799999
  0
LINE
  8
0
  6
CONTINUOUS
 62
7
 10
-151.500000
 20
-18.799999
 11
-147.500000
 21
-18.799999
  0
LINE
  8
0
  6
CONTINUOUS
 62
7
 10
-151.500000
 20
-26.200001
 11
-147.500000
 21
-26.200001
  0
LINE
  8
0
  6
CONTINUOUS
 62
7
 10
-151.500000
 20
-23.700001
 11
-147.500000
 21
-23.700001
  0
LINE
  8
0
  6
CONTINUOUS
 62
7
 10
-151.500000
 20
-24.931101
 11
-147.500000
 21
-24.931101
  0
LINE
  8
0
  6
CONTINUOUS
 62
7
 10
-151.500000
 20
-21.299999
 11
-147.500000
 21
-21.299999
  0
LINE
  8
0
  6
CONTINUOUS
 62
7
 10
-151.500000
 20
-20.068899
 11
-147.500000
 21
-20.068899
  0
LINE
  8
0
  6
CONTINUOUS
 62
7
 10
-142.300003
 20
-20.000000
 11
-142.300003
 21
-25.000000
  0
LINE
  8
0
  6
CONTINUOUS
 62
7
 10
-162.000000
 20
-25.000000
 11
-159.671997
 21
-25.000000
  0
LINE
  8
0
  6
CONTINUOUS
 62
7
 10
-162.000000
 20
-20.000000
 11
-159.500000
 21
-20.000000
  0
LINE
  8
0
  6
CONTINUOUS
 62
2
 10
-162.000000
 20
-20.400000
 11
-159.500000
 21
-20.400000
  0
LINE
  8
0
  6
CONTINUOUS
 62
2
 10
-162.000000
 20
-24.600000
 11
-159.561005
 21
-24.600000
  0
LINE
  8
0
  6
CONTINUOUS
 62
7
 10
-147.500000
 20
-20.000000
 11
-142.300003
 21
-20.000000
  0
LINE
  8
0
  6
CONTINUOUS
 62
7
 10
-147.500000
 20
-25.000000
 11
-142.300003
 21
-25.000000
  0
LINE
  8
0
  6
CONTINUOUS
 62
2
 10
-147.500000
 20
-20.400000
 11
-142.300003
 21
-20.400000
  0
LINE
  8
0
  6
CONTINUOUS
 62
7
 10
-151.500000
 20
-102.500000
 11
-206.350006
 21
-102.500000
  0
LINE
  8
0
  6
CONTINUOUS
 62
7
 10
-151.500000
 20
-110.500000
 11
-205.500000
 21
-110.500000
  0
LINE
  8
0
  6
CENTER
 62
2
 10
-141.300003
 20
-106.500000
 11
-152.500000
 21
-106.500000
  0
LINE
  8
0
  6
CONTINUOUS
 62
7
 10
-151.500000
 20
-110.500000
 11
-151.500000
 21
-102.500000
  0
LINE
  8
0
  6
CONTINUOUS
 62
7
 10
-151.500000
 20
-110.000000
 11
-147.500000
 21
-110.000000
  0
LINE
  8
0
  6
CONTINUOUS
 62
7
 10
-147.500000
 20
-103.000000
 11
-147.500000
 21
-110.000000
  0
LINE
  8
0
  6
CONTINUOUS
 62
7
 10
-151.500000
 20
-109.289001
 11
-147.500000
 21
-109.289001
  0
LINE
  8
0
  6
CONTINUOUS
 62
7
 10
-151.500000
 20
-103.000000
 11
-147.500000
 21
-103.000000
  0
LINE
  8
0
  6
CONTINUOUS
 62
7
 10
-151.500000
 20
-103.710999
 11
-147.500000
 21
-103.710999
  0
LINE
  8
0
  6
CONTINUOUS
 62
7
 10
-151.500000
 20
-105.789001
 11
-147.500000
 21
-105.789001
  0
LINE
  8
0
  6
CONTINUOUS
 62
7
 10
-151.500000
 20
-107.210999
 11
-147.500000
 21
-107.210999
  0
LINE
  8
0
  6
CONTINUOUS
 62
7
 10
-147.500000
 20
-109.000000
 11
-142.300003
 21
-109.000000
  0
LINE
  8
0
  6
CONTINUOUS
 62
2
 10
-147.500000
 20
-108.599998
 11
-142.300003
 21
-108.599998
  0
LINE
  8
0
  6
CONTINUOUS
 62
7
 10
-142.300003
 20
-104.000000
 11
-142.300003
 21
-109.000000
  0
LINE
  8
0
  6
CONTINUOUS
 62
2
 10
-147.500000
 20
-104.400002
 11
-142.300003
 21
-104.400002
  0
LINE
  8
0
  6
CONTINUOUS
 62
7
 10
-147.500000
 20
-104.000000
 11
-142.300003
 21
-104.000000
  0
LINE
  8
0
  6
CONTINUOUS
 62
7
 10
38.000000
 20
82.958099
 11
38.000000
 21
81.000000
  0
LINE
  8
0
  6
CONTINUOUS
 62
7
 10
36.200001
 20
77.050003
 11
36.200001
 21
73.000000
  0
LINE
  8
0
  6
DASHED
 62
2
 10
-194.350006
 20
90.900002
 11
-194.350006
 21
88.500000
  0
LINE
  8
0
  6
DASHED
 62
2
 10
-197.649994
 20
90.900002
 11
-197.649994
 21
88.500000
  0
LINE
  8
0
  6
DASHED
 62
2
 10
-177.649994
 20
92.500000
 11
-177.649994
 21
87.500000
  0
LINE
  8
0
  6
DASHED
 62
2
 10
-174.350006
 20
92.500000
 11
-174.350006
 21
87.500000
  0
LINE
  8
0
  6
DASHED
 62
2
 10
-198.500000
 20
90.900002
 11
-193.500000
 21
90.900002
  0
LINE
  8
0
  6
CENTER
 62
2
 10
-193.000000
 20
20.100000
 11
-193.000000
 21
14.900000
  0
LINE
  8
0
  6
CENTER
 62
2
 10
-195.600006
 20
17.500000
 11
-190.399994
 21
17.500000
  0
LINE
  8
0
  6
DASHED
 62
2
 10
163.000000
 20
90.900002
 11
163.000000
 21
88.500000
  0
LINE
  8
0
  6
DASHED
 62
2
 10
167.000000
 20
90.900002
 11
167.000000
 21
88.500000
  0
LINE
  8
0
  6
DASHED
 62
2
 10
163.350006
 20
90.900002
 11
163.350006
 21
88.500000
  0
LINE
  8
0
  6
DASHED
 62
2
 10
166.649994
 20
90.900002
 11
166.649994
 21
88.500000
  0
LINE
  8
0
  6
DASHED
 62
2
 10
213.350006
 20
92.500000
 11
213.350006
 21
87.500000
  0
LINE
  8
0
  6
DASHED
 62
2
 10
216.649994
 20
92.500000
 11
216.649994
 21
87.500000
  0
LINE
  8
0
  6
CENTER
 62
2
 10
178.000000
 20
20.100000
 11
178.000000
 21
14.900000
  0
LINE
  8
0
  6
CENTER
 62
2
 10
175.399994
 20
17.500000
 11
180.600006
 21
17.500000
  0
LINE
  8
0
  6
DASHED
 62
2
 10
-12.650000
 20
92.500000
 11
-12.650000
 21
86.500000
  0
LINE
  8
0
  6
DASHED
 62
2
 10
-9.349990
 20
92.500000
 11
-9.349990
 21
86.500000
  0
LINE
  8
0
  6
DASHED
 62
2
 10
22.350000
 20
92.500000
 11
22.350000
 21
87.500000
  0
LINE
  8
0
  6
DASHED
 62
2
 10
25.650000
 20
92.500000
 11
25.650000
 21
87.500000
  0
LINE
  8
0
  6
CENTER
 62
2
 10
-8.000030
 20
20.100000
 11
-8.000030
 21
14.900000
  0
LINE
  8
0
  6
CENTER
 62
2
 10
-10.600000
 20
17.500000
 11
-5.400020
 21
17.500000
  0
LINE
  8
0
  6
CONTINUOUS
 62
2
 10
-197.438995
 20
80.599998
 11
-196.300003
 21
80.599998
  0
LINE
  8
0
  6
CONTINUOUS
 62
7
 10
-197.328003
 20
81.000000
 11
-196.300003
 21
81.000000
  0
LINE
  8
0
  6
CONTINUOUS
 62
7
 10
-196.300003
 20
76.000000
 11
-196.300003
 21
81.000000
  0
LINE
  8
0
  6
CONTINUOUS
 62
7
 10
-196.300003
 20
79.949997
 11
-194.800003
 21
79.949997
  0
LINE
  8
0
  6
CONTINUOUS
 62
7
 10
-194.800003
 20
77.050003
 11
-194.800003
 21
79.949997
  0
LINE
  8
0
  6
CONTINUOUS
 62
7
 10
-196.300003
 20
77.050003
 11
-194.800003
 21
77.050003
  0
LINE
  8
0
  6
CONTINUOUS
 62
2
 10
-197.500000
 20
76.400002
 11
-196.300003
 21
76.400002
  0
LINE
  8
0
  6
CONTINUOUS
 62
7
 10
-197.500000
 20
76.000000
 11
-196.300003
 21
76.000000
  0
LINE
  8
0
  6
CONTINUOUS
 62
2
 10
-162.800003
 20
80.599998
 11
-159.561005
 21
80.599998
  0
LINE
  8
0
  6
CONTINUOUS
 62
7
 10
-162.800003
 20
81.000000
 11
-159.671997
 21
81.000000
  0
LINE
  8
0
  6
CONTINUOUS
 62
7
 10
-162.800003
 20
76.000000
 11
-162.800003
 21
81.000000
  0
LINE
  8
0
  6
CONTINUOUS
 62
7
 10
-164.300003
 20
79.949997
 11
-162.800003
 21
79.949997
  0
LINE
  8
0
  6
CONTINUOUS
 62
7
 10
-164.300003
 20
77.050003
 11
-162.800003
 21
77.050003
  0
LINE
  8
0
  6
CONTINUOUS
 62
7
 10
-162.800003
 20
76.000000
 11
-159.500000
 21
76.000000
  0
LINE
  8
0
  6
CONTINUOUS
 62
2
 10
-162.800003
 20
76.400002
 11
-159.500000
 21
76.400002
  0
LINE
  8
0
  6
CONTINUOUS
 62
2
 10
-197.500000
 20
48.099998
 11
-196.300003
 21
48.099998
  0
LINE
  8
0
  6
CONTINUOUS
 62
7
 10
-197.500000
 20
48.500000
 11
-196.300003
 21
48.500000
  0
LINE
  8
0
  6
CONTINUOUS
 62
7
 10
-196.300003
 20
43.500000
 11
-196.300003
 21
48.500000
  0
LINE
  8
0
  6
CONTINUOUS
 62
7
 10
-196.300003
 20
47.450001
 11
-194.800003
 21
47.450001
  0
LINE
  8
0
  6
CONTINUOUS
 62
7
 10
-194.800003
 20
44.549999
 11
-194.800003
 21
47.450001
  0
LINE
  8
0
  6
CONTINUOUS
 62
7
 10
-196.300003
 20
44.549999
 11
-194.800003
 21
44.549999
  0
LINE
  8
0
  6
CONTINUOUS
 62
2
 10
-197.500000
 20
43.900002
 11
-196.300003
 21
43.900002
  0
LINE
  8
0
  6
CONTINUOUS
 62
7
 10
-197.500000
 20
43.500000
 11
-196.300003
 21
43.500000
  0
LINE
  8
0
  6
CONTINUOUS
 62
2
 10
-162.800003
 20
48.099998
 11
-159.500000
 21
48.099998
  0
LINE
  8
0
  6
CONTINUOUS
 62
7
 10
-162.800003
 20
48.500000
 11
-159.500000
 21
48.500000
  0
LINE
  8
0
  6
CONTINUOUS
 62
7
 10
-162.800003
 20
43.500000
 11
-162.800003
 21
48.500000
  0
LINE
  8
0
  6
CONTINUOUS
 62
7
 10
-164.300003
 20
47.450001
 11
-162.800003
 21
47.450001
  0
LINE
  8
0
  6
CONTINUOUS
 62
7
 10
-164.300003
 20
44.549999
 11
-162.800003
 21
44.549999
  0
LINE
  8
0
  6
CONTINUOUS
 62
7
 10
-162.800003
 20
43.500000
 11
-159.500000
 21
43.500000
  0
LINE
  8
0
  6
CONTINUOUS
 62
2
 10
-162.800003
 20
43.900002
 11
-159.500000
 21
43.900002
  0
LINE
  8
0
  6
CONTINUOUS
 62
2
 10
-12.439400
 20
80.599998
 11
-11.300000
 21
80.599998
  0
LINE
  8
0
  6
CONTINUOUS
 62
7
 10
-12.328400
 20
81.000000
 11
-11.300000
 21
81.000000
  0
LINE
  8
0
  6
CONTINUOUS
 62
7
 10
-11.300000
 20
76.000000
 11
-11.300000
 21
81.000000
  0
LINE
  8
0
  6
CONTINUOUS
 62
7
 10
-11.300000
 20
79.949997
 11
-9.800000
 21
79.949997
  0
LINE
  8
0
  6
CONTINUOUS
 62
7
 10
-9.800000
 20
77.050003
 11
-9.800000
 21
79.949997
  0
LINE
  8
0
  6
CONTINUOUS
 62
7
 10
-11.300000
 20
77.050003
 11
-9.800000
 21
77.050003
  0
LINE
  8
0
  6
CONTINUOUS
 62
2
 10
-12.500000
 20
76.400002
 11
-11.300000
 21
76.400002
  0
LINE
  8
0
  6
CONTINUOUS
 62
7
 10
-12.500000
 20
76.000000
 11
-11.300000
 21
76.000000
  0
LINE
  8
0
  6
CONTINUOUS
 62
2
 10
37.200001
 20
80.599998
 11
40.439400
 21
80.599998
  0
LINE
  8
0
  6
CONTINUOUS
 62
7
 10
37.200001
 20
81.000000
 11
40.328400
 21
81.000000
  0
LINE
  8
0
  6
CONTINUOUS
 62
7
 10
37.200001
 20
76.000000
 11
37.200001
 21
81.000000
  0
LINE
  8
0
  6
CONTINUOUS
 62
7
 10
35.700001
 20
79.949997
 11
37.200001
 21
79.949997
  0
LINE
  8
0
  6
CONTINUOUS
 62
7
 10
35.700001
 20
77.050003
 11
37.200001
 21
77.050003
  0
LINE
  8
0
  6
CONTINUOUS
 62
7
 10
37.200001
 20
76.000000
 11
40.500000
 21
76.000000
  0
LINE
  8
0
  6
CONTINUOUS
 62
2
 10
37.200001
 20
76.400002
 11
40.500000
 21
76.400002
  0
LINE
  8
0
  6
CONTINUOUS
 62
2
 10
-12.500000
 20
48.099998
 11
-11.300000
 21
48.099998
  0
LINE
  8
0
  6
CONTINUOUS
 62
7
 10
-12.500000
 20
48.500000
 11
-11.300000
 21
48.500000
  0
LINE
  8
0
  6
CONTINUOUS
 62
7
 10
-11.300000
 20
43.500000
 11
-11.300000
 21
48.500000
  0
LINE
  8
0
  6
CONTINUOUS
 62
7
 10
-11.300000
 20
47.450001
 11
-9.799990
 21
47.450001
  0
LINE
  8
0
  6
CONTINUOUS
 62
7
 10
-9.799990
 20
44.549999
 11
-9.799990
 21
47.450001
  0
LINE
  8
0
  6
CONTINUOUS
 62
7
 10
-11.300000
 20
44.549999
 11
-9.799990
 21
44.549999
  0
LINE
  8
0
  6
CONTINUOUS
 62
2
 10
-12.500000
 20
43.900002
 11
-11.300000
 21
43.900002
  0
LINE
  8
0
  6
CONTINUOUS
 62
7
 10
-12.500000
 20
43.500000
 11
-11.300000
 21
43.500000
  0
LINE
  8
0
  6
CONTINUOUS
 62
2
 10
37.200001
 20
48.099998
 11
40.500000
 21
48.099998
  0
LINE
  8
0
  6
CONTINUOUS
 62
7
 10
37.200001
 20
48.500000
 11
40.500000
 21
48.500000
  0
LINE
  8
0
  6
CONTINUOUS
 62
7
 10
37.200001
 20
43.500000
 11
37.200001
 21
48.500000
  0
LINE
  8
0
  6
CONTINUOUS
 62
7
 10
35.700001
 20
47.450001
 11
37.200001
 21
47.450001
  0
LINE
  8
0
  6
CONTINUOUS
 62
7
 10
35.700001
 20
44.549999
 11
37.200001
 21
44.549999
  0
LINE
  8
0
  6
CONTINUOUS
 62
7
 10
37.200001
 20
43.500000
 11
40.500000
 21
43.500000
  0
LINE
  8
0
  6
CONTINUOUS
 62
2
 10
37.200001
 20
43.900002
 11
40.500000
 21
43.900002
  0
LINE
  8
0
  6
CONTINUOUS
 62
2
 10
163.561005
 20
80.599998
 11
164.699997
 21
80.599998
  0
LINE
  8
0
  6
CONTINUOUS
 62
7
 10
163.671997
 20
81.000000
 11
164.699997
 21
81.000000
  0
LINE
  8
0
  6
CONTINUOUS
 62
7
 10
164.699997
 20
76.000000
 11
164.699997
 21
81.000000
  0
LINE
  8
0
  6
CONTINUOUS
 62
7
 10
164.699997
 20
79.949997
 11
166.199997
 21
79.949997
  0
LINE
  8
0
  6
CONTINUOUS
 62
7
 10
166.199997
 20
77.050003
 11
166.199997
 21
79.949997
  0
LINE
  8
0
  6
CONTINUOUS
 62
7
 10
164.699997
 20
77.050003
 11
166.199997
 21
77.050003
  0
LINE
  8
0
  6
CONTINUOUS
 62
2
 10
163.500000
 20
76.400002
 11
164.699997
 21
76.400002
  0
LINE
  8
0
  6
CONTINUOUS
 62
7
 10
163.500000
 20
76.000000
 11
164.699997
 21
76.000000
  0
LINE
  8
0
  6
CONTINUOUS
 62
2
 10
228.199997
 20
80.599998
 11
231.438995
 21
80.599998
  0
LINE
  8
0
  6
CONTINUOUS
 62
7
 10
228.199997
 20
81.000000
 11
231.328003
 21
81.000000
  0
LINE
  8
0
  6
CONTINUOUS
 62
7
 10
228.199997
 20
76.000000
 11
228.199997
 21
81.000000
  0
LINE
  8
0
  6
CONTINUOUS
 62
7
 10
226.699997
 20
79.949997
 11
228.199997
 21
79.949997
  0
LINE
  8
0
  6
CONTINUOUS
 62
7
 10
226.699997
 20
77.050003
 11
228.199997
 21
77.050003
  0
LINE
  8
0
  6
CONTINUOUS
 62
7
 10
228.199997
 20
76.000000
 11
231.500000
 21
76.000000
  0
LINE
  8
0
  6
CONTINUOUS
 62
2
 10
228.199997
 20
76.400002
 11
231.500000
 21
76.400002
  0
LINE
  8
0
  6
CONTINUOUS
 62
2
 10
163.500000
 20
48.099998
 11
164.699997
 21
48.099998
  0
LINE
  8
0
  6
CONTINUOUS
 62
7
 10
163.500000
 20
48.500000
 11
164.699997
 21
48.500000
  0
LINE
  8
0
  6
CONTINUOUS
 62
7
 10
164.699997
 20
43.500000
 11
164.699997
 21
48.500000
  0
LINE
  8
0
  6
CONTINUOUS
 62
7
 10
164.699997
 20
47.450001
 11
166.199997
 21
47.450001
  0
LINE
  8
0
  6
CONTINUOUS
 62
7
 10
166.199997
 20
44.549999
 11
166.199997
 21
47.450001
  0
LINE
  8
0
  6
CONTINUOUS
 62
7
 10
164.699997
 20
44.549999
 11
166.199997
 21
44.549999
  0
LINE
  8
0
  6
CONTINUOUS
 62
2
 10
163.500000
 20
43.900002
 11
164.699997
 21
43.900002
  0
LINE
  8
0
  6
CONTINUOUS
 62
7
 10
163.500000
 20
43.500000
 11
164.699997
 21
43.500000
  0
LINE
  8
0
  6
CONTINUOUS
 62
2
 10
228.199997
 20
48.099998
 11
231.500000
 21
48.099998
  0
LINE
  8
0
  6
CONTINUOUS
 62
7
 10
228.199997
 20
48.500000
 11
231.500000
 21
48.500000
  0
LINE
  8
0
  6
CONTINUOUS
 62
7
 10
228.199997
 20
43.500000
 11
228.199997
 21
48.500000
  0
LINE
  8
0
  6
CONTINUOUS
 62
7
 10
226.699997
 20
47.450001
 11
228.199997
 21
47.450001
  0
LINE
  8
0
  6
CONTINUOUS
 62
7
 10
226.699997
 20
44.549999
 11
228.199997
 21
44.549999
  0
LINE
  8
0
  6
CONTINUOUS
 62
7
 10
228.199997
 20
43.500000
 11
231.500000
 21
43.500000
  0
LINE
  8
0
  6
CONTINUOUS
 62
2
 10
228.199997
 20
43.900002
 11
231.500000
 21
43.900002
  0
LINE
  8
0
  6
DASHED
 62
2
 10
-193.000000
 20
-32.500000
 11
-199.000000
 21
-32.500000
  0
LINE
  8
0
  6
CENTER
 62
2
 10
-196.000000
 20
-37.500000
 11
-196.000000
 21
-31.500000
  0
LINE
  8
0
  6
DASHED
 62
2
 10
-198.000000
 20
-34.900002
 11
-198.000000
 21
-32.500000
  0
LINE
  8
0
  6
DASHED
 62
2
 10
-194.000000
 20
-34.900002
 11
-194.000000
 21
-32.500000
  0
LINE
  8
0
  6
DASHED
 62
2
 10
-198.500000
 20
-36.500000
 11
-198.500000
 21
-34.900002
  0
LINE
  8
0
  6
DASHED
 62
2
 10
-193.500000
 20
-36.500000
 11
-193.500000
 21
-34.900002
  0
LINE
  8
0
  6
DASHED
 62
2
 10
-198.500000
 20
-34.900002
 11
-193.500000
 21
-34.900002
  0
LINE
  8
0
  6
DASHED
 62
2
 10
-178.000000
 20
-36.500000
 11
-178.000000
 21
-31.500000
  0
LINE
  8
0
  6
CENTER
 62
2
 10
-176.000000
 20
-37.500000
 11
-176.000000
 21
-30.000000
  0
LINE
  8
0
  6
DASHED
 62
2
 10
-179.000000
 20
-31.500000
 11
-179.000000
 21
-30.992399
  0
LINE
  8
0
  6
DASHED
 62
2
 10
-179.000000
 20
-31.500000
 11
-173.000000
 21
-31.500000
  0
LINE
  8
0
  6
DASHED
 62
2
 10
-173.000000
 20
-31.500000
 11
-173.000000
 21
-31.000000
  0
LINE
  8
0
  6
DASHED
 62
2
 10
-174.000000
 20
-36.500000
 11
-174.000000
 21
-31.500000
  0
LINE
  8
0
  6
DASHED
 62
2
 10
-194.350006
 20
-34.900002
 11
-194.350006
 21
-32.500000
  0
LINE
  8
0
  6
DASHED
 62
2
 10
-197.649994
 20
-34.900002
 11
-197.649994
 21
-32.500000
  0
LINE
  8
0
  6
DASHED
 62
2
 10
-174.350006
 20
-36.500000
 11
-174.350006
 21
-31.500000
  0
LINE
  8
0
  6
DASHED
 62
2
 10
-177.649994
 20
-36.500000
 11
-177.649994
 21
-31.500000
  0
LINE
  8
0
  6
CONTINUOUS
 62
7
 10
-162.000000
 20
11.500000
 11
-205.500000
 21
11.500000
  0
LINE
  8
0
  6
CONTINUOUS
 62
7
 10
-162.000000
 20
4.000020
 11
-205.500000
 21
4.000020
  0
LINE
  8
0
  6
CONTINUOUS
 62
7
 10
-162.000000
 20
11.500000
 11
-162.000000
 21
4.000020
  0
LINE
  8
0
  6
CONTINUOUS
 62
7
 10
-175.000000
 20
12.500000
 11
-175.000000
 21
11.500000
  0
LINE
  8
0
  6
CONTINUOUS
 62
7
 10
-173.899994
 20
14.000000
 11
-173.899994
 21
12.500000
  0
LINE
  8
0
  6
CONTINUOUS
 62
7
 10
-180.399994
 20
14.000000
 11
-180.399994
 21
12.500000
  0
LINE
  8
0
  6
CONTINUOUS
 62
7
 10
-173.899994
 20
12.500000
 11
-180.399994
 21
12.500000
  0
LINE
  8
0
  6
CONTINUOUS
 62
7
 10
-205.500000
 20
14.000000
 11
-205.500000
 21
4.000020
  0
LINE
  8
0
  6
CONTINUOUS
 62
7
 10
-260.200012
 20
12.500000
 11
-260.200012
 21
14.000000
  0
LINE
  8
0
  6
CONTINUOUS
 62
7
 10
-249.199997
 20
12.500000
 11
-260.200012
 21
12.500000
  0
LINE
  8
0
  6
CONTINUOUS
 62
7
 10
-249.199997
 20
12.500000
 11
-249.199997
 21
14.500000
  0
LINE
  8
0
  6
CONTINUOUS
 62
2
 10
-253.300003
 20
4.000050
 11
-253.300003
 21
5.000040
  0
LINE
  8
0
  6
CONTINUOUS
 62
7
 10
-248.500000
 20
4.000020
 11
-267.500000
 21
4.000020
  0
LINE
  8
0
  6
CONTINUOUS
 62
2
 10
-250.699997
 20
4.000050
 11
-250.699997
 21
5.000040
  0
LINE
  8
0
  6
CONTINUOUS
 62
7
 10
-248.500000
 20
4.000050
 11
-248.500000
 21
11.500000
  0
LINE
  8
0
  6
CONTINUOUS
 62
7
 10
-248.500000
 20
11.500000
 11
-261.000000
 21
11.500000
  0
LINE
  8
0
  6
CONTINUOUS
 62
7
 10
-261.000000
 20
11.500000
 11
-261.000000
 21
14.000000
  0
LINE
  8
0
  6
CONTINUOUS
 62
2
 10
-249.850006
 20
5.000040
 11
-250.699997
 21
5.000040
  0
LINE
  8
0
  6
CONTINUOUS
 62
2
 10
-254.149994
 20
8.800030
 11
-254.149994
 21
5.000040
  0
LINE
  8
0
  6
CONTINUOUS
 62
2
 10
-251.350006
 20
10.300000
 11
-252.649994
 21
10.300000
  0
LINE
  8
0
  6
CONTINUOUS
 62
2
 10
-249.850006
 20
8.800030
 11
-249.850006
 21
5.000040
  0
LINE
  8
0
  6
CONTINUOUS
 62
7
 10
-267.500000
 20
4.000020
 11
-267.500000
 21
14.000000
  0
LINE
  8
0
  6
CONTINUOUS
 62
2
 10
-253.300003
 20
5.000040
 11
-254.149994
 21
5.000040
  0
LINE
  8
0
  6
CENTER
 62
2
 10
-258.000000
 20
11.300000
 11
-258.000000
 21
3.000020
  0
LINE
  8
0
  6
CENTER
 62
2
 10
-252.000000
 20
11.300000
 11
-252.000000
 21
3.000020
  0
LINE
  8
0
  6
CONTINUOUS
 62
7
 10
-117.800003
 20
12.500000
 11
-117.800003
 21
14.000000
  0
LINE
  8
0
  6
CONTINUOUS
 62
7
 10
-128.800003
 20
12.500000
 11
-117.800003
 21
12.500000
  0
LINE
  8
0
  6
CONTINUOUS
 62
7
 10
-128.800003
 20
12.500000
 11
-128.800003
 21
14.500000
  0
LINE
  8
0
  6
CONTINUOUS
 62
7
 10
-129.500000
 20
4.000020
 11
-110.500000
 21
4.000020
  0
LINE
  8
0
  6
CONTINUOUS
 62
2
 10
-124.699997
 20
4.000050
 11
-124.699997
 21
5.000040
  0
LINE
  8
0
  6
CONTINUOUS
 62
2
 10
-127.300003
 20
4.000050
 11
-127.300003
 21
5.000040
  0
LINE
  8
0
  6
CONTINUOUS
 62
7
 10
-129.500000
 20
4.000050
 11
-129.500000
 21
11.500000
  0
LINE
  8
0
  6
CONTINUOUS
 62
7
 10
-129.500000
 20
11.500000
 11
-117.000000
 21
11.500000
  0
LINE
  8
0
  6
CONTINUOUS
 62
7
 10
-117.000000
 20
11.500000
 11
-117.000000
 21
14.000000
  0
LINE
  8
0
  6
CONTINUOUS
 62
2
 10
-128.149994
 20
5.000040
 11
-127.300003
 21
5.000040
  0
LINE
  8
0
  6
CONTINUOUS
 62
2
 10
-123.849998
 20
8.800030
 11
-123.849998
 21
5.000040
  0
LINE
  8
0
  6
CONTINUOUS
 62
2
 10
-126.650002
 20
10.300000
 11
-125.349998
 21
10.300000
  0
LINE
  8
0
  6
CONTINUOUS
 62
2
 10
-128.149994
 20
8.800030
 11
-128.149994
 21
5.000040
  0
LINE
  8
0
  6
CONTINUOUS
 62
7
 10
-110.500000
 20
4.000020
 11
-110.500000
 21
14.000000
  0
LINE
  8
0
  6
CONTINUOUS
 62
2
 10
-124.699997
 20
5.000040
 11
-123.849998
 21
5.000040
  0
LINE
  8
0
  6
CONTINUOUS
 62
7
 10
-122.199997
 20
4.000050
 11
-122.199997
 21
11.500000
  0
LINE
  8
0
  6
CENTER
 62
2
 10
-126.000000
 20
11.300000
 11
-126.000000
 21
3.000020
  0
LINE
  8
0
  6
CENTER
 62
2
 10
-120.000000
 20
11.300000
 11
-120.000000
 21
3.000020
  0
LINE
  8
0
  6
CONTINUOUS
 62
7
 10
-224.000000
 20
-16.500000
 11
-165.000000
 21
-16.500000
  0
LINE
  8
0
  6
CONTINUOUS
 62
7
 10
-222.000000
 20
-36.500000
 11
-222.000000
 21
-26.500000
  0
LINE
  8
0
  6
CONTINUOUS
 62
7
 10
-162.000000
 20
-36.500000
 11
-162.000000
 21
-17.000000
  0
LINE
  8
0
  6
CONTINUOUS
 62
7
 10
-222.000000
 20
-36.500000
 11
-162.000000
 21
-36.500000
  0
LINE
  8
0
  6
CONTINUOUS
 62
7
 10
-222.000000
 20
-27.000000
 11
-205.500000
 21
-27.000000
  0
LINE
  8
0
  6
CONTINUOUS
 62
7
 10
-224.000000
 20
-26.500000
 11
-205.500000
 21
-26.500000
  0
LINE
  8
0
  6
CONTINUOUS
 62
7
 10
-224.000000
 20
-35.500000
 11
-224.000000
 21
-16.500000
  0
LINE
  8
0
  6
CONTINUOUS
 62
7
 10
-172.800003
 20
-31.000000
 11
-175.000000
 21
-31.000000
  0
LINE
  8
0
  6
CONTINUOUS
 62
7
 10
-211.199997
 20
-31.000000
 11
-205.500000
 21
-31.000000
  0
LINE
  8
0
  6
CONTINUOUS
 62
7
 10
-165.000000
 20
-26.500000
 11
-165.000000
 21
-24.299999
  0
LINE
  8
0
  6
CONTINUOUS
 62
7
 10
-165.000000
 20
-17.000000
 11
-164.000000
 21
-17.000000
  0
LINE
  8
0
  6
CONTINUOUS
 62
7
 10
-209.649994
 20
-36.500000
 11
-209.649994
 21
-31.000000
  0
LINE
  8
0
  6
DASHED
 62
2
 10
-211.000000
 20
-31.500000
 11
-209.649994
 21
-31.500000
  0
LINE
  8
0
  6
CENTER
 62
2
 10
-208.000000
 20
-37.500000
 11
-208.000000
 21
-30.000000
  0
LINE
  8
0
  6
CONTINUOUS
 62
7
 10
-206.350006
 20
-36.500000
 11
-206.350006
 21
-31.000000
  0
LINE
  8
0
  6
CONTINUOUS
 62
7
 10
-232.000000
 20
-35.500000
 11
-232.000000
 21
-17.000000
  0
LINE
  8
0
  6
CONTINUOUS
 62
7
 10
-224.000000
 20
-33.500000
 11
-222.000000
 21
-33.500000
  0
LINE
  8
0
  6
CONTINUOUS
 62
7
 10
-232.000000
 20
-35.500000
 11
-224.000000
 21
-35.500000
  0
LINE
  8
0
  6
CONTINUOUS
 62
7
 10
-232.000000
 20
-17.000000
 11
-224.000000
 21
-17.000000
  0
LINE
  8
0
  6
CONTINUOUS
 62
7
 10
-175.000000
 20
-24.299999
 11
-162.000000
 21
-24.299999
  0
LINE
  8
0
  6
CONTINUOUS
 62
2
 10
-205.500000
 20
-21.799999
 11
-162.000000
 21
-21.799999
  0
LINE
  8
0
  6
CONTINUOUS
 62
2
 10
-205.500000
 20
-19.200001
 11
-162.000000
 21
-19.200001
  0
LINE
  8
0
  6
CONTINUOUS
 62
7
 10
-175.000000
 20
-24.299999
 11
-175.000000
 21
-36.000000
  0
LINE
  8
0
  6
CONTINUOUS
 62
2
 10
-205.500000
 20
-27.799999
 11
-175.000000
 21
-27.799999
  0
LINE
  8
0
  6
CONTINUOUS
 62
7
 10
-205.500000
 20
-36.000000
 11
-205.500000
 21
-17.000000
  0
LINE
  8
0
  6
CONTINUOUS
 62
2
 10
-205.500000
 20
-25.200001
 11
-175.000000
 21
-25.200001
  0
LINE
  8
0
  6
CONTINUOUS
 62
7
 10
-205.500000
 20
-17.000000
 11
-162.000000
 21
-17.000000
  0
LINE
  8
0
  6
CONTINUOUS
 62
7
 10
-205.500000
 20
-36.000000
 11
-175.000000
 21
-36.000000
  0
LINE
  8
0
  6
CONTINUOUS
 62
7
 10
-175.000000
 20
-26.500000
 11
-163.800003
 21
-26.500000
  0
LINE
  8
0
  6
CONTINUOUS
 62
7
 10
-175.000000
 20
-27.000000
 11
-162.000000
 21
-27.000000
  0
LINE
  8
0
  6
CONTINUOUS
 62
7
 10
-163.800003
 20
-26.500000
 11
-163.800003
 21
-24.299999
  0
LINE
  8
0
  6
CONTINUOUS
 62
7
 10
-165.000000
 20
-17.000000
 11
-165.000000
 21
-16.500000
  0
LINE
  8
0
  6
CENTER
 62
2
 10
-212.500000
 20
-31.000000
 11
-219.500000
 21
-31.000000
  0
LINE
  8
0
  6
CENTER
 62
2
 10
-216.000000
 20
-27.500000
 11
-216.000000
 21
-34.500000
  0
LINE
  8
0
  6
CENTER
 62
2
 10
-164.500000
 20
-31.000000
 11
-171.500000
 21
-31.000000
  0
LINE
  8
0
  6
CENTER
 62
2
 10
-168.000000
 20
-27.500000
 11
-168.000000
 21
-34.500000
  0
LINE
  8
0
  6
CENTER
 62
2
 10
-234.000000
 20
-29.500000
 11
-230.000000
 21
-29.500000
  0
LINE
  8
0
  6
DASHED
 62
2
 10
-206.350006
 20
-31.500000
 11
-205.000000
 21
-31.500000
  0
LINE
  8
0
  6
CONTINUOUS
 62
7
 10
-209.649994
 20
-31.500000
 11
-206.350006
 21
-31.500000
  0
LINE
  8
0
  6
DASHED
 62
2
 10
-205.000000
 20
-31.500000
 11
-205.000000
 21
-31.000000
  0
LINE
  8
0
  6
DASHED
 62
2
 10
-211.000000
 20
-31.500000
 11
-211.000000
 21
-31.000000
  0
LINE
  8
0
  6
CENTER
 62
2
 10
-215.000000
 20
-18.500000
 11
-215.000000
 21
-14.500000
  0
LINE
  8
0
  6
CENTER
 62
2
 10
-234.000000
 20
-20.500000
 11
-230.000000
 21
-20.500000
  0
LINE
  8
0
  6
CENTER
 62
2
 10
-179.000000
 20
-18.500000
 11
-179.000000
 21
-14.500000
  0
LINE
  8
0
  6
CENTER
 62
2
 10
-197.000000
 20
-18.500000
 11
-197.000000
 21
-14.500000
  0
LINE
  8
0
  6
CONTINUOUS
 62
7
 10
-175.000000
 20
-64.500000
 11
-175.000000
 21
-74.500000
  0
LINE
  8
0
  6
CONTINUOUS
 62
7
 10
-162.000000
 20
-64.500000
 11
-162.000000
 21
-71.500000
  0
LINE
  8
0
  6
CONTINUOUS
 62
7
 10
-175.000000
 20
-71.500000
 11
-162.000000
 21
-71.500000
  0
LINE
  8
0
  6
CONTINUOUS
 62
7
 10
-205.500000
 20
-64.500000
 11
-205.500000
 21
-74.500000
  0
LINE
  8
0
  6
CONTINUOUS
 62
7
 10
-162.000000
 20
-64.500000
 11
-205.500000
 21
-64.500000
  0
LINE
  8
0
  6
CENTER
 62
2
 10
-11.000000
 20
-37.500000
 11
-11.000000
 21
-29.500000
  0
LINE
  8
0
  6
DASHED
 62
2
 10
-13.000000
 20
-36.500000
 11
-13.000000
 21
-30.500000
  0
LINE
  8
0
  6
DASHED
 62
2
 10
-9.000000
 20
-36.500000
 11
-9.000000
 21
-30.500000
  0
LINE
  8
0
  6
DASHED
 62
2
 10
22.000000
 20
-36.500000
 11
22.000000
 21
-31.500000
  0
LINE
  8
0
  6
CENTER
 62
2
 10
24.000000
 20
-37.500000
 11
24.000000
 21
-30.200001
  0
LINE
  8
0
  6
DASHED
 62
2
 10
21.000000
 20
-31.500000
 11
21.000000
 21
-31.200001
  0
LINE
  8
0
  6
DASHED
 62
2
 10
21.000000
 20
-31.500000
 11
27.000000
 21
-31.500000
  0
LINE
  8
0
  6
DASHED
 62
2
 10
27.000000
 20
-31.500000
 11
27.000000
 21
-31.200001
  0
LINE
  8
0
  6
DASHED
 62
2
 10
26.000000
 20
-36.500000
 11
26.000000
 21
-31.500000
  0
LINE
  8
0
  6
DASHED
 62
2
 10
22.350000
 20
-36.500000
 11
22.350000
 21
-31.500000
  0
LINE
  8
0
  6
DASHED
 62
2
 10
25.650000
 20
-36.500000
 11
25.650000
 21
-31.500000
  0
LINE
  8
0
  6
DASHED
 62
2
 10
-9.349990
 20
-36.500000
 11
-9.349990
 21
-30.500000
  0
LINE
  8
0
  6
DASHED
 62
2
 10
-12.650000
 20
-36.500000
 11
-12.650000
 21
-30.500000
  0
LINE
  8
0
  6
CONTINUOUS
 62
7
 10
-75.199997
 20
12.500000
 11
-75.199997
 21
14.000000
  0
LINE
  8
0
  6
CONTINUOUS
 62
7
 10
-64.199997
 20
12.500000
 11
-75.199997
 21
12.500000
  0
LINE
  8
0
  6
CONTINUOUS
 62
7
 10
-64.199997
 20
12.500000
 11
-64.199997
 21
14.500000
  0
LINE
  8
0
  6
CONTINUOUS
 62
2
 10
-68.300003
 20
4.000060
 11
-68.300003
 21
5.000030
  0
LINE
  8
0
  6
CONTINUOUS
 62
7
 10
-63.500000
 20
4.000030
 11
-82.500000
 21
4.000030
  0
LINE
  8
0
  6
CONTINUOUS
 62
2
 10
-65.699997
 20
4.000060
 11
-65.699997
 21
5.000030
  0
LINE
  8
0
  6
CONTINUOUS
 62
7
 10
-63.500000
 20
4.000060
 11
-63.500000
 21
11.500100
  0
LINE
  8
0
  6
CONTINUOUS
 62
7
 10
-63.500000
 20
11.500100
 11
-76.000000
 21
11.500100
  0
LINE
  8
0
  6
CONTINUOUS
 62
7
 10
-76.000000
 20
11.500100
 11
-76.000000
 21
14.000100
  0
LINE
  8
0
  6
CONTINUOUS
 62
2
 10
-64.849998
 20
5.000030
 11
-65.699997
 21
5.000030
  0
LINE
  8
0
  6
CONTINUOUS
 62
2
 10
-69.150002
 20
8.800050
 11
-69.150002
 21
5.000030
  0
LINE
  8
0
  6
CONTINUOUS
 62
2
 10
-66.349998
 20
10.300000
 11
-67.650002
 21
10.300000
  0
LINE
  8
0
  6
CONTINUOUS
 62
2
 10
-64.849998
 20
8.800050
 11
-64.849998
 21
5.000030
  0
LINE
  8
0
  6
CONTINUOUS
 62
2
 10
-68.300003
 20
5.000030
 11
-69.150002
 21
5.000030
  0
LINE
  8
0
  6
CENTER
 62
2
 10
-73.000000
 20
11.300000
 11
-73.000000
 21
3.000030
  0
LINE
  8
0
  6
CENTER
 62
2
 10
-67.000000
 20
11.300000
 11
-67.000000
 21
3.000030
  0
LINE
  8
0
  6
CONTINUOUS
 62
7
 10
77.199997
 20
12.500000
 11
77.199997
 21
14.000000
  0
LINE
  8
0
  6
CONTINUOUS
 62
7
 10
66.199997
 20
12.500000
 11
77.199997
 21
12.500000
  0
LINE
  8
0
  6
CONTINUOUS
 62
7
 10
66.199997
 20
12.500000
 11
66.199997
 21
14.500000
  0
LINE
  8
0
  6
CONTINUOUS
 62
7
 10
65.500000
 20
4.000030
 11
84.500000
 21
4.000030
  0
LINE
  8
0
  6
CONTINUOUS
 62
2
 10
70.300003
 20
4.000060
 11
70.300003
 21
5.000030
  0
LINE
  8
0
  6
CONTINUOUS
 62
2
 10
67.699997
 20
4.000060
 11
67.699997
 21
5.000030
  0
LINE
  8
0
  6
CONTINUOUS
 62
7
 10
65.500000
 20
4.000060
 11
65.500000
 21
11.500100
  0
LINE
  8
0
  6
CONTINUOUS
 62
7
 10
65.500000
 20
11.500100
 11
78.000000
 21
11.500100
  0
LINE
  8
0
  6
CONTINUOUS
 62
7
 10
78.000000
 20
11.500100
 11
78.000000
 21
14.000100
  0
LINE
  8
0
  6
CONTINUOUS
 62
2
 10
66.849998
 20
5.000030
 11
67.699997
 21
5.000030
  0
LINE
  8
0
  6
CONTINUOUS
 62
2
 10
71.150002
 20
8.800050
 11
71.150002
 21
5.000030
  0
LINE
  8
0
  6
CONTINUOUS
 62
2
 10
68.349998
 20
10.300000
 11
69.650002
 21
10.300000
  0
LINE
  8
0
  6
CONTINUOUS
 62
2
 10
66.849998
 20
8.800050
 11
66.849998
 21
5.000030
  0
LINE
  8
0
  6
CONTINUOUS
 62
7
 10
84.500000
 20
4.000030
 11
84.500000
 21
14.000100
  0
LINE
  8
0
  6
CONTINUOUS
 62
2
 10
70.300003
 20
5.000030
 11
71.150002
 21
5.000030
  0
LINE
  8
0
  6
CONTINUOUS
 62
7
 10
72.800003
 20
4.000060
 11
72.800003
 21
11.500100
  0
LINE
  8
0
  6
CENTER
 62
2
 10
69.000000
 20
11.300000
 11
69.000000
 21
3.000030
  0
LINE
  8
0
  6
CENTER
 62
2
 10
75.000000
 20
11.300000
 11
75.000000
 21
3.000030
  0
LINE
  8
0
  6
CONTINUOUS
 62
7
 10
38.000000
 20
11.500000
 11
-20.500000
 21
11.500000
  0
LINE
  8
0
  6
CONTINUOUS
 62
7
 10
38.000000
 20
4.000030
 11
-20.500000
 21
4.000030
  0
LINE
  8
0
  6
CONTINUOUS
 62
7
 10
38.000000
 20
11.500000
 11
38.000000
 21
4.000030
  0
LINE
  8
0
  6
CONTINUOUS
 62
7
 10
25.000000
 20
12.500000
 11
25.000000
 21
11.500000
  0
LINE
  8
0
  6
CONTINUOUS
 62
7
 10
26.100000
 20
14.000000
 11
26.100000
 21
12.500000
  0
LINE
  8
0
  6
CONTINUOUS
 62
7
 10
19.600000
 20
14.000000
 11
19.600000
 21
12.500000
  0
LINE
  8
0
  6
CONTINUOUS
 62
7
 10
26.100000
 20
12.500000
 11
19.600000
 21
12.500000
  0
LINE
  8
0
  6
CONTINUOUS
 62
7
 10
-20.500000
 20
14.000000
 11
-20.500000
 21
4.000030
  0
LINE
  8
0
  6
CONTINUOUS
 62
7
 10
-39.000000
 20
-16.500000
 11
35.000000
 21
-16.500000
  0
LINE
  8
0
  6
CONTINUOUS
 62
7
 10
-37.000000
 20
-36.500000
 11
-37.000000
 21
-26.500000
  0
LINE
  8
0
  6
CONTINUOUS
 62
7
 10
38.000000
 20
-36.500000
 11
38.000000
 21
-17.000000
  0
LINE
  8
0
  6
CONTINUOUS
 62
7
 10
-37.000000
 20
-36.500000
 11
38.000000
 21
-36.500000
  0
LINE
  8
0
  6
CONTINUOUS
 62
7
 10
-37.000000
 20
-27.000000
 11
-20.500000
 21
-27.000000
  0
LINE
  8
0
  6
CONTINUOUS
 62
7
 10
-39.000000
 20
-26.500000
 11
-20.500000
 21
-26.500000
  0
LINE
  8
0
  6
CONTINUOUS
 62
7
 10
-39.000000
 20
-35.500000
 11
-39.000000
 21
-16.500000
  0
LINE
  8
0
  6
CONTINUOUS
 62
7
 10
35.000000
 20
-26.500000
 11
35.000000
 21
-24.299999
  0
LINE
  8
0
  6
CONTINUOUS
 62
7
 10
35.000000
 20
-17.000000
 11
36.000000
 21
-17.000000
  0
LINE
  8
0
  6
CONTINUOUS
 62
7
 10
-24.650000
 20
-36.500000
 11
-24.650000
 21
-31.200001
  0
LINE
  8
0
  6
CONTINUOUS
 62
7
 10
-24.650000
 20
-31.500000
 11
-21.350000
 21
-31.500000
  0
LINE
  8
0
  6
CENTER
 62
2
 10
-23.000000
 20
-37.500000
 11
-23.000000
 21
-30.200001
  0
LINE
  8
0
  6
CONTINUOUS
 62
7
 10
-21.350000
 20
-36.500000
 11
-21.350000
 21
-31.200001
  0
LINE
  8
0
  6
CONTINUOUS
 62
7
 10
-47.000000
 20
-35.500000
 11
-47.000000
 21
-17.000000
  0
LINE
  8
0
  6
CONTINUOUS
 62
7
 10
-39.000000
 20
-33.500000
 11
-37.000000
 21
-33.500000
  0
LINE
  8
0
  6
CONTINUOUS
 62
7
 10
-47.000000
 20
-35.500000
 11
-39.000000
 21
-35.500000
  0
LINE
  8
0
  6
CONTINUOUS
 62
7
 10
-47.000000
 20
-17.000000
 11
-39.000000
 21
-17.000000
  0
LINE
  8
0
  6
CONTINUOUS
 62
7
 10
30.000000
 20
-24.299999
 11
38.000000
 21
-24.299999
  0
LINE
  8
0
  6
CONTINUOUS
 62
2
 10
-20.500000
 20
-21.799999
 11
38.000000
 21
-21.799999
  0
LINE
  8
0
  6
CONTINUOUS
 62
2
 10
-20.500000
 20
-19.200001
 11
38.000000
 21
-19.200001
  0
LINE
  8
0
  6
CONTINUOUS
 62
7
 10
25.000000
 20
-29.299999
 11
25.000000
 21
-36.000000
  0
LINE
  8
0
  6
CONTINUOUS
 62
2
 10
-20.500000
 20
-27.799999
 11
25.230301
 21
-27.799999
  0
LINE
  8
0
  6
CONTINUOUS
 62
7
 10
-20.500000
 20
-36.000000
 11
-20.500000
 21
-17.000000
  0
LINE
  8
0
  6
CONTINUOUS
 62
2
 10
-20.500000
 20
-25.200001
 11
27.138201
 21
-25.200001
  0
LINE
  8
0
  6
CONTINUOUS
 62
7
 10
-20.500000
 20
-17.000000
 11
38.000000
 21
-17.000000
  0
LINE
  8
0
  6
CONTINUOUS
 62
7
 10
-20.500000
 20
-36.000000
 11
25.000000
 21
-36.000000
  0
LINE
  8
0
  6
CONTINUOUS
 62
7
 10
25.857500
 20
-26.500000
 11
36.200001
 21
-26.500000
  0
LINE
  8
0
  6
CONTINUOUS
 62
7
 10
25.560400
 20
-27.000000
 11
38.000000
 21
-27.000000
  0
LINE
  8
0
  6
CONTINUOUS
 62
7
 10
36.200001
 20
-26.500000
 11
36.200001
 21
-24.299999
  0
LINE
  8
0
  6
CONTINUOUS
 62
7
 10
35.000000
 20
-17.000000
 11
35.000000
 21
-16.500000
  0
LINE
  8
0
  6
CENTER
 62
2
 10
-27.500000
 20
-31.000000
 11
-34.500000
 21
-31.000000
  0
LINE
  8
0
  6
CENTER
 62
2
 10
-31.000000
 20
-27.500000
 11
-31.000000
 21
-34.500000
  0
LINE
  8
0
  6
CENTER
 62
2
 10
35.500000
 20
-31.000000
 11
28.500000
 21
-31.000000
  0
LINE
  8
0
  6
CENTER
 62
2
 10
32.000000
 20
-27.500000
 11
32.000000
 21
-34.500000
  0
LINE
  8
0
  6
CONTINUOUS
 62
7
 10
38.000000
 20
-64.500000
 11
38.000000
 21
-71.500000
  0
LINE
  8
0
  6
CONTINUOUS
 62
7
 10
-20.500000
 20
-64.500000
 11
-20.500000
 21
-74.500000
  0
LINE
  8
0
  6
CONTINUOUS
 62
7
 10
25.000000
 20
-71.500000
 11
38.000000
 21
-71.500000
  0
LINE
  8
0
  6
CONTINUOUS
 62
7
 10
25.000000
 20
-64.500000
 11
25.000000
 21
-74.500000
  0
LINE
  8
0
  6
CONTINUOUS
 62
7
 10
38.000000
 20
-64.500000
 11
-20.500000
 21
-64.500000
  0
LINE
  8
0
  6
DASHED
 62
2
 10
-20.000000
 20
-31.500000
 11
-20.000000
 21
-31.200001
  0
LINE
  8
0
  6
CENTER
 62
2
 10
-49.000000
 20
-29.500000
 11
-45.000000
 21
-29.500000
  0
LINE
  8
0
  6
CENTER
 62
2
 10
-49.000000
 20
-20.500000
 11
-45.000000
 21
-20.500000
  0
LINE
  8
0
  6
CENTER
 62
2
 10
-30.000000
 20
-18.500000
 11
-30.000000
 21
-14.500000
  0
LINE
  8
0
  6
CENTER
 62
2
 10
-12.000000
 20
-18.500000
 11
-12.000000
 21
-14.500000
  0
LINE
  8
0
  6
CENTER
 62
2
 10
21.000000
 20
-18.500000
 11
21.000000
 21
-14.500000
  0
LINE
  8
0
  6
CENTER
 62
2
 10
3.000000
 20
-18.500000
 11
3.000000
 21
-14.500000
  0
LINE
  8
0
  6
CONTINUOUS
 62
7
 10
25.000000
 20
-31.200001
 11
27.200001
 21
-31.200001
  0
LINE
  8
0
  6
CONTINUOUS
 62
7
 10
-26.200001
 20
-31.200001
 11
-20.500000
 21
-31.200001
  0
LINE
  8
0
  6
DASHED
 62
2
 10
-14.000000
 20
-30.500000
 11
-8.000000
 21
-30.500000
  0
LINE
  8
0
  6
DASHED
 62
2
 10
-26.000000
 20
-31.500000
 11
-26.000000
 21
-31.200001
  0
LINE
  8
0
  6
DASHED
 62
2
 10
-26.000000
 20
-31.500000
 11
-24.650000
 21
-31.500000
  0
LINE
  8
0
  6
DASHED
 62
2
 10
-21.350000
 20
-31.500000
 11
-20.000000
 21
-31.500000
  0
LINE
  8
0
  6
CENTER
 62
2
 10
165.000000
 20
-37.500000
 11
165.000000
 21
-31.500000
  0
LINE
  8
0
  6
DASHED
 62
2
 10
163.000000
 20
-34.900002
 11
163.000000
 21
-32.500000
  0
LINE
  8
0
  6
DASHED
 62
2
 10
167.000000
 20
-34.900002
 11
167.000000
 21
-32.500000
  0
LINE
  8
0
  6
DASHED
 62
2
 10
162.500000
 20
-36.500000
 11
162.500000
 21
-34.900002
  0
LINE
  8
0
  6
DASHED
 62
2
 10
167.500000
 20
-36.500000
 11
167.500000
 21
-34.900002
  0
LINE
  8
0
  6
DASHED
 62
2
 10
162.500000
 20
-34.900002
 11
167.500000
 21
-34.900002
  0
LINE
  8
0
  6
DASHED
 62
2
 10
213.000000
 20
-36.500000
 11
213.000000
 21
-31.500000
  0
LINE
  8
0
  6
CENTER
 62
2
 10
215.000000
 20
-37.500000
 11
215.000000
 21
-30.000000
  0
LINE
  8
0
  6
DASHED
 62
2
 10
212.000000
 20
-31.500000
 11
212.000000
 21
-30.992399
  0
LINE
  8
0
  6
DASHED
 62
2
 10
212.000000
 20
-31.500000
 11
218.000000
 21
-31.500000
  0
LINE
  8
0
  6
DASHED
 62
2
 10
218.000000
 20
-31.500000
 11
218.000000
 21
-31.000000
  0
LINE
  8
0
  6
DASHED
 62
2
 10
217.000000
 20
-36.500000
 11
217.000000
 21
-31.500000
  0
LINE
  8
0
  6
DASHED
 62
2
 10
163.350006
 20
-34.900002
 11
163.350006
 21
-32.500000
  0
LINE
  8
0
  6
DASHED
 62
2
 10
166.649994
 20
-34.900002
 11
166.649994
 21
-32.500000
  0
LINE
  8
0
  6
DASHED
 62
2
 10
213.350006
 20
-36.500000
 11
213.350006
 21
-31.500000
  0
LINE
  8
0
  6
DASHED
 62
2
 10
216.649994
 20
-36.500000
 11
216.649994
 21
-31.500000
  0
LINE
  8
0
  6
CONTINUOUS
 62
7
 10
229.000000
 20
11.500000
 11
155.500000
 21
11.500000
  0
LINE
  8
0
  6
CONTINUOUS
 62
7
 10
229.000000
 20
4.000020
 11
155.500000
 21
4.000020
  0
LINE
  8
0
  6
CONTINUOUS
 62
7
 10
229.000000
 20
11.500000
 11
229.000000
 21
4.000020
  0
LINE
  8
0
  6
CONTINUOUS
 62
7
 10
216.000000
 20
12.500000
 11
216.000000
 21
11.500000
  0
LINE
  8
0
  6
CONTINUOUS
 62
7
 10
217.100006
 20
14.000000
 11
217.100006
 21
12.500000
  0
LINE
  8
0
  6
CONTINUOUS
 62
7
 10
210.600006
 20
14.000000
 11
210.600006
 21
12.500000
  0
LINE
  8
0
  6
CONTINUOUS
 62
7
 10
217.100006
 20
12.500000
 11
210.600006
 21
12.500000
  0
LINE
  8
0
  6
CONTINUOUS
 62
7
 10
155.500000
 20
14.000000
 11
155.500000
 21
4.000020
  0
LINE
  8
0
  6
CONTINUOUS
 62
7
 10
109.800003
 20
12.500000
 11
109.800003
 21
14.000000
  0
LINE
  8
0
  6
CONTINUOUS
 62
7
 10
120.800003
 20
12.500000
 11
109.800003
 21
12.500000
  0
LINE
  8
0
  6
CONTINUOUS
 62
7
 10
120.800003
 20
12.500000
 11
120.800003
 21
14.500000
  0
LINE
  8
0
  6
CONTINUOUS
 62
2
 10
116.699997
 20
4.000050
 11
116.699997
 21
5.000040
  0
LINE
  8
0
  6
CONTINUOUS
 62
7
 10
121.500000
 20
4.000020
 11
102.500000
 21
4.000020
  0
LINE
  8
0
  6
CONTINUOUS
 62
2
 10
119.300003
 20
4.000050
 11
119.300003
 21
5.000040
  0
LINE
  8
0
  6
CONTINUOUS
 62
7
 10
121.500000
 20
4.000050
 11
121.500000
 21
11.500000
  0
LINE
  8
0
  6
CONTINUOUS
 62
7
 10
121.500000
 20
11.500000
 11
109.000000
 21
11.500000
  0
LINE
  8
0
  6
CONTINUOUS
 62
7
 10
109.000000
 20
11.500000
 11
109.000000
 21
14.000000
  0
LINE
  8
0
  6
CONTINUOUS
 62
2
 10
120.150002
 20
5.000040
 11
119.300003
 21
5.000040
  0
LINE
  8
0
  6
CONTINUOUS
 62
2
 10
115.849998
 20
8.800030
 11
115.849998
 21
5.000040
  0
LINE
  8
0
  6
CONTINUOUS
 62
2
 10
118.650002
 20
10.300000
 11
117.349998
 21
10.300000
  0
LINE
  8
0
  6
CONTINUOUS
 62
2
 10
120.150002
 20
8.800030
 11
120.150002
 21
5.000040
  0
LINE
  8
0
  6
CONTINUOUS
 62
7
 10
102.500000
 20
4.000020
 11
102.500000
 21
14.000000
  0
LINE
  8
0
  6
CONTINUOUS
 62
2
 10
116.699997
 20
5.000040
 11
115.849998
 21
5.000040
  0
LINE
  8
0
  6
CENTER
 62
2
 10
112.000000
 20
11.300000
 11
112.000000
 21
3.000020
  0
LINE
  8
0
  6
CENTER
 62
2
 10
118.000000
 20
11.300000
 11
118.000000
 21
3.000020
  0
LINE
  8
0
  6
CONTINUOUS
 62
7
 10
267.200012
 20
12.500000
 11
267.200012
 21
14.000000
  0
LINE
  8
0
  6
CONTINUOUS
 62
7
 10
256.200012
 20
12.500000
 11
267.200012
 21
12.500000
  0
LINE
  8
0
  6
CONTINUOUS
 62
7
 10
256.200012
 20
12.500000
 11
256.200012
 21
14.500000
  0
LINE
  8
0
  6
CONTINUOUS
 62
7
 10
255.500000
 20
4.000020
 11
274.500000
 21
4.000020
  0
LINE
  8
0
  6
CONTINUOUS
 62
2
 10
260.299988
 20
4.000050
 11
260.299988
 21
5.000040
  0
LINE
  8
0
  6
CONTINUOUS
 62
2
 10
257.700012
 20
4.000050
 11
257.700012
 21
5.000040
  0
LINE
  8
0
  6
CONTINUOUS
 62
7
 10
255.500000
 20
4.000050
 11
255.500000
 21
11.500000
  0
LINE
  8
0
  6
CONTINUOUS
 62
7
 10
255.500000
 20
11.500000
 11
268.000000
 21
11.500000
  0
LINE
  8
0
  6
CONTINUOUS
 62
7
 10
268.000000
 20
11.500000
 11
268.000000
 21
14.000000
  0
LINE
  8
0
  6
CONTINUOUS
 62
2
 10
256.850006
 20
5.000040
 11
257.700012
 21
5.000040
  0
LINE
  8
0
  6
CONTINUOUS
 62
2
 10
261.149994
 20
8.800030
 11
261.149994
 21
5.000040
  0
LINE
  8
0
  6
CONTINUOUS
 62
2
 10
258.350006
 20
10.300000
 11
259.649994
 21
10.300000
  0
LINE
  8
0
  6
CONTINUOUS
 62
2
 10
256.850006
 20
8.800030
 11
256.850006
 21
5.000040
  0
LINE
  8
0
  6
CONTINUOUS
 62
7
 10
274.500000
 20
4.000020
 11
274.500000
 21
14.000000
  0
LINE
  8
0
  6
CONTINUOUS
 62
2
 10
260.299988
 20
5.000040
 11
261.149994
 21
5.000040
  0
LINE
  8
0
  6
CONTINUOUS
 62
7
 10
262.799988
 20
4.000050
 11
262.799988
 21
11.500000
  0
LINE
  8
0
  6
CENTER
 62
2
 10
259.000000
 20
11.300000
 11
259.000000
 21
3.000020
  0
LINE
  8
0
  6
CENTER
 62
2
 10
265.000000
 20
11.300000
 11
265.000000
 21
3.000020
  0
LINE
  8
0
  6
CONTINUOUS
 62
7
 10
137.000000
 20
-16.500000
 11
226.000000
 21
-16.500000
  0
LINE
  8
0
  6
CONTINUOUS
 62
7
 10
139.000000
 20
-36.500000
 11
139.000000
 21
-26.500000
  0
LINE
  8
0
  6
CONTINUOUS
 62
7
 10
229.000000
 20
-36.500000
 11
229.000000
 21
-17.000000
  0
LINE
  8
0
  6
CONTINUOUS
 62
7
 10
139.000000
 20
-36.500000
 11
229.000000
 21
-36.500000
  0
LINE
  8
0
  6
CONTINUOUS
 62
7
 10
139.000000
 20
-27.000000
 11
155.500000
 21
-27.000000
  0
LINE
  8
0
  6
CONTINUOUS
 62
7
 10
137.000000
 20
-26.500000
 11
155.500000
 21
-26.500000
  0
LINE
  8
0
  6
CONTINUOUS
 62
7
 10
137.000000
 20
-35.500000
 11
137.000000
 21
-16.500000
  0
LINE
  8
0
  6
CONTINUOUS
 62
7
 10
218.199997
 20
-31.000000
 11
216.000000
 21
-31.000000
  0
LINE
  8
0
  6
CONTINUOUS
 62
7
 10
149.800003
 20
-31.000000
 11
155.500000
 21
-31.000000
  0
LINE
  8
0
  6
CONTINUOUS
 62
7
 10
226.000000
 20
-26.500000
 11
226.000000
 21
-24.299999
  0
LINE
  8
0
  6
CONTINUOUS
 62
7
 10
226.000000
 20
-17.000000
 11
227.000000
 21
-17.000000
  0
LINE
  8
0
  6
CONTINUOUS
 62
7
 10
151.350006
 20
-36.500000
 11
151.350006
 21
-31.000000
  0
LINE
  8
0
  6
DASHED
 62
2
 10
150.000000
 20
-31.500000
 11
151.350006
 21
-31.500000
  0
LINE
  8
0
  6
CENTER
 62
2
 10
153.000000
 20
-37.500000
 11
153.000000
 21
-30.000000
  0
LINE
  8
0
  6
CONTINUOUS
 62
7
 10
154.649994
 20
-36.500000
 11
154.649994
 21
-31.000000
  0
LINE
  8
0
  6
CONTINUOUS
 62
7
 10
129.000000
 20
-35.500000
 11
129.000000
 21
-17.000000
  0
LINE
  8
0
  6
CONTINUOUS
 62
7
 10
137.000000
 20
-33.500000
 11
139.000000
 21
-33.500000
  0
LINE
  8
0
  6
CONTINUOUS
 62
7
 10
129.000000
 20
-35.500000
 11
137.000000
 21
-35.500000
  0
LINE
  8
0
  6
CONTINUOUS
 62
7
 10
129.000000
 20
-17.000000
 11
137.000000
 21
-17.000000
  0
LINE
  8
0
  6
CONTINUOUS
 62
7
 10
216.000000
 20
-24.299999
 11
229.000000
 21
-24.299999
  0
LINE
  8
0
  6
CONTINUOUS
 62
2
 10
155.500000
 20
-21.799999
 11
229.000000
 21
-21.799999
  0
LINE
  8
0
  6
CONTINUOUS
 62
2
 10
155.500000
 20
-19.200001
 11
229.000000
 21
-19.200001
  0
LINE
  8
0
  6
CONTINUOUS
 62
7
 10
216.000000
 20
-24.299999
 11
216.000000
 21
-36.000000
  0
LINE
  8
0
  6
CONTINUOUS
 62
2
 10
155.500000
 20
-27.799999
 11
216.000000
 21
-27.799999
  0
LINE
  8
0
  6
CONTINUOUS
 62
7
 10
155.500000
 20
-36.000000
 11
155.500000
 21
-17.000000
  0
LINE
  8
0
  6
CONTINUOUS
 62
2
 10
155.500000
 20
-25.200001
 11
216.000000
 21
-25.200001
  0
LINE
  8
0
  6
CONTINUOUS
 62
7
 10
155.500000
 20
-17.000000
 11
229.000000
 21
-17.000000
  0
LINE
  8
0
  6
CONTINUOUS
 62
7
 10
155.500000
 20
-36.000000
 11
216.000000
 21
-36.000000
  0
LINE
  8
0
  6
CONTINUOUS
 62
7
 10
216.000000
 20
-26.500000
 11
227.199997
 21
-26.500000
  0
LINE
  8
0
  6
CONTINUOUS
 62
7
 10
216.000000
 20
-27.000000
 11
229.000000
 21
-27.000000
  0
LINE
  8
0
  6
CONTINUOUS
 62
7
 10
227.199997
 20
-26.500000
 11
227.199997
 21
-24.299999
  0
LINE
  8
0
  6
CONTINUOUS
 62
7
 10
226.000000
 20
-17.000000
 11
226.000000
 21
-16.500000
  0
LINE
  8
0
  6
CENTER
 62
2
 10
148.500000
 20
-31.000000
 11
141.500000
 21
-31.000000
  0
LINE
  8
0
  6
CENTER
 62
2
 10
145.000000
 20
-27.500000
 11
145.000000
 21
-34.500000
  0
LINE
  8
0
  6
CENTER
 62
2
 10
226.500000
 20
-31.000000
 11
219.500000
 21
-31.000000
  0
LINE
  8
0
  6
CENTER
 62
2
 10
223.000000
 20
-27.500000
 11
223.000000
 21
-34.500000
  0
LINE
  8
0
  6
CONTINUOUS
 62
7
 10
155.500000
 20
-64.500000
 11
155.500000
 21
-74.500000
  0
LINE
  8
0
  6
CONTINUOUS
 62
7
 10
216.000000
 20
-71.500000
 11
229.000000
 21
-71.500000
  0
LINE
  8
0
  6
CONTINUOUS
 62
7
 10
216.000000
 20
-64.500000
 11
216.000000
 21
-74.500000
  0
LINE
  8
0
  6
CONTINUOUS
 62
7
 10
229.000000
 20
-64.500000
 11
155.500000
 21
-64.500000
  0
LINE
  8
0
  6
CONTINUOUS
 62
7
 10
229.000000
 20
-64.500000
 11
229.000000
 21
-71.500000
  0
LINE
  8
0
  6
DASHED
 62
2
 10
156.000000
 20
-31.500000
 11
156.000000
 21
-31.000000
  0
LINE
  8
0
  6
DASHED
 62
2
 10
154.649994
 20
-31.500000
 11
156.000000
 21
-31.500000
  0
LINE
  8
0
  6
CONTINUOUS
 62
7
 10
151.350006
 20
-31.500000
 11
154.649994
 21
-31.500000
  0
LINE
  8
0
  6
CENTER
 62
2
 10
194.000000
 20
-18.500000
 11
194.000000
 21
-14.500000
  0
LINE
  8
0
  6
DASHED
 62
2
 10
162.000000
 20
-32.500000
 11
168.000000
 21
-32.500000
  0
LINE
  8
0
  6
CENTER
 62
2
 10
127.000000
 20
-29.500000
 11
131.000000
 21
-29.500000
  0
LINE
  8
0
  6
CENTER
 62
2
 10
127.000000
 20
-20.500000
 11
131.000000
 21
-20.500000
  0
LINE
  8
0
  6
CENTER
 62
2
 10
146.000000
 20
-18.500000
 11
146.000000
 21
-14.500000
  0
LINE
  8
0
  6
CENTER
 62
2
 10
164.000000
 20
-18.500000
 11
164.000000
 21
-14.500000
  0
LINE
  8
0
  6
CENTER
 62
2
 10
212.000000
 20
-18.500000
 11
212.000000
 21
-14.500000
  0
LINE
  8
0
  6
DASHED
 62
2
 10
150.000000
 20
-31.500000
 11
150.000000
 21
-31.000000
  0
LINE
  8
0
  6
CONTINUOUS
 62
7
 10
-82.500000
 20
4.000030
 11
-82.500000
 21
14.000100
  0
LINE
  8
0
  6
CONTINUOUS
 62
7
 10
-162.000000
 20
76.000000
 11
-162.000000
 21
73.000000
  0
LINE
  8
0
  6
CONTINUOUS
 62
7
 10
229.000000
 20
76.000000
 11
229.000000
 21
73.000000
  0
LINE
  8
0
  6
CONTINUOUS
 62
7
 10
38.000000
 20
76.000000
 11
38.000000
 21
73.000000
  0
LINE
  8
0
  6
CONTINUOUS
 62
7
 10
-93.466698
 20
195.500000
 11
-93.466698
 21
-195.000000
  0
LINE
  8
0
  6
CONTINUOUS
 62
7
 10
94.316704
 20
195.500000
 11
94.316704
 21
-195.000000
  0
CIRCLE
  8
0
  6
CONTINUOUS
 62
2
 10
165.000000
 20
-78.000000
 40
2.000000
  0
CIRCLE
  8
0
  6
CONTINUOUS
 62
7
 10
165.000000
 20
-78.000000
 40
2.500000
  0
CIRCLE
  8
0
  6
CONTINUOUS
 62
2
 10
212.000000
 20
38.000000
 40
1.500000
  0
CIRCLE
  8
0
  6
CONTINUOUS
 62
7
 10
194.000000
 20
38.000000
 40
1.250000
  0
CIRCLE
  8
0
  6
CONTINUOUS
 62
2
 10
194.000000
 20
38.000000
 40
1.500000
  0
CIRCLE
  8
0
  6
CONTINUOUS
 62
7
 10
178.000000
 20
38.500000
 40
1.600000
  0
CIRCLE
  8
0
  6
CONTINUOUS
 62
7
 10
146.000000
 20
38.000000
 40
1.250000
  0
CIRCLE
  8
0
  6
CONTINUOUS
 62
2
 10
146.000000
 20
38.000000
 40
1.500000
  0
CIRCLE
  8
0
  6
CONTINUOUS
 62
7
 10
146.000000
 20
18.000000
 40
1.250000
  0
CIRCLE
  8
0
  6
CONTINUOUS
 62
2
 10
146.000000
 20
18.000000
 40
1.500000
  0
CIRCLE
  8
0
  6
CONTINUOUS
 62
7
 10
212.000000
 20
18.000000
 40
1.250000
  0
CIRCLE
  8
0
  6
CONTINUOUS
 62
2
 10
212.000000
 20
18.000000
 40
1.500000
  0
CIRCLE
  8
0
  6
CONTINUOUS
 62
7
 10
194.000000
 20
18.000000
 40
1.250000
  0
CIRCLE
  8
0
  6
CONTINUOUS
 62
2
 10
194.000000
 20
18.000000
 40
1.500000
  0
CIRCLE
  8
0
  6
CONTINUOUS
 62
7
 10
212.000000
 20
38.000000
 40
1.250000
  0
ARC
  8
0
  6
DASHED
 62
2
 10
153.000000
 20
17.500000
 40
3.000000
 50
303.367004
 51
236.632996
  0
ARC
  8
0
  6
DASHED
 62
2
 10
153.000000
 20
17.500000
 40
1.649990
 50
0.000000
 51
180.000000
  0
ARC
  8
0
  6
DASHED
 62
2
 10
153.000000
 20
38.500000
 40
1.649990
 50
180.000000
 51
0.000000
  0
ARC
  8
0
  6
DASHED
 62
2
 10
153.000000
 20
38.500000
 40
3.000000
 50
123.366997
 51
416.632996
  0
CIRCLE
  8
0
  6
DASHED
 62
2
 10
215.000000
 20
38.500000
 40
3.000000
  0
CIRCLE
  8
0
  6
DASHED
 62
2
 10
215.000000
 20
38.500000
 40
2.000000
  0
CIRCLE
  8
0
  6
DASHED
 62
2
 10
215.000000
 20
38.500000
 40
1.650000
  0
CIRCLE
  8
0
  6
DASHED
 62
2
 10
215.000000
 20
17.500000
 40
3.000000
  0
CIRCLE
  8
0
  6
DASHED
 62
2
 10
215.000000
 20
17.500000
 40
2.000000
  0
CIRCLE
  8
0
  6
DASHED
 62
2
 10
215.000000
 20
17.500000
 40
1.650000
  0
CIRCLE
  8
0
  6
CONTINUOUS
 62
2
 10
118.000000
 20
28.000000
 40
2.000000
  0
CIRCLE
  8
0
  6
CONTINUOUS
 62
7
 10
118.000000
 20
38.000000
 40
3.000000
  0
CIRCLE
  8
0
  6
CONTINUOUS
 62
7
 10
118.000000
 20
28.000000
 40
1.650000
  0
CIRCLE
  8
0
  6
CONTINUOUS
 62
7
 10
109.000000
 20
28.000000
 40
5.000000
  0
CIRCLE
  8
0
  6
CONTINUOUS
 62
7
 10
118.000000
 20
18.000000
 40
3.000000
  0
CIRCLE
  8
0
  6
CONTINUOUS
 62
2
 10
109.000000
 20
18.000000
 40
2.000000
  0
CIRCLE
  8
0
  6
CONTINUOUS
 62
7
 10
109.000000
 20
18.000000
 40
1.650000
  0
CIRCLE
  8
0
  6
CONTINUOUS
 62
2
 10
109.000000
 20
38.000000
 40
2.000000
  0
CIRCLE
  8
0
  6
CONTINUOUS
 62
7
 10
109.000000
 20
38.000000
 40
1.650000
  0
ARC
  8
0
  6
CONTINUOUS
 62
7
 10
145.000000
 20
87.000000
 40
4.800000
 50
303.557007
 51
0.000000
  0
CIRCLE
  8
0
  6
CONTINUOUS
 62
2
 10
208.850006
 20
76.199997
 40
1.000000
  0
CIRCLE
  8
0
  6
CONTINUOUS
 62
7
 10
208.850006
 20
76.199997
 40
0.800000
  0
ARC
  8
0
  6
CONTINUOUS
 62
7
 10
153.000000
 20
-78.000000
 40
1.649990
 50
180.000000
 51
0.000000
  0
ARC
  8
0
  6
CONTINUOUS
 62
7
 10
153.000000
 20
-99.000000
 40
1.649990
 50
0.000000
 51
180.000000
  0
CIRCLE
  8
0
  6
CONTINUOUS
 62
7
 10
165.000000
 20
-99.000000
 40
2.500000
  0
CIRCLE
  8
0
  6
CONTINUOUS
 62
7
 10
215.000000
 20
-99.000000
 40
1.650000
  0
CIRCLE
  8
0
  6
CONTINUOUS
 62
2
 10
215.000000
 20
-99.000000
 40
2.000000
  0
CIRCLE
  8
0
  6
CONTINUOUS
 62
7
 10
165.000000
 20
-99.000000
 40
1.650000
  0
CIRCLE
  8
0
  6
CONTINUOUS
 62
2
 10
165.000000
 20
-99.000000
 40
2.000000
  0
CIRCLE
  8
0
  6
CONTINUOUS
 62
7
 10
215.000000
 20
-78.000000
 40
1.650000
  0
CIRCLE
  8
0
  6
CONTINUOUS
 62
2
 10
215.000000
 20
-78.000000
 40
2.000000
  0
CIRCLE
  8
0
  6
CONTINUOUS
 62
7
 10
165.000000
 20
-78.000000
 40
1.650000
  0
ARC
  8
0
  6
CONTINUOUS
 62
7
 10
-23.000000
 20
-78.000000
 40
1.650000
 50
180.000000
 51
0.000000
  0
ARC
  8
0
  6
CONTINUOUS
 62
7
 10
-23.000000
 20
-99.000000
 40
1.650000
 50
0.000000
 51
180.000000
  0
CIRCLE
  8
0
  6
CONTINUOUS
 62
7
 10
24.000000
 20
-99.000000
 40
1.650000
  0
CIRCLE
  8
0
  6
CONTINUOUS
 62
2
 10
24.000000
 20
-99.000000
 40
2.000000
  0
CIRCLE
  8
0
  6
CONTINUOUS
 62
7
 10
-11.000000
 20
-99.000000
 40
1.650000
  0
CIRCLE
  8
0
  6
CONTINUOUS
 62
2
 10
-11.000000
 20
-99.000000
 40
2.000000
  0
CIRCLE
  8
0
  6
CONTINUOUS
 62
7
 10
24.000000
 20
-78.000000
 40
1.650000
  0
CIRCLE
  8
0
  6
CONTINUOUS
 62
2
 10
24.000000
 20
-78.000000
 40
2.000000
  0
CIRCLE
  8
0
  6
CONTINUOUS
 62
7
 10
-11.000000
 20
-78.000000
 40
1.650000
  0
CIRCLE
  8
0
  6
CONTINUOUS
 62
2
 10
-11.000000
 20
-78.000000
 40
2.000000
  0
CIRCLE
  8
0
  6
CONTINUOUS
 62
2
 10
21.000000
 20
38.000000
 40
1.500000
  0
CIRCLE
  8
0
  6
CONTINUOUS
 62
7
 10
-12.000000
 20
38.000000
 40
1.250000
  0
CIRCLE
  8
0
  6
CONTINUOUS
 62
2
 10
-12.000000
 20
38.000000
 40
1.500000
  0
CIRCLE
  8
0
  6
CONTINUOUS
 62
7
 10
-8.000030
 20
38.500000
 40
1.600000
  0
CIRCLE
  8
0
  6
CONTINUOUS
 62
7
 10
-30.000000
 20
38.000000
 40
1.250000
  0
CIRCLE
  8
0
  6
CONTINUOUS
 62
2
 10
-30.000000
 20
38.000000
 40
1.500000
  0
CIRCLE
  8
0
  6
CONTINUOUS
 62
7
 10
-30.000000
 20
18.000000
 40
1.250000
  0
CIRCLE
  8
0
  6
CONTINUOUS
 62
2
 10
-30.000000
 20
18.000000
 40
1.500000
  0
CIRCLE
  8
0
  6
CONTINUOUS
 62
7
 10
21.000000
 20
18.000000
 40
1.250000
  0
CIRCLE
  8
0
  6
CONTINUOUS
 62
2
 10
21.000000
 20
18.000000
 40
1.500000
  0
CIRCLE
  8
0
  6
CONTINUOUS
 62
7
 10
-12.000000
 20
18.000000
 40
1.250000
  0
CIRCLE
  8
0
  6
CONTINUOUS
 62
2
 10
-12.000000
 20
18.000000
 40
1.500000
  0
CIRCLE
  8
0
  6
CONTINUOUS
 62
7
 10
21.000000
 20
38.000000
 40
1.250000
  0
ARC
  8
0
  6
DASHED
 62
2
 10
-23.000000
 20
17.500000
 40
3.000000
 50
303.367004
 51
236.632996
  0
ARC
  8
0
  6
DASHED
 62
2
 10
-23.000000
 20
17.500000
 40
1.650000
 50
0.000000
 51
180.000000
  0
ARC
  8
0
  6
DASHED
 62
2
 10
-23.000000
 20
38.500000
 40
1.650000
 50
180.000000
 51
0.000000
  0
ARC
  8
0
  6
DASHED
 62
2
 10
-23.000000
 20
38.500000
 40
3.000000
 50
123.366997
 51
416.632996
  0
CIRCLE
  8
0
  6
DASHED
 62
2
 10
24.000000
 20
38.500000
 40
3.000000
  0
CIRCLE
  8
0
  6
DASHED
 62
2
 10
24.000000
 20
38.500000
 40
2.000000
  0
CIRCLE
  8
0
  6
DASHED
 62
2
 10
24.000000
 20
38.500000
 40
1.650000
  0
CIRCLE
  8
0
  6
DASHED
 62
2
 10
24.000000
 20
17.500000
 40
3.000000
  0
CIRCLE
  8
0
  6
DASHED
 62
2
 10
24.000000
 20
17.500000
 40
2.000000
  0
CIRCLE
  8
0
  6
DASHED
 62
2
 10
24.000000
 20
17.500000
 40
1.650000
  0
CIRCLE
  8
0
  6
CONTINUOUS
 62
7
 10
2.999980
 20
18.000000
 40
1.250000
  0
CIRCLE
  8
0
  6
CONTINUOUS
 62
2
 10
2.999980
 20
18.000000
 40
1.500000
  0
CIRCLE
  8
0
  6
CONTINUOUS
 62
2
 10
2.999980
 20
38.000000
 40
1.500000
  0
CIRCLE
  8
0
  6
CONTINUOUS
 62
7
 10
2.999980
 20
38.000000
 40
1.250000
  0
ARC
  8
0
  6
CONTINUOUS
 62
7
 10
-31.000000
 20
87.199997
 40
4.800000
 50
298.954987
 51
0.000000
  0
ARC
  8
0
  6
CONTINUOUS
 62
7
 10
166.500000
 20
80.000000
 40
3.000000
 50
90.000000
 51
180.000000
  0
ARC
  8
0
  6
CONTINUOUS
 62
7
 10
116.000000
 20
46.000000
 40
3.700000
 50
108.925003
 51
131.074997
  0
ARC
  8
0
  6
CONTINUOUS
 62
7
 10
116.000000
 20
46.000000
 40
3.700000
 50
48.924599
 51
71.075401
  0
ARC
  8
0
  6
CONTINUOUS
 62
7
 10
116.000000
 20
46.000000
 40
3.700000
 50
348.924988
 51
11.075400
  0
ARC
  8
0
  6
CONTINUOUS
 62
7
 10
116.000000
 20
46.000000
 40
3.700000
 50
288.924988
 51
311.075012
  0
ARC
  8
0
  6
CONTINUOUS
 62
7
 10
116.000000
 20
46.000000
 40
3.700000
 50
168.925003
 51
191.074997
  0
ARC
  8
0
  6
CONTINUOUS
 62
7
 10
116.000000
 20
46.000000
 40
3.700000
 50
228.925003
 51
251.074997
  0
CIRCLE
  8
0
  6
CONTINUOUS
 62
7
 10
116.000000
 20
46.000000
 40
2.500000
  0
CIRCLE
  8
0
  6
CONTINUOUS
 62
2
 10
-196.000000
 20
-78.000000
 40
2.000000
  0
CIRCLE
  8
0
  6
CONTINUOUS
 62
7
 10
-196.000000
 20
-78.000000
 40
2.500000
  0
CIRCLE
  8
0
  6
CONTINUOUS
 62
2
 10
-179.000000
 20
38.000000
 40
1.500000
  0
CIRCLE
  8
0
  6
CONTINUOUS
 62
7
 10
-197.000000
 20
38.000000
 40
1.250000
  0
CIRCLE
  8
0
  6
CONTINUOUS
 62
2
 10
-197.000000
 20
38.000000
 40
1.500000
  0
CIRCLE
  8
0
  6
CONTINUOUS
 62
7
 10
-193.000000
 20
38.500000
 40
1.600000
  0
CIRCLE
  8
0
  6
CONTINUOUS
 62
7
 10
-215.000000
 20
38.000000
 40
1.250000
  0
CIRCLE
  8
0
  6
CONTINUOUS
 62
2
 10
-215.000000
 20
38.000000
 40
1.500000
  0
CIRCLE
  8
0
  6
CONTINUOUS
 62
7
 10
-215.000000
 20
18.000000
 40
1.250000
  0
CIRCLE
  8
0
  6
CONTINUOUS
 62
2
 10
-215.000000
 20
18.000000
 40
1.500000
  0
CIRCLE
  8
0
  6
CONTINUOUS
 62
7
 10
-179.000000
 20
18.000000
 40
1.250000
  0
CIRCLE
  8
0
  6
CONTINUOUS
 62
2
 10
-179.000000
 20
18.000000
 40
1.500000
  0
CIRCLE
  8
0
  6
CONTINUOUS
 62
7
 10
-197.000000
 20
18.000000
 40
1.250000
  0
CIRCLE
  8
0
  6
CONTINUOUS
 62
2
 10
-197.000000
 20
18.000000
 40
1.500000
  0
CIRCLE
  8
0
  6
CONTINUOUS
 62
7
 10
-179.000000
 20
38.000000
 40
1.250000
  0
ARC
  8
0
  6
DASHED
 62
2
 10
-208.000000
 20
17.500000
 40
3.000000
 50
303.367004
 51
236.632996
  0
ARC
  8
0
  6
DASHED
 62
2
 10
-208.000000
 20
17.500000
 40
1.649990
 50
0.000000
 51
180.000000
  0
ARC
  8
0
  6
DASHED
 62
2
 10
-208.000000
 20
38.500000
 40
1.649990
 50
180.000000
 51
0.000000
  0
ARC
  8
0
  6
DASHED
 62
2
 10
-208.000000
 20
38.500000
 40
3.000000
 50
123.366997
 51
416.632996
  0
CIRCLE
  8
0
  6
DASHED
 62
2
 10
-176.000000
 20
38.500000
 40
3.000000
  0
CIRCLE
  8
0
  6
DASHED
 62
2
 10
-176.000000
 20
38.500000
 40
2.000000
  0
CIRCLE
  8
0
  6
DASHED
 62
2
 10
-176.000000
 20
38.500000
 40
1.650000
  0
CIRCLE
  8
0
  6
DASHED
 62
2
 10
-176.000000
 20
17.500000
 40
3.000000
  0
CIRCLE
  8
0
  6
DASHED
 62
2
 10
-176.000000
 20
17.500000
 40
2.000000
  0
CIRCLE
  8
0
  6
DASHED
 62
2
 10
-176.000000
 20
17.500000
 40
1.650000
  0
CIRCLE
  8
0
  6
CONTINUOUS
 62
2
 10
-67.000000
 20
28.000000
 40
2.000000
  0
CIRCLE
  8
0
  6
CONTINUOUS
 62
7
 10
-67.000000
 20
38.000000
 40
3.000000
  0
CIRCLE
  8
0
  6
CONTINUOUS
 62
7
 10
-67.000000
 20
28.000000
 40
1.650000
  0
CIRCLE
  8
0
  6
CONTINUOUS
 62
7
 10
-76.000000
 20
28.000000
 40
5.000000
  0
CIRCLE
  8
0
  6
CONTINUOUS
 62
7
 10
-67.000000
 20
18.000000
 40
3.000000
  0
CIRCLE
  8
0
  6
CONTINUOUS
 62
2
 10
-76.000000
 20
18.000000
 40
2.000000
  0
CIRCLE
  8
0
  6
CONTINUOUS
 62
7
 10
-76.000000
 20
18.000000
 40
1.650000
  0
CIRCLE
  8
0
  6
CONTINUOUS
 62
2
 10
-76.000000
 20
38.000000
 40
2.000000
  0
CIRCLE
  8
0
  6
CONTINUOUS
 62
7
 10
-76.000000
 20
38.000000
 40
1.650000
  0
ARC
  8
0
  6
CONTINUOUS
 62
7
 10
-216.000000
 20
87.000000
 40
4.800000
 50
303.557007
 51
0.000000
  0
CIRCLE
  8
0
  6
CONTINUOUS
 62
2
 10
17.850000
 20
76.199997
 40
1.000000
  0
CIRCLE
  8
0
  6
CONTINUOUS
 62
7
 10
17.850000
 20
76.199997
 40
0.800000
  0
ARC
  8
0
  6
CONTINUOUS
 62
7
 10
-208.000000
 20
-78.000000
 40
1.649990
 50
180.000000
 51
0.000000
  0
ARC
  8
0
  6
CONTINUOUS
 62
7
 10
-208.000000
 20
-99.000000
 40
1.649990
 50
0.000000
 51
180.000000
  0
CIRCLE
  8
0
  6
CONTINUOUS
 62
7
 10
-196.000000
 20
-99.000000
 40
2.500000
  0
CIRCLE
  8
0
  6
CONTINUOUS
 62
7
 10
-176.000000
 20
-99.000000
 40
1.650000
  0
CIRCLE
  8
0
  6
CONTINUOUS
 62
2
 10
-176.000000
 20
-99.000000
 40
2.000000
  0
CIRCLE
  8
0
  6
CONTINUOUS
 62
7
 10
-196.000000
 20
-99.000000
 40
1.650000
  0
CIRCLE
  8
0
  6
CONTINUOUS
 62
2
 10
-196.000000
 20
-99.000000
 40
2.000000
  0
CIRCLE
  8
0
  6
CONTINUOUS
 62
7
 10
-176.000000
 20
-78.000000
 40
1.650000
  0
CIRCLE
  8
0
  6
CONTINUOUS
 62
2
 10
-176.000000
 20
-78.000000
 40
2.000000
  0
CIRCLE
  8
0
  6
CONTINUOUS
 62
7
 10
-196.000000
 20
-78.000000
 40
1.650000
  0
ARC
  8
0
  6
CONTINUOUS
 62
7
 10
-194.500000
 20
80.000000
 40
3.000000
 50
90.000000
 51
180.000000
  0
ARC
  8
0
  6
CONTINUOUS
 62
7
 10
-69.000000
 20
46.000000
 40
3.700000
 50
108.925003
 51
131.074997
  0
ARC
  8
0
  6
CONTINUOUS
 62
7
 10
-69.000000
 20
46.000000
 40
3.700000
 50
48.924599
 51
71.075401
  0
ARC
  8
0
  6
CONTINUOUS
 62
7
 10
-69.000000
 20
46.000000
 40
3.700000
 50
348.924988
 51
11.075400
  0
ARC
  8
0
  6
CONTINUOUS
 62
7
 10
-69.000000
 20
46.000000
 40
3.700000
 50
288.924988
 51
311.075012
  0
ARC
  8
0
  6
CONTINUOUS
 62
7
 10
-69.000000
 20
46.000000
 40
3.700000
 50
168.925003
 51
191.074997
  0
ARC
  8
0
  6
CONTINUOUS
 62
7
 10
-69.000000
 20
46.000000
 40
3.700000
 50
228.925003
 51
251.074997
  0
CIRCLE
  8
0
  6
CONTINUOUS
 62
7
 10
-69.000000
 20
46.000000
 40
2.500000
  0
CIRCLE
  8
0
  6
CONTINUOUS
 62
7
 10
164.000000
 20
18.000000
 40
1.250000
  0
CIRCLE
  8
0
  6
CONTINUOUS
 62
2
 10
164.000000
 20
18.000000
 40
1.500000
  0
CIRCLE
  8
0
  6
CONTINUOUS
 62
7
 10
164.000000
 20
38.000000
 40
1.250000
  0
CIRCLE
  8
0
  6
CONTINUOUS
 62
2
 10
164.000000
 20
38.000000
 40
1.500000
  0
CIRCLE
  8
0
  6
CONTINUOUS
 62
2
 10
-252.000000
 20
28.000000
 40
2.000000
  0
CIRCLE
  8
0
  6
CONTINUOUS
 62
7
 10
-252.000000
 20
38.000000
 40
3.000000
  0
CIRCLE
  8
0
  6
CONTINUOUS
 62
7
 10
-252.000000
 20
28.000000
 40
1.650000
  0
CIRCLE
  8
0
  6
CONTINUOUS
 62
7
 10
-261.000000
 20
28.000000
 40
5.000000
  0
CIRCLE
  8
0
  6
CONTINUOUS
 62
7
 10
-252.000000
 20
18.000000
 40
3.000000
  0
CIRCLE
  8
0
  6
CONTINUOUS
 62
2
 10
-261.000000
 20
18.000000
 40
2.000000
  0
CIRCLE
  8
0
  6
CONTINUOUS
 62
7
 10
-261.000000
 20
18.000000
 40
1.650000
  0
CIRCLE
  8
0
  6
CONTINUOUS
 62
2
 10
-261.000000
 20
38.000000
 40
2.000000
  0
CIRCLE
  8
0
  6
CONTINUOUS
 62
7
 10
-261.000000
 20
38.000000
 40
1.650000
  0
ARC
  8
0
  6
CONTINUOUS
 62
7
 10
-254.000000
 20
46.000000
 40
3.700000
 50
108.925003
 51
131.074997
  0
ARC
  8
0
  6
CONTINUOUS
 62
7
 10
-254.000000
 20
46.000000
 40
3.700000
 50
48.924599
 51
71.075401
  0
ARC
  8
0
  6
CONTINUOUS
 62
7
 10
-254.000000
 20
46.000000
 40
3.700000
 50
348.924988
 51
11.075400
  0
ARC
  8
0
  6
CONTINUOUS
 62
7
 10
-254.000000
 20
46.000000
 40
3.700000
 50
288.924988
 51
311.075012
  0
ARC
  8
0
  6
CONTINUOUS
 62
7
 10
-254.000000
 20
46.000000
 40
3.700010
 50
168.925003
 51
191.074997
  0
ARC
  8
0
  6
CONTINUOUS
 62
7
 10
-254.000000
 20
46.000000
 40
3.700000
 50
228.925003
 51
251.074997
  0
CIRCLE
  8
0
  6
CONTINUOUS
 62
7
 10
-254.000000
 20
46.000000
 40
2.500000
  0
CIRCLE
  8
0
  6
CONTINUOUS
 62
7
 10
268.000000
 20
28.000000
 40
5.400000
  0
ARC
  8
0
  6
CONTINUOUS
 62
7
 10
261.500000
 20
34.599998
 40
1.350000
 50
206.389999
 51
333.614014
  0
ARC
  8
0
  6
CONTINUOUS
 62
7
 10
261.500000
 20
21.400000
 40
1.350000
 50
26.389299
 51
153.613007
  0
ARC
  8
0
  6
CONTINUOUS
 62
7
 10
-9.500000
 20
80.000000
 40
3.000000
 50
90.000000
 51
180.000000
  0
CIRCLE
  8
0
  6
CONTINUOUS
 62
2
 10
-182.149994
 20
76.199997
 40
1.000000
  0
CIRCLE
  8
0
  6
CONTINUOUS
 62
7
 10
-182.149994
 20
76.199997
 40
0.800000
  0
ARC
  8
0
  6
CONTINUOUS
 62
7
 10
261.000000
 20
46.000000
 40
3.700000
 50
48.924599
 51
71.075203
  0
ARC
  8
0
  6
CONTINUOUS
 62
7
 10
261.000000
 20
46.000000
 40
3.700000
 50
108.925003
 51
131.074997
  0
ARC
  8
0
  6
CONTINUOUS
 62
7
 10
261.000000
 20
46.000000
 40
3.700010
 50
168.925003
 51
191.074997
  0
ARC
  8
0
  6
CONTINUOUS
 62
7
 10
261.000000
 20
46.000000
 40
3.700000
 50
228.925003
 51
251.074997
  0
ARC
  8
0
  6
CONTINUOUS
 62
7
 10
261.000000
 20
46.000000
 40
3.700010
 50
348.924988
 51
11.075300
  0
ARC
  8
0
  6
CONTINUOUS
 62
7
 10
261.000000
 20
46.000000
 40
3.700000
 50
288.924988
 51
311.075012
  0
CIRCLE
  8
0
  6
CONTINUOUS
 62
7
 10
261.000000
 20
46.000000
 40
2.500000
  0
ARC
  8
0
  6
CONTINUOUS
 62
7
 10
228.500000
 20
80.000000
 40
3.000000
 50
0.000000
 51
90.000000
  0
ARC
  8
0
  6
CONTINUOUS
 62
7
 10
228.500000
 20
-24.000000
 40
3.000000
 50
279.593994
 51
0.000000
  0
ARC
  8
0
  6
CONTINUOUS
 62
7
 10
37.500000
 20
80.000000
 40
3.000000
 50
0.000000
 51
90.000000
  0
ARC
  8
0
  6
CONTINUOUS
 62
7
 10
37.500000
 20
-24.000000
 40
3.000000
 50
279.593994
 51
0.000000
  0
CIRCLE
  8
0
  6
CONTINUOUS
 62
7
 10
78.000000
 20
28.000000
 40
5.400000
  0
ARC
  8
0
  6
CONTINUOUS
 62
7
 10
71.500000
 20
34.599998
 40
1.350000
 50
206.389999
 51
333.614014
  0
ARC
  8
0
  6
CONTINUOUS
 62
7
 10
71.500000
 20
21.400000
 40
1.350000
 50
26.389099
 51
153.613007
  0
ARC
  8
0
  6
CONTINUOUS
 62
7
 10
71.000000
 20
46.000000
 40
3.700000
 50
48.924599
 51
71.075401
  0
ARC
  8
0
  6
CONTINUOUS
 62
7
 10
71.000000
 20
46.000000
 40
3.700000
 50
108.925003
 51
131.074997
  0
ARC
  8
0
  6
CONTINUOUS
 62
7
 10
71.000000
 20
46.000000
 40
3.700000
 50
168.925003
 51
191.074997
  0
ARC
  8
0
  6
CONTINUOUS
 62
7
 10
71.000000
 20
46.000000
 40
3.700000
 50
228.925003
 51
251.074997
  0
ARC
  8
0
  6
CONTINUOUS
 62
7
 10
71.000000
 20
46.000000
 40
3.700000
 50
348.924988
 51
11.075400
  0
ARC
  8
0
  6
CONTINUOUS
 62
7
 10
71.000000
 20
46.000000
 40
3.700000
 50
288.924988
 51
311.075012
  0
CIRCLE
  8
0
  6
CONTINUOUS
 62
7
 10
71.000000
 20
46.000000
 40
2.500000
  0
CIRCLE
  8
0
  6
CONTINUOUS
 62
7
 10
-117.000000
 20
28.000000
 40
5.400000
  0
ARC
  8
0
  6
CONTINUOUS
 62
7
 10
-123.500000
 20
34.599998
 40
1.350000
 50
206.389999
 51
333.614014
  0
ARC
  8
0
  6
CONTINUOUS
 62
7
 10
-123.500000
 20
21.400000
 40
1.350000
 50
26.389099
 51
153.613007
  0
ARC
  8
0
  6
CONTINUOUS
 62
7
 10
-124.000000
 20
46.000000
 40
3.700000
 50
48.924599
 51
71.075401
  0
ARC
  8
0
  6
CONTINUOUS
 62
7
 10
-124.000000
 20
46.000000
 40
3.700000
 50
108.925003
 51
131.074997
  0
ARC
  8
0
  6
CONTINUOUS
 62
7
 10
-124.000000
 20
46.000000
 40
3.700000
 50
168.925003
 51
191.074997
  0
ARC
  8
0
  6
CONTINUOUS
 62
7
 10
-124.000000
 20
46.000000
 40
3.700000
 50
228.925003
 51
251.074997
  0
ARC
  8
0
  6
CONTINUOUS
 62
7
 10
-124.000000
 20
46.000000
 40
3.700000
 50
348.924988
 51
11.075400
  0
ARC
  8
0
  6
CONTINUOUS
 62
7
 10
-124.000000
 20
46.000000
 40
3.700000
 50
288.924988
 51
311.075012
  0
CIRCLE
  8
0
  6
CONTINUOUS
 62
7
 10
-124.000000
 20
46.000000
 40
2.500000
  0
ARC
  8
0
  6
CONTINUOUS
 62
7
 10
-162.500000
 20
80.000000
 40
3.000000
 50
0.000000
 51
90.000000
  0
ARC
  8
0
  6
CONTINUOUS
 62
7
 10
-162.500000
 20
-24.000000
 40
3.000000
 50
279.593994
 51
0.000000
  0
CIRCLE
  8
0
  6
CONTINUOUS
 62
7
 10
-193.000000
 20
17.500000
 40
1.600000
  0
CIRCLE
  8
0
  6
CONTINUOUS
 62
7
 10
178.000000
 20
17.500000
 40
1.600000
  0
CIRCLE
  8
0
  6
CONTINUOUS
 62
7
 10
-8.000030
 20
17.500000
 40
1.600000
  0
CIRCLE
  8
0
  6
CONTINUOUS
 62
7
 10
-216.000000
 20
-31.000000
 40
2.100000
  0
ARC
  8
0
  6
CONTINUOUS
 62
2
 10
-251.350006
 20
8.800030
 40
1.500000
 50
0.000000
 51
90.000000
  0
ARC
  8
0
  6
CONTINUOUS
 62
2
 10
-125.349998
 20
8.800030
 40
1.500000
 50
0.000000
 51
90.000000
  0
ARC
  8
0
  6
CONTINUOUS
 62
2
 10
-126.650002
 20
8.800030
 40
1.500000
 50
90.000000
 51
180.000000
  0
ARC
  8
0
  6
CONTINUOUS
 62
2
 10
-252.649994
 20
8.800030
 40
1.500000
 50
90.000000
 51
180.000000
  0
ARC
  8
0
  6
CONTINUOUS
 62
7
 10
-216.000000
 20
-31.000000
 40
4.800000
 50
0.000000
 51
56.442600
  0
CIRCLE
  8
0
  6
CONTINUOUS
 62
7
 10
-168.000000
 20
-31.000000
 40
2.100000
  0
CIRCLE
  8
0
  6
CONTINUOUS
 62
2
 10
-216.000000
 20
-31.000000
 40
2.500000
  0
ARC
  8
0
  6
CONTINUOUS
 62
7
 10
-168.000000
 20
-31.000000
 40
4.800000
 50
123.556999
 51
180.000000
  0
CIRCLE
  8
0
  6
CONTINUOUS
 62
2
 10
-168.000000
 20
-31.000000
 40
2.500000
  0
ARC
  8
0
  6
CONTINUOUS
 62
2
 10
68.349998
 20
8.800050
 40
1.500000
 50
90.000000
 51
180.000000
  0
ARC
  8
0
  6
CONTINUOUS
 62
2
 10
-67.650002
 20
8.800050
 40
1.500000
 50
90.000000
 51
180.000000
  0
ARC
  8
0
  6
CONTINUOUS
 62
2
 10
-66.349998
 20
8.800050
 40
1.500000
 50
0.000000
 51
90.000000
  0
ARC
  8
0
  6
CONTINUOUS
 62
2
 10
69.650002
 20
8.800050
 40
1.500000
 50
0.000000
 51
90.000000
  0
CIRCLE
  8
0
  6
CONTINUOUS
 62
2
 10
32.000000
 20
-31.000000
 40
2.500000
  0
ARC
  8
0
  6
CONTINUOUS
 62
7
 10
32.000000
 20
-31.200001
 40
4.800000
 50
118.955002
 51
180.000000
  0
ARC
  8
0
  6
CONTINUOUS
 62
7
 10
-31.000000
 20
-31.200001
 40
4.800000
 50
0.000000
 51
61.044701
  0
ARC
  8
0
  6
CONTINUOUS
 62
7
 10
30.000000
 20
-29.299999
 40
5.000000
 50
90.000000
 51
180.000000
  0
CIRCLE
  8
0
  6
CONTINUOUS
 62
7
 10
32.000000
 20
-31.000000
 40
2.100000
  0
CIRCLE
  8
0
  6
CONTINUOUS
 62
2
 10
-31.000000
 20
-31.000000
 40
2.500000
  0
CIRCLE
  8
0
  6
CONTINUOUS
 62
7
 10
-31.000000
 20
-31.000000
 40
2.100000
  0
ARC
  8
0
  6
CONTINUOUS
 62
2
 10
258.350006
 20
8.800030
 40
1.500000
 50
90.000000
 51
180.000000
  0
ARC
  8
0
  6
CONTINUOUS
 62
2
 10
259.649994
 20
8.800030
 40
1.500000
 50
0.000000
 51
90.000000
  0
ARC
  8
0
  6
CONTINUOUS
 62
2
 10
118.650002
 20
8.800030
 40
1.500000
 50
0.000000
 51
90.000000
  0
ARC
  8
0
  6
CONTINUOUS
 62
2
 10
117.349998
 20
8.800030
 40
1.500000
 50
90.000000
 51
180.000000
  0
CIRCLE
  8
0
  6
CONTINUOUS
 62
2
 10
223.000000
 20
-31.000000
 40
2.500000
  0
CIRCLE
  8
0
  6
CONTINUOUS
 62
7
 10
145.000000
 20
-31.000000
 40
2.100000
  0
CIRCLE
  8
0
  6
CONTINUOUS
 62
7
 10
223.000000
 20
-31.000000
 40
2.100000
  0
CIRCLE
  8
0
  6
CONTINUOUS
 62
2
 10
145.000000
 20
-31.000000
 40
2.500000
  0
ARC
  8
0
  6
CONTINUOUS
 62
7
 10
145.000000
 20
-31.000000
 40
4.800000
 50
0.000000
 51
56.442600
  0
ARC
  8
0
  6
CONTINUOUS
 62
7
 10
223.000000
 20
-31.000000
 40
4.800000
 50
123.556999
 51
180.000000
  0
TEXT
  8
0
 62
7
 10
202.930283
 20
183.925003
 40
6.300000
  1
Ver.1.0
 50
0.000000
 41
1.010330
 51
0.000000
  7
STANDARD
  0
TEXT
  8
0
 62
7
 10
172.714691
 20
-187.250000
 40
9.000000
  1
KOGANEI CORP.
 50
0.000000
 41
0.771524
 51
0.000000
  7
STANDARD
  0
TEXT
  8
0
 62
7
 10
-240.419724
 20
183.925003
 40
6.300000
  1
AP UNIT
 50
0.000000
 41
0.832036
 51
0.000000
  7
STANDARD
  0
TEXT
  8
0
 62
7
 10
106.166611
 20
158.925003
 40
6.300000
  1
MODEL:APUS-SD10-45-TP-QT
 50
0.000000
 41
0.772179
 51
0.000000
  7
STANDARD
  0
TEXT
  8
0
 62
7
 10
-269.400391
 20
158.925003
 40
6.300000
  1
MODEL:APUS-SD10-15-TP-QT
 50
0.000000
 41
0.784151
 51
0.000000
  7
STANDARD
  0
TEXT
  8
0
 62
7
 10
-81.617088
 20
158.925003
 40
6.300000
  1
MODEL:APUS-SD10-30-TP-QT
 50
0.000000
 41
0.778119
 51
0.000000
  7
STANDARD
  0
ENDSEC
  0
EOF
