  0
SECTION
  2
HEADER
  0
ENDSEC
  0
SECTION
  2
TABLES
  0
TABLE
  2
LTYPE
 70
     4
  0
LTYPE
  2
CONTINUOUS
 70
    64
  3
Solid line
 72
    65
 73
     0
 40
0.000000
  0
LTYPE
  2
DASHED
 70
    64
  3
__ __ __ __ __ __ __ __ __ __ __ __ __ __ __
 72
    65
 73
     2
 40
3.500000
 49
2.000000
 49
-1.500000
  0
LTYPE
  2
CENTER
 70
    64
  3
____ _ ____ _ ____ _ ____ _ ____ _ ____ _ ____
 72
    65
 73
     4
 40
17.500000
 49
13.000000
 49
-1.500000
 49
1.500000
 49
-1.500000
  0
LTYPE
  2
PHANTOM
 70
    64
  3
_____ _ _ _____ _ _ _____ _ _ _____ _ _ ____  
 72
    65
 73
     6
 40
15.500000
 49
8.000000
 49
-1.500000
 49
1.500000
 49
-1.500000
 49
1.500000
 49
-1.500000
  0
ENDTAB
  0
TABLE
  2
LAYER
 70
     1
  0
LAYER
  2
0
 70
     0
 62
     7
  6
CONTINUOUS
  0
ENDTAB
  0
TABLE
  2
STYLE
 70
     1
  0
STYLE
  2
STANDARD
 70
     0
 40
0.000000
 41
1.000000
 50
0.000000
 71
     0
 42
0.200000
  3
txt
  4
BIGFONT
  0
ENDTAB
  0
TABLE
  2
VIEW
 70
     0
  0
ENDTAB
  0
ENDSEC
  0
SECTION
  2
BLOCKS
  0
ENDSEC
  0
SECTION
  2
ENTITIES
  0
LINE
  8
0
  6
CONTINUOUS
 62
7
 10
-281.250000
 20
195.500000
 11
282.100006
 21
195.500000
  0
LINE
  8
0
  6
CONTINUOUS
 62
7
 10
-281.250000
 20
195.500000
 11
-281.250000
 21
-195.000000
  0
LINE
  8
0
  6
CONTINUOUS
 62
7
 10
282.100006
 20
195.500000
 11
282.100006
 21
-195.000000
  0
LINE
  8
0
  6
CONTINUOUS
 62
7
 10
-281.250000
 20
-195.000000
 11
282.100006
 21
-195.000000
  0
LINE
  8
0
  6
CONTINUOUS
 62
7
 10
162.100006
 20
-175.000000
 11
162.100006
 21
-195.000000
  0
LINE
  8
0
  6
CONTINUOUS
 62
7
 10
162.100006
 20
-175.000000
 11
282.100006
 21
-175.000000
  0
LINE
  8
0
  6
CONTINUOUS
 62
7
 10
162.100006
 20
175.500000
 11
282.100006
 21
175.500000
  0
LINE
  8
0
  6
CONTINUOUS
 62
7
 10
-281.250000
 20
175.500000
 11
-161.250000
 21
175.500000
  0
LINE
  8
0
  6
CONTINUOUS
 62
7
 10
162.100006
 20
195.500000
 11
162.100006
 21
175.500000
  0
LINE
  8
0
  6
CONTINUOUS
 62
7
 10
-161.250000
 20
195.500000
 11
-161.250000
 21
175.500000
  0
LINE
  8
0
  6
CENTER
 62
2
 10
239.000000
 20
28.000000
 11
137.000000
 21
28.000000
  0
LINE
  8
0
  6
CONTINUOUS
 62
7
 10
235.000000
 20
41.500000
 11
138.000000
 21
41.500000
  0
LINE
  8
0
  6
CONTINUOUS
 62
7
 10
235.000000
 20
14.500000
 11
138.000000
 21
14.500000
  0
LINE
  8
0
  6
CONTINUOUS
 62
7
 10
235.000000
 20
21.000000
 11
146.000000
 21
21.000000
  0
LINE
  8
0
  6
CONTINUOUS
 62
7
 10
235.000000
 20
35.000000
 11
146.000000
 21
35.000000
  0
LINE
  8
0
  6
CONTINUOUS
 62
7
 10
238.000000
 20
14.000000
 11
163.649994
 21
14.000000
  0
LINE
  8
0
  6
CONTINUOUS
 62
7
 10
238.000000
 20
42.000000
 11
238.000000
 21
14.000000
  0
LINE
  8
0
  6
CONTINUOUS
 62
7
 10
146.000000
 20
41.500000
 11
146.000000
 21
14.500000
  0
LINE
  8
0
  6
CONTINUOUS
 62
7
 10
235.000000
 20
41.500000
 11
235.000000
 21
14.500000
  0
LINE
  8
0
  6
CONTINUOUS
 62
7
 10
148.000000
 20
14.500000
 11
148.000000
 21
14.000000
  0
LINE
  8
0
  6
CONTINUOUS
 62
7
 10
148.000000
 20
42.000000
 11
148.000000
 21
41.500000
  0
LINE
  8
0
  6
CONTINUOUS
 62
7
 10
238.000000
 20
42.000000
 11
163.649994
 21
42.000000
  0
LINE
  8
0
  6
CONTINUOUS
 62
7
 10
160.350006
 20
14.000000
 11
160.350006
 21
14.500000
  0
LINE
  8
0
  6
CONTINUOUS
 62
7
 10
163.649994
 20
14.000000
 11
163.649994
 21
14.500000
  0
LINE
  8
0
  6
CONTINUOUS
 62
7
 10
163.649994
 20
41.500000
 11
163.649994
 21
42.000000
  0
LINE
  8
0
  6
CONTINUOUS
 62
7
 10
160.350006
 20
41.500000
 11
160.350006
 21
42.000000
  0
LINE
  8
0
  6
CONTINUOUS
 62
7
 10
160.350006
 20
14.000000
 11
148.000000
 21
14.000000
  0
LINE
  8
0
  6
CONTINUOUS
 62
7
 10
160.350006
 20
42.000000
 11
148.000000
 21
42.000000
  0
LINE
  8
0
  6
CONTINUOUS
 62
7
 10
138.000000
 20
41.500000
 11
138.000000
 21
14.500000
  0
LINE
  8
0
  6
CENTER
 62
2
 10
155.000000
 20
40.500000
 11
155.000000
 21
35.500000
  0
LINE
  8
0
  6
CENTER
 62
2
 10
152.500000
 20
38.000000
 11
157.500000
 21
38.000000
  0
LINE
  8
0
  6
CENTER
 62
2
 10
155.000000
 20
20.500000
 11
155.000000
 21
15.500000
  0
LINE
  8
0
  6
CENTER
 62
2
 10
152.500000
 20
18.000000
 11
157.500000
 21
18.000000
  0
LINE
  8
0
  6
CENTER
 62
2
 10
221.000000
 20
40.500000
 11
221.000000
 21
35.500000
  0
LINE
  8
0
  6
CENTER
 62
2
 10
218.500000
 20
38.000000
 11
223.500000
 21
38.000000
  0
LINE
  8
0
  6
CENTER
 62
2
 10
187.000000
 20
41.099998
 11
187.000000
 21
35.900002
  0
LINE
  8
0
  6
CENTER
 62
2
 10
184.399994
 20
38.500000
 11
189.600006
 21
38.500000
  0
LINE
  8
0
  6
CENTER
 62
2
 10
221.000000
 20
20.500000
 11
221.000000
 21
15.500000
  0
LINE
  8
0
  6
CENTER
 62
2
 10
218.500000
 20
18.000000
 11
223.500000
 21
18.000000
  0
LINE
  8
0
  6
CENTER
 62
2
 10
203.000000
 20
40.500000
 11
203.000000
 21
35.500000
  0
LINE
  8
0
  6
CENTER
 62
2
 10
200.500000
 20
38.000000
 11
205.500000
 21
38.000000
  0
LINE
  8
0
  6
CENTER
 62
2
 10
203.000000
 20
20.500000
 11
203.000000
 21
15.500000
  0
LINE
  8
0
  6
CENTER
 62
2
 10
200.500000
 20
18.000000
 11
205.500000
 21
18.000000
  0
LINE
  8
0
  6
CONTINUOUS
 62
7
 10
236.199997
 20
14.700000
 11
235.000000
 21
14.700000
  0
LINE
  8
0
  6
CONTINUOUS
 62
7
 10
236.199997
 20
19.250000
 11
236.199997
 21
14.700000
  0
LINE
  8
0
  6
CONTINUOUS
 62
7
 10
236.199997
 20
33.250000
 11
236.199997
 21
22.750000
  0
LINE
  8
0
  6
CONTINUOUS
 62
7
 10
235.600006
 20
33.250000
 11
235.600006
 21
36.750000
  0
LINE
  8
0
  6
CONTINUOUS
 62
7
 10
235.600006
 20
33.250000
 11
236.600006
 21
33.250000
  0
LINE
  8
0
  6
CONTINUOUS
 62
7
 10
236.600006
 20
33.250000
 11
236.600006
 21
36.750000
  0
LINE
  8
0
  6
CONTINUOUS
 62
7
 10
235.600006
 20
36.750000
 11
236.600006
 21
36.750000
  0
LINE
  8
0
  6
CONTINUOUS
 62
7
 10
236.199997
 20
36.750000
 11
236.199997
 21
41.299999
  0
LINE
  8
0
  6
CONTINUOUS
 62
7
 10
236.199997
 20
41.299999
 11
235.000000
 21
41.299999
  0
LINE
  8
0
  6
CONTINUOUS
 62
7
 10
150.500000
 20
45.500000
 11
157.500000
 21
45.500000
  0
LINE
  8
0
  6
CONTINUOUS
 62
7
 10
150.100006
 20
42.599998
 11
150.100006
 21
42.000000
  0
LINE
  8
0
  6
CONTINUOUS
 62
7
 10
154.000000
 20
42.599998
 11
154.000000
 21
45.500000
  0
LINE
  8
0
  6
CONTINUOUS
 62
7
 10
228.500000
 20
45.500000
 11
235.500000
 21
45.500000
  0
LINE
  8
0
  6
CONTINUOUS
 62
7
 10
228.100006
 20
42.599998
 11
228.100006
 21
42.000000
  0
LINE
  8
0
  6
CONTINUOUS
 62
7
 10
235.899994
 20
42.599998
 11
235.899994
 21
42.000000
  0
LINE
  8
0
  6
CONTINUOUS
 62
7
 10
235.600006
 20
22.750000
 11
235.600006
 21
19.250000
  0
LINE
  8
0
  6
CONTINUOUS
 62
7
 10
235.600006
 20
22.750000
 11
236.600006
 21
22.750000
  0
LINE
  8
0
  6
CONTINUOUS
 62
7
 10
236.600006
 20
19.250000
 11
236.600006
 21
22.750000
  0
LINE
  8
0
  6
CONTINUOUS
 62
7
 10
235.600006
 20
19.250000
 11
236.600006
 21
19.250000
  0
LINE
  8
0
  6
DASHED
 62
2
 10
163.649994
 20
17.500000
 11
163.649994
 21
14.500000
  0
LINE
  8
0
  6
DASHED
 62
2
 10
160.350006
 20
17.500000
 11
160.350006
 21
14.500000
  0
LINE
  8
0
  6
DASHED
 62
2
 10
163.649994
 20
38.500000
 11
163.649994
 21
41.500000
  0
LINE
  8
0
  6
DASHED
 62
2
 10
160.350006
 20
38.500000
 11
160.350006
 21
41.500000
  0
LINE
  8
0
  6
CENTER
 62
2
 10
224.000000
 20
42.500000
 11
224.000000
 21
34.500000
  0
LINE
  8
0
  6
CENTER
 62
2
 10
220.000000
 20
38.500000
 11
228.000000
 21
38.500000
  0
LINE
  8
0
  6
CENTER
 62
2
 10
224.000000
 20
21.500000
 11
224.000000
 21
13.500000
  0
LINE
  8
0
  6
CENTER
 62
2
 10
220.000000
 20
17.500000
 11
228.000000
 21
17.500000
  0
LINE
  8
0
  6
CENTER
 62
2
 10
162.000000
 20
21.500000
 11
162.000000
 21
13.500000
  0
LINE
  8
0
  6
CENTER
 62
2
 10
158.000000
 20
17.500000
 11
166.000000
 21
17.500000
  0
LINE
  8
0
  6
CENTER
 62
2
 10
162.000000
 20
42.500000
 11
162.000000
 21
34.500000
  0
LINE
  8
0
  6
CENTER
 62
2
 10
158.000000
 20
38.500000
 11
166.000000
 21
38.500000
  0
LINE
  8
0
  6
CENTER
 62
2
 10
154.000000
 20
46.500000
 11
154.000000
 21
41.000000
  0
LINE
  8
0
  6
CENTER
 62
2
 10
232.000000
 20
46.500000
 11
232.000000
 21
41.000000
  0
LINE
  8
0
  6
CONTINUOUS
 62
7
 10
158.000000
 20
42.599998
 11
158.000000
 21
42.000000
  0
LINE
  8
0
  6
CONTINUOUS
 62
7
 10
235.899994
 20
42.599998
 11
228.100006
 21
42.599998
  0
LINE
  8
0
  6
CONTINUOUS
 62
7
 10
228.500000
 20
45.500000
 11
228.500000
 21
42.599998
  0
LINE
  8
0
  6
CONTINUOUS
 62
7
 10
235.500000
 20
45.500000
 11
235.500000
 21
42.599998
  0
LINE
  8
0
  6
CONTINUOUS
 62
7
 10
232.000000
 20
45.500000
 11
232.000000
 21
42.599998
  0
LINE
  8
0
  6
CONTINUOUS
 62
7
 10
150.500000
 20
45.500000
 11
150.500000
 21
42.599998
  0
LINE
  8
0
  6
CONTINUOUS
 62
7
 10
157.500000
 20
45.500000
 11
157.500000
 21
42.599998
  0
LINE
  8
0
  6
CONTINUOUS
 62
7
 10
158.000000
 20
42.599998
 11
150.100006
 21
42.599998
  0
LINE
  8
0
  6
CENTER
 62
2
 10
136.000000
 20
38.000000
 11
140.000000
 21
38.000000
  0
LINE
  8
0
  6
CENTER
 62
2
 10
136.000000
 20
18.000000
 11
140.000000
 21
18.000000
  0
LINE
  8
0
  6
CONTINUOUS
 62
7
 10
122.000000
 20
41.500000
 11
122.000000
 21
35.000000
  0
LINE
  8
0
  6
CONTINUOUS
 62
7
 10
121.699997
 20
34.700001
 11
121.699997
 21
21.299999
  0
LINE
  8
0
  6
CONTINUOUS
 62
7
 10
122.000000
 20
14.500000
 11
122.000000
 21
21.000000
  0
LINE
  8
0
  6
CONTINUOUS
 62
7
 10
122.000000
 20
14.500000
 11
103.000000
 21
14.500000
  0
LINE
  8
0
  6
CONTINUOUS
 62
7
 10
122.000000
 20
41.500000
 11
103.000000
 21
41.500000
  0
LINE
  8
0
  6
CONTINUOUS
 62
7
 10
122.000000
 20
35.000000
 11
121.699997
 21
34.700001
  0
LINE
  8
0
  6
CONTINUOUS
 62
7
 10
122.000000
 20
21.000000
 11
121.699997
 21
21.299999
  0
LINE
  8
0
  6
CONTINUOUS
 62
7
 10
111.500000
 20
14.000000
 11
111.500000
 21
14.500000
  0
LINE
  8
0
  6
CONTINUOUS
 62
7
 10
102.000000
 20
14.000000
 11
102.000000
 21
42.000000
  0
LINE
  8
0
  6
CONTINUOUS
 62
7
 10
111.500000
 20
14.000000
 11
102.000000
 21
14.000000
  0
LINE
  8
0
  6
CONTINUOUS
 62
7
 10
103.000000
 20
14.500000
 11
103.000000
 21
41.500000
  0
LINE
  8
0
  6
CONTINUOUS
 62
7
 10
121.500000
 20
41.500000
 11
121.500000
 21
14.500000
  0
LINE
  8
0
  6
CONTINUOUS
 62
7
 10
111.500000
 20
42.000000
 11
102.000000
 21
42.000000
  0
LINE
  8
0
  6
CONTINUOUS
 62
7
 10
111.500000
 20
42.000000
 11
111.500000
 21
41.500000
  0
LINE
  8
0
  6
CONTINUOUS
 62
7
 10
103.459000
 20
45.500000
 11
103.459000
 21
42.599998
  0
LINE
  8
0
  6
CONTINUOUS
 62
7
 10
105.478996
 20
45.500000
 11
105.478996
 21
42.599998
  0
LINE
  8
0
  6
CONTINUOUS
 62
7
 10
109.521004
 20
45.500000
 11
109.521004
 21
42.599998
  0
LINE
  8
0
  6
CONTINUOUS
 62
7
 10
111.541000
 20
45.500000
 11
103.459000
 21
45.500000
  0
LINE
  8
0
  6
CONTINUOUS
 62
7
 10
111.541000
 20
45.500000
 11
111.541000
 21
42.599998
  0
LINE
  8
0
  6
CONTINUOUS
 62
7
 10
111.541000
 20
42.599998
 11
103.459000
 21
42.599998
  0
LINE
  8
0
  6
CONTINUOUS
 62
7
 10
111.400002
 20
42.599998
 11
111.400002
 21
42.000000
  0
LINE
  8
0
  6
CONTINUOUS
 62
7
 10
103.599998
 20
42.599998
 11
103.599998
 21
42.000000
  0
LINE
  8
0
  6
CENTER
 62
2
 10
109.000000
 20
41.000000
 11
109.000000
 21
15.000000
  0
LINE
  8
0
  6
CENTER
 62
2
 10
101.000000
 20
28.000000
 11
123.000000
 21
28.000000
  0
LINE
  8
0
  6
CENTER
 62
2
 10
118.000000
 20
31.000000
 11
118.000000
 21
25.000000
  0
LINE
  8
0
  6
CENTER
 62
2
 10
106.000000
 20
38.000000
 11
122.000000
 21
38.000000
  0
LINE
  8
0
  6
CENTER
 62
2
 10
118.000000
 20
42.000000
 11
118.000000
 21
34.000000
  0
LINE
  8
0
  6
CENTER
 62
2
 10
106.000000
 20
18.000000
 11
122.000000
 21
18.000000
  0
LINE
  8
0
  6
CENTER
 62
2
 10
118.000000
 20
22.000000
 11
118.000000
 21
14.000000
  0
LINE
  8
0
  6
CONTINUOUS
 62
7
 10
103.459000
 20
45.500000
 11
103.459000
 21
42.599998
  0
LINE
  8
0
  6
CENTER
 62
2
 10
107.500000
 20
46.500000
 11
107.500000
 21
41.000000
  0
LINE
  8
0
  6
CONTINUOUS
 62
7
 10
263.500000
 20
14.000000
 11
273.000000
 21
14.000000
  0
LINE
  8
0
  6
CENTER
 62
2
 10
266.000000
 20
34.400002
 11
266.000000
 21
21.600000
  0
LINE
  8
0
  6
CENTER
 62
2
 10
252.000000
 20
28.000000
 11
274.000000
 21
28.000000
  0
LINE
  8
0
  6
CONTINUOUS
 62
7
 10
257.500000
 20
34.000000
 11
257.500000
 21
22.000000
  0
LINE
  8
0
  6
CONTINUOUS
 62
7
 10
260.709015
 20
34.000000
 11
263.500000
 21
34.000000
  0
LINE
  8
0
  6
CONTINUOUS
 62
7
 10
257.500000
 20
34.000000
 11
258.290985
 21
34.000000
  0
LINE
  8
0
  6
CONTINUOUS
 62
7
 10
260.709015
 20
22.000000
 11
263.500000
 21
22.000000
  0
LINE
  8
0
  6
CONTINUOUS
 62
7
 10
257.500000
 20
22.000000
 11
258.290985
 21
22.000000
  0
LINE
  8
0
  6
CONTINUOUS
 62
7
 10
263.500000
 20
14.000000
 11
263.500000
 21
22.000000
  0
LINE
  8
0
  6
CONTINUOUS
 62
7
 10
273.000000
 20
14.000000
 11
273.000000
 21
42.000000
  0
LINE
  8
0
  6
CONTINUOUS
 62
7
 10
263.500000
 20
42.000000
 11
263.500000
 21
34.000000
  0
LINE
  8
0
  6
CONTINUOUS
 62
7
 10
263.500000
 20
42.000000
 11
273.000000
 21
42.000000
  0
LINE
  8
0
  6
CONTINUOUS
 62
7
 10
253.300003
 20
34.700001
 11
253.300003
 21
21.299999
  0
LINE
  8
0
  6
CONTINUOUS
 62
7
 10
253.000000
 20
14.500000
 11
253.000000
 21
21.000000
  0
LINE
  8
0
  6
CONTINUOUS
 62
7
 10
253.000000
 20
14.500000
 11
263.500000
 21
14.500000
  0
LINE
  8
0
  6
CONTINUOUS
 62
7
 10
263.000000
 20
14.500000
 11
263.000000
 21
22.000000
  0
LINE
  8
0
  6
CONTINUOUS
 62
7
 10
253.000000
 20
21.000099
 11
253.300003
 21
21.300100
  0
LINE
  8
0
  6
CONTINUOUS
 62
7
 10
253.000000
 20
41.500000
 11
253.000000
 21
35.000000
  0
LINE
  8
0
  6
CONTINUOUS
 62
7
 10
253.000000
 20
35.000000
 11
253.300003
 21
34.700001
  0
LINE
  8
0
  6
CONTINUOUS
 62
7
 10
263.000000
 20
41.500000
 11
263.000000
 21
34.000000
  0
LINE
  8
0
  6
CONTINUOUS
 62
7
 10
253.000000
 20
41.500000
 11
263.500000
 21
41.500000
  0
LINE
  8
0
  6
CONTINUOUS
 62
7
 10
271.540985
 20
45.500000
 11
263.459015
 21
45.500000
  0
LINE
  8
0
  6
CONTINUOUS
 62
7
 10
263.459015
 20
45.500000
 11
263.459015
 21
42.599998
  0
LINE
  8
0
  6
CONTINUOUS
 62
7
 10
265.479004
 20
45.500000
 11
265.479004
 21
42.599998
  0
LINE
  8
0
  6
CONTINUOUS
 62
7
 10
269.520996
 20
45.500000
 11
269.520996
 21
42.599998
  0
LINE
  8
0
  6
CONTINUOUS
 62
7
 10
271.540985
 20
45.500000
 11
271.540985
 21
42.599998
  0
LINE
  8
0
  6
CONTINUOUS
 62
7
 10
271.540985
 20
42.599998
 11
263.459015
 21
42.599998
  0
LINE
  8
0
  6
CONTINUOUS
 62
7
 10
271.399994
 20
42.599998
 11
271.399994
 21
42.000000
  0
LINE
  8
0
  6
CONTINUOUS
 62
7
 10
263.600006
 20
42.599998
 11
263.600006
 21
42.000000
  0
LINE
  8
0
  6
CENTER
 62
2
 10
267.500000
 20
46.500000
 11
267.500000
 21
41.000000
  0
LINE
  8
0
  6
CENTER
 62
2
 10
271.000000
 20
38.500000
 11
275.000000
 21
38.500000
  0
LINE
  8
0
  6
CENTER
 62
2
 10
271.000000
 20
17.500000
 11
275.000000
 21
17.500000
  0
LINE
  8
0
  6
CENTER
 62
2
 10
251.000000
 20
38.000000
 11
255.000000
 21
38.000000
  0
LINE
  8
0
  6
CENTER
 62
2
 10
251.000000
 20
18.000000
 11
255.000000
 21
18.000000
  0
LINE
  8
0
  6
CONTINUOUS
 62
7
 10
146.000000
 20
91.500000
 11
146.000000
 21
72.500000
  0
LINE
  8
0
  6
CONTINUOUS
 62
7
 10
138.000000
 20
91.500000
 11
138.000000
 21
73.000000
  0
LINE
  8
0
  6
CONTINUOUS
 62
7
 10
146.000000
 20
89.500000
 11
148.000000
 21
89.500000
  0
LINE
  8
0
  6
CONTINUOUS
 62
7
 10
138.000000
 20
91.500000
 11
146.000000
 21
91.500000
  0
LINE
  8
0
  6
CONTINUOUS
 62
7
 10
138.000000
 20
73.000000
 11
146.000000
 21
73.000000
  0
LINE
  8
0
  6
CONTINUOUS
 62
7
 10
146.000000
 20
72.500000
 11
235.000000
 21
72.500000
  0
LINE
  8
0
  6
CONTINUOUS
 62
7
 10
148.000000
 20
92.500000
 11
148.000000
 21
82.500000
  0
LINE
  8
0
  6
CONTINUOUS
 62
7
 10
238.000000
 20
92.500000
 11
238.000000
 21
73.000000
  0
LINE
  8
0
  6
CONTINUOUS
 62
7
 10
148.000000
 20
92.500000
 11
238.000000
 21
92.500000
  0
LINE
  8
0
  6
CONTINUOUS
 62
7
 10
227.199997
 20
87.000000
 11
220.598007
 21
87.000000
  0
LINE
  8
0
  6
CONTINUOUS
 62
7
 10
148.000000
 20
83.000000
 11
238.000000
 21
83.000000
  0
LINE
  8
0
  6
CONTINUOUS
 62
7
 10
215.000000
 20
88.500000
 11
171.000000
 21
88.500000
  0
LINE
  8
0
  6
CONTINUOUS
 62
7
 10
146.000000
 20
82.500000
 11
236.199997
 21
82.500000
  0
LINE
  8
0
  6
CONTINUOUS
 62
7
 10
158.800003
 20
87.000000
 11
165.401993
 21
87.000000
  0
LINE
  8
0
  6
CONTINUOUS
 62
7
 10
236.600006
 20
77.000000
 11
238.000000
 21
77.000000
  0
LINE
  8
0
  6
CONTINUOUS
 62
7
 10
236.199997
 20
77.903397
 11
238.000000
 21
77.903397
  0
LINE
  8
0
  6
CONTINUOUS
 62
7
 10
236.199997
 20
80.096603
 11
238.000000
 21
80.096603
  0
LINE
  8
0
  6
CONTINUOUS
 62
7
 10
235.000000
 20
82.500000
 11
235.000000
 21
72.500000
  0
LINE
  8
0
  6
CONTINUOUS
 62
7
 10
160.350006
 20
92.500000
 11
160.350006
 21
87.000000
  0
LINE
  8
0
  6
DASHED
 62
2
 10
159.000000
 20
87.500000
 11
160.350006
 21
87.500000
  0
LINE
  8
0
  6
CENTER
 62
2
 10
162.000000
 20
93.500000
 11
162.000000
 21
86.000000
  0
LINE
  8
0
  6
CONTINUOUS
 62
7
 10
163.649994
 20
92.500000
 11
163.649994
 21
87.000000
  0
LINE
  8
0
  6
CONTINUOUS
 62
7
 10
154.000000
 20
82.958603
 11
157.500000
 21
84.979301
  0
LINE
  8
0
  6
CONTINUOUS
 62
7
 10
157.500000
 20
89.020798
 11
157.500000
 21
84.979301
  0
LINE
  8
0
  6
CONTINUOUS
 62
7
 10
154.000000
 20
91.041397
 11
157.500000
 21
89.020699
  0
LINE
  8
0
  6
CONTINUOUS
 62
7
 10
150.500000
 20
89.020798
 11
154.000000
 21
91.041496
  0
LINE
  8
0
  6
CONTINUOUS
 62
7
 10
150.500000
 20
84.979301
 11
150.500000
 21
89.020798
  0
LINE
  8
0
  6
CONTINUOUS
 62
7
 10
157.500000
 20
87.500000
 11
150.500000
 21
87.500000
  0
LINE
  8
0
  6
CONTINUOUS
 62
7
 10
157.500000
 20
86.500000
 11
150.500000
 21
86.500000
  0
LINE
  8
0
  6
CONTINUOUS
 62
7
 10
150.500000
 20
84.979202
 11
154.000000
 21
82.958504
  0
LINE
  8
0
  6
CONTINUOUS
 62
7
 10
232.000000
 20
82.958603
 11
235.500000
 21
84.979301
  0
LINE
  8
0
  6
CONTINUOUS
 62
7
 10
235.500000
 20
89.020798
 11
235.500000
 21
84.979301
  0
LINE
  8
0
  6
CONTINUOUS
 62
7
 10
232.000000
 20
91.041397
 11
235.500000
 21
89.020699
  0
LINE
  8
0
  6
CONTINUOUS
 62
7
 10
228.500000
 20
89.020798
 11
232.000000
 21
91.041496
  0
LINE
  8
0
  6
CONTINUOUS
 62
7
 10
228.500000
 20
84.979301
 11
228.500000
 21
89.020798
  0
LINE
  8
0
  6
CONTINUOUS
 62
7
 10
235.500000
 20
87.500000
 11
228.500000
 21
87.500000
  0
LINE
  8
0
  6
CONTINUOUS
 62
7
 10
235.500000
 20
86.500000
 11
228.500000
 21
86.500000
  0
LINE
  8
0
  6
CONTINUOUS
 62
7
 10
228.500000
 20
84.979301
 11
232.000000
 21
82.958603
  0
LINE
  8
0
  6
CONTINUOUS
 62
7
 10
235.000000
 20
73.000000
 11
238.000000
 21
73.000000
  0
LINE
  8
0
  6
CONTINUOUS
 62
7
 10
236.199997
 20
82.500000
 11
236.199997
 21
73.000000
  0
LINE
  8
0
  6
CONTINUOUS
 62
7
 10
236.600006
 20
77.250000
 11
236.600006
 21
73.750000
  0
LINE
  8
0
  6
CONTINUOUS
 62
7
 10
236.199997
 20
73.750000
 11
236.600006
 21
73.750000
  0
LINE
  8
0
  6
CONTINUOUS
 62
7
 10
236.199997
 20
77.250000
 11
236.600006
 21
77.250000
  0
LINE
  8
0
  6
CENTER
 62
2
 10
232.000000
 20
92.041496
 11
232.000000
 21
81.958603
  0
LINE
  8
0
  6
CENTER
 62
2
 10
226.959000
 20
87.000000
 11
237.041000
 21
87.000000
  0
LINE
  8
0
  6
CENTER
 62
2
 10
218.000000
 20
91.000000
 11
218.000000
 21
86.000000
  0
LINE
  8
0
  6
CENTER
 62
2
 10
215.500000
 20
88.500000
 11
220.500000
 21
88.500000
  0
LINE
  8
0
  6
CENTER
 62
2
 10
168.000000
 20
91.000000
 11
168.000000
 21
86.000000
  0
LINE
  8
0
  6
CENTER
 62
2
 10
165.500000
 20
88.500000
 11
170.500000
 21
88.500000
  0
LINE
  8
0
  6
CENTER
 62
2
 10
154.000000
 20
92.041496
 11
154.000000
 21
81.958603
  0
LINE
  8
0
  6
CENTER
 62
2
 10
148.959000
 20
87.000000
 11
159.041000
 21
87.000000
  0
LINE
  8
0
  6
CENTER
 62
2
 10
217.850006
 20
78.199997
 11
217.850006
 21
74.199997
  0
LINE
  8
0
  6
CENTER
 62
2
 10
215.850006
 20
76.199997
 11
219.850006
 21
76.199997
  0
LINE
  8
0
  6
CENTER
 62
2
 10
224.699997
 20
79.000000
 11
224.699997
 21
74.000000
  0
LINE
  8
0
  6
CENTER
 62
2
 10
222.199997
 20
76.500000
 11
227.199997
 21
76.500000
  0
LINE
  8
0
  6
CENTER
 62
2
 10
227.850006
 20
78.199997
 11
227.850006
 21
74.199997
  0
LINE
  8
0
  6
CENTER
 62
2
 10
225.850006
 20
76.199997
 11
229.850006
 21
76.199997
  0
LINE
  8
0
  6
CENTER
 62
2
 10
231.199997
 20
79.000000
 11
231.199997
 21
74.000000
  0
LINE
  8
0
  6
CENTER
 62
2
 10
228.699997
 20
76.500000
 11
233.699997
 21
76.500000
  0
LINE
  8
0
  6
CENTER
 62
2
 10
174.000000
 20
93.500000
 11
174.000000
 21
87.500000
  0
LINE
  8
0
  6
DASHED
 62
2
 10
172.000000
 20
90.900002
 11
172.000000
 21
88.500000
  0
LINE
  8
0
  6
DASHED
 62
2
 10
176.000000
 20
90.900002
 11
176.000000
 21
88.500000
  0
LINE
  8
0
  6
DASHED
 62
2
 10
171.500000
 20
92.500000
 11
171.500000
 21
90.900002
  0
LINE
  8
0
  6
DASHED
 62
2
 10
176.500000
 20
92.500000
 11
176.500000
 21
90.900002
  0
LINE
  8
0
  6
DASHED
 62
2
 10
171.500000
 20
90.900002
 11
176.500000
 21
90.900002
  0
LINE
  8
0
  6
DASHED
 62
2
 10
222.000000
 20
92.500000
 11
222.000000
 21
87.500000
  0
LINE
  8
0
  6
CENTER
 62
2
 10
224.000000
 20
93.500000
 11
224.000000
 21
86.000000
  0
LINE
  8
0
  6
DASHED
 62
2
 10
221.000000
 20
87.500000
 11
221.000000
 21
86.992500
  0
LINE
  8
0
  6
DASHED
 62
2
 10
221.000000
 20
87.500000
 11
227.000000
 21
87.500000
  0
LINE
  8
0
  6
DASHED
 62
2
 10
227.000000
 20
87.500000
 11
227.000000
 21
87.000000
  0
LINE
  8
0
  6
DASHED
 62
2
 10
226.000000
 20
92.500000
 11
226.000000
 21
87.500000
  0
LINE
  8
0
  6
CENTER
 62
2
 10
155.000000
 20
74.500000
 11
155.000000
 21
70.500000
  0
LINE
  8
0
  6
CENTER
 62
2
 10
173.000000
 20
74.500000
 11
173.000000
 21
70.500000
  0
LINE
  8
0
  6
CENTER
 62
2
 10
221.000000
 20
74.500000
 11
221.000000
 21
70.500000
  0
LINE
  8
0
  6
CENTER
 62
2
 10
136.000000
 20
85.500000
 11
140.000000
 21
85.500000
  0
LINE
  8
0
  6
CENTER
 62
2
 10
136.000000
 20
76.500000
 11
140.000000
 21
76.500000
  0
LINE
  8
0
  6
DASHED
 62
2
 10
159.000000
 20
87.500000
 11
159.000000
 21
87.000000
  0
LINE
  8
0
  6
DASHED
 62
2
 10
165.000000
 20
87.500000
 11
165.000000
 21
87.000000
  0
LINE
  8
0
  6
CONTINUOUS
 62
7
 10
160.350006
 20
87.500000
 11
163.649994
 21
87.500000
  0
LINE
  8
0
  6
DASHED
 62
2
 10
163.649994
 20
87.500000
 11
165.000000
 21
87.500000
  0
LINE
  8
0
  6
CONTINUOUS
 62
7
 10
146.000000
 20
-92.000000
 11
146.000000
 21
-65.000000
  0
LINE
  8
0
  6
CONTINUOUS
 62
7
 10
163.649994
 20
-92.000000
 11
160.350006
 21
-92.000000
  0
LINE
  8
0
  6
CONTINUOUS
 62
7
 10
163.649994
 20
-65.000000
 11
160.350006
 21
-65.000000
  0
LINE
  8
0
  6
CONTINUOUS
 62
7
 10
148.000000
 20
-92.500000
 11
148.000000
 21
-64.500000
  0
LINE
  8
0
  6
CONTINUOUS
 62
7
 10
238.000000
 20
-64.500000
 11
163.649994
 21
-64.500000
  0
LINE
  8
0
  6
CONTINUOUS
 62
7
 10
238.000000
 20
-92.500000
 11
238.000000
 21
-64.500000
  0
LINE
  8
0
  6
CENTER
 62
2
 10
239.000000
 20
-78.500000
 11
137.000000
 21
-78.500000
  0
LINE
  8
0
  6
CONTINUOUS
 62
7
 10
238.000000
 20
-92.500000
 11
163.649994
 21
-92.500000
  0
LINE
  8
0
  6
CONTINUOUS
 62
7
 10
160.350006
 20
-64.500000
 11
148.000000
 21
-64.500000
  0
LINE
  8
0
  6
CONTINUOUS
 62
7
 10
160.350006
 20
-92.500000
 11
148.000000
 21
-92.500000
  0
LINE
  8
0
  6
CONTINUOUS
 62
7
 10
148.000000
 20
-65.000000
 11
138.000000
 21
-65.000000
  0
LINE
  8
0
  6
CONTINUOUS
 62
7
 10
148.000000
 20
-92.000000
 11
138.000000
 21
-92.000000
  0
LINE
  8
0
  6
CONTINUOUS
 62
7
 10
138.000000
 20
-92.000000
 11
138.000000
 21
-65.000000
  0
LINE
  8
0
  6
CONTINUOUS
 62
7
 10
148.000000
 20
-82.500000
 11
146.000000
 21
-82.500000
  0
LINE
  8
0
  6
CONTINUOUS
 62
7
 10
148.000000
 20
-74.500000
 11
146.000000
 21
-74.500000
  0
LINE
  8
0
  6
CONTINUOUS
 62
7
 10
157.500000
 20
-96.000000
 11
150.500000
 21
-96.000000
  0
LINE
  8
0
  6
CONTINUOUS
 62
7
 10
235.500000
 20
-96.000000
 11
228.500000
 21
-96.000000
  0
LINE
  8
0
  6
CENTER
 62
2
 10
162.000000
 20
-65.349998
 11
162.000000
 21
-70.650002
  0
LINE
  8
0
  6
CENTER
 62
2
 10
159.350006
 20
-68.000000
 11
164.649994
 21
-68.000000
  0
LINE
  8
0
  6
CENTER
 62
2
 10
162.000000
 20
-86.349998
 11
162.000000
 21
-91.650002
  0
LINE
  8
0
  6
CENTER
 62
2
 10
159.350006
 20
-89.000000
 11
164.649994
 21
-89.000000
  0
LINE
  8
0
  6
CENTER
 62
2
 10
174.000000
 20
-85.500000
 11
174.000000
 21
-92.500000
  0
LINE
  8
0
  6
CENTER
 62
2
 10
170.500000
 20
-89.000000
 11
177.500000
 21
-89.000000
  0
LINE
  8
0
  6
CENTER
 62
2
 10
174.000000
 20
-64.500000
 11
174.000000
 21
-71.500000
  0
LINE
  8
0
  6
CENTER
 62
2
 10
170.500000
 20
-68.000000
 11
177.500000
 21
-68.000000
  0
LINE
  8
0
  6
CENTER
 62
2
 10
224.000000
 20
-65.000000
 11
224.000000
 21
-71.000000
  0
LINE
  8
0
  6
CENTER
 62
2
 10
221.000000
 20
-68.000000
 11
227.000000
 21
-68.000000
  0
LINE
  8
0
  6
CENTER
 62
2
 10
224.000000
 20
-86.000000
 11
224.000000
 21
-92.000000
  0
LINE
  8
0
  6
CENTER
 62
2
 10
221.000000
 20
-89.000000
 11
227.000000
 21
-89.000000
  0
LINE
  8
0
  6
CONTINUOUS
 62
7
 10
160.350006
 20
-64.500000
 11
160.350006
 21
-68.000000
  0
LINE
  8
0
  6
CONTINUOUS
 62
7
 10
163.649994
 20
-64.500000
 11
163.649994
 21
-68.000000
  0
LINE
  8
0
  6
CONTINUOUS
 62
7
 10
160.350006
 20
-89.000000
 11
160.350006
 21
-92.500000
  0
LINE
  8
0
  6
CONTINUOUS
 62
7
 10
163.649994
 20
-89.000000
 11
163.649994
 21
-92.500000
  0
LINE
  8
0
  6
CENTER
 62
2
 10
154.000000
 20
-91.500000
 11
154.000000
 21
-97.000000
  0
LINE
  8
0
  6
CONTINUOUS
 62
7
 10
157.899994
 20
-93.099998
 11
150.100006
 21
-93.099998
  0
LINE
  8
0
  6
CONTINUOUS
 62
7
 10
150.100006
 20
-92.500000
 11
150.100006
 21
-93.099998
  0
LINE
  8
0
  6
CONTINUOUS
 62
7
 10
157.899994
 20
-92.500000
 11
157.899994
 21
-93.099998
  0
LINE
  8
0
  6
CONTINUOUS
 62
7
 10
157.500000
 20
-93.099998
 11
157.500000
 21
-96.000000
  0
LINE
  8
0
  6
CONTINUOUS
 62
7
 10
150.500000
 20
-93.099998
 11
150.500000
 21
-96.000000
  0
LINE
  8
0
  6
CENTER
 62
2
 10
232.000000
 20
-97.000000
 11
232.000000
 21
-91.500000
  0
LINE
  8
0
  6
CONTINUOUS
 62
7
 10
235.899994
 20
-93.099998
 11
228.100006
 21
-93.099998
  0
LINE
  8
0
  6
CONTINUOUS
 62
7
 10
235.899994
 20
-93.099998
 11
235.899994
 21
-92.500000
  0
LINE
  8
0
  6
CONTINUOUS
 62
7
 10
228.100006
 20
-93.099998
 11
228.100006
 21
-92.500000
  0
LINE
  8
0
  6
CONTINUOUS
 62
7
 10
235.500000
 20
-96.000000
 11
235.500000
 21
-93.099998
  0
LINE
  8
0
  6
CONTINUOUS
 62
7
 10
228.500000
 20
-96.000000
 11
228.500000
 21
-93.099998
  0
LINE
  8
0
  6
CONTINUOUS
 62
7
 10
-58.000000
 20
41.500000
 11
-58.000000
 21
35.000000
  0
LINE
  8
0
  6
CONTINUOUS
 62
7
 10
-58.299999
 20
34.700001
 11
-58.299999
 21
21.299999
  0
LINE
  8
0
  6
CONTINUOUS
 62
7
 10
-58.000000
 20
14.500000
 11
-58.000000
 21
21.000000
  0
LINE
  8
0
  6
CONTINUOUS
 62
7
 10
-58.000000
 20
14.500000
 11
-77.000000
 21
14.500000
  0
LINE
  8
0
  6
CONTINUOUS
 62
7
 10
-58.000000
 20
41.500000
 11
-77.000000
 21
41.500000
  0
LINE
  8
0
  6
CONTINUOUS
 62
7
 10
-58.000000
 20
35.000000
 11
-58.299999
 21
34.700001
  0
LINE
  8
0
  6
CONTINUOUS
 62
7
 10
-58.000000
 20
21.000000
 11
-58.299999
 21
21.299999
  0
LINE
  8
0
  6
CONTINUOUS
 62
7
 10
-68.500000
 20
14.000000
 11
-68.500000
 21
14.500000
  0
LINE
  8
0
  6
CONTINUOUS
 62
7
 10
-78.000000
 20
14.000000
 11
-78.000000
 21
42.000000
  0
LINE
  8
0
  6
CONTINUOUS
 62
7
 10
-68.500000
 20
14.000000
 11
-78.000000
 21
14.000000
  0
LINE
  8
0
  6
CONTINUOUS
 62
7
 10
-77.000000
 20
14.500000
 11
-77.000000
 21
41.500000
  0
LINE
  8
0
  6
CONTINUOUS
 62
7
 10
-58.500000
 20
41.500000
 11
-58.500000
 21
14.500000
  0
LINE
  8
0
  6
CONTINUOUS
 62
7
 10
-68.500000
 20
42.000000
 11
-78.000000
 21
42.000000
  0
LINE
  8
0
  6
CONTINUOUS
 62
7
 10
-68.500000
 20
42.000000
 11
-68.500000
 21
41.500000
  0
LINE
  8
0
  6
CONTINUOUS
 62
7
 10
-76.541397
 20
45.500000
 11
-76.541397
 21
42.599998
  0
LINE
  8
0
  6
CONTINUOUS
 62
7
 10
-74.520699
 20
45.500000
 11
-74.520699
 21
42.599998
  0
LINE
  8
0
  6
CONTINUOUS
 62
7
 10
-70.479301
 20
45.500000
 11
-70.479301
 21
42.599998
  0
LINE
  8
0
  6
CONTINUOUS
 62
7
 10
-68.458504
 20
45.500000
 11
-76.541397
 21
45.500000
  0
LINE
  8
0
  6
CONTINUOUS
 62
7
 10
-68.458504
 20
45.500000
 11
-68.458504
 21
42.599998
  0
LINE
  8
0
  6
CONTINUOUS
 62
7
 10
-68.458504
 20
42.599998
 11
-76.541397
 21
42.599998
  0
LINE
  8
0
  6
CONTINUOUS
 62
7
 10
-68.599998
 20
42.599998
 11
-68.599998
 21
42.000000
  0
LINE
  8
0
  6
CONTINUOUS
 62
7
 10
-76.400002
 20
42.599998
 11
-76.400002
 21
42.000000
  0
LINE
  8
0
  6
CENTER
 62
2
 10
-71.000000
 20
41.000000
 11
-71.000000
 21
15.000000
  0
LINE
  8
0
  6
CENTER
 62
2
 10
-79.000000
 20
28.000000
 11
-57.000000
 21
28.000000
  0
LINE
  8
0
  6
CENTER
 62
2
 10
-62.000000
 20
31.000000
 11
-62.000000
 21
25.000000
  0
LINE
  8
0
  6
CENTER
 62
2
 10
-74.000000
 20
38.000000
 11
-58.000000
 21
38.000000
  0
LINE
  8
0
  6
CENTER
 62
2
 10
-62.000000
 20
42.000000
 11
-62.000000
 21
34.000000
  0
LINE
  8
0
  6
CENTER
 62
2
 10
-74.000000
 20
18.000000
 11
-58.000000
 21
18.000000
  0
LINE
  8
0
  6
CENTER
 62
2
 10
-62.000000
 20
22.000000
 11
-62.000000
 21
14.000000
  0
LINE
  8
0
  6
CONTINUOUS
 62
7
 10
-76.541397
 20
45.500000
 11
-76.541397
 21
42.599998
  0
LINE
  8
0
  6
CENTER
 62
2
 10
-72.500000
 20
46.500000
 11
-72.500000
 21
41.000000
  0
LINE
  8
0
  6
CONTINUOUS
 62
7
 10
70.500000
 20
14.000000
 11
80.000000
 21
14.000000
  0
LINE
  8
0
  6
CENTER
 62
2
 10
73.000000
 20
34.400002
 11
73.000000
 21
21.600000
  0
LINE
  8
0
  6
CENTER
 62
2
 10
59.000000
 20
28.000000
 11
81.000000
 21
28.000000
  0
LINE
  8
0
  6
CONTINUOUS
 62
7
 10
64.500000
 20
34.000000
 11
64.500000
 21
22.000000
  0
LINE
  8
0
  6
CONTINUOUS
 62
7
 10
67.709396
 20
34.000000
 11
70.500000
 21
34.000000
  0
LINE
  8
0
  6
CONTINUOUS
 62
7
 10
64.500000
 20
34.000000
 11
65.290604
 21
34.000000
  0
LINE
  8
0
  6
CONTINUOUS
 62
7
 10
67.709297
 20
22.000000
 11
70.500000
 21
22.000000
  0
LINE
  8
0
  6
CONTINUOUS
 62
7
 10
64.500000
 20
22.000000
 11
65.290703
 21
22.000000
  0
LINE
  8
0
  6
CONTINUOUS
 62
7
 10
70.500000
 20
14.000000
 11
70.500000
 21
22.000000
  0
LINE
  8
0
  6
CONTINUOUS
 62
7
 10
80.000000
 20
14.000000
 11
80.000000
 21
42.000000
  0
LINE
  8
0
  6
CONTINUOUS
 62
7
 10
70.500000
 20
42.000000
 11
70.500000
 21
34.000000
  0
LINE
  8
0
  6
CONTINUOUS
 62
7
 10
70.500000
 20
42.000000
 11
80.000000
 21
42.000000
  0
LINE
  8
0
  6
CONTINUOUS
 62
7
 10
60.299999
 20
34.700001
 11
60.299999
 21
21.299999
  0
LINE
  8
0
  6
CONTINUOUS
 62
7
 10
60.000000
 20
14.500000
 11
60.000000
 21
21.000000
  0
LINE
  8
0
  6
CONTINUOUS
 62
7
 10
60.000000
 20
14.500000
 11
70.500000
 21
14.500000
  0
LINE
  8
0
  6
CONTINUOUS
 62
7
 10
70.000000
 20
14.500000
 11
70.000000
 21
22.000000
  0
LINE
  8
0
  6
CONTINUOUS
 62
7
 10
60.000000
 20
21.000000
 11
60.299999
 21
21.300100
  0
LINE
  8
0
  6
CONTINUOUS
 62
7
 10
60.000000
 20
41.500000
 11
60.000000
 21
35.000000
  0
LINE
  8
0
  6
CONTINUOUS
 62
7
 10
60.000000
 20
35.000000
 11
60.299999
 21
34.700001
  0
LINE
  8
0
  6
CONTINUOUS
 62
7
 10
70.000000
 20
41.500000
 11
70.000000
 21
34.000000
  0
LINE
  8
0
  6
CONTINUOUS
 62
7
 10
60.000000
 20
41.500000
 11
70.500000
 21
41.500000
  0
LINE
  8
0
  6
CONTINUOUS
 62
7
 10
78.541496
 20
45.500000
 11
70.458603
 21
45.500000
  0
LINE
  8
0
  6
CONTINUOUS
 62
7
 10
70.458603
 20
45.500000
 11
70.458603
 21
42.599998
  0
LINE
  8
0
  6
CONTINUOUS
 62
7
 10
72.479301
 20
45.500000
 11
72.479301
 21
42.599998
  0
LINE
  8
0
  6
CONTINUOUS
 62
7
 10
76.520699
 20
45.500000
 11
76.520699
 21
42.599998
  0
LINE
  8
0
  6
CONTINUOUS
 62
7
 10
78.541496
 20
45.500000
 11
78.541496
 21
42.599998
  0
LINE
  8
0
  6
CONTINUOUS
 62
7
 10
78.541496
 20
42.599998
 11
70.458603
 21
42.599998
  0
LINE
  8
0
  6
CONTINUOUS
 62
7
 10
78.400002
 20
42.599998
 11
78.400002
 21
42.000000
  0
LINE
  8
0
  6
CONTINUOUS
 62
7
 10
70.599998
 20
42.599998
 11
70.599998
 21
42.000000
  0
LINE
  8
0
  6
CENTER
 62
2
 10
74.500000
 20
46.500000
 11
74.500000
 21
41.000000
  0
LINE
  8
0
  6
CENTER
 62
2
 10
78.000000
 20
38.500000
 11
82.000000
 21
38.500000
  0
LINE
  8
0
  6
CENTER
 62
2
 10
78.000000
 20
17.500000
 11
82.000000
 21
17.500000
  0
LINE
  8
0
  6
CENTER
 62
2
 10
58.000000
 20
38.000000
 11
62.000000
 21
38.000000
  0
LINE
  8
0
  6
CENTER
 62
2
 10
58.000000
 20
18.000000
 11
62.000000
 21
18.000000
  0
LINE
  8
0
  6
CENTER
 62
2
 10
203.000000
 20
74.500000
 11
203.000000
 21
70.500000
  0
LINE
  8
0
  6
CENTER
 62
2
 10
173.000000
 20
20.500000
 11
173.000000
 21
15.500000
  0
LINE
  8
0
  6
CENTER
 62
2
 10
170.500000
 20
18.000000
 11
175.500000
 21
18.000000
  0
LINE
  8
0
  6
CENTER
 62
2
 10
173.000000
 20
40.500000
 11
173.000000
 21
35.500000
  0
LINE
  8
0
  6
CENTER
 62
2
 10
170.500000
 20
38.000000
 11
175.500000
 21
38.000000
  0
LINE
  8
0
  6
CENTER
 62
2
 10
-151.000000
 20
28.000000
 11
-223.000000
 21
28.000000
  0
LINE
  8
0
  6
CONTINUOUS
 62
7
 10
-155.000000
 20
41.500000
 11
-222.000000
 21
41.500000
  0
LINE
  8
0
  6
CONTINUOUS
 62
7
 10
-155.000000
 20
14.500000
 11
-222.000000
 21
14.500000
  0
LINE
  8
0
  6
CONTINUOUS
 62
7
 10
-155.000000
 20
21.000000
 11
-214.000000
 21
21.000000
  0
LINE
  8
0
  6
CONTINUOUS
 62
7
 10
-155.000000
 20
35.000000
 11
-214.000000
 21
35.000000
  0
LINE
  8
0
  6
CONTINUOUS
 62
7
 10
-152.000000
 20
14.000000
 11
-196.350006
 21
14.000000
  0
LINE
  8
0
  6
CONTINUOUS
 62
7
 10
-152.000000
 20
42.000000
 11
-152.000000
 21
14.000000
  0
LINE
  8
0
  6
CONTINUOUS
 62
7
 10
-214.000000
 20
41.500000
 11
-214.000000
 21
14.500000
  0
LINE
  8
0
  6
CONTINUOUS
 62
7
 10
-155.000000
 20
41.500000
 11
-155.000000
 21
14.500000
  0
LINE
  8
0
  6
CONTINUOUS
 62
7
 10
-212.000000
 20
14.500000
 11
-212.000000
 21
14.000000
  0
LINE
  8
0
  6
CONTINUOUS
 62
7
 10
-212.000000
 20
42.000000
 11
-212.000000
 21
41.500000
  0
LINE
  8
0
  6
CONTINUOUS
 62
7
 10
-152.000000
 20
42.000000
 11
-196.350006
 21
42.000000
  0
LINE
  8
0
  6
CONTINUOUS
 62
7
 10
-199.649994
 20
14.000000
 11
-199.649994
 21
14.500000
  0
LINE
  8
0
  6
CONTINUOUS
 62
7
 10
-196.350006
 20
14.000000
 11
-196.350006
 21
14.500000
  0
LINE
  8
0
  6
CONTINUOUS
 62
7
 10
-196.350006
 20
41.500000
 11
-196.350006
 21
42.000000
  0
LINE
  8
0
  6
CONTINUOUS
 62
7
 10
-199.649994
 20
41.500000
 11
-199.649994
 21
42.000000
  0
LINE
  8
0
  6
CONTINUOUS
 62
7
 10
-199.649994
 20
14.000000
 11
-212.000000
 21
14.000000
  0
LINE
  8
0
  6
CONTINUOUS
 62
7
 10
-199.649994
 20
42.000000
 11
-212.000000
 21
42.000000
  0
LINE
  8
0
  6
CONTINUOUS
 62
7
 10
-222.000000
 20
41.500000
 11
-222.000000
 21
14.500000
  0
LINE
  8
0
  6
CENTER
 62
2
 10
-205.000000
 20
40.500000
 11
-205.000000
 21
35.500000
  0
LINE
  8
0
  6
CENTER
 62
2
 10
-207.500000
 20
38.000000
 11
-202.500000
 21
38.000000
  0
LINE
  8
0
  6
CENTER
 62
2
 10
-205.000000
 20
20.500000
 11
-205.000000
 21
15.500000
  0
LINE
  8
0
  6
CENTER
 62
2
 10
-207.500000
 20
18.000000
 11
-202.500000
 21
18.000000
  0
LINE
  8
0
  6
CENTER
 62
2
 10
-169.000000
 20
40.500000
 11
-169.000000
 21
35.500000
  0
LINE
  8
0
  6
CENTER
 62
2
 10
-171.500000
 20
38.000000
 11
-166.500000
 21
38.000000
  0
LINE
  8
0
  6
CENTER
 62
2
 10
-183.000000
 20
41.099998
 11
-183.000000
 21
35.900002
  0
LINE
  8
0
  6
CENTER
 62
2
 10
-185.600006
 20
38.500000
 11
-180.399994
 21
38.500000
  0
LINE
  8
0
  6
CENTER
 62
2
 10
-169.000000
 20
20.500000
 11
-169.000000
 21
15.500000
  0
LINE
  8
0
  6
CENTER
 62
2
 10
-171.500000
 20
18.000000
 11
-166.500000
 21
18.000000
  0
LINE
  8
0
  6
CENTER
 62
2
 10
-187.000000
 20
40.500000
 11
-187.000000
 21
35.500000
  0
LINE
  8
0
  6
CENTER
 62
2
 10
-189.500000
 20
38.000000
 11
-184.500000
 21
38.000000
  0
LINE
  8
0
  6
CENTER
 62
2
 10
-187.000000
 20
20.500000
 11
-187.000000
 21
15.500000
  0
LINE
  8
0
  6
CENTER
 62
2
 10
-189.500000
 20
18.000000
 11
-184.500000
 21
18.000000
  0
LINE
  8
0
  6
CONTINUOUS
 62
7
 10
-153.800003
 20
14.700000
 11
-155.000000
 21
14.700000
  0
LINE
  8
0
  6
CONTINUOUS
 62
7
 10
-153.800003
 20
19.250000
 11
-153.800003
 21
14.700000
  0
LINE
  8
0
  6
CONTINUOUS
 62
7
 10
-153.800003
 20
33.250000
 11
-153.800003
 21
22.750000
  0
LINE
  8
0
  6
CONTINUOUS
 62
7
 10
-154.399994
 20
33.250000
 11
-154.399994
 21
36.750000
  0
LINE
  8
0
  6
CONTINUOUS
 62
7
 10
-154.399994
 20
33.250000
 11
-153.399994
 21
33.250000
  0
LINE
  8
0
  6
CONTINUOUS
 62
7
 10
-153.399994
 20
33.250000
 11
-153.399994
 21
36.750000
  0
LINE
  8
0
  6
CONTINUOUS
 62
7
 10
-154.399994
 20
36.750000
 11
-153.399994
 21
36.750000
  0
LINE
  8
0
  6
CONTINUOUS
 62
7
 10
-153.800003
 20
36.750000
 11
-153.800003
 21
41.299999
  0
LINE
  8
0
  6
CONTINUOUS
 62
7
 10
-153.800003
 20
41.299999
 11
-155.000000
 21
41.299999
  0
LINE
  8
0
  6
CONTINUOUS
 62
7
 10
-209.500000
 20
45.500000
 11
-202.500000
 21
45.500000
  0
LINE
  8
0
  6
CONTINUOUS
 62
7
 10
-209.899994
 20
42.599998
 11
-209.899994
 21
42.000000
  0
LINE
  8
0
  6
CONTINUOUS
 62
7
 10
-206.000000
 20
42.599998
 11
-206.000000
 21
45.500000
  0
LINE
  8
0
  6
CONTINUOUS
 62
7
 10
-161.500000
 20
45.500000
 11
-154.500000
 21
45.500000
  0
LINE
  8
0
  6
CONTINUOUS
 62
7
 10
-161.899994
 20
42.599998
 11
-161.899994
 21
42.000000
  0
LINE
  8
0
  6
CONTINUOUS
 62
7
 10
-154.100006
 20
42.599998
 11
-154.100006
 21
42.000000
  0
LINE
  8
0
  6
CONTINUOUS
 62
7
 10
-154.399994
 20
22.750000
 11
-154.399994
 21
19.250000
  0
LINE
  8
0
  6
CONTINUOUS
 62
7
 10
-154.399994
 20
22.750000
 11
-153.399994
 21
22.750000
  0
LINE
  8
0
  6
CONTINUOUS
 62
7
 10
-153.399994
 20
19.250000
 11
-153.399994
 21
22.750000
  0
LINE
  8
0
  6
CONTINUOUS
 62
7
 10
-154.399994
 20
19.250000
 11
-153.399994
 21
19.250000
  0
LINE
  8
0
  6
DASHED
 62
2
 10
-196.350006
 20
17.500000
 11
-196.350006
 21
14.500000
  0
LINE
  8
0
  6
DASHED
 62
2
 10
-199.649994
 20
17.500000
 11
-199.649994
 21
14.500000
  0
LINE
  8
0
  6
DASHED
 62
2
 10
-196.350006
 20
38.500000
 11
-196.350006
 21
41.500000
  0
LINE
  8
0
  6
DASHED
 62
2
 10
-199.649994
 20
38.500000
 11
-199.649994
 21
41.500000
  0
LINE
  8
0
  6
CENTER
 62
2
 10
-166.000000
 20
42.500000
 11
-166.000000
 21
34.500000
  0
LINE
  8
0
  6
CENTER
 62
2
 10
-170.000000
 20
38.500000
 11
-162.000000
 21
38.500000
  0
LINE
  8
0
  6
CENTER
 62
2
 10
-166.000000
 20
21.500000
 11
-166.000000
 21
13.500000
  0
LINE
  8
0
  6
CENTER
 62
2
 10
-170.000000
 20
17.500000
 11
-162.000000
 21
17.500000
  0
LINE
  8
0
  6
CENTER
 62
2
 10
-198.000000
 20
21.500000
 11
-198.000000
 21
13.500000
  0
LINE
  8
0
  6
CENTER
 62
2
 10
-202.000000
 20
17.500000
 11
-194.000000
 21
17.500000
  0
LINE
  8
0
  6
CENTER
 62
2
 10
-198.000000
 20
42.500000
 11
-198.000000
 21
34.500000
  0
LINE
  8
0
  6
CENTER
 62
2
 10
-202.000000
 20
38.500000
 11
-194.000000
 21
38.500000
  0
LINE
  8
0
  6
CENTER
 62
2
 10
-206.000000
 20
46.500000
 11
-206.000000
 21
41.000000
  0
LINE
  8
0
  6
CENTER
 62
2
 10
-158.000000
 20
46.500000
 11
-158.000000
 21
41.000000
  0
LINE
  8
0
  6
CONTINUOUS
 62
7
 10
-202.000000
 20
42.599998
 11
-202.000000
 21
42.000000
  0
LINE
  8
0
  6
CONTINUOUS
 62
7
 10
-154.100006
 20
42.599998
 11
-161.899994
 21
42.599998
  0
LINE
  8
0
  6
CONTINUOUS
 62
7
 10
-161.500000
 20
45.500000
 11
-161.500000
 21
42.599998
  0
LINE
  8
0
  6
CONTINUOUS
 62
7
 10
-154.500000
 20
45.500000
 11
-154.500000
 21
42.599998
  0
LINE
  8
0
  6
CONTINUOUS
 62
7
 10
-158.000000
 20
45.500000
 11
-158.000000
 21
42.599998
  0
LINE
  8
0
  6
CONTINUOUS
 62
7
 10
-209.500000
 20
45.500000
 11
-209.500000
 21
42.599998
  0
LINE
  8
0
  6
CONTINUOUS
 62
7
 10
-202.500000
 20
45.500000
 11
-202.500000
 21
42.599998
  0
LINE
  8
0
  6
CONTINUOUS
 62
7
 10
-202.000000
 20
42.599998
 11
-209.899994
 21
42.599998
  0
LINE
  8
0
  6
CENTER
 62
2
 10
-224.000000
 20
38.000000
 11
-220.000000
 21
38.000000
  0
LINE
  8
0
  6
CENTER
 62
2
 10
-224.000000
 20
18.000000
 11
-220.000000
 21
18.000000
  0
LINE
  8
0
  6
CONTINUOUS
 62
7
 10
-248.000000
 20
41.500000
 11
-248.000000
 21
35.000000
  0
LINE
  8
0
  6
CONTINUOUS
 62
7
 10
-248.300003
 20
34.700001
 11
-248.300003
 21
21.299999
  0
LINE
  8
0
  6
CONTINUOUS
 62
7
 10
-248.000000
 20
14.500000
 11
-248.000000
 21
21.000000
  0
LINE
  8
0
  6
CONTINUOUS
 62
7
 10
-248.000000
 20
14.500000
 11
-267.000000
 21
14.500000
  0
LINE
  8
0
  6
CONTINUOUS
 62
7
 10
-248.000000
 20
41.500000
 11
-267.000000
 21
41.500000
  0
LINE
  8
0
  6
CONTINUOUS
 62
7
 10
-248.000000
 20
35.000000
 11
-248.300003
 21
34.700001
  0
LINE
  8
0
  6
CONTINUOUS
 62
7
 10
-248.000000
 20
21.000000
 11
-248.300003
 21
21.299999
  0
LINE
  8
0
  6
CONTINUOUS
 62
7
 10
-258.500000
 20
14.000000
 11
-258.500000
 21
14.500000
  0
LINE
  8
0
  6
CONTINUOUS
 62
7
 10
-268.000000
 20
14.000000
 11
-268.000000
 21
42.000000
  0
LINE
  8
0
  6
CONTINUOUS
 62
7
 10
-258.500000
 20
14.000000
 11
-268.000000
 21
14.000000
  0
LINE
  8
0
  6
CONTINUOUS
 62
7
 10
-267.000000
 20
14.500000
 11
-267.000000
 21
41.500000
  0
LINE
  8
0
  6
CONTINUOUS
 62
7
 10
-248.500000
 20
41.500000
 11
-248.500000
 21
14.500000
  0
LINE
  8
0
  6
CONTINUOUS
 62
7
 10
-258.500000
 20
42.000000
 11
-268.000000
 21
42.000000
  0
LINE
  8
0
  6
CONTINUOUS
 62
7
 10
-258.500000
 20
42.000000
 11
-258.500000
 21
41.500000
  0
LINE
  8
0
  6
CONTINUOUS
 62
7
 10
-266.540985
 20
45.500000
 11
-266.540985
 21
42.599998
  0
LINE
  8
0
  6
CONTINUOUS
 62
7
 10
-264.520996
 20
45.500000
 11
-264.520996
 21
42.599998
  0
LINE
  8
0
  6
CONTINUOUS
 62
7
 10
-260.479004
 20
45.500000
 11
-260.479004
 21
42.599998
  0
LINE
  8
0
  6
CONTINUOUS
 62
7
 10
-258.459015
 20
45.500000
 11
-266.540985
 21
45.500000
  0
LINE
  8
0
  6
CONTINUOUS
 62
7
 10
-258.459015
 20
45.500000
 11
-258.459015
 21
42.599998
  0
LINE
  8
0
  6
CONTINUOUS
 62
7
 10
-258.459015
 20
42.599998
 11
-266.540985
 21
42.599998
  0
LINE
  8
0
  6
CONTINUOUS
 62
7
 10
-258.600006
 20
42.599998
 11
-258.600006
 21
42.000000
  0
LINE
  8
0
  6
CONTINUOUS
 62
7
 10
-266.399994
 20
42.599998
 11
-266.399994
 21
42.000000
  0
LINE
  8
0
  6
CENTER
 62
2
 10
-261.000000
 20
41.000000
 11
-261.000000
 21
15.000000
  0
LINE
  8
0
  6
CENTER
 62
2
 10
-269.000000
 20
28.000000
 11
-247.000000
 21
28.000000
  0
LINE
  8
0
  6
CENTER
 62
2
 10
-252.000000
 20
31.000000
 11
-252.000000
 21
25.000000
  0
LINE
  8
0
  6
CENTER
 62
2
 10
-264.000000
 20
38.000000
 11
-248.000000
 21
38.000000
  0
LINE
  8
0
  6
CENTER
 62
2
 10
-252.000000
 20
42.000000
 11
-252.000000
 21
34.000000
  0
LINE
  8
0
  6
CENTER
 62
2
 10
-264.000000
 20
18.000000
 11
-248.000000
 21
18.000000
  0
LINE
  8
0
  6
CENTER
 62
2
 10
-252.000000
 20
22.000000
 11
-252.000000
 21
14.000000
  0
LINE
  8
0
  6
CONTINUOUS
 62
7
 10
-266.540985
 20
45.500000
 11
-266.540985
 21
42.599998
  0
LINE
  8
0
  6
CENTER
 62
2
 10
-262.500000
 20
46.500000
 11
-262.500000
 21
41.000000
  0
LINE
  8
0
  6
CONTINUOUS
 62
7
 10
-114.500000
 20
14.000000
 11
-105.000000
 21
14.000000
  0
LINE
  8
0
  6
CENTER
 62
2
 10
-112.000000
 20
34.400002
 11
-112.000000
 21
21.600000
  0
LINE
  8
0
  6
CENTER
 62
2
 10
-126.000000
 20
28.000000
 11
-104.000000
 21
28.000000
  0
LINE
  8
0
  6
CONTINUOUS
 62
7
 10
-120.500000
 20
34.000000
 11
-120.500000
 21
22.000000
  0
LINE
  8
0
  6
CONTINUOUS
 62
7
 10
-117.291000
 20
34.000000
 11
-114.500000
 21
34.000000
  0
LINE
  8
0
  6
CONTINUOUS
 62
7
 10
-120.500000
 20
34.000000
 11
-119.709000
 21
34.000000
  0
LINE
  8
0
  6
CONTINUOUS
 62
7
 10
-117.291000
 20
22.000000
 11
-114.500000
 21
22.000000
  0
LINE
  8
0
  6
CONTINUOUS
 62
7
 10
-120.500000
 20
22.000000
 11
-119.709000
 21
22.000000
  0
LINE
  8
0
  6
CONTINUOUS
 62
7
 10
-114.500000
 20
14.000000
 11
-114.500000
 21
22.000000
  0
LINE
  8
0
  6
CONTINUOUS
 62
7
 10
-105.000000
 20
14.000000
 11
-105.000000
 21
42.000000
  0
LINE
  8
0
  6
CONTINUOUS
 62
7
 10
-114.500000
 20
42.000000
 11
-114.500000
 21
34.000000
  0
LINE
  8
0
  6
CONTINUOUS
 62
7
 10
-114.500000
 20
42.000000
 11
-105.000000
 21
42.000000
  0
LINE
  8
0
  6
CONTINUOUS
 62
7
 10
-124.699997
 20
34.700001
 11
-124.699997
 21
21.299999
  0
LINE
  8
0
  6
CONTINUOUS
 62
7
 10
-125.000000
 20
14.500000
 11
-125.000000
 21
21.000000
  0
LINE
  8
0
  6
CONTINUOUS
 62
7
 10
-125.000000
 20
14.500000
 11
-114.500000
 21
14.500000
  0
LINE
  8
0
  6
CONTINUOUS
 62
7
 10
-115.000000
 20
14.500000
 11
-115.000000
 21
22.000000
  0
LINE
  8
0
  6
CONTINUOUS
 62
7
 10
-125.000000
 20
21.000000
 11
-124.699997
 21
21.299999
  0
LINE
  8
0
  6
CONTINUOUS
 62
7
 10
-125.000000
 20
41.500000
 11
-125.000000
 21
35.000000
  0
LINE
  8
0
  6
CONTINUOUS
 62
7
 10
-125.000000
 20
35.000000
 11
-124.699997
 21
34.700001
  0
LINE
  8
0
  6
CONTINUOUS
 62
7
 10
-115.000000
 20
41.500000
 11
-115.000000
 21
34.000000
  0
LINE
  8
0
  6
CONTINUOUS
 62
7
 10
-125.000000
 20
41.500000
 11
-114.500000
 21
41.500000
  0
LINE
  8
0
  6
CONTINUOUS
 62
7
 10
-106.459000
 20
45.500000
 11
-114.541000
 21
45.500000
  0
LINE
  8
0
  6
CONTINUOUS
 62
7
 10
-114.541000
 20
45.500000
 11
-114.541000
 21
42.599998
  0
LINE
  8
0
  6
CONTINUOUS
 62
7
 10
-112.521004
 20
45.500000
 11
-112.521004
 21
42.599998
  0
LINE
  8
0
  6
CONTINUOUS
 62
7
 10
-108.478996
 20
45.500000
 11
-108.478996
 21
42.599998
  0
LINE
  8
0
  6
CONTINUOUS
 62
7
 10
-106.459000
 20
45.500000
 11
-106.459000
 21
42.599998
  0
LINE
  8
0
  6
CONTINUOUS
 62
7
 10
-106.459000
 20
42.599998
 11
-114.541000
 21
42.599998
  0
LINE
  8
0
  6
CONTINUOUS
 62
7
 10
-106.599998
 20
42.599998
 11
-106.599998
 21
42.000000
  0
LINE
  8
0
  6
CONTINUOUS
 62
7
 10
-114.400002
 20
42.599998
 11
-114.400002
 21
42.000000
  0
LINE
  8
0
  6
CENTER
 62
2
 10
-110.500000
 20
46.500000
 11
-110.500000
 21
41.000000
  0
LINE
  8
0
  6
CENTER
 62
2
 10
-107.000000
 20
38.500000
 11
-103.000000
 21
38.500000
  0
LINE
  8
0
  6
CENTER
 62
2
 10
-107.000000
 20
17.500000
 11
-103.000000
 21
17.500000
  0
LINE
  8
0
  6
CENTER
 62
2
 10
-127.000000
 20
38.000000
 11
-123.000000
 21
38.000000
  0
LINE
  8
0
  6
CENTER
 62
2
 10
-127.000000
 20
18.000000
 11
-123.000000
 21
18.000000
  0
LINE
  8
0
  6
CONTINUOUS
 62
7
 10
-214.000000
 20
91.500000
 11
-214.000000
 21
72.500000
  0
LINE
  8
0
  6
CONTINUOUS
 62
7
 10
-222.000000
 20
91.500000
 11
-222.000000
 21
73.000000
  0
LINE
  8
0
  6
CONTINUOUS
 62
7
 10
-214.000000
 20
89.500000
 11
-212.000000
 21
89.500000
  0
LINE
  8
0
  6
CONTINUOUS
 62
7
 10
-222.000000
 20
91.500000
 11
-214.000000
 21
91.500000
  0
LINE
  8
0
  6
CONTINUOUS
 62
7
 10
-222.000000
 20
73.000000
 11
-214.000000
 21
73.000000
  0
LINE
  8
0
  6
CONTINUOUS
 62
7
 10
-214.000000
 20
72.500000
 11
-155.000000
 21
72.500000
  0
LINE
  8
0
  6
CONTINUOUS
 62
7
 10
-212.000000
 20
92.500000
 11
-212.000000
 21
82.500000
  0
LINE
  8
0
  6
CONTINUOUS
 62
7
 10
-152.000000
 20
92.500000
 11
-152.000000
 21
73.000000
  0
LINE
  8
0
  6
CONTINUOUS
 62
7
 10
-212.000000
 20
92.500000
 11
-152.000000
 21
92.500000
  0
LINE
  8
0
  6
CONTINUOUS
 62
7
 10
-162.800003
 20
87.000000
 11
-169.401993
 21
87.000000
  0
LINE
  8
0
  6
CONTINUOUS
 62
7
 10
-212.000000
 20
83.000000
 11
-152.000000
 21
83.000000
  0
LINE
  8
0
  6
CONTINUOUS
 62
7
 10
-175.000000
 20
88.500000
 11
-189.000000
 21
88.500000
  0
LINE
  8
0
  6
CONTINUOUS
 62
7
 10
-214.000000
 20
82.500000
 11
-153.800003
 21
82.500000
  0
LINE
  8
0
  6
CONTINUOUS
 62
7
 10
-201.199997
 20
87.000000
 11
-194.598007
 21
87.000000
  0
LINE
  8
0
  6
CONTINUOUS
 62
7
 10
-153.399994
 20
77.000000
 11
-152.000000
 21
77.000000
  0
LINE
  8
0
  6
CONTINUOUS
 62
7
 10
-153.800003
 20
77.903397
 11
-152.000000
 21
77.903397
  0
LINE
  8
0
  6
CONTINUOUS
 62
7
 10
-153.800003
 20
80.096603
 11
-152.000000
 21
80.096603
  0
LINE
  8
0
  6
CONTINUOUS
 62
7
 10
-155.000000
 20
82.500000
 11
-155.000000
 21
72.500000
  0
LINE
  8
0
  6
CONTINUOUS
 62
7
 10
-199.649994
 20
92.500000
 11
-199.649994
 21
87.000000
  0
LINE
  8
0
  6
DASHED
 62
2
 10
-201.000000
 20
87.500000
 11
-199.649994
 21
87.500000
  0
LINE
  8
0
  6
CENTER
 62
2
 10
-198.000000
 20
93.500000
 11
-198.000000
 21
86.000000
  0
LINE
  8
0
  6
CONTINUOUS
 62
7
 10
-196.350006
 20
92.500000
 11
-196.350006
 21
87.000000
  0
LINE
  8
0
  6
CONTINUOUS
 62
7
 10
-206.000000
 20
82.958603
 11
-202.500000
 21
84.979301
  0
LINE
  8
0
  6
CONTINUOUS
 62
7
 10
-202.500000
 20
89.020798
 11
-202.500000
 21
84.979301
  0
LINE
  8
0
  6
CONTINUOUS
 62
7
 10
-206.000000
 20
91.041496
 11
-202.500000
 21
89.020798
  0
LINE
  8
0
  6
CONTINUOUS
 62
7
 10
-209.500000
 20
89.020699
 11
-206.000000
 21
91.041496
  0
LINE
  8
0
  6
CONTINUOUS
 62
7
 10
-209.500000
 20
84.979301
 11
-209.500000
 21
89.020798
  0
LINE
  8
0
  6
CONTINUOUS
 62
7
 10
-202.500000
 20
87.500000
 11
-209.500000
 21
87.500000
  0
LINE
  8
0
  6
CONTINUOUS
 62
7
 10
-202.500000
 20
86.500000
 11
-209.500000
 21
86.500000
  0
LINE
  8
0
  6
CONTINUOUS
 62
7
 10
-209.500000
 20
84.979301
 11
-206.000000
 21
82.958603
  0
LINE
  8
0
  6
CONTINUOUS
 62
7
 10
-158.000000
 20
82.958504
 11
-154.500000
 21
84.979301
  0
LINE
  8
0
  6
CONTINUOUS
 62
7
 10
-154.500000
 20
89.020798
 11
-154.500000
 21
84.979301
  0
LINE
  8
0
  6
CONTINUOUS
 62
7
 10
-158.000000
 20
91.041496
 11
-154.500000
 21
89.020798
  0
LINE
  8
0
  6
CONTINUOUS
 62
7
 10
-161.500000
 20
89.020699
 11
-158.000000
 21
91.041496
  0
LINE
  8
0
  6
CONTINUOUS
 62
7
 10
-161.500000
 20
84.979301
 11
-161.500000
 21
89.020798
  0
LINE
  8
0
  6
CONTINUOUS
 62
7
 10
-154.500000
 20
87.500000
 11
-161.500000
 21
87.500000
  0
LINE
  8
0
  6
CONTINUOUS
 62
7
 10
-154.500000
 20
86.500000
 11
-161.500000
 21
86.500000
  0
LINE
  8
0
  6
CONTINUOUS
 62
7
 10
-161.500000
 20
84.979301
 11
-158.000000
 21
82.958603
  0
LINE
  8
0
  6
CONTINUOUS
 62
7
 10
-155.000000
 20
73.000000
 11
-152.000000
 21
73.000000
  0
LINE
  8
0
  6
CONTINUOUS
 62
7
 10
-153.800003
 20
82.500000
 11
-153.800003
 21
73.000000
  0
LINE
  8
0
  6
CONTINUOUS
 62
7
 10
-153.399994
 20
77.250000
 11
-153.399994
 21
73.750000
  0
LINE
  8
0
  6
CONTINUOUS
 62
7
 10
-153.800003
 20
73.750000
 11
-153.399994
 21
73.750000
  0
LINE
  8
0
  6
CONTINUOUS
 62
7
 10
-153.800003
 20
77.250000
 11
-153.399994
 21
77.250000
  0
LINE
  8
0
  6
CENTER
 62
2
 10
-158.000000
 20
92.041496
 11
-158.000000
 21
81.958603
  0
LINE
  8
0
  6
CENTER
 62
2
 10
-163.041000
 20
87.000000
 11
-152.959000
 21
87.000000
  0
LINE
  8
0
  6
CENTER
 62
2
 10
-172.000000
 20
91.000000
 11
-172.000000
 21
86.000000
  0
LINE
  8
0
  6
CENTER
 62
2
 10
-174.500000
 20
88.500000
 11
-169.500000
 21
88.500000
  0
LINE
  8
0
  6
CENTER
 62
2
 10
-192.000000
 20
91.000000
 11
-192.000000
 21
86.000000
  0
LINE
  8
0
  6
CENTER
 62
2
 10
-194.500000
 20
88.500000
 11
-189.500000
 21
88.500000
  0
LINE
  8
0
  6
CENTER
 62
2
 10
-206.000000
 20
92.041496
 11
-206.000000
 21
81.958603
  0
LINE
  8
0
  6
CENTER
 62
2
 10
-211.041000
 20
87.000000
 11
-200.959000
 21
87.000000
  0
LINE
  8
0
  6
CENTER
 62
2
 10
-172.149994
 20
78.199997
 11
-172.149994
 21
74.199997
  0
LINE
  8
0
  6
CENTER
 62
2
 10
-174.149994
 20
76.199997
 11
-170.149994
 21
76.199997
  0
LINE
  8
0
  6
CENTER
 62
2
 10
-165.300003
 20
79.000000
 11
-165.300003
 21
74.000000
  0
LINE
  8
0
  6
CENTER
 62
2
 10
-167.800003
 20
76.500000
 11
-162.800003
 21
76.500000
  0
LINE
  8
0
  6
CENTER
 62
2
 10
-162.149994
 20
78.199997
 11
-162.149994
 21
74.199997
  0
LINE
  8
0
  6
CENTER
 62
2
 10
-164.149994
 20
76.199997
 11
-160.149994
 21
76.199997
  0
LINE
  8
0
  6
CENTER
 62
2
 10
-158.800003
 20
79.000000
 11
-158.800003
 21
74.000000
  0
LINE
  8
0
  6
CENTER
 62
2
 10
-161.300003
 20
76.500000
 11
-156.300003
 21
76.500000
  0
LINE
  8
0
  6
CENTER
 62
2
 10
-186.000000
 20
93.500000
 11
-186.000000
 21
87.500000
  0
LINE
  8
0
  6
DASHED
 62
2
 10
-188.000000
 20
90.900002
 11
-188.000000
 21
88.500000
  0
LINE
  8
0
  6
DASHED
 62
2
 10
-184.000000
 20
90.900002
 11
-184.000000
 21
88.500000
  0
LINE
  8
0
  6
DASHED
 62
2
 10
-188.500000
 20
92.500000
 11
-188.500000
 21
90.900002
  0
LINE
  8
0
  6
DASHED
 62
2
 10
-183.500000
 20
92.500000
 11
-183.500000
 21
90.900002
  0
LINE
  8
0
  6
DASHED
 62
2
 10
-168.000000
 20
92.500000
 11
-168.000000
 21
87.500000
  0
LINE
  8
0
  6
CENTER
 62
2
 10
-166.000000
 20
93.500000
 11
-166.000000
 21
86.000000
  0
LINE
  8
0
  6
DASHED
 62
2
 10
-169.000000
 20
87.500000
 11
-169.000000
 21
86.992500
  0
LINE
  8
0
  6
DASHED
 62
2
 10
-169.000000
 20
87.500000
 11
-163.000000
 21
87.500000
  0
LINE
  8
0
  6
DASHED
 62
2
 10
-163.000000
 20
87.500000
 11
-163.000000
 21
87.000000
  0
LINE
  8
0
  6
DASHED
 62
2
 10
-164.000000
 20
92.500000
 11
-164.000000
 21
87.500000
  0
LINE
  8
0
  6
CENTER
 62
2
 10
-205.000000
 20
74.500000
 11
-205.000000
 21
70.500000
  0
LINE
  8
0
  6
CENTER
 62
2
 10
-187.000000
 20
74.500000
 11
-187.000000
 21
70.500000
  0
LINE
  8
0
  6
CENTER
 62
2
 10
-169.000000
 20
74.500000
 11
-169.000000
 21
70.500000
  0
LINE
  8
0
  6
CENTER
 62
2
 10
-224.000000
 20
85.500000
 11
-220.000000
 21
85.500000
  0
LINE
  8
0
  6
CENTER
 62
2
 10
-224.000000
 20
76.500000
 11
-220.000000
 21
76.500000
  0
LINE
  8
0
  6
DASHED
 62
2
 10
-201.000000
 20
87.500000
 11
-201.000000
 21
87.000000
  0
LINE
  8
0
  6
DASHED
 62
2
 10
-195.000000
 20
87.500000
 11
-195.000000
 21
87.000000
  0
LINE
  8
0
  6
CONTINUOUS
 62
7
 10
-199.649994
 20
87.500000
 11
-196.350006
 21
87.500000
  0
LINE
  8
0
  6
DASHED
 62
2
 10
-196.350006
 20
87.500000
 11
-195.000000
 21
87.500000
  0
LINE
  8
0
  6
CONTINUOUS
 62
7
 10
-214.000000
 20
-92.000000
 11
-214.000000
 21
-65.000000
  0
LINE
  8
0
  6
CONTINUOUS
 62
7
 10
-196.350006
 20
-92.000000
 11
-199.649994
 21
-92.000000
  0
LINE
  8
0
  6
CONTINUOUS
 62
7
 10
-196.350006
 20
-65.000000
 11
-199.649994
 21
-65.000000
  0
LINE
  8
0
  6
CONTINUOUS
 62
7
 10
-212.000000
 20
-92.500000
 11
-212.000000
 21
-64.500000
  0
LINE
  8
0
  6
CONTINUOUS
 62
7
 10
-152.000000
 20
-64.500000
 11
-196.350006
 21
-64.500000
  0
LINE
  8
0
  6
CONTINUOUS
 62
7
 10
-152.000000
 20
-92.500000
 11
-152.000000
 21
-64.500000
  0
LINE
  8
0
  6
CENTER
 62
2
 10
-151.000000
 20
-78.500000
 11
-223.000000
 21
-78.500000
  0
LINE
  8
0
  6
CONTINUOUS
 62
7
 10
-152.000000
 20
-92.500000
 11
-196.350006
 21
-92.500000
  0
LINE
  8
0
  6
CONTINUOUS
 62
7
 10
-199.649994
 20
-64.500000
 11
-212.000000
 21
-64.500000
  0
LINE
  8
0
  6
CONTINUOUS
 62
7
 10
-199.649994
 20
-92.500000
 11
-212.000000
 21
-92.500000
  0
LINE
  8
0
  6
CONTINUOUS
 62
7
 10
-212.000000
 20
-65.000000
 11
-222.000000
 21
-65.000000
  0
LINE
  8
0
  6
CONTINUOUS
 62
7
 10
-212.000000
 20
-92.000000
 11
-222.000000
 21
-92.000000
  0
LINE
  8
0
  6
CONTINUOUS
 62
7
 10
-222.000000
 20
-92.000000
 11
-222.000000
 21
-65.000000
  0
LINE
  8
0
  6
CONTINUOUS
 62
7
 10
-212.000000
 20
-82.500000
 11
-214.000000
 21
-82.500000
  0
LINE
  8
0
  6
CONTINUOUS
 62
7
 10
-212.000000
 20
-74.500000
 11
-214.000000
 21
-74.500000
  0
LINE
  8
0
  6
CONTINUOUS
 62
7
 10
-202.500000
 20
-96.000000
 11
-209.500000
 21
-96.000000
  0
LINE
  8
0
  6
CONTINUOUS
 62
7
 10
-154.500000
 20
-96.000000
 11
-161.500000
 21
-96.000000
  0
LINE
  8
0
  6
CENTER
 62
2
 10
-198.000000
 20
-65.349998
 11
-198.000000
 21
-70.650002
  0
LINE
  8
0
  6
CENTER
 62
2
 10
-200.649994
 20
-68.000000
 11
-195.350006
 21
-68.000000
  0
LINE
  8
0
  6
CENTER
 62
2
 10
-198.000000
 20
-86.349998
 11
-198.000000
 21
-91.650002
  0
LINE
  8
0
  6
CENTER
 62
2
 10
-200.649994
 20
-89.000000
 11
-195.350006
 21
-89.000000
  0
LINE
  8
0
  6
CENTER
 62
2
 10
-186.000000
 20
-85.500000
 11
-186.000000
 21
-92.500000
  0
LINE
  8
0
  6
CENTER
 62
2
 10
-189.500000
 20
-89.000000
 11
-182.500000
 21
-89.000000
  0
LINE
  8
0
  6
CENTER
 62
2
 10
-186.000000
 20
-64.500000
 11
-186.000000
 21
-71.500000
  0
LINE
  8
0
  6
CENTER
 62
2
 10
-189.500000
 20
-68.000000
 11
-182.500000
 21
-68.000000
  0
LINE
  8
0
  6
CENTER
 62
2
 10
-166.000000
 20
-65.000000
 11
-166.000000
 21
-71.000000
  0
LINE
  8
0
  6
CENTER
 62
2
 10
-169.000000
 20
-68.000000
 11
-163.000000
 21
-68.000000
  0
LINE
  8
0
  6
CENTER
 62
2
 10
-166.000000
 20
-86.000000
 11
-166.000000
 21
-92.000000
  0
LINE
  8
0
  6
CENTER
 62
2
 10
-169.000000
 20
-89.000000
 11
-163.000000
 21
-89.000000
  0
LINE
  8
0
  6
CONTINUOUS
 62
7
 10
-199.649994
 20
-64.500000
 11
-199.649994
 21
-68.000000
  0
LINE
  8
0
  6
CONTINUOUS
 62
7
 10
-196.350006
 20
-64.500000
 11
-196.350006
 21
-68.000000
  0
LINE
  8
0
  6
CONTINUOUS
 62
7
 10
-199.649994
 20
-89.000000
 11
-199.649994
 21
-92.500000
  0
LINE
  8
0
  6
CONTINUOUS
 62
7
 10
-196.350006
 20
-89.000000
 11
-196.350006
 21
-92.500000
  0
LINE
  8
0
  6
CENTER
 62
2
 10
-206.000000
 20
-91.500000
 11
-206.000000
 21
-97.000000
  0
LINE
  8
0
  6
CONTINUOUS
 62
7
 10
-202.100006
 20
-93.099998
 11
-209.899994
 21
-93.099998
  0
LINE
  8
0
  6
CONTINUOUS
 62
7
 10
-209.899994
 20
-92.500000
 11
-209.899994
 21
-93.099998
  0
LINE
  8
0
  6
CONTINUOUS
 62
7
 10
-202.100006
 20
-92.500000
 11
-202.100006
 21
-93.099998
  0
LINE
  8
0
  6
CONTINUOUS
 62
7
 10
-202.500000
 20
-93.099998
 11
-202.500000
 21
-96.000000
  0
LINE
  8
0
  6
CONTINUOUS
 62
7
 10
-209.500000
 20
-93.099998
 11
-209.500000
 21
-96.000000
  0
LINE
  8
0
  6
CENTER
 62
2
 10
-158.000000
 20
-97.000000
 11
-158.000000
 21
-91.500000
  0
LINE
  8
0
  6
CONTINUOUS
 62
7
 10
-154.100006
 20
-93.099998
 11
-161.899994
 21
-93.099998
  0
LINE
  8
0
  6
CONTINUOUS
 62
7
 10
-154.100006
 20
-93.099998
 11
-154.100006
 21
-92.500000
  0
LINE
  8
0
  6
CONTINUOUS
 62
7
 10
-161.899994
 20
-93.099998
 11
-161.899994
 21
-92.500000
  0
LINE
  8
0
  6
CONTINUOUS
 62
7
 10
-154.500000
 20
-96.000000
 11
-154.500000
 21
-93.099998
  0
LINE
  8
0
  6
CONTINUOUS
 62
7
 10
-161.500000
 20
-96.000000
 11
-161.500000
 21
-93.099998
  0
LINE
  8
0
  6
CONTINUOUS
 62
7
 10
-34.000000
 20
-92.000000
 11
-34.000000
 21
-65.000000
  0
LINE
  8
0
  6
CONTINUOUS
 62
7
 10
-16.350000
 20
-92.000000
 11
-19.650000
 21
-92.000000
  0
LINE
  8
0
  6
CONTINUOUS
 62
7
 10
-16.350000
 20
-65.000000
 11
-19.650000
 21
-65.000000
  0
LINE
  8
0
  6
CONTINUOUS
 62
7
 10
-32.000000
 20
-92.500000
 11
-32.000000
 21
-64.500000
  0
LINE
  8
0
  6
CONTINUOUS
 62
7
 10
43.000000
 20
-64.500000
 11
-16.350000
 21
-64.500000
  0
LINE
  8
0
  6
CONTINUOUS
 62
7
 10
43.000000
 20
-92.500000
 11
43.000000
 21
-64.500000
  0
LINE
  8
0
  6
CENTER
 62
2
 10
44.000000
 20
-78.500000
 11
-43.000000
 21
-78.500000
  0
LINE
  8
0
  6
CONTINUOUS
 62
7
 10
43.000000
 20
-92.500000
 11
-16.350000
 21
-92.500000
  0
LINE
  8
0
  6
CONTINUOUS
 62
7
 10
-19.650000
 20
-64.500000
 11
-32.000000
 21
-64.500000
  0
LINE
  8
0
  6
CONTINUOUS
 62
7
 10
-19.650000
 20
-92.500000
 11
-32.000000
 21
-92.500000
  0
LINE
  8
0
  6
CONTINUOUS
 62
7
 10
-32.000000
 20
-65.000000
 11
-42.000000
 21
-65.000000
  0
LINE
  8
0
  6
CONTINUOUS
 62
7
 10
-32.000000
 20
-92.000000
 11
-42.000000
 21
-92.000000
  0
LINE
  8
0
  6
CONTINUOUS
 62
7
 10
-42.000000
 20
-92.000000
 11
-42.000000
 21
-65.000000
  0
LINE
  8
0
  6
CONTINUOUS
 62
7
 10
-32.000000
 20
-82.500000
 11
-34.000000
 21
-82.500000
  0
LINE
  8
0
  6
CONTINUOUS
 62
7
 10
-32.000000
 20
-74.500000
 11
-34.000000
 21
-74.500000
  0
LINE
  8
0
  6
CONTINUOUS
 62
7
 10
-22.500000
 20
-96.000000
 11
-29.500000
 21
-96.000000
  0
LINE
  8
0
  6
CONTINUOUS
 62
7
 10
40.500000
 20
-96.000000
 11
33.500000
 21
-96.000000
  0
LINE
  8
0
  6
CENTER
 62
2
 10
-18.000000
 20
-65.349998
 11
-18.000000
 21
-70.650002
  0
LINE
  8
0
  6
CENTER
 62
2
 10
-20.650000
 20
-68.000000
 11
-15.350000
 21
-68.000000
  0
LINE
  8
0
  6
CENTER
 62
2
 10
-18.000000
 20
-86.349998
 11
-18.000000
 21
-91.650002
  0
LINE
  8
0
  6
CENTER
 62
2
 10
-20.650000
 20
-89.000000
 11
-15.350000
 21
-89.000000
  0
LINE
  8
0
  6
CENTER
 62
2
 10
-6.000010
 20
-85.500000
 11
-6.000010
 21
-92.500000
  0
LINE
  8
0
  6
CENTER
 62
2
 10
-9.500000
 20
-89.000000
 11
-2.500010
 21
-89.000000
  0
LINE
  8
0
  6
CENTER
 62
2
 10
-6.000010
 20
-64.500000
 11
-6.000010
 21
-71.500000
  0
LINE
  8
0
  6
CENTER
 62
2
 10
-9.500000
 20
-68.000000
 11
-2.500010
 21
-68.000000
  0
LINE
  8
0
  6
CENTER
 62
2
 10
29.000000
 20
-65.000000
 11
29.000000
 21
-71.000000
  0
LINE
  8
0
  6
CENTER
 62
2
 10
26.000000
 20
-68.000000
 11
32.000000
 21
-68.000000
  0
LINE
  8
0
  6
CENTER
 62
2
 10
29.000000
 20
-86.000000
 11
29.000000
 21
-92.000000
  0
LINE
  8
0
  6
CENTER
 62
2
 10
26.000000
 20
-89.000000
 11
32.000000
 21
-89.000000
  0
LINE
  8
0
  6
CONTINUOUS
 62
7
 10
-19.650000
 20
-64.500000
 11
-19.650000
 21
-68.000000
  0
LINE
  8
0
  6
CONTINUOUS
 62
7
 10
-16.350000
 20
-64.500000
 11
-16.350000
 21
-68.000000
  0
LINE
  8
0
  6
CONTINUOUS
 62
7
 10
-19.650000
 20
-89.000000
 11
-19.650000
 21
-92.500000
  0
LINE
  8
0
  6
CONTINUOUS
 62
7
 10
-16.350000
 20
-89.000000
 11
-16.350000
 21
-92.500000
  0
LINE
  8
0
  6
CENTER
 62
2
 10
-26.000000
 20
-91.500000
 11
-26.000000
 21
-97.000000
  0
LINE
  8
0
  6
CONTINUOUS
 62
7
 10
-22.100000
 20
-93.099998
 11
-29.900000
 21
-93.099998
  0
LINE
  8
0
  6
CONTINUOUS
 62
7
 10
-29.900000
 20
-92.500000
 11
-29.900000
 21
-93.099998
  0
LINE
  8
0
  6
CONTINUOUS
 62
7
 10
-22.100000
 20
-92.500000
 11
-22.100000
 21
-93.099998
  0
LINE
  8
0
  6
CONTINUOUS
 62
7
 10
-22.500000
 20
-93.099998
 11
-22.500000
 21
-96.000000
  0
LINE
  8
0
  6
CONTINUOUS
 62
7
 10
-29.500000
 20
-93.099998
 11
-29.500000
 21
-96.000000
  0
LINE
  8
0
  6
CENTER
 62
2
 10
37.000000
 20
-97.000000
 11
37.000000
 21
-91.500000
  0
LINE
  8
0
  6
CONTINUOUS
 62
7
 10
40.900002
 20
-93.099998
 11
33.099998
 21
-93.099998
  0
LINE
  8
0
  6
CONTINUOUS
 62
7
 10
40.900002
 20
-93.099998
 11
40.900002
 21
-92.500000
  0
LINE
  8
0
  6
CONTINUOUS
 62
7
 10
33.099998
 20
-93.099998
 11
33.099998
 21
-92.500000
  0
LINE
  8
0
  6
CONTINUOUS
 62
7
 10
40.500000
 20
-96.000000
 11
40.500000
 21
-93.099998
  0
LINE
  8
0
  6
CONTINUOUS
 62
7
 10
33.500000
 20
-96.000000
 11
33.500000
 21
-93.099998
  0
LINE
  8
0
  6
CENTER
 62
2
 10
44.000000
 20
28.000000
 11
-43.000000
 21
28.000000
  0
LINE
  8
0
  6
CONTINUOUS
 62
7
 10
40.000000
 20
41.500000
 11
-42.000000
 21
41.500000
  0
LINE
  8
0
  6
CONTINUOUS
 62
7
 10
40.000000
 20
14.500000
 11
-42.000000
 21
14.500000
  0
LINE
  8
0
  6
CONTINUOUS
 62
7
 10
40.000000
 20
21.000000
 11
-34.000000
 21
21.000000
  0
LINE
  8
0
  6
CONTINUOUS
 62
7
 10
40.000000
 20
35.000000
 11
-34.000000
 21
35.000000
  0
LINE
  8
0
  6
CONTINUOUS
 62
7
 10
43.000000
 20
14.000000
 11
-16.350000
 21
14.000000
  0
LINE
  8
0
  6
CONTINUOUS
 62
7
 10
43.000000
 20
42.000000
 11
43.000000
 21
14.000000
  0
LINE
  8
0
  6
CONTINUOUS
 62
7
 10
-34.000000
 20
41.500000
 11
-34.000000
 21
14.500000
  0
LINE
  8
0
  6
CONTINUOUS
 62
7
 10
40.000000
 20
41.500000
 11
40.000000
 21
14.500000
  0
LINE
  8
0
  6
CONTINUOUS
 62
7
 10
-32.000000
 20
14.500000
 11
-32.000000
 21
14.000000
  0
LINE
  8
0
  6
CONTINUOUS
 62
7
 10
-32.000000
 20
42.000000
 11
-32.000000
 21
41.500000
  0
LINE
  8
0
  6
CONTINUOUS
 62
7
 10
43.000000
 20
42.000000
 11
-16.350000
 21
42.000000
  0
LINE
  8
0
  6
CONTINUOUS
 62
7
 10
-19.650000
 20
14.000000
 11
-19.650000
 21
14.500000
  0
LINE
  8
0
  6
CONTINUOUS
 62
7
 10
-16.350000
 20
14.000000
 11
-16.350000
 21
14.500000
  0
LINE
  8
0
  6
CONTINUOUS
 62
7
 10
-16.350000
 20
41.500000
 11
-16.350000
 21
42.000000
  0
LINE
  8
0
  6
CONTINUOUS
 62
7
 10
-19.650000
 20
41.500000
 11
-19.650000
 21
42.000000
  0
LINE
  8
0
  6
CONTINUOUS
 62
7
 10
-19.650000
 20
14.000000
 11
-32.000000
 21
14.000000
  0
LINE
  8
0
  6
CONTINUOUS
 62
7
 10
-19.650000
 20
42.000000
 11
-32.000000
 21
42.000000
  0
LINE
  8
0
  6
CONTINUOUS
 62
7
 10
-42.000000
 20
41.500000
 11
-42.000000
 21
14.500000
  0
LINE
  8
0
  6
CENTER
 62
2
 10
-25.000000
 20
40.500000
 11
-25.000000
 21
35.500000
  0
LINE
  8
0
  6
CENTER
 62
2
 10
-27.500000
 20
38.000000
 11
-22.500000
 21
38.000000
  0
LINE
  8
0
  6
CENTER
 62
2
 10
-25.000000
 20
20.500000
 11
-25.000000
 21
15.500000
  0
LINE
  8
0
  6
CENTER
 62
2
 10
-27.500000
 20
18.000000
 11
-22.500000
 21
18.000000
  0
LINE
  8
0
  6
CENTER
 62
2
 10
26.000000
 20
40.500000
 11
26.000000
 21
35.500000
  0
LINE
  8
0
  6
CENTER
 62
2
 10
23.500000
 20
38.000000
 11
28.500000
 21
38.000000
  0
LINE
  8
0
  6
CENTER
 62
2
 10
-3.000020
 20
41.099998
 11
-3.000020
 21
35.900002
  0
LINE
  8
0
  6
CENTER
 62
2
 10
-5.600020
 20
38.500000
 11
-0.400017
 21
38.500000
  0
LINE
  8
0
  6
CENTER
 62
2
 10
26.000000
 20
20.500000
 11
26.000000
 21
15.500000
  0
LINE
  8
0
  6
CENTER
 62
2
 10
23.500000
 20
18.000000
 11
28.500000
 21
18.000000
  0
LINE
  8
0
  6
CENTER
 62
2
 10
-7.000020
 20
40.500000
 11
-7.000020
 21
35.500000
  0
LINE
  8
0
  6
CENTER
 62
2
 10
-9.500030
 20
38.000000
 11
-4.500020
 21
38.000000
  0
LINE
  8
0
  6
CENTER
 62
2
 10
-7.000020
 20
20.500000
 11
-7.000020
 21
15.500000
  0
LINE
  8
0
  6
CENTER
 62
2
 10
-9.500030
 20
18.000000
 11
-4.500020
 21
18.000000
  0
LINE
  8
0
  6
CONTINUOUS
 62
7
 10
41.200001
 20
14.700000
 11
40.000000
 21
14.700000
  0
LINE
  8
0
  6
CONTINUOUS
 62
7
 10
41.200001
 20
19.250000
 11
41.200001
 21
14.700000
  0
LINE
  8
0
  6
CONTINUOUS
 62
7
 10
41.200001
 20
33.250000
 11
41.200001
 21
22.750000
  0
LINE
  8
0
  6
CONTINUOUS
 62
7
 10
40.599998
 20
33.250000
 11
40.599998
 21
36.750000
  0
LINE
  8
0
  6
CONTINUOUS
 62
7
 10
40.599998
 20
33.250000
 11
41.599998
 21
33.250000
  0
LINE
  8
0
  6
CONTINUOUS
 62
7
 10
41.599998
 20
33.250000
 11
41.599998
 21
36.750000
  0
LINE
  8
0
  6
CONTINUOUS
 62
7
 10
40.599998
 20
36.750000
 11
41.599998
 21
36.750000
  0
LINE
  8
0
  6
CONTINUOUS
 62
7
 10
41.200001
 20
36.750000
 11
41.200001
 21
41.299999
  0
LINE
  8
0
  6
CONTINUOUS
 62
7
 10
41.200001
 20
41.299999
 11
40.000000
 21
41.299999
  0
LINE
  8
0
  6
CONTINUOUS
 62
7
 10
-29.500000
 20
45.500000
 11
-22.500000
 21
45.500000
  0
LINE
  8
0
  6
CONTINUOUS
 62
7
 10
-29.900000
 20
42.599998
 11
-29.900000
 21
42.000000
  0
LINE
  8
0
  6
CONTINUOUS
 62
7
 10
-26.000000
 20
42.599998
 11
-26.000000
 21
45.500000
  0
LINE
  8
0
  6
CONTINUOUS
 62
7
 10
33.500000
 20
45.500000
 11
40.500000
 21
45.500000
  0
LINE
  8
0
  6
CONTINUOUS
 62
7
 10
33.099998
 20
42.599998
 11
33.099998
 21
42.000000
  0
LINE
  8
0
  6
CONTINUOUS
 62
7
 10
40.900002
 20
42.599998
 11
40.900002
 21
42.000000
  0
LINE
  8
0
  6
CONTINUOUS
 62
7
 10
40.599998
 20
22.750000
 11
40.599998
 21
19.250000
  0
LINE
  8
0
  6
CONTINUOUS
 62
7
 10
40.599998
 20
22.750000
 11
41.599998
 21
22.750000
  0
LINE
  8
0
  6
CONTINUOUS
 62
7
 10
41.599998
 20
19.250000
 11
41.599998
 21
22.750000
  0
LINE
  8
0
  6
CONTINUOUS
 62
7
 10
40.599998
 20
19.250000
 11
41.599998
 21
19.250000
  0
LINE
  8
0
  6
DASHED
 62
2
 10
-16.350000
 20
17.500000
 11
-16.350000
 21
14.500000
  0
LINE
  8
0
  6
DASHED
 62
2
 10
-19.650000
 20
17.500000
 11
-19.650000
 21
14.500000
  0
LINE
  8
0
  6
DASHED
 62
2
 10
-16.350000
 20
38.500000
 11
-16.350000
 21
41.500000
  0
LINE
  8
0
  6
DASHED
 62
2
 10
-19.650000
 20
38.500000
 11
-19.650000
 21
41.500000
  0
LINE
  8
0
  6
CENTER
 62
2
 10
29.000000
 20
42.500000
 11
29.000000
 21
34.500000
  0
LINE
  8
0
  6
CENTER
 62
2
 10
25.000000
 20
38.500000
 11
33.000000
 21
38.500000
  0
LINE
  8
0
  6
CENTER
 62
2
 10
29.000000
 20
21.500000
 11
29.000000
 21
13.500000
  0
LINE
  8
0
  6
CENTER
 62
2
 10
25.000000
 20
17.500000
 11
33.000000
 21
17.500000
  0
LINE
  8
0
  6
CENTER
 62
2
 10
-18.000000
 20
21.500000
 11
-18.000000
 21
13.500000
  0
LINE
  8
0
  6
CENTER
 62
2
 10
-22.000000
 20
17.500000
 11
-14.000000
 21
17.500000
  0
LINE
  8
0
  6
CENTER
 62
2
 10
-18.000000
 20
42.500000
 11
-18.000000
 21
34.500000
  0
LINE
  8
0
  6
CENTER
 62
2
 10
-22.000000
 20
38.500000
 11
-14.000000
 21
38.500000
  0
LINE
  8
0
  6
CENTER
 62
2
 10
-26.000000
 20
46.500000
 11
-26.000000
 21
41.000000
  0
LINE
  8
0
  6
CENTER
 62
2
 10
37.000000
 20
46.500000
 11
37.000000
 21
41.000000
  0
LINE
  8
0
  6
CONTINUOUS
 62
7
 10
-22.000000
 20
42.599998
 11
-22.000000
 21
42.000000
  0
LINE
  8
0
  6
CONTINUOUS
 62
7
 10
40.900002
 20
42.599998
 11
33.099998
 21
42.599998
  0
LINE
  8
0
  6
CONTINUOUS
 62
7
 10
33.500000
 20
45.500000
 11
33.500000
 21
42.599998
  0
LINE
  8
0
  6
CONTINUOUS
 62
7
 10
40.500000
 20
45.500000
 11
40.500000
 21
42.599998
  0
LINE
  8
0
  6
CONTINUOUS
 62
7
 10
37.000000
 20
45.500000
 11
37.000000
 21
42.599998
  0
LINE
  8
0
  6
CONTINUOUS
 62
7
 10
-29.500000
 20
45.500000
 11
-29.500000
 21
42.599998
  0
LINE
  8
0
  6
CONTINUOUS
 62
7
 10
-22.500000
 20
45.500000
 11
-22.500000
 21
42.599998
  0
LINE
  8
0
  6
CONTINUOUS
 62
7
 10
-22.000000
 20
42.599998
 11
-29.900000
 21
42.599998
  0
LINE
  8
0
  6
CENTER
 62
2
 10
-44.000000
 20
38.000000
 11
-40.000000
 21
38.000000
  0
LINE
  8
0
  6
CENTER
 62
2
 10
-44.000000
 20
18.000000
 11
-40.000000
 21
18.000000
  0
LINE
  8
0
  6
CENTER
 62
2
 10
7.999980
 20
20.500000
 11
7.999980
 21
15.500000
  0
LINE
  8
0
  6
CENTER
 62
2
 10
5.499980
 20
18.000000
 11
10.500000
 21
18.000000
  0
LINE
  8
0
  6
CENTER
 62
2
 10
7.999980
 20
40.500000
 11
7.999980
 21
35.500000
  0
LINE
  8
0
  6
CENTER
 62
2
 10
5.499980
 20
38.000000
 11
10.500000
 21
38.000000
  0
LINE
  8
0
  6
CONTINUOUS
 62
7
 10
-34.000000
 20
91.500000
 11
-34.000000
 21
72.500000
  0
LINE
  8
0
  6
CONTINUOUS
 62
7
 10
-42.000000
 20
91.500000
 11
-42.000000
 21
73.000000
  0
LINE
  8
0
  6
CONTINUOUS
 62
7
 10
-34.000000
 20
89.500000
 11
-32.000000
 21
89.500000
  0
LINE
  8
0
  6
CONTINUOUS
 62
7
 10
-42.000000
 20
91.500000
 11
-34.000000
 21
91.500000
  0
LINE
  8
0
  6
CONTINUOUS
 62
7
 10
-42.000000
 20
73.000000
 11
-34.000000
 21
73.000000
  0
LINE
  8
0
  6
CONTINUOUS
 62
7
 10
-34.000000
 20
72.500000
 11
40.000000
 21
72.500000
  0
LINE
  8
0
  6
CONTINUOUS
 62
7
 10
-32.000000
 20
92.500000
 11
-32.000000
 21
82.500000
  0
LINE
  8
0
  6
CONTINUOUS
 62
7
 10
43.000000
 20
92.500000
 11
43.000000
 21
73.000000
  0
LINE
  8
0
  6
CONTINUOUS
 62
7
 10
-32.000000
 20
92.500000
 11
43.000000
 21
92.500000
  0
LINE
  8
0
  6
CONTINUOUS
 62
7
 10
-32.000000
 20
83.000000
 11
43.000000
 21
83.000000
  0
LINE
  8
0
  6
CONTINUOUS
 62
7
 10
-34.000000
 20
82.500000
 11
41.200001
 21
82.500000
  0
LINE
  8
0
  6
CONTINUOUS
 62
7
 10
41.599998
 20
77.000000
 11
43.000000
 21
77.000000
  0
LINE
  8
0
  6
CONTINUOUS
 62
7
 10
41.200001
 20
77.903397
 11
43.000000
 21
77.903397
  0
LINE
  8
0
  6
CONTINUOUS
 62
7
 10
41.200001
 20
80.096603
 11
43.000000
 21
80.096603
  0
LINE
  8
0
  6
CONTINUOUS
 62
7
 10
40.000000
 20
82.500000
 11
40.000000
 21
72.500000
  0
LINE
  8
0
  6
CONTINUOUS
 62
7
 10
-26.000000
 20
82.958603
 11
-22.500000
 21
84.979301
  0
LINE
  8
0
  6
CONTINUOUS
 62
7
 10
-22.500000
 20
89.020798
 11
-22.500000
 21
84.979301
  0
LINE
  8
0
  6
CONTINUOUS
 62
7
 10
-26.000000
 20
91.041397
 11
-22.500000
 21
89.020699
  0
LINE
  8
0
  6
CONTINUOUS
 62
7
 10
-29.500000
 20
89.020798
 11
-26.000000
 21
91.041496
  0
LINE
  8
0
  6
CONTINUOUS
 62
7
 10
-29.500000
 20
84.979301
 11
-29.500000
 21
89.020798
  0
LINE
  8
0
  6
CONTINUOUS
 62
7
 10
-22.500000
 20
87.500000
 11
-29.500000
 21
87.500000
  0
LINE
  8
0
  6
CONTINUOUS
 62
7
 10
-22.500000
 20
86.500000
 11
-29.500000
 21
86.500000
  0
LINE
  8
0
  6
CONTINUOUS
 62
7
 10
-29.500000
 20
84.979301
 11
-26.000000
 21
82.958603
  0
LINE
  8
0
  6
CONTINUOUS
 62
7
 10
37.000000
 20
82.958603
 11
40.500000
 21
84.979301
  0
LINE
  8
0
  6
CONTINUOUS
 62
7
 10
40.500000
 20
89.020798
 11
40.500000
 21
84.979301
  0
LINE
  8
0
  6
CONTINUOUS
 62
7
 10
37.000000
 20
91.041496
 11
40.500000
 21
89.020798
  0
LINE
  8
0
  6
CONTINUOUS
 62
7
 10
33.500000
 20
89.020699
 11
37.000000
 21
91.041496
  0
LINE
  8
0
  6
CONTINUOUS
 62
7
 10
33.500000
 20
84.979301
 11
33.500000
 21
89.020798
  0
LINE
  8
0
  6
CONTINUOUS
 62
7
 10
40.500000
 20
87.500000
 11
33.500000
 21
87.500000
  0
LINE
  8
0
  6
CONTINUOUS
 62
7
 10
40.500000
 20
86.500000
 11
33.500000
 21
86.500000
  0
LINE
  8
0
  6
CONTINUOUS
 62
7
 10
33.500000
 20
84.979301
 11
37.000000
 21
82.958603
  0
LINE
  8
0
  6
CONTINUOUS
 62
7
 10
40.000000
 20
73.000000
 11
43.000000
 21
73.000000
  0
LINE
  8
0
  6
CONTINUOUS
 62
7
 10
41.200001
 20
82.500000
 11
41.200001
 21
73.000000
  0
LINE
  8
0
  6
CONTINUOUS
 62
7
 10
41.599998
 20
77.250000
 11
41.599998
 21
73.750000
  0
LINE
  8
0
  6
CONTINUOUS
 62
7
 10
41.200001
 20
73.750000
 11
41.599998
 21
73.750000
  0
LINE
  8
0
  6
CONTINUOUS
 62
7
 10
41.200001
 20
77.250000
 11
41.599998
 21
77.250000
  0
LINE
  8
0
  6
CENTER
 62
2
 10
37.000000
 20
92.041496
 11
37.000000
 21
81.958603
  0
LINE
  8
0
  6
CENTER
 62
2
 10
31.958500
 20
87.000000
 11
42.041500
 21
87.000000
  0
LINE
  8
0
  6
CENTER
 62
2
 10
23.000000
 20
91.000000
 11
23.000000
 21
86.000000
  0
LINE
  8
0
  6
CENTER
 62
2
 10
20.500000
 20
88.500000
 11
25.500000
 21
88.500000
  0
LINE
  8
0
  6
CENTER
 62
2
 10
-12.000000
 20
91.000000
 11
-12.000000
 21
86.000000
  0
LINE
  8
0
  6
CENTER
 62
2
 10
-14.500000
 20
88.500000
 11
-9.500000
 21
88.500000
  0
LINE
  8
0
  6
CENTER
 62
2
 10
-26.000000
 20
92.041496
 11
-26.000000
 21
81.958603
  0
LINE
  8
0
  6
CENTER
 62
2
 10
-31.041500
 20
87.000000
 11
-20.958500
 21
87.000000
  0
LINE
  8
0
  6
CENTER
 62
2
 10
22.850000
 20
78.199997
 11
22.850000
 21
74.199997
  0
LINE
  8
0
  6
CENTER
 62
2
 10
20.850000
 20
76.199997
 11
24.850000
 21
76.199997
  0
LINE
  8
0
  6
CENTER
 62
2
 10
29.700001
 20
79.000000
 11
29.700001
 21
74.000000
  0
LINE
  8
0
  6
CENTER
 62
2
 10
27.200001
 20
76.500000
 11
32.200001
 21
76.500000
  0
LINE
  8
0
  6
CENTER
 62
2
 10
32.849998
 20
78.199997
 11
32.849998
 21
74.199997
  0
LINE
  8
0
  6
CENTER
 62
2
 10
30.850000
 20
76.199997
 11
34.849998
 21
76.199997
  0
LINE
  8
0
  6
CENTER
 62
2
 10
36.200001
 20
79.000000
 11
36.200001
 21
74.000000
  0
LINE
  8
0
  6
CENTER
 62
2
 10
33.700001
 20
76.500000
 11
38.700001
 21
76.500000
  0
LINE
  8
0
  6
CENTER
 62
2
 10
-5.999990
 20
93.500000
 11
-5.999990
 21
85.500000
  0
LINE
  8
0
  6
DASHED
 62
2
 10
-7.999990
 20
92.500000
 11
-7.999990
 21
86.500000
  0
LINE
  8
0
  6
DASHED
 62
2
 10
-4.000000
 20
92.500000
 11
-4.000000
 21
86.500000
  0
LINE
  8
0
  6
DASHED
 62
2
 10
27.000000
 20
92.500000
 11
27.000000
 21
87.500000
  0
LINE
  8
0
  6
CENTER
 62
2
 10
29.000000
 20
93.500000
 11
29.000000
 21
86.000000
  0
LINE
  8
0
  6
DASHED
 62
2
 10
26.000000
 20
87.500000
 11
26.000000
 21
87.199997
  0
LINE
  8
0
  6
DASHED
 62
2
 10
26.000000
 20
87.500000
 11
32.000000
 21
87.500000
  0
LINE
  8
0
  6
DASHED
 62
2
 10
32.000000
 20
87.500000
 11
32.000000
 21
87.199997
  0
LINE
  8
0
  6
DASHED
 62
2
 10
31.000000
 20
92.500000
 11
31.000000
 21
87.500000
  0
LINE
  8
0
  6
CENTER
 62
2
 10
-25.000000
 20
74.500000
 11
-25.000000
 21
70.500000
  0
LINE
  8
0
  6
CENTER
 62
2
 10
-7.000000
 20
74.500000
 11
-7.000000
 21
70.500000
  0
LINE
  8
0
  6
CENTER
 62
2
 10
26.000000
 20
74.500000
 11
26.000000
 21
70.500000
  0
LINE
  8
0
  6
CENTER
 62
2
 10
-44.000000
 20
85.500000
 11
-40.000000
 21
85.500000
  0
LINE
  8
0
  6
CENTER
 62
2
 10
-44.000000
 20
76.500000
 11
-40.000000
 21
76.500000
  0
LINE
  8
0
  6
CENTER
 62
2
 10
8.000000
 20
74.500000
 11
8.000000
 21
70.500000
  0
LINE
  8
0
  6
CONTINUOUS
 62
7
 10
-14.598100
 20
87.199997
 11
-21.200001
 21
87.199997
  0
LINE
  8
0
  6
DASHED
 62
2
 10
-21.000000
 20
87.500000
 11
-19.650000
 21
87.500000
  0
LINE
  8
0
  6
CONTINUOUS
 62
7
 10
-19.650000
 20
92.500000
 11
-19.650000
 21
87.199997
  0
LINE
  8
0
  6
CONTINUOUS
 62
7
 10
-16.350000
 20
92.500000
 11
-16.350000
 21
87.199997
  0
LINE
  8
0
  6
CENTER
 62
2
 10
-18.000000
 20
93.500000
 11
-18.000000
 21
86.000000
  0
LINE
  8
0
  6
CONTINUOUS
 62
7
 10
20.960400
 20
86.500000
 11
-9.960390
 21
86.500000
  0
LINE
  8
0
  6
CONTINUOUS
 62
7
 10
32.200001
 20
87.199997
 11
25.598000
 21
87.199997
  0
LINE
  8
0
  6
DASHED
 62
2
 10
-183.000000
 20
-32.500000
 11
-189.000000
 21
-32.500000
  0
LINE
  8
0
  6
CENTER
 62
2
 10
-186.000000
 20
-37.500000
 11
-186.000000
 21
-31.500000
  0
LINE
  8
0
  6
DASHED
 62
2
 10
-188.000000
 20
-34.900002
 11
-188.000000
 21
-32.500000
  0
LINE
  8
0
  6
DASHED
 62
2
 10
-184.000000
 20
-34.900002
 11
-184.000000
 21
-32.500000
  0
LINE
  8
0
  6
DASHED
 62
2
 10
-188.500000
 20
-36.500000
 11
-188.500000
 21
-34.900002
  0
LINE
  8
0
  6
DASHED
 62
2
 10
-183.500000
 20
-36.500000
 11
-183.500000
 21
-34.900002
  0
LINE
  8
0
  6
DASHED
 62
2
 10
-188.500000
 20
-34.900002
 11
-183.500000
 21
-34.900002
  0
LINE
  8
0
  6
DASHED
 62
2
 10
-168.000000
 20
-36.500000
 11
-168.000000
 21
-31.500000
  0
LINE
  8
0
  6
CENTER
 62
2
 10
-166.000000
 20
-37.500000
 11
-166.000000
 21
-30.000000
  0
LINE
  8
0
  6
DASHED
 62
2
 10
-169.000000
 20
-31.500000
 11
-169.000000
 21
-30.992399
  0
LINE
  8
0
  6
DASHED
 62
2
 10
-169.000000
 20
-31.500000
 11
-163.000000
 21
-31.500000
  0
LINE
  8
0
  6
DASHED
 62
2
 10
-163.000000
 20
-31.500000
 11
-163.000000
 21
-31.000000
  0
LINE
  8
0
  6
DASHED
 62
2
 10
-164.000000
 20
-36.500000
 11
-164.000000
 21
-31.500000
  0
LINE
  8
0
  6
CENTER
 62
2
 10
174.000000
 20
-37.500000
 11
174.000000
 21
-31.500000
  0
LINE
  8
0
  6
DASHED
 62
2
 10
172.000000
 20
-34.900002
 11
172.000000
 21
-32.500000
  0
LINE
  8
0
  6
DASHED
 62
2
 10
176.000000
 20
-34.900002
 11
176.000000
 21
-32.500000
  0
LINE
  8
0
  6
DASHED
 62
2
 10
171.500000
 20
-36.500000
 11
171.500000
 21
-34.900002
  0
LINE
  8
0
  6
DASHED
 62
2
 10
176.500000
 20
-36.500000
 11
176.500000
 21
-34.900002
  0
LINE
  8
0
  6
DASHED
 62
2
 10
171.500000
 20
-34.900002
 11
176.500000
 21
-34.900002
  0
LINE
  8
0
  6
DASHED
 62
2
 10
222.000000
 20
-36.500000
 11
222.000000
 21
-31.500000
  0
LINE
  8
0
  6
CENTER
 62
2
 10
224.000000
 20
-37.500000
 11
224.000000
 21
-30.000000
  0
LINE
  8
0
  6
DASHED
 62
2
 10
221.000000
 20
-31.500000
 11
221.000000
 21
-30.992399
  0
LINE
  8
0
  6
DASHED
 62
2
 10
221.000000
 20
-31.500000
 11
227.000000
 21
-31.500000
  0
LINE
  8
0
  6
DASHED
 62
2
 10
227.000000
 20
-31.500000
 11
227.000000
 21
-31.000000
  0
LINE
  8
0
  6
DASHED
 62
2
 10
226.000000
 20
-36.500000
 11
226.000000
 21
-31.500000
  0
LINE
  8
0
  6
CENTER
 62
2
 10
-5.999990
 20
-37.500000
 11
-5.999990
 21
-29.500000
  0
LINE
  8
0
  6
DASHED
 62
2
 10
-7.999990
 20
-36.500000
 11
-7.999990
 21
-30.500000
  0
LINE
  8
0
  6
DASHED
 62
2
 10
-4.000000
 20
-36.500000
 11
-4.000000
 21
-30.500000
  0
LINE
  8
0
  6
DASHED
 62
2
 10
27.000000
 20
-36.500000
 11
27.000000
 21
-31.500000
  0
LINE
  8
0
  6
CENTER
 62
2
 10
29.000000
 20
-37.500000
 11
29.000000
 21
-30.200001
  0
LINE
  8
0
  6
DASHED
 62
2
 10
26.000000
 20
-31.500000
 11
26.000000
 21
-31.200001
  0
LINE
  8
0
  6
DASHED
 62
2
 10
26.000000
 20
-31.500000
 11
32.000000
 21
-31.500000
  0
LINE
  8
0
  6
DASHED
 62
2
 10
32.000000
 20
-31.500000
 11
32.000000
 21
-31.200001
  0
LINE
  8
0
  6
DASHED
 62
2
 10
31.000000
 20
-36.500000
 11
31.000000
 21
-31.500000
  0
LINE
  8
0
  6
CONTINUOUS
 62
7
 10
-26.000000
 20
-93.099998
 11
-26.000000
 21
-96.000000
  0
LINE
  8
0
  6
CONTINUOUS
 62
7
 10
37.000000
 20
-96.000000
 11
37.000000
 21
-93.099998
  0
LINE
  8
0
  6
CONTINUOUS
 62
7
 10
-206.000000
 20
-93.099998
 11
-206.000000
 21
-96.000000
  0
LINE
  8
0
  6
CONTINUOUS
 62
7
 10
-158.000000
 20
-96.000000
 11
-158.000000
 21
-93.099998
  0
LINE
  8
0
  6
CONTINUOUS
 62
7
 10
154.000000
 20
-93.099998
 11
154.000000
 21
-96.000000
  0
LINE
  8
0
  6
CONTINUOUS
 62
7
 10
232.000000
 20
-96.000000
 11
232.000000
 21
-93.099998
  0
LINE
  8
0
  6
DASHED
 62
2
 10
-21.000000
 20
87.500000
 11
-21.000000
 21
87.199997
  0
LINE
  8
0
  6
DASHED
 62
2
 10
-15.000000
 20
87.500000
 11
-15.000000
 21
87.199997
  0
LINE
  8
0
  6
CONTINUOUS
 62
7
 10
-19.650000
 20
87.500000
 11
-16.350000
 21
87.500000
  0
LINE
  8
0
  6
DASHED
 62
2
 10
-16.350000
 20
87.500000
 11
-15.000000
 21
87.500000
  0
LINE
  8
0
  6
DASHED
 62
2
 10
-188.500000
 20
90.900002
 11
-183.500000
 21
90.900002
  0
LINE
  8
0
  6
DASHED
 62
2
 10
-184.350006
 20
90.900002
 11
-184.350006
 21
88.500000
  0
LINE
  8
0
  6
DASHED
 62
2
 10
-187.649994
 20
90.900002
 11
-187.649994
 21
88.500000
  0
LINE
  8
0
  6
DASHED
 62
2
 10
-167.649994
 20
92.500000
 11
-167.649994
 21
87.500000
  0
LINE
  8
0
  6
DASHED
 62
2
 10
-164.350006
 20
92.500000
 11
-164.350006
 21
87.500000
  0
LINE
  8
0
  6
CENTER
 62
2
 10
-183.000000
 20
20.100000
 11
-183.000000
 21
14.900000
  0
LINE
  8
0
  6
CENTER
 62
2
 10
-185.600006
 20
17.500000
 11
-180.399994
 21
17.500000
  0
LINE
  8
0
  6
DASHED
 62
2
 10
-184.350006
 20
-34.900002
 11
-184.350006
 21
-32.500000
  0
LINE
  8
0
  6
DASHED
 62
2
 10
-187.649994
 20
-34.900002
 11
-187.649994
 21
-32.500000
  0
LINE
  8
0
  6
DASHED
 62
2
 10
-164.350006
 20
-36.500000
 11
-164.350006
 21
-31.500000
  0
LINE
  8
0
  6
DASHED
 62
2
 10
-167.649994
 20
-36.500000
 11
-167.649994
 21
-31.500000
  0
LINE
  8
0
  6
DASHED
 62
2
 10
172.350006
 20
90.900002
 11
172.350006
 21
88.500000
  0
LINE
  8
0
  6
DASHED
 62
2
 10
175.649994
 20
90.900002
 11
175.649994
 21
88.500000
  0
LINE
  8
0
  6
DASHED
 62
2
 10
225.649994
 20
92.500000
 11
225.649994
 21
87.500000
  0
LINE
  8
0
  6
DASHED
 62
2
 10
222.350006
 20
92.500000
 11
222.350006
 21
87.500000
  0
LINE
  8
0
  6
CENTER
 62
2
 10
187.000000
 20
20.100000
 11
187.000000
 21
14.900000
  0
LINE
  8
0
  6
CENTER
 62
2
 10
184.399994
 20
17.500000
 11
189.600006
 21
17.500000
  0
LINE
  8
0
  6
DASHED
 62
2
 10
172.350006
 20
-34.900002
 11
172.350006
 21
-32.500000
  0
LINE
  8
0
  6
DASHED
 62
2
 10
175.649994
 20
-34.900002
 11
175.649994
 21
-32.500000
  0
LINE
  8
0
  6
DASHED
 62
2
 10
222.350006
 20
-36.500000
 11
222.350006
 21
-31.500000
  0
LINE
  8
0
  6
DASHED
 62
2
 10
225.649994
 20
-36.500000
 11
225.649994
 21
-31.500000
  0
LINE
  8
0
  6
DASHED
 62
2
 10
-7.649990
 20
92.500000
 11
-7.649990
 21
86.500000
  0
LINE
  8
0
  6
DASHED
 62
2
 10
-4.349990
 20
92.500000
 11
-4.349990
 21
86.500000
  0
LINE
  8
0
  6
DASHED
 62
2
 10
27.350000
 20
92.500000
 11
27.350000
 21
87.500000
  0
LINE
  8
0
  6
DASHED
 62
2
 10
30.650000
 20
92.500000
 11
30.650000
 21
87.500000
  0
LINE
  8
0
  6
CENTER
 62
2
 10
-3.000020
 20
20.100000
 11
-3.000020
 21
14.900000
  0
LINE
  8
0
  6
CENTER
 62
2
 10
-5.600020
 20
17.500000
 11
-0.400024
 21
17.500000
  0
LINE
  8
0
  6
DASHED
 62
2
 10
27.350000
 20
-36.500000
 11
27.350000
 21
-31.500000
  0
LINE
  8
0
  6
DASHED
 62
2
 10
30.650000
 20
-36.500000
 11
30.650000
 21
-31.500000
  0
LINE
  8
0
  6
DASHED
 62
2
 10
-4.349990
 20
-36.500000
 11
-4.349990
 21
-30.500000
  0
LINE
  8
0
  6
DASHED
 62
2
 10
-7.649990
 20
-36.500000
 11
-7.649990
 21
-30.500000
  0
LINE
  8
0
  6
CONTINUOUS
 62
7
 10
-152.000000
 20
11.500000
 11
-195.500000
 21
11.500000
  0
LINE
  8
0
  6
CONTINUOUS
 62
7
 10
-152.000000
 20
4.000020
 11
-195.500000
 21
4.000020
  0
LINE
  8
0
  6
CONTINUOUS
 62
7
 10
-152.000000
 20
11.500000
 11
-152.000000
 21
4.000020
  0
LINE
  8
0
  6
CONTINUOUS
 62
7
 10
-165.000000
 20
12.500000
 11
-165.000000
 21
11.500000
  0
LINE
  8
0
  6
CONTINUOUS
 62
7
 10
-163.899994
 20
14.000000
 11
-163.899994
 21
12.500000
  0
LINE
  8
0
  6
CONTINUOUS
 62
7
 10
-170.399994
 20
14.000000
 11
-170.399994
 21
12.500000
  0
LINE
  8
0
  6
CONTINUOUS
 62
7
 10
-163.899994
 20
12.500000
 11
-170.399994
 21
12.500000
  0
LINE
  8
0
  6
CONTINUOUS
 62
7
 10
-195.500000
 20
14.000000
 11
-195.500000
 21
4.000020
  0
LINE
  8
0
  6
CONTINUOUS
 62
7
 10
-260.200012
 20
12.500000
 11
-260.200012
 21
14.000000
  0
LINE
  8
0
  6
CONTINUOUS
 62
7
 10
-249.199997
 20
12.500000
 11
-260.200012
 21
12.500000
  0
LINE
  8
0
  6
CONTINUOUS
 62
7
 10
-249.199997
 20
12.500000
 11
-249.199997
 21
14.500000
  0
LINE
  8
0
  6
CONTINUOUS
 62
2
 10
-253.300003
 20
4.000050
 11
-253.300003
 21
5.000040
  0
LINE
  8
0
  6
CONTINUOUS
 62
7
 10
-248.500000
 20
4.000020
 11
-267.500000
 21
4.000020
  0
LINE
  8
0
  6
CONTINUOUS
 62
2
 10
-250.699997
 20
4.000050
 11
-250.699997
 21
5.000040
  0
LINE
  8
0
  6
CONTINUOUS
 62
7
 10
-248.500000
 20
4.000050
 11
-248.500000
 21
11.500000
  0
LINE
  8
0
  6
CONTINUOUS
 62
7
 10
-248.500000
 20
11.500000
 11
-261.000000
 21
11.500000
  0
LINE
  8
0
  6
CONTINUOUS
 62
7
 10
-261.000000
 20
11.500000
 11
-261.000000
 21
14.000000
  0
LINE
  8
0
  6
CONTINUOUS
 62
2
 10
-249.850006
 20
5.000040
 11
-250.699997
 21
5.000040
  0
LINE
  8
0
  6
CONTINUOUS
 62
2
 10
-254.149994
 20
8.800030
 11
-254.149994
 21
5.000040
  0
LINE
  8
0
  6
CONTINUOUS
 62
2
 10
-251.350006
 20
10.300000
 11
-252.649994
 21
10.300000
  0
LINE
  8
0
  6
CONTINUOUS
 62
2
 10
-249.850006
 20
8.800030
 11
-249.850006
 21
5.000040
  0
LINE
  8
0
  6
CONTINUOUS
 62
7
 10
-267.500000
 20
4.000020
 11
-267.500000
 21
14.000000
  0
LINE
  8
0
  6
CONTINUOUS
 62
2
 10
-253.300003
 20
5.000040
 11
-254.149994
 21
5.000040
  0
LINE
  8
0
  6
CENTER
 62
2
 10
-258.000000
 20
11.300000
 11
-258.000000
 21
3.000020
  0
LINE
  8
0
  6
CENTER
 62
2
 10
-252.000000
 20
11.300000
 11
-252.000000
 21
3.000020
  0
LINE
  8
0
  6
CONTINUOUS
 62
7
 10
-112.800003
 20
12.500000
 11
-112.800003
 21
14.000000
  0
LINE
  8
0
  6
CONTINUOUS
 62
7
 10
-123.800003
 20
12.500000
 11
-112.800003
 21
12.500000
  0
LINE
  8
0
  6
CONTINUOUS
 62
7
 10
-123.800003
 20
12.500000
 11
-123.800003
 21
14.500000
  0
LINE
  8
0
  6
CONTINUOUS
 62
7
 10
-124.500000
 20
4.000020
 11
-105.500000
 21
4.000020
  0
LINE
  8
0
  6
CONTINUOUS
 62
2
 10
-119.699997
 20
4.000050
 11
-119.699997
 21
5.000040
  0
LINE
  8
0
  6
CONTINUOUS
 62
2
 10
-122.300003
 20
4.000050
 11
-122.300003
 21
5.000040
  0
LINE
  8
0
  6
CONTINUOUS
 62
7
 10
-124.500000
 20
4.000050
 11
-124.500000
 21
11.500000
  0
LINE
  8
0
  6
CONTINUOUS
 62
7
 10
-124.500000
 20
11.500000
 11
-112.000000
 21
11.500000
  0
LINE
  8
0
  6
CONTINUOUS
 62
7
 10
-112.000000
 20
11.500000
 11
-112.000000
 21
14.000000
  0
LINE
  8
0
  6
CONTINUOUS
 62
2
 10
-123.150002
 20
5.000040
 11
-122.300003
 21
5.000040
  0
LINE
  8
0
  6
CONTINUOUS
 62
2
 10
-118.849998
 20
8.800030
 11
-118.849998
 21
5.000040
  0
LINE
  8
0
  6
CONTINUOUS
 62
2
 10
-121.650002
 20
10.300000
 11
-120.349998
 21
10.300000
  0
LINE
  8
0
  6
CONTINUOUS
 62
2
 10
-123.150002
 20
8.800030
 11
-123.150002
 21
5.000040
  0
LINE
  8
0
  6
CONTINUOUS
 62
7
 10
-105.500000
 20
4.000020
 11
-105.500000
 21
14.000000
  0
LINE
  8
0
  6
CONTINUOUS
 62
2
 10
-119.699997
 20
5.000040
 11
-118.849998
 21
5.000040
  0
LINE
  8
0
  6
CONTINUOUS
 62
7
 10
-117.199997
 20
4.000050
 11
-117.199997
 21
11.500000
  0
LINE
  8
0
  6
CENTER
 62
2
 10
-121.000000
 20
11.300000
 11
-121.000000
 21
3.000020
  0
LINE
  8
0
  6
CENTER
 62
2
 10
-115.000000
 20
11.300000
 11
-115.000000
 21
3.000020
  0
LINE
  8
0
  6
CONTINUOUS
 62
7
 10
-214.000000
 20
-16.500000
 11
-155.000000
 21
-16.500000
  0
LINE
  8
0
  6
CONTINUOUS
 62
7
 10
-212.000000
 20
-36.500000
 11
-212.000000
 21
-26.500000
  0
LINE
  8
0
  6
CONTINUOUS
 62
7
 10
-152.000000
 20
-36.500000
 11
-152.000000
 21
-17.000000
  0
LINE
  8
0
  6
CONTINUOUS
 62
7
 10
-212.000000
 20
-36.500000
 11
-152.000000
 21
-36.500000
  0
LINE
  8
0
  6
CONTINUOUS
 62
7
 10
-212.000000
 20
-27.000000
 11
-195.500000
 21
-27.000000
  0
LINE
  8
0
  6
CONTINUOUS
 62
7
 10
-214.000000
 20
-26.500000
 11
-195.500000
 21
-26.500000
  0
LINE
  8
0
  6
CONTINUOUS
 62
7
 10
-214.000000
 20
-35.500000
 11
-214.000000
 21
-16.500000
  0
LINE
  8
0
  6
CONTINUOUS
 62
7
 10
-162.800003
 20
-31.000000
 11
-165.000000
 21
-31.000000
  0
LINE
  8
0
  6
CONTINUOUS
 62
7
 10
-201.199997
 20
-31.000000
 11
-195.500000
 21
-31.000000
  0
LINE
  8
0
  6
CONTINUOUS
 62
7
 10
-155.000000
 20
-26.500000
 11
-155.000000
 21
-24.299999
  0
LINE
  8
0
  6
CONTINUOUS
 62
7
 10
-155.000000
 20
-17.000000
 11
-154.000000
 21
-17.000000
  0
LINE
  8
0
  6
CONTINUOUS
 62
7
 10
-199.649994
 20
-36.500000
 11
-199.649994
 21
-31.000000
  0
LINE
  8
0
  6
DASHED
 62
2
 10
-201.000000
 20
-31.500000
 11
-199.649994
 21
-31.500000
  0
LINE
  8
0
  6
CENTER
 62
2
 10
-198.000000
 20
-37.500000
 11
-198.000000
 21
-30.000000
  0
LINE
  8
0
  6
CONTINUOUS
 62
7
 10
-196.350006
 20
-36.500000
 11
-196.350006
 21
-31.000000
  0
LINE
  8
0
  6
CONTINUOUS
 62
7
 10
-222.000000
 20
-35.500000
 11
-222.000000
 21
-17.000000
  0
LINE
  8
0
  6
CONTINUOUS
 62
7
 10
-214.000000
 20
-33.500000
 11
-212.000000
 21
-33.500000
  0
LINE
  8
0
  6
CONTINUOUS
 62
7
 10
-222.000000
 20
-35.500000
 11
-214.000000
 21
-35.500000
  0
LINE
  8
0
  6
CONTINUOUS
 62
7
 10
-222.000000
 20
-17.000000
 11
-214.000000
 21
-17.000000
  0
LINE
  8
0
  6
CONTINUOUS
 62
7
 10
-165.000000
 20
-24.299999
 11
-152.000000
 21
-24.299999
  0
LINE
  8
0
  6
CONTINUOUS
 62
2
 10
-195.500000
 20
-21.799999
 11
-152.000000
 21
-21.799999
  0
LINE
  8
0
  6
CONTINUOUS
 62
2
 10
-195.500000
 20
-19.200001
 11
-152.000000
 21
-19.200001
  0
LINE
  8
0
  6
CONTINUOUS
 62
7
 10
-165.000000
 20
-24.299999
 11
-165.000000
 21
-36.000000
  0
LINE
  8
0
  6
CONTINUOUS
 62
2
 10
-195.500000
 20
-27.799999
 11
-165.000000
 21
-27.799999
  0
LINE
  8
0
  6
CONTINUOUS
 62
7
 10
-195.500000
 20
-36.000000
 11
-195.500000
 21
-17.000000
  0
LINE
  8
0
  6
CONTINUOUS
 62
2
 10
-195.500000
 20
-25.200001
 11
-165.000000
 21
-25.200001
  0
LINE
  8
0
  6
CONTINUOUS
 62
7
 10
-195.500000
 20
-17.000000
 11
-152.000000
 21
-17.000000
  0
LINE
  8
0
  6
CONTINUOUS
 62
7
 10
-195.500000
 20
-36.000000
 11
-165.000000
 21
-36.000000
  0
LINE
  8
0
  6
CONTINUOUS
 62
7
 10
-165.000000
 20
-26.500000
 11
-153.800003
 21
-26.500000
  0
LINE
  8
0
  6
CONTINUOUS
 62
7
 10
-165.000000
 20
-27.000000
 11
-152.000000
 21
-27.000000
  0
LINE
  8
0
  6
CONTINUOUS
 62
7
 10
-153.800003
 20
-26.500000
 11
-153.800003
 21
-24.299999
  0
LINE
  8
0
  6
CONTINUOUS
 62
7
 10
-155.000000
 20
-17.000000
 11
-155.000000
 21
-16.500000
  0
LINE
  8
0
  6
CENTER
 62
2
 10
-202.500000
 20
-31.000000
 11
-209.500000
 21
-31.000000
  0
LINE
  8
0
  6
CENTER
 62
2
 10
-206.000000
 20
-27.500000
 11
-206.000000
 21
-34.500000
  0
LINE
  8
0
  6
CENTER
 62
2
 10
-154.500000
 20
-31.000000
 11
-161.500000
 21
-31.000000
  0
LINE
  8
0
  6
CENTER
 62
2
 10
-158.000000
 20
-27.500000
 11
-158.000000
 21
-34.500000
  0
LINE
  8
0
  6
CENTER
 62
2
 10
-224.000000
 20
-29.500000
 11
-220.000000
 21
-29.500000
  0
LINE
  8
0
  6
DASHED
 62
2
 10
-196.350006
 20
-31.500000
 11
-195.000000
 21
-31.500000
  0
LINE
  8
0
  6
CONTINUOUS
 62
7
 10
-199.649994
 20
-31.500000
 11
-196.350006
 21
-31.500000
  0
LINE
  8
0
  6
DASHED
 62
2
 10
-195.000000
 20
-31.500000
 11
-195.000000
 21
-31.000000
  0
LINE
  8
0
  6
DASHED
 62
2
 10
-201.000000
 20
-31.500000
 11
-201.000000
 21
-31.000000
  0
LINE
  8
0
  6
CENTER
 62
2
 10
-205.000000
 20
-18.500000
 11
-205.000000
 21
-14.500000
  0
LINE
  8
0
  6
CENTER
 62
2
 10
-224.000000
 20
-20.500000
 11
-220.000000
 21
-20.500000
  0
LINE
  8
0
  6
CENTER
 62
2
 10
-169.000000
 20
-18.500000
 11
-169.000000
 21
-14.500000
  0
LINE
  8
0
  6
CENTER
 62
2
 10
-187.000000
 20
-18.500000
 11
-187.000000
 21
-14.500000
  0
LINE
  8
0
  6
CONTINUOUS
 62
7
 10
-165.000000
 20
-54.500000
 11
-165.000000
 21
-64.500000
  0
LINE
  8
0
  6
CONTINUOUS
 62
7
 10
-152.000000
 20
-54.500000
 11
-152.000000
 21
-61.500000
  0
LINE
  8
0
  6
CONTINUOUS
 62
7
 10
-165.000000
 20
-61.500000
 11
-152.000000
 21
-61.500000
  0
LINE
  8
0
  6
CONTINUOUS
 62
7
 10
-195.500000
 20
-54.500000
 11
-195.500000
 21
-64.500000
  0
LINE
  8
0
  6
CONTINUOUS
 62
7
 10
-152.000000
 20
-54.500000
 11
-195.500000
 21
-54.500000
  0
LINE
  8
0
  6
CONTINUOUS
 62
7
 10
238.000000
 20
11.500000
 11
164.500000
 21
11.500000
  0
LINE
  8
0
  6
CONTINUOUS
 62
7
 10
238.000000
 20
4.000030
 11
164.500000
 21
4.000030
  0
LINE
  8
0
  6
CONTINUOUS
 62
7
 10
238.000000
 20
11.500000
 11
238.000000
 21
4.000020
  0
LINE
  8
0
  6
CONTINUOUS
 62
7
 10
225.000000
 20
12.500000
 11
225.000000
 21
11.500000
  0
LINE
  8
0
  6
CONTINUOUS
 62
7
 10
226.100006
 20
14.000000
 11
226.100006
 21
12.500000
  0
LINE
  8
0
  6
CONTINUOUS
 62
7
 10
219.600006
 20
14.000000
 11
219.600006
 21
12.500000
  0
LINE
  8
0
  6
CONTINUOUS
 62
7
 10
226.100006
 20
12.500000
 11
219.600006
 21
12.500000
  0
LINE
  8
0
  6
CONTINUOUS
 62
7
 10
164.500000
 20
14.000000
 11
164.500000
 21
4.000020
  0
LINE
  8
0
  6
CONTINUOUS
 62
7
 10
109.800003
 20
12.500000
 11
109.800003
 21
14.000000
  0
LINE
  8
0
  6
CONTINUOUS
 62
7
 10
120.800003
 20
12.500000
 11
109.800003
 21
12.500000
  0
LINE
  8
0
  6
CONTINUOUS
 62
7
 10
120.800003
 20
12.500000
 11
120.800003
 21
14.500000
  0
LINE
  8
0
  6
CONTINUOUS
 62
2
 10
116.699997
 20
4.000050
 11
116.699997
 21
5.000040
  0
LINE
  8
0
  6
CONTINUOUS
 62
7
 10
121.500000
 20
4.000020
 11
102.500000
 21
4.000020
  0
LINE
  8
0
  6
CONTINUOUS
 62
2
 10
119.300003
 20
4.000050
 11
119.300003
 21
5.000040
  0
LINE
  8
0
  6
CONTINUOUS
 62
7
 10
121.500000
 20
4.000050
 11
121.500000
 21
11.500000
  0
LINE
  8
0
  6
CONTINUOUS
 62
7
 10
121.500000
 20
11.500000
 11
109.000000
 21
11.500000
  0
LINE
  8
0
  6
CONTINUOUS
 62
7
 10
109.000000
 20
11.500000
 11
109.000000
 21
14.000000
  0
LINE
  8
0
  6
CONTINUOUS
 62
2
 10
120.150002
 20
5.000030
 11
119.300003
 21
5.000030
  0
LINE
  8
0
  6
CONTINUOUS
 62
2
 10
115.849998
 20
8.800030
 11
115.849998
 21
5.000040
  0
LINE
  8
0
  6
CONTINUOUS
 62
2
 10
118.650002
 20
10.300000
 11
117.349998
 21
10.300000
  0
LINE
  8
0
  6
CONTINUOUS
 62
2
 10
120.150002
 20
8.800030
 11
120.150002
 21
5.000040
  0
LINE
  8
0
  6
CONTINUOUS
 62
7
 10
102.500000
 20
4.000020
 11
102.500000
 21
14.000000
  0
LINE
  8
0
  6
CONTINUOUS
 62
2
 10
116.699997
 20
5.000030
 11
115.849998
 21
5.000030
  0
LINE
  8
0
  6
CENTER
 62
2
 10
112.000000
 20
11.300000
 11
112.000000
 21
3.000020
  0
LINE
  8
0
  6
CENTER
 62
2
 10
118.000000
 20
11.300000
 11
118.000000
 21
3.000020
  0
LINE
  8
0
  6
CONTINUOUS
 62
7
 10
265.200012
 20
12.500000
 11
265.200012
 21
14.000000
  0
LINE
  8
0
  6
CONTINUOUS
 62
7
 10
254.199997
 20
12.500000
 11
265.200012
 21
12.500000
  0
LINE
  8
0
  6
CONTINUOUS
 62
7
 10
254.199997
 20
12.500000
 11
254.199997
 21
14.500000
  0
LINE
  8
0
  6
CONTINUOUS
 62
7
 10
253.500000
 20
4.000020
 11
272.500000
 21
4.000020
  0
LINE
  8
0
  6
CONTINUOUS
 62
2
 10
258.299988
 20
4.000050
 11
258.299988
 21
5.000040
  0
LINE
  8
0
  6
CONTINUOUS
 62
2
 10
255.699997
 20
4.000050
 11
255.699997
 21
5.000040
  0
LINE
  8
0
  6
CONTINUOUS
 62
7
 10
253.500000
 20
4.000050
 11
253.500000
 21
11.500000
  0
LINE
  8
0
  6
CONTINUOUS
 62
7
 10
253.500000
 20
11.500000
 11
266.000000
 21
11.500000
  0
LINE
  8
0
  6
CONTINUOUS
 62
7
 10
266.000000
 20
11.500000
 11
266.000000
 21
14.000000
  0
LINE
  8
0
  6
CONTINUOUS
 62
2
 10
254.850006
 20
5.000030
 11
255.699997
 21
5.000030
  0
LINE
  8
0
  6
CONTINUOUS
 62
2
 10
259.149994
 20
8.800030
 11
259.149994
 21
5.000040
  0
LINE
  8
0
  6
CONTINUOUS
 62
2
 10
256.350006
 20
10.300000
 11
257.649994
 21
10.300000
  0
LINE
  8
0
  6
CONTINUOUS
 62
2
 10
254.850006
 20
8.800030
 11
254.850006
 21
5.000040
  0
LINE
  8
0
  6
CONTINUOUS
 62
7
 10
272.500000
 20
4.000020
 11
272.500000
 21
14.000000
  0
LINE
  8
0
  6
CONTINUOUS
 62
2
 10
258.299988
 20
5.000030
 11
259.149994
 21
5.000030
  0
LINE
  8
0
  6
CONTINUOUS
 62
7
 10
260.799988
 20
4.000050
 11
260.799988
 21
11.500000
  0
LINE
  8
0
  6
CENTER
 62
2
 10
257.000000
 20
11.300000
 11
257.000000
 21
3.000020
  0
LINE
  8
0
  6
CENTER
 62
2
 10
263.000000
 20
11.300000
 11
263.000000
 21
3.000020
  0
LINE
  8
0
  6
CONTINUOUS
 62
7
 10
146.000000
 20
-16.500000
 11
235.000000
 21
-16.500000
  0
LINE
  8
0
  6
CONTINUOUS
 62
7
 10
148.000000
 20
-36.500000
 11
148.000000
 21
-26.500000
  0
LINE
  8
0
  6
CONTINUOUS
 62
7
 10
238.000000
 20
-36.500000
 11
238.000000
 21
-17.000000
  0
LINE
  8
0
  6
CONTINUOUS
 62
7
 10
148.000000
 20
-36.500000
 11
238.000000
 21
-36.500000
  0
LINE
  8
0
  6
CONTINUOUS
 62
7
 10
148.000000
 20
-27.000000
 11
164.500000
 21
-27.000000
  0
LINE
  8
0
  6
CONTINUOUS
 62
7
 10
146.000000
 20
-26.500000
 11
164.500000
 21
-26.500000
  0
LINE
  8
0
  6
CONTINUOUS
 62
7
 10
146.000000
 20
-35.500000
 11
146.000000
 21
-16.500000
  0
LINE
  8
0
  6
CONTINUOUS
 62
7
 10
227.199997
 20
-31.000000
 11
225.000000
 21
-31.000000
  0
LINE
  8
0
  6
CONTINUOUS
 62
7
 10
158.800003
 20
-31.000000
 11
164.500000
 21
-31.000000
  0
LINE
  8
0
  6
CONTINUOUS
 62
7
 10
235.000000
 20
-26.500000
 11
235.000000
 21
-24.299999
  0
LINE
  8
0
  6
CONTINUOUS
 62
7
 10
235.000000
 20
-17.000000
 11
236.000000
 21
-17.000000
  0
LINE
  8
0
  6
CONTINUOUS
 62
7
 10
160.350006
 20
-36.500000
 11
160.350006
 21
-31.000000
  0
LINE
  8
0
  6
DASHED
 62
2
 10
159.000000
 20
-31.500000
 11
160.350006
 21
-31.500000
  0
LINE
  8
0
  6
CENTER
 62
2
 10
162.000000
 20
-37.500000
 11
162.000000
 21
-30.000000
  0
LINE
  8
0
  6
CONTINUOUS
 62
7
 10
163.649994
 20
-36.500000
 11
163.649994
 21
-31.000000
  0
LINE
  8
0
  6
CONTINUOUS
 62
7
 10
138.000000
 20
-35.500000
 11
138.000000
 21
-17.000000
  0
LINE
  8
0
  6
CONTINUOUS
 62
7
 10
146.000000
 20
-33.500000
 11
148.000000
 21
-33.500000
  0
LINE
  8
0
  6
CONTINUOUS
 62
7
 10
138.000000
 20
-35.500000
 11
146.000000
 21
-35.500000
  0
LINE
  8
0
  6
CONTINUOUS
 62
7
 10
138.000000
 20
-17.000000
 11
146.000000
 21
-17.000000
  0
LINE
  8
0
  6
CONTINUOUS
 62
7
 10
225.000000
 20
-24.299999
 11
238.000000
 21
-24.299999
  0
LINE
  8
0
  6
CONTINUOUS
 62
2
 10
164.500000
 20
-21.799999
 11
238.000000
 21
-21.799999
  0
LINE
  8
0
  6
CONTINUOUS
 62
2
 10
164.500000
 20
-19.200001
 11
238.000000
 21
-19.200001
  0
LINE
  8
0
  6
CONTINUOUS
 62
7
 10
225.000000
 20
-24.299999
 11
225.000000
 21
-36.000000
  0
LINE
  8
0
  6
CONTINUOUS
 62
2
 10
164.500000
 20
-27.799999
 11
225.000000
 21
-27.799999
  0
LINE
  8
0
  6
CONTINUOUS
 62
7
 10
164.500000
 20
-36.000000
 11
164.500000
 21
-17.000000
  0
LINE
  8
0
  6
CONTINUOUS
 62
2
 10
164.500000
 20
-25.200001
 11
225.000000
 21
-25.200001
  0
LINE
  8
0
  6
CONTINUOUS
 62
7
 10
164.500000
 20
-17.000000
 11
238.000000
 21
-17.000000
  0
LINE
  8
0
  6
CONTINUOUS
 62
7
 10
164.500000
 20
-36.000000
 11
225.000000
 21
-36.000000
  0
LINE
  8
0
  6
CONTINUOUS
 62
7
 10
225.000000
 20
-26.500000
 11
236.199997
 21
-26.500000
  0
LINE
  8
0
  6
CONTINUOUS
 62
7
 10
225.000000
 20
-27.000000
 11
238.000000
 21
-27.000000
  0
LINE
  8
0
  6
CONTINUOUS
 62
7
 10
236.199997
 20
-26.500000
 11
236.199997
 21
-24.299999
  0
LINE
  8
0
  6
CONTINUOUS
 62
7
 10
235.000000
 20
-17.000000
 11
235.000000
 21
-16.500000
  0
LINE
  8
0
  6
CENTER
 62
2
 10
157.500000
 20
-31.000000
 11
150.500000
 21
-31.000000
  0
LINE
  8
0
  6
CENTER
 62
2
 10
154.000000
 20
-27.500000
 11
154.000000
 21
-34.500000
  0
LINE
  8
0
  6
CENTER
 62
2
 10
235.500000
 20
-31.000000
 11
228.500000
 21
-31.000000
  0
LINE
  8
0
  6
CENTER
 62
2
 10
232.000000
 20
-27.500000
 11
232.000000
 21
-34.500000
  0
LINE
  8
0
  6
CONTINUOUS
 62
7
 10
164.500000
 20
-54.500000
 11
164.500000
 21
-64.500000
  0
LINE
  8
0
  6
CONTINUOUS
 62
7
 10
225.000000
 20
-61.500000
 11
238.000000
 21
-61.500000
  0
LINE
  8
0
  6
CONTINUOUS
 62
7
 10
225.000000
 20
-54.500000
 11
225.000000
 21
-64.500000
  0
LINE
  8
0
  6
CONTINUOUS
 62
7
 10
238.000000
 20
-54.500000
 11
164.500000
 21
-54.500000
  0
LINE
  8
0
  6
CONTINUOUS
 62
7
 10
238.000000
 20
-54.500000
 11
238.000000
 21
-61.500000
  0
LINE
  8
0
  6
DASHED
 62
2
 10
165.000000
 20
-31.500000
 11
165.000000
 21
-31.000000
  0
LINE
  8
0
  6
DASHED
 62
2
 10
163.649994
 20
-31.500000
 11
165.000000
 21
-31.500000
  0
LINE
  8
0
  6
CONTINUOUS
 62
7
 10
160.350006
 20
-31.500000
 11
163.649994
 21
-31.500000
  0
LINE
  8
0
  6
CENTER
 62
2
 10
203.000000
 20
-18.500000
 11
203.000000
 21
-14.500000
  0
LINE
  8
0
  6
DASHED
 62
2
 10
171.000000
 20
-32.500000
 11
177.000000
 21
-32.500000
  0
LINE
  8
0
  6
CENTER
 62
2
 10
136.000000
 20
-29.500000
 11
140.000000
 21
-29.500000
  0
LINE
  8
0
  6
CENTER
 62
2
 10
136.000000
 20
-20.500000
 11
140.000000
 21
-20.500000
  0
LINE
  8
0
  6
CENTER
 62
2
 10
155.000000
 20
-18.500000
 11
155.000000
 21
-14.500000
  0
LINE
  8
0
  6
CENTER
 62
2
 10
173.000000
 20
-18.500000
 11
173.000000
 21
-14.500000
  0
LINE
  8
0
  6
CENTER
 62
2
 10
221.000000
 20
-18.500000
 11
221.000000
 21
-14.500000
  0
LINE
  8
0
  6
DASHED
 62
2
 10
159.000000
 20
-31.500000
 11
159.000000
 21
-31.000000
  0
LINE
  8
0
  6
CONTINUOUS
 62
7
 10
-70.199997
 20
12.500000
 11
-70.199997
 21
14.000000
  0
LINE
  8
0
  6
CONTINUOUS
 62
7
 10
-59.200001
 20
12.500000
 11
-70.199997
 21
12.500000
  0
LINE
  8
0
  6
CONTINUOUS
 62
7
 10
-59.200001
 20
12.500000
 11
-59.200001
 21
14.500000
  0
LINE
  8
0
  6
CONTINUOUS
 62
2
 10
-63.299999
 20
4.000060
 11
-63.299999
 21
5.000030
  0
LINE
  8
0
  6
CONTINUOUS
 62
7
 10
-58.500000
 20
4.000030
 11
-77.500000
 21
4.000030
  0
LINE
  8
0
  6
CONTINUOUS
 62
2
 10
-60.700001
 20
4.000060
 11
-60.700001
 21
5.000030
  0
LINE
  8
0
  6
CONTINUOUS
 62
7
 10
-58.500000
 20
4.000060
 11
-58.500000
 21
11.500100
  0
LINE
  8
0
  6
CONTINUOUS
 62
7
 10
-58.500000
 20
11.500100
 11
-71.000000
 21
11.500100
  0
LINE
  8
0
  6
CONTINUOUS
 62
7
 10
-71.000000
 20
11.500100
 11
-71.000000
 21
14.000100
  0
LINE
  8
0
  6
CONTINUOUS
 62
2
 10
-59.849998
 20
5.000030
 11
-60.700001
 21
5.000030
  0
LINE
  8
0
  6
CONTINUOUS
 62
2
 10
-64.150002
 20
8.800050
 11
-64.150002
 21
5.000030
  0
LINE
  8
0
  6
CONTINUOUS
 62
2
 10
-61.349998
 20
10.300000
 11
-62.650002
 21
10.300000
  0
LINE
  8
0
  6
CONTINUOUS
 62
2
 10
-59.849998
 20
8.800050
 11
-59.849998
 21
5.000030
  0
LINE
  8
0
  6
CONTINUOUS
 62
7
 10
-77.500000
 20
4.000030
 11
-77.500000
 21
14.000100
  0
LINE
  8
0
  6
CONTINUOUS
 62
2
 10
-63.299999
 20
5.000030
 11
-64.150002
 21
5.000030
  0
LINE
  8
0
  6
CENTER
 62
2
 10
-68.000000
 20
11.300000
 11
-68.000000
 21
3.000030
  0
LINE
  8
0
  6
CENTER
 62
2
 10
-62.000000
 20
11.300000
 11
-62.000000
 21
3.000030
  0
LINE
  8
0
  6
CONTINUOUS
 62
7
 10
72.199997
 20
12.500000
 11
72.199997
 21
14.000000
  0
LINE
  8
0
  6
CONTINUOUS
 62
7
 10
61.200001
 20
12.500000
 11
72.199997
 21
12.500000
  0
LINE
  8
0
  6
CONTINUOUS
 62
7
 10
61.200001
 20
12.500000
 11
61.200001
 21
14.500000
  0
LINE
  8
0
  6
CONTINUOUS
 62
7
 10
60.500000
 20
4.000030
 11
79.500000
 21
4.000030
  0
LINE
  8
0
  6
CONTINUOUS
 62
2
 10
65.300003
 20
4.000060
 11
65.300003
 21
5.000030
  0
LINE
  8
0
  6
CONTINUOUS
 62
2
 10
62.700001
 20
4.000060
 11
62.700001
 21
5.000030
  0
LINE
  8
0
  6
CONTINUOUS
 62
7
 10
60.500000
 20
4.000060
 11
60.500000
 21
11.500100
  0
LINE
  8
0
  6
CONTINUOUS
 62
7
 10
60.500000
 20
11.500100
 11
73.000000
 21
11.500100
  0
LINE
  8
0
  6
CONTINUOUS
 62
7
 10
73.000000
 20
11.500100
 11
73.000000
 21
14.000100
  0
LINE
  8
0
  6
CONTINUOUS
 62
2
 10
61.849998
 20
5.000030
 11
62.700001
 21
5.000030
  0
LINE
  8
0
  6
CONTINUOUS
 62
2
 10
66.150002
 20
8.800050
 11
66.150002
 21
5.000030
  0
LINE
  8
0
  6
CONTINUOUS
 62
2
 10
63.349998
 20
10.300000
 11
64.650002
 21
10.300000
  0
LINE
  8
0
  6
CONTINUOUS
 62
2
 10
61.849998
 20
8.800050
 11
61.849998
 21
5.000030
  0
LINE
  8
0
  6
CONTINUOUS
 62
7
 10
79.500000
 20
4.000030
 11
79.500000
 21
14.000100
  0
LINE
  8
0
  6
CONTINUOUS
 62
2
 10
65.300003
 20
5.000030
 11
66.150002
 21
5.000030
  0
LINE
  8
0
  6
CONTINUOUS
 62
7
 10
67.800003
 20
4.000060
 11
67.800003
 21
11.500100
  0
LINE
  8
0
  6
CENTER
 62
2
 10
64.000000
 20
11.300000
 11
64.000000
 21
3.000030
  0
LINE
  8
0
  6
CENTER
 62
2
 10
70.000000
 20
11.300000
 11
70.000000
 21
3.000030
  0
LINE
  8
0
  6
CONTINUOUS
 62
7
 10
43.000000
 20
11.500000
 11
-15.500000
 21
11.500000
  0
LINE
  8
0
  6
CONTINUOUS
 62
7
 10
43.000000
 20
4.000030
 11
-15.500000
 21
4.000030
  0
LINE
  8
0
  6
CONTINUOUS
 62
7
 10
43.000000
 20
11.500000
 11
43.000000
 21
4.000030
  0
LINE
  8
0
  6
CONTINUOUS
 62
7
 10
30.000000
 20
12.500000
 11
30.000000
 21
11.500000
  0
LINE
  8
0
  6
CONTINUOUS
 62
7
 10
31.100000
 20
14.000000
 11
31.100000
 21
12.500000
  0
LINE
  8
0
  6
CONTINUOUS
 62
7
 10
24.600000
 20
14.000000
 11
24.600000
 21
12.500000
  0
LINE
  8
0
  6
CONTINUOUS
 62
7
 10
31.100000
 20
12.500000
 11
24.600000
 21
12.500000
  0
LINE
  8
0
  6
CONTINUOUS
 62
7
 10
-15.500000
 20
14.000000
 11
-15.500000
 21
4.000030
  0
LINE
  8
0
  6
CONTINUOUS
 62
7
 10
-34.000000
 20
-16.500000
 11
40.000000
 21
-16.500000
  0
LINE
  8
0
  6
CONTINUOUS
 62
7
 10
-32.000000
 20
-36.500000
 11
-32.000000
 21
-26.500000
  0
LINE
  8
0
  6
CONTINUOUS
 62
7
 10
43.000000
 20
-36.500000
 11
43.000000
 21
-17.000000
  0
LINE
  8
0
  6
CONTINUOUS
 62
7
 10
-32.000000
 20
-36.500000
 11
43.000000
 21
-36.500000
  0
LINE
  8
0
  6
CONTINUOUS
 62
7
 10
-32.000000
 20
-27.000000
 11
-15.500000
 21
-27.000000
  0
LINE
  8
0
  6
CONTINUOUS
 62
7
 10
-34.000000
 20
-26.500000
 11
-15.500000
 21
-26.500000
  0
LINE
  8
0
  6
CONTINUOUS
 62
7
 10
-34.000000
 20
-35.500000
 11
-34.000000
 21
-16.500000
  0
LINE
  8
0
  6
CONTINUOUS
 62
7
 10
40.000000
 20
-26.500000
 11
40.000000
 21
-24.299999
  0
LINE
  8
0
  6
CONTINUOUS
 62
7
 10
40.000000
 20
-17.000000
 11
41.000000
 21
-17.000000
  0
LINE
  8
0
  6
CONTINUOUS
 62
7
 10
-19.650000
 20
-36.500000
 11
-19.650000
 21
-31.200001
  0
LINE
  8
0
  6
CONTINUOUS
 62
7
 10
-19.650000
 20
-31.500000
 11
-16.350000
 21
-31.500000
  0
LINE
  8
0
  6
CENTER
 62
2
 10
-18.000000
 20
-37.500000
 11
-18.000000
 21
-30.200001
  0
LINE
  8
0
  6
CONTINUOUS
 62
7
 10
-16.350000
 20
-36.500000
 11
-16.350000
 21
-31.200001
  0
LINE
  8
0
  6
CONTINUOUS
 62
7
 10
-42.000000
 20
-35.500000
 11
-42.000000
 21
-17.000000
  0
LINE
  8
0
  6
CONTINUOUS
 62
7
 10
-34.000000
 20
-33.500000
 11
-32.000000
 21
-33.500000
  0
LINE
  8
0
  6
CONTINUOUS
 62
7
 10
-42.000000
 20
-35.500000
 11
-34.000000
 21
-35.500000
  0
LINE
  8
0
  6
CONTINUOUS
 62
7
 10
-42.000000
 20
-17.000000
 11
-34.000000
 21
-17.000000
  0
LINE
  8
0
  6
CONTINUOUS
 62
7
 10
35.000000
 20
-24.299999
 11
43.000000
 21
-24.299999
  0
LINE
  8
0
  6
CONTINUOUS
 62
2
 10
-15.500000
 20
-21.799999
 11
43.000000
 21
-21.799999
  0
LINE
  8
0
  6
CONTINUOUS
 62
2
 10
-15.500000
 20
-19.200001
 11
43.000000
 21
-19.200001
  0
LINE
  8
0
  6
CONTINUOUS
 62
7
 10
30.000000
 20
-29.299999
 11
30.000000
 21
-36.000000
  0
LINE
  8
0
  6
CONTINUOUS
 62
2
 10
-15.500000
 20
-27.799999
 11
30.230301
 21
-27.799999
  0
LINE
  8
0
  6
CONTINUOUS
 62
7
 10
-15.500000
 20
-36.000000
 11
-15.500000
 21
-17.000000
  0
LINE
  8
0
  6
CONTINUOUS
 62
2
 10
-15.500000
 20
-25.200001
 11
32.138199
 21
-25.200001
  0
LINE
  8
0
  6
CONTINUOUS
 62
7
 10
-15.500000
 20
-17.000000
 11
43.000000
 21
-17.000000
  0
LINE
  8
0
  6
CONTINUOUS
 62
7
 10
-15.500000
 20
-36.000000
 11
30.000000
 21
-36.000000
  0
LINE
  8
0
  6
CONTINUOUS
 62
7
 10
30.857599
 20
-26.500000
 11
41.200001
 21
-26.500000
  0
LINE
  8
0
  6
CONTINUOUS
 62
7
 10
30.560400
 20
-27.000000
 11
43.000000
 21
-27.000000
  0
LINE
  8
0
  6
CONTINUOUS
 62
7
 10
41.200001
 20
-26.500000
 11
41.200001
 21
-24.299999
  0
LINE
  8
0
  6
CONTINUOUS
 62
7
 10
40.000000
 20
-17.000000
 11
40.000000
 21
-16.500000
  0
LINE
  8
0
  6
CENTER
 62
2
 10
-22.500000
 20
-31.000000
 11
-29.500000
 21
-31.000000
  0
LINE
  8
0
  6
CENTER
 62
2
 10
-26.000000
 20
-27.500000
 11
-26.000000
 21
-34.500000
  0
LINE
  8
0
  6
CENTER
 62
2
 10
40.500000
 20
-31.000000
 11
33.500000
 21
-31.000000
  0
LINE
  8
0
  6
CENTER
 62
2
 10
37.000000
 20
-27.500000
 11
37.000000
 21
-34.500000
  0
LINE
  8
0
  6
CONTINUOUS
 62
7
 10
43.000000
 20
-54.500000
 11
43.000000
 21
-61.500000
  0
LINE
  8
0
  6
CONTINUOUS
 62
7
 10
-15.500000
 20
-54.500000
 11
-15.500000
 21
-64.500000
  0
LINE
  8
0
  6
CONTINUOUS
 62
7
 10
30.000000
 20
-61.500000
 11
43.000000
 21
-61.500000
  0
LINE
  8
0
  6
CONTINUOUS
 62
7
 10
30.000000
 20
-54.500000
 11
30.000000
 21
-64.500000
  0
LINE
  8
0
  6
CONTINUOUS
 62
7
 10
43.000000
 20
-54.500000
 11
-15.500000
 21
-54.500000
  0
LINE
  8
0
  6
DASHED
 62
2
 10
-15.000000
 20
-31.500000
 11
-15.000000
 21
-31.200001
  0
LINE
  8
0
  6
CENTER
 62
2
 10
-44.000000
 20
-29.500000
 11
-40.000000
 21
-29.500000
  0
LINE
  8
0
  6
CENTER
 62
2
 10
-44.000000
 20
-20.500000
 11
-40.000000
 21
-20.500000
  0
LINE
  8
0
  6
CENTER
 62
2
 10
-25.000000
 20
-18.500000
 11
-25.000000
 21
-14.500000
  0
LINE
  8
0
  6
CENTER
 62
2
 10
-7.000000
 20
-18.500000
 11
-7.000000
 21
-14.500000
  0
LINE
  8
0
  6
CENTER
 62
2
 10
26.000000
 20
-18.500000
 11
26.000000
 21
-14.500000
  0
LINE
  8
0
  6
CENTER
 62
2
 10
8.000000
 20
-18.500000
 11
8.000000
 21
-14.500000
  0
LINE
  8
0
  6
CONTINUOUS
 62
7
 10
30.000000
 20
-31.200001
 11
32.200001
 21
-31.200001
  0
LINE
  8
0
  6
CONTINUOUS
 62
7
 10
-21.200001
 20
-31.200001
 11
-15.500000
 21
-31.200001
  0
LINE
  8
0
  6
DASHED
 62
2
 10
-9.000000
 20
-30.500000
 11
-2.999990
 21
-30.500000
  0
LINE
  8
0
  6
DASHED
 62
2
 10
-21.000000
 20
-31.500000
 11
-21.000000
 21
-31.200001
  0
LINE
  8
0
  6
DASHED
 62
2
 10
-21.000000
 20
-31.500000
 11
-19.650000
 21
-31.500000
  0
LINE
  8
0
  6
DASHED
 62
2
 10
-16.350000
 20
-31.500000
 11
-15.000000
 21
-31.500000
  0
LINE
  8
0
  6
CONTINUOUS
 62
7
 10
-93.466698
 20
195.500000
 11
-93.466698
 21
-195.000000
  0
LINE
  8
0
  6
CONTINUOUS
 62
7
 10
94.316704
 20
195.500000
 11
94.316704
 21
-195.000000
  0
CIRCLE
  8
0
  6
CONTINUOUS
 62
2
 10
221.000000
 20
38.000000
 40
1.500000
  0
CIRCLE
  8
0
  6
CONTINUOUS
 62
7
 10
203.000000
 20
38.000000
 40
1.250000
  0
CIRCLE
  8
0
  6
CONTINUOUS
 62
2
 10
203.000000
 20
38.000000
 40
1.500000
  0
CIRCLE
  8
0
  6
CONTINUOUS
 62
7
 10
187.000000
 20
38.500000
 40
1.600000
  0
CIRCLE
  8
0
  6
CONTINUOUS
 62
7
 10
155.000000
 20
38.000000
 40
1.250000
  0
CIRCLE
  8
0
  6
CONTINUOUS
 62
2
 10
155.000000
 20
38.000000
 40
1.500000
  0
CIRCLE
  8
0
  6
CONTINUOUS
 62
7
 10
155.000000
 20
18.000000
 40
1.250000
  0
CIRCLE
  8
0
  6
CONTINUOUS
 62
2
 10
155.000000
 20
18.000000
 40
1.500000
  0
CIRCLE
  8
0
  6
CONTINUOUS
 62
7
 10
221.000000
 20
18.000000
 40
1.250000
  0
CIRCLE
  8
0
  6
CONTINUOUS
 62
2
 10
221.000000
 20
18.000000
 40
1.500000
  0
CIRCLE
  8
0
  6
CONTINUOUS
 62
7
 10
203.000000
 20
18.000000
 40
1.250000
  0
CIRCLE
  8
0
  6
CONTINUOUS
 62
2
 10
203.000000
 20
18.000000
 40
1.500000
  0
CIRCLE
  8
0
  6
CONTINUOUS
 62
7
 10
221.000000
 20
38.000000
 40
1.250000
  0
ARC
  8
0
  6
DASHED
 62
2
 10
162.000000
 20
17.500000
 40
3.000000
 50
303.367004
 51
236.632996
  0
ARC
  8
0
  6
DASHED
 62
2
 10
162.000000
 20
17.500000
 40
1.649990
 50
0.000000
 51
180.000000
  0
ARC
  8
0
  6
DASHED
 62
2
 10
162.000000
 20
38.500000
 40
1.649990
 50
180.000000
 51
0.000000
  0
ARC
  8
0
  6
DASHED
 62
2
 10
162.000000
 20
38.500000
 40
3.000000
 50
123.366997
 51
416.632996
  0
CIRCLE
  8
0
  6
DASHED
 62
2
 10
224.000000
 20
38.500000
 40
3.000000
  0
CIRCLE
  8
0
  6
DASHED
 62
2
 10
224.000000
 20
38.500000
 40
2.000000
  0
CIRCLE
  8
0
  6
DASHED
 62
2
 10
224.000000
 20
38.500000
 40
1.650000
  0
CIRCLE
  8
0
  6
DASHED
 62
2
 10
224.000000
 20
17.500000
 40
3.000000
  0
CIRCLE
  8
0
  6
DASHED
 62
2
 10
224.000000
 20
17.500000
 40
2.000000
  0
CIRCLE
  8
0
  6
DASHED
 62
2
 10
224.000000
 20
17.500000
 40
1.650000
  0
CIRCLE
  8
0
  6
CONTINUOUS
 62
2
 10
118.000000
 20
28.000000
 40
2.000000
  0
CIRCLE
  8
0
  6
CONTINUOUS
 62
7
 10
118.000000
 20
38.000000
 40
3.000000
  0
CIRCLE
  8
0
  6
CONTINUOUS
 62
7
 10
118.000000
 20
28.000000
 40
1.650000
  0
CIRCLE
  8
0
  6
CONTINUOUS
 62
7
 10
109.000000
 20
28.000000
 40
5.000000
  0
CIRCLE
  8
0
  6
CONTINUOUS
 62
7
 10
118.000000
 20
18.000000
 40
3.000000
  0
CIRCLE
  8
0
  6
CONTINUOUS
 62
2
 10
109.000000
 20
18.000000
 40
2.000000
  0
CIRCLE
  8
0
  6
CONTINUOUS
 62
7
 10
109.000000
 20
18.000000
 40
1.650000
  0
CIRCLE
  8
0
  6
CONTINUOUS
 62
2
 10
109.000000
 20
38.000000
 40
2.000000
  0
CIRCLE
  8
0
  6
CONTINUOUS
 62
7
 10
109.000000
 20
38.000000
 40
1.650000
  0
CIRCLE
  8
0
  6
CONTINUOUS
 62
7
 10
266.000000
 20
28.000000
 40
5.400000
  0
ARC
  8
0
  6
CONTINUOUS
 62
7
 10
259.500000
 20
34.599998
 40
1.350000
 50
206.389999
 51
333.614014
  0
ARC
  8
0
  6
CONTINUOUS
 62
7
 10
259.500000
 20
21.400000
 40
1.350000
 50
26.389299
 51
153.613007
  0
CIRCLE
  8
0
  6
CONTINUOUS
 62
2
 10
218.000000
 20
88.500000
 40
1.500000
  0
CIRCLE
  8
0
  6
CONTINUOUS
 62
2
 10
231.199997
 20
76.500000
 40
1.500000
  0
CIRCLE
  8
0
  6
CONTINUOUS
 62
7
 10
218.000000
 20
88.500000
 40
1.250000
  0
CIRCLE
  8
0
  6
CONTINUOUS
 62
7
 10
231.199997
 20
76.500000
 40
1.250000
  0
CIRCLE
  8
0
  6
CONTINUOUS
 62
2
 10
224.699997
 20
76.500000
 40
1.500000
  0
ARC
  8
0
  6
CONTINUOUS
 62
7
 10
218.000000
 20
88.500000
 40
3.000000
 50
180.000000
 51
330.000000
  0
ARC
  8
0
  6
CONTINUOUS
 62
7
 10
232.000000
 20
87.000000
 40
4.800000
 50
180.000000
 51
236.442993
  0
CIRCLE
  8
0
  6
CONTINUOUS
 62
2
 10
168.000000
 20
88.500000
 40
1.500000
  0
CIRCLE
  8
0
  6
CONTINUOUS
 62
7
 10
168.000000
 20
88.500000
 40
1.250000
  0
ARC
  8
0
  6
CONTINUOUS
 62
7
 10
168.000000
 20
88.500000
 40
3.000010
 50
210.000000
 51
0.000000
  0
ARC
  8
0
  6
CONTINUOUS
 62
7
 10
154.000000
 20
87.000000
 40
4.800000
 50
303.557007
 51
0.000000
  0
CIRCLE
  8
0
  6
CONTINUOUS
 62
2
 10
217.850006
 20
76.199997
 40
1.000000
  0
CIRCLE
  8
0
  6
CONTINUOUS
 62
2
 10
227.850006
 20
76.199997
 40
1.000000
  0
CIRCLE
  8
0
  6
CONTINUOUS
 62
7
 10
224.699997
 20
76.500000
 40
1.250000
  0
CIRCLE
  8
0
  6
CONTINUOUS
 62
7
 10
217.850006
 20
76.199997
 40
0.800000
  0
CIRCLE
  8
0
  6
CONTINUOUS
 62
7
 10
227.850006
 20
76.199997
 40
0.800000
  0
ARC
  8
0
  6
CONTINUOUS
 62
7
 10
162.000000
 20
-68.000000
 40
1.649990
 50
180.000000
 51
0.000000
  0
ARC
  8
0
  6
CONTINUOUS
 62
7
 10
162.000000
 20
-89.000000
 40
1.649990
 50
0.000000
 51
180.000000
  0
CIRCLE
  8
0
  6
CONTINUOUS
 62
7
 10
174.000000
 20
-89.000000
 40
2.500000
  0
CIRCLE
  8
0
  6
CONTINUOUS
 62
7
 10
224.000000
 20
-89.000000
 40
1.650000
  0
CIRCLE
  8
0
  6
CONTINUOUS
 62
2
 10
224.000000
 20
-89.000000
 40
2.000000
  0
CIRCLE
  8
0
  6
CONTINUOUS
 62
7
 10
174.000000
 20
-89.000000
 40
1.650000
  0
CIRCLE
  8
0
  6
CONTINUOUS
 62
2
 10
174.000000
 20
-89.000000
 40
2.000000
  0
CIRCLE
  8
0
  6
CONTINUOUS
 62
7
 10
224.000000
 20
-68.000000
 40
1.650000
  0
CIRCLE
  8
0
  6
CONTINUOUS
 62
2
 10
224.000000
 20
-68.000000
 40
2.000000
  0
CIRCLE
  8
0
  6
CONTINUOUS
 62
7
 10
174.000000
 20
-68.000000
 40
1.650000
  0
CIRCLE
  8
0
  6
CONTINUOUS
 62
2
 10
174.000000
 20
-68.000000
 40
2.000000
  0
CIRCLE
  8
0
  6
CONTINUOUS
 62
7
 10
174.000000
 20
-68.000000
 40
2.500000
  0
CIRCLE
  8
0
  6
CONTINUOUS
 62
2
 10
-62.000000
 20
28.000000
 40
2.000000
  0
CIRCLE
  8
0
  6
CONTINUOUS
 62
7
 10
-62.000000
 20
38.000000
 40
3.000000
  0
CIRCLE
  8
0
  6
CONTINUOUS
 62
7
 10
-62.000000
 20
28.000000
 40
1.650000
  0
CIRCLE
  8
0
  6
CONTINUOUS
 62
7
 10
-71.000000
 20
28.000000
 40
5.000000
  0
CIRCLE
  8
0
  6
CONTINUOUS
 62
7
 10
-62.000000
 20
18.000000
 40
3.000000
  0
CIRCLE
  8
0
  6
CONTINUOUS
 62
2
 10
-71.000000
 20
18.000000
 40
2.000000
  0
CIRCLE
  8
0
  6
CONTINUOUS
 62
7
 10
-71.000000
 20
18.000000
 40
1.650000
  0
CIRCLE
  8
0
  6
CONTINUOUS
 62
2
 10
-71.000000
 20
38.000000
 40
2.000000
  0
CIRCLE
  8
0
  6
CONTINUOUS
 62
7
 10
-71.000000
 20
38.000000
 40
1.650000
  0
CIRCLE
  8
0
  6
CONTINUOUS
 62
7
 10
73.000000
 20
28.000000
 40
5.400000
  0
ARC
  8
0
  6
CONTINUOUS
 62
7
 10
66.500000
 20
34.599998
 40
1.350000
 50
206.389999
 51
333.614014
  0
ARC
  8
0
  6
CONTINUOUS
 62
7
 10
66.500000
 20
21.400000
 40
1.350000
 50
26.389099
 51
153.613007
  0
CIRCLE
  8
0
  6
CONTINUOUS
 62
7
 10
173.000000
 20
18.000000
 40
1.250000
  0
CIRCLE
  8
0
  6
CONTINUOUS
 62
2
 10
173.000000
 20
18.000000
 40
1.500000
  0
CIRCLE
  8
0
  6
CONTINUOUS
 62
7
 10
173.000000
 20
38.000000
 40
1.250000
  0
CIRCLE
  8
0
  6
CONTINUOUS
 62
2
 10
173.000000
 20
38.000000
 40
1.500000
  0
CIRCLE
  8
0
  6
CONTINUOUS
 62
2
 10
-186.000000
 20
-68.000000
 40
2.000000
  0
CIRCLE
  8
0
  6
CONTINUOUS
 62
7
 10
-186.000000
 20
-68.000000
 40
2.500000
  0
CIRCLE
  8
0
  6
CONTINUOUS
 62
2
 10
-169.000000
 20
38.000000
 40
1.500000
  0
CIRCLE
  8
0
  6
CONTINUOUS
 62
7
 10
-187.000000
 20
38.000000
 40
1.250000
  0
CIRCLE
  8
0
  6
CONTINUOUS
 62
2
 10
-187.000000
 20
38.000000
 40
1.500000
  0
CIRCLE
  8
0
  6
CONTINUOUS
 62
7
 10
-183.000000
 20
38.500000
 40
1.600000
  0
CIRCLE
  8
0
  6
CONTINUOUS
 62
7
 10
-205.000000
 20
38.000000
 40
1.250000
  0
CIRCLE
  8
0
  6
CONTINUOUS
 62
2
 10
-205.000000
 20
38.000000
 40
1.500000
  0
CIRCLE
  8
0
  6
CONTINUOUS
 62
7
 10
-205.000000
 20
18.000000
 40
1.250000
  0
CIRCLE
  8
0
  6
CONTINUOUS
 62
2
 10
-205.000000
 20
18.000000
 40
1.500000
  0
CIRCLE
  8
0
  6
CONTINUOUS
 62
7
 10
-169.000000
 20
18.000000
 40
1.250000
  0
CIRCLE
  8
0
  6
CONTINUOUS
 62
2
 10
-169.000000
 20
18.000000
 40
1.500000
  0
CIRCLE
  8
0
  6
CONTINUOUS
 62
7
 10
-187.000000
 20
18.000000
 40
1.250000
  0
CIRCLE
  8
0
  6
CONTINUOUS
 62
2
 10
-187.000000
 20
18.000000
 40
1.500000
  0
CIRCLE
  8
0
  6
CONTINUOUS
 62
7
 10
-169.000000
 20
38.000000
 40
1.250000
  0
ARC
  8
0
  6
DASHED
 62
2
 10
-198.000000
 20
17.500000
 40
3.000000
 50
303.367004
 51
236.632996
  0
ARC
  8
0
  6
DASHED
 62
2
 10
-198.000000
 20
17.500000
 40
1.649990
 50
0.000000
 51
180.000000
  0
ARC
  8
0
  6
DASHED
 62
2
 10
-198.000000
 20
38.500000
 40
1.649990
 50
180.000000
 51
0.000000
  0
ARC
  8
0
  6
DASHED
 62
2
 10
-198.000000
 20
38.500000
 40
3.000000
 50
123.366997
 51
416.632996
  0
CIRCLE
  8
0
  6
DASHED
 62
2
 10
-166.000000
 20
38.500000
 40
3.000000
  0
CIRCLE
  8
0
  6
DASHED
 62
2
 10
-166.000000
 20
38.500000
 40
2.000000
  0
CIRCLE
  8
0
  6
DASHED
 62
2
 10
-166.000000
 20
38.500000
 40
1.650000
  0
CIRCLE
  8
0
  6
DASHED
 62
2
 10
-166.000000
 20
17.500000
 40
3.000000
  0
CIRCLE
  8
0
  6
DASHED
 62
2
 10
-166.000000
 20
17.500000
 40
2.000000
  0
CIRCLE
  8
0
  6
DASHED
 62
2
 10
-166.000000
 20
17.500000
 40
1.650000
  0
CIRCLE
  8
0
  6
CONTINUOUS
 62
2
 10
-252.000000
 20
28.000000
 40
2.000000
  0
CIRCLE
  8
0
  6
CONTINUOUS
 62
7
 10
-252.000000
 20
38.000000
 40
3.000000
  0
CIRCLE
  8
0
  6
CONTINUOUS
 62
7
 10
-252.000000
 20
28.000000
 40
1.650000
  0
CIRCLE
  8
0
  6
CONTINUOUS
 62
7
 10
-261.000000
 20
28.000000
 40
5.000000
  0
CIRCLE
  8
0
  6
CONTINUOUS
 62
7
 10
-252.000000
 20
18.000000
 40
3.000000
  0
CIRCLE
  8
0
  6
CONTINUOUS
 62
2
 10
-261.000000
 20
18.000000
 40
2.000000
  0
CIRCLE
  8
0
  6
CONTINUOUS
 62
7
 10
-261.000000
 20
18.000000
 40
1.650000
  0
CIRCLE
  8
0
  6
CONTINUOUS
 62
2
 10
-261.000000
 20
38.000000
 40
2.000000
  0
CIRCLE
  8
0
  6
CONTINUOUS
 62
7
 10
-261.000000
 20
38.000000
 40
1.650000
  0
CIRCLE
  8
0
  6
CONTINUOUS
 62
7
 10
-112.000000
 20
28.000000
 40
5.400000
  0
ARC
  8
0
  6
CONTINUOUS
 62
7
 10
-118.500000
 20
34.599998
 40
1.350000
 50
206.389999
 51
333.614014
  0
ARC
  8
0
  6
CONTINUOUS
 62
7
 10
-118.500000
 20
21.400000
 40
1.350000
 50
26.389099
 51
153.613007
  0
CIRCLE
  8
0
  6
CONTINUOUS
 62
2
 10
-172.000000
 20
88.500000
 40
1.500000
  0
CIRCLE
  8
0
  6
CONTINUOUS
 62
2
 10
-158.800003
 20
76.500000
 40
1.500000
  0
CIRCLE
  8
0
  6
CONTINUOUS
 62
7
 10
-172.000000
 20
88.500000
 40
1.250000
  0
CIRCLE
  8
0
  6
CONTINUOUS
 62
7
 10
-158.800003
 20
76.500000
 40
1.250000
  0
CIRCLE
  8
0
  6
CONTINUOUS
 62
2
 10
-165.300003
 20
76.500000
 40
1.500000
  0
ARC
  8
0
  6
CONTINUOUS
 62
7
 10
-172.000000
 20
88.500000
 40
3.000000
 50
180.000000
 51
330.000000
  0
ARC
  8
0
  6
CONTINUOUS
 62
7
 10
-158.000000
 20
87.000000
 40
4.800000
 50
180.000000
 51
236.442993
  0
CIRCLE
  8
0
  6
CONTINUOUS
 62
2
 10
-192.000000
 20
88.500000
 40
1.500000
  0
CIRCLE
  8
0
  6
CONTINUOUS
 62
7
 10
-192.000000
 20
88.500000
 40
1.250000
  0
ARC
  8
0
  6
CONTINUOUS
 62
7
 10
-192.000000
 20
88.500000
 40
3.000010
 50
210.000000
 51
0.000000
  0
ARC
  8
0
  6
CONTINUOUS
 62
7
 10
-206.000000
 20
87.000000
 40
4.800000
 50
303.557007
 51
0.000000
  0
CIRCLE
  8
0
  6
CONTINUOUS
 62
2
 10
-172.149994
 20
76.199997
 40
1.000000
  0
CIRCLE
  8
0
  6
CONTINUOUS
 62
2
 10
-162.149994
 20
76.199997
 40
1.000000
  0
CIRCLE
  8
0
  6
CONTINUOUS
 62
7
 10
-165.300003
 20
76.500000
 40
1.250000
  0
CIRCLE
  8
0
  6
CONTINUOUS
 62
7
 10
-172.149994
 20
76.199997
 40
0.800000
  0
CIRCLE
  8
0
  6
CONTINUOUS
 62
7
 10
-162.149994
 20
76.199997
 40
0.800000
  0
ARC
  8
0
  6
CONTINUOUS
 62
7
 10
-198.000000
 20
-68.000000
 40
1.649990
 50
180.000000
 51
0.000000
  0
ARC
  8
0
  6
CONTINUOUS
 62
7
 10
-198.000000
 20
-89.000000
 40
1.649990
 50
0.000000
 51
180.000000
  0
CIRCLE
  8
0
  6
CONTINUOUS
 62
7
 10
-186.000000
 20
-89.000000
 40
2.500000
  0
CIRCLE
  8
0
  6
CONTINUOUS
 62
7
 10
-166.000000
 20
-89.000000
 40
1.650000
  0
CIRCLE
  8
0
  6
CONTINUOUS
 62
2
 10
-166.000000
 20
-89.000000
 40
2.000000
  0
CIRCLE
  8
0
  6
CONTINUOUS
 62
7
 10
-186.000000
 20
-89.000000
 40
1.650000
  0
CIRCLE
  8
0
  6
CONTINUOUS
 62
2
 10
-186.000000
 20
-89.000000
 40
2.000000
  0
CIRCLE
  8
0
  6
CONTINUOUS
 62
7
 10
-166.000000
 20
-68.000000
 40
1.650000
  0
CIRCLE
  8
0
  6
CONTINUOUS
 62
2
 10
-166.000000
 20
-68.000000
 40
2.000000
  0
CIRCLE
  8
0
  6
CONTINUOUS
 62
7
 10
-186.000000
 20
-68.000000
 40
1.650000
  0
ARC
  8
0
  6
CONTINUOUS
 62
7
 10
-18.000000
 20
-68.000000
 40
1.650000
 50
180.000000
 51
0.000000
  0
ARC
  8
0
  6
CONTINUOUS
 62
7
 10
-18.000000
 20
-89.000000
 40
1.650000
 50
0.000000
 51
180.000000
  0
CIRCLE
  8
0
  6
CONTINUOUS
 62
7
 10
29.000000
 20
-89.000000
 40
1.650000
  0
CIRCLE
  8
0
  6
CONTINUOUS
 62
2
 10
29.000000
 20
-89.000000
 40
2.000000
  0
CIRCLE
  8
0
  6
CONTINUOUS
 62
7
 10
-6.000010
 20
-89.000000
 40
1.650000
  0
CIRCLE
  8
0
  6
CONTINUOUS
 62
2
 10
-6.000010
 20
-89.000000
 40
2.000000
  0
CIRCLE
  8
0
  6
CONTINUOUS
 62
7
 10
29.000000
 20
-68.000000
 40
1.650000
  0
CIRCLE
  8
0
  6
CONTINUOUS
 62
2
 10
29.000000
 20
-68.000000
 40
2.000000
  0
CIRCLE
  8
0
  6
CONTINUOUS
 62
7
 10
-6.000010
 20
-68.000000
 40
1.650000
  0
CIRCLE
  8
0
  6
CONTINUOUS
 62
2
 10
-6.000010
 20
-68.000000
 40
2.000000
  0
CIRCLE
  8
0
  6
CONTINUOUS
 62
2
 10
26.000000
 20
38.000000
 40
1.500000
  0
CIRCLE
  8
0
  6
CONTINUOUS
 62
7
 10
-7.000020
 20
38.000000
 40
1.250000
  0
CIRCLE
  8
0
  6
CONTINUOUS
 62
2
 10
-7.000020
 20
38.000000
 40
1.500000
  0
CIRCLE
  8
0
  6
CONTINUOUS
 62
7
 10
-3.000020
 20
38.500000
 40
1.600000
  0
CIRCLE
  8
0
  6
CONTINUOUS
 62
7
 10
-25.000000
 20
38.000000
 40
1.250000
  0
CIRCLE
  8
0
  6
CONTINUOUS
 62
2
 10
-25.000000
 20
38.000000
 40
1.500000
  0
CIRCLE
  8
0
  6
CONTINUOUS
 62
7
 10
-25.000000
 20
18.000000
 40
1.250000
  0
CIRCLE
  8
0
  6
CONTINUOUS
 62
2
 10
-25.000000
 20
18.000000
 40
1.500000
  0
CIRCLE
  8
0
  6
CONTINUOUS
 62
7
 10
26.000000
 20
18.000000
 40
1.250000
  0
CIRCLE
  8
0
  6
CONTINUOUS
 62
2
 10
26.000000
 20
18.000000
 40
1.500000
  0
CIRCLE
  8
0
  6
CONTINUOUS
 62
7
 10
-7.000020
 20
18.000000
 40
1.250000
  0
CIRCLE
  8
0
  6
CONTINUOUS
 62
2
 10
-7.000020
 20
18.000000
 40
1.500000
  0
CIRCLE
  8
0
  6
CONTINUOUS
 62
7
 10
26.000000
 20
38.000000
 40
1.250000
  0
ARC
  8
0
  6
DASHED
 62
2
 10
-18.000000
 20
17.500000
 40
3.000000
 50
303.367004
 51
236.632996
  0
ARC
  8
0
  6
DASHED
 62
2
 10
-18.000000
 20
17.500000
 40
1.650000
 50
0.000000
 51
180.000000
  0
ARC
  8
0
  6
DASHED
 62
2
 10
-18.000000
 20
38.500000
 40
1.650000
 50
180.000000
 51
0.000000
  0
ARC
  8
0
  6
DASHED
 62
2
 10
-18.000000
 20
38.500000
 40
3.000000
 50
123.366997
 51
416.632996
  0
CIRCLE
  8
0
  6
DASHED
 62
2
 10
29.000000
 20
38.500000
 40
3.000000
  0
CIRCLE
  8
0
  6
DASHED
 62
2
 10
29.000000
 20
38.500000
 40
2.000000
  0
CIRCLE
  8
0
  6
DASHED
 62
2
 10
29.000000
 20
38.500000
 40
1.650000
  0
CIRCLE
  8
0
  6
DASHED
 62
2
 10
29.000000
 20
17.500000
 40
3.000000
  0
CIRCLE
  8
0
  6
DASHED
 62
2
 10
29.000000
 20
17.500000
 40
2.000000
  0
CIRCLE
  8
0
  6
DASHED
 62
2
 10
29.000000
 20
17.500000
 40
1.650000
  0
CIRCLE
  8
0
  6
CONTINUOUS
 62
7
 10
7.999980
 20
18.000000
 40
1.250000
  0
CIRCLE
  8
0
  6
CONTINUOUS
 62
2
 10
7.999980
 20
18.000000
 40
1.500000
  0
CIRCLE
  8
0
  6
CONTINUOUS
 62
2
 10
7.999980
 20
38.000000
 40
1.500000
  0
CIRCLE
  8
0
  6
CONTINUOUS
 62
7
 10
7.999980
 20
38.000000
 40
1.250000
  0
CIRCLE
  8
0
  6
CONTINUOUS
 62
2
 10
23.000000
 20
88.500000
 40
1.500000
  0
CIRCLE
  8
0
  6
CONTINUOUS
 62
2
 10
36.200001
 20
76.500000
 40
1.500000
  0
CIRCLE
  8
0
  6
CONTINUOUS
 62
7
 10
23.000000
 20
88.500000
 40
1.250000
  0
CIRCLE
  8
0
  6
CONTINUOUS
 62
7
 10
36.200001
 20
76.500000
 40
1.250000
  0
CIRCLE
  8
0
  6
CONTINUOUS
 62
2
 10
29.700001
 20
76.500000
 40
1.500000
  0
CIRCLE
  8
0
  6
CONTINUOUS
 62
2
 10
-12.000000
 20
88.500000
 40
1.500000
  0
CIRCLE
  8
0
  6
CONTINUOUS
 62
7
 10
-12.000000
 20
88.500000
 40
1.250000
  0
CIRCLE
  8
0
  6
CONTINUOUS
 62
2
 10
22.850000
 20
76.199997
 40
1.000000
  0
CIRCLE
  8
0
  6
CONTINUOUS
 62
2
 10
32.849998
 20
76.199997
 40
1.000000
  0
CIRCLE
  8
0
  6
CONTINUOUS
 62
7
 10
29.700001
 20
76.500000
 40
1.250000
  0
CIRCLE
  8
0
  6
CONTINUOUS
 62
7
 10
22.850000
 20
76.199997
 40
0.800000
  0
CIRCLE
  8
0
  6
CONTINUOUS
 62
7
 10
32.849998
 20
76.199997
 40
0.800000
  0
ARC
  8
0
  6
CONTINUOUS
 62
7
 10
-26.000000
 20
87.199997
 40
4.800000
 50
298.954987
 51
0.000000
  0
ARC
  8
0
  6
CONTINUOUS
 62
7
 10
-12.000000
 20
88.699997
 40
3.000000
 50
210.000000
 51
312.833008
  0
ARC
  8
0
  6
CONTINUOUS
 62
7
 10
23.000000
 20
88.699997
 40
3.000000
 50
227.166000
 51
330.000000
  0
ARC
  8
0
  6
CONTINUOUS
 62
7
 10
37.000000
 20
87.199997
 40
4.800000
 50
180.000000
 51
241.044998
  0
CIRCLE
  8
0
  6
CONTINUOUS
 62
7
 10
-183.000000
 20
17.500000
 40
1.600000
  0
CIRCLE
  8
0
  6
CONTINUOUS
 62
7
 10
187.000000
 20
17.500000
 40
1.600000
  0
CIRCLE
  8
0
  6
CONTINUOUS
 62
7
 10
-3.000020
 20
17.500000
 40
1.600000
  0
ARC
  8
0
  6
CONTINUOUS
 62
2
 10
-251.350006
 20
8.800030
 40
1.500000
 50
0.000000
 51
90.000000
  0
ARC
  8
0
  6
CONTINUOUS
 62
2
 10
-120.349998
 20
8.800030
 40
1.500000
 50
0.000000
 51
90.000000
  0
ARC
  8
0
  6
CONTINUOUS
 62
2
 10
-121.650002
 20
8.800030
 40
1.500000
 50
90.000000
 51
180.000000
  0
ARC
  8
0
  6
CONTINUOUS
 62
2
 10
-252.649994
 20
8.800030
 40
1.500000
 50
90.000000
 51
180.000000
  0
ARC
  8
0
  6
CONTINUOUS
 62
7
 10
-206.000000
 20
-31.000000
 40
4.800000
 50
0.000000
 51
56.442600
  0
CIRCLE
  8
0
  6
CONTINUOUS
 62
7
 10
-158.000000
 20
-31.000000
 40
2.100000
  0
CIRCLE
  8
0
  6
CONTINUOUS
 62
2
 10
-206.000000
 20
-31.000000
 40
2.500000
  0
ARC
  8
0
  6
CONTINUOUS
 62
7
 10
-158.000000
 20
-31.000000
 40
4.800000
 50
123.556999
 51
180.000000
  0
CIRCLE
  8
0
  6
CONTINUOUS
 62
2
 10
-158.000000
 20
-31.000000
 40
2.500000
  0
CIRCLE
  8
0
  6
CONTINUOUS
 62
7
 10
-206.000000
 20
-31.000000
 40
2.100000
  0
ARC
  8
0
  6
CONTINUOUS
 62
2
 10
256.350006
 20
8.800030
 40
1.500000
 50
90.000000
 51
180.000000
  0
ARC
  8
0
  6
CONTINUOUS
 62
2
 10
257.649994
 20
8.800030
 40
1.500000
 50
0.000000
 51
90.000000
  0
ARC
  8
0
  6
CONTINUOUS
 62
2
 10
118.650002
 20
8.800030
 40
1.500000
 50
0.000000
 51
90.000000
  0
ARC
  8
0
  6
CONTINUOUS
 62
2
 10
117.349998
 20
8.800030
 40
1.500000
 50
90.000000
 51
180.000000
  0
CIRCLE
  8
0
  6
CONTINUOUS
 62
2
 10
232.000000
 20
-31.000000
 40
2.500000
  0
CIRCLE
  8
0
  6
CONTINUOUS
 62
7
 10
154.000000
 20
-31.000000
 40
2.100000
  0
CIRCLE
  8
0
  6
CONTINUOUS
 62
7
 10
232.000000
 20
-31.000000
 40
2.100000
  0
CIRCLE
  8
0
  6
CONTINUOUS
 62
2
 10
154.000000
 20
-31.000000
 40
2.500000
  0
ARC
  8
0
  6
CONTINUOUS
 62
7
 10
154.000000
 20
-31.000000
 40
4.800000
 50
0.000000
 51
56.442600
  0
ARC
  8
0
  6
CONTINUOUS
 62
7
 10
232.000000
 20
-31.000000
 40
4.800000
 50
123.556999
 51
180.000000
  0
ARC
  8
0
  6
CONTINUOUS
 62
2
 10
63.349998
 20
8.800050
 40
1.500000
 50
90.000000
 51
180.000000
  0
ARC
  8
0
  6
CONTINUOUS
 62
2
 10
-62.650002
 20
8.800050
 40
1.500000
 50
90.000000
 51
180.000000
  0
ARC
  8
0
  6
CONTINUOUS
 62
2
 10
-61.349998
 20
8.800050
 40
1.500000
 50
0.000000
 51
90.000000
  0
ARC
  8
0
  6
CONTINUOUS
 62
2
 10
64.650002
 20
8.800050
 40
1.500000
 50
0.000000
 51
90.000000
  0
CIRCLE
  8
0
  6
CONTINUOUS
 62
2
 10
37.000000
 20
-31.000000
 40
2.500000
  0
ARC
  8
0
  6
CONTINUOUS
 62
7
 10
37.000000
 20
-31.200001
 40
4.800000
 50
118.955002
 51
180.000000
  0
ARC
  8
0
  6
CONTINUOUS
 62
7
 10
-26.000000
 20
-31.200001
 40
4.800000
 50
0.000000
 51
61.044701
  0
ARC
  8
0
  6
CONTINUOUS
 62
7
 10
35.000000
 20
-29.299999
 40
5.000000
 50
90.000000
 51
180.000000
  0
CIRCLE
  8
0
  6
CONTINUOUS
 62
7
 10
37.000000
 20
-31.000000
 40
2.100000
  0
CIRCLE
  8
0
  6
CONTINUOUS
 62
2
 10
-26.000000
 20
-31.000000
 40
2.500000
  0
CIRCLE
  8
0
  6
CONTINUOUS
 62
7
 10
-26.000000
 20
-31.000000
 40
2.100000
  0
TEXT
  8
0
 62
7
 10
202.930283
 20
183.925003
 40
6.300000
  1
Ver.1.0
 50
0.000000
 41
1.010330
 51
0.000000
  7
STANDARD
  0
TEXT
  8
0
 62
7
 10
172.714691
 20
-187.250000
 40
9.000000
  1
KOGANEI CORP.
 50
0.000000
 41
0.771524
 51
0.000000
  7
STANDARD
  0
TEXT
  8
0
 62
7
 10
-240.419724
 20
183.925003
 40
6.300000
  1
AP UNIT
 50
0.000000
 41
0.832036
 51
0.000000
  7
STANDARD
  0
TEXT
  8
0
 62
7
 10
106.166611
 20
158.925003
 40
6.300000
  1
MODEL:APUS-SD10-45-TP
 50
0.000000
 41
0.781387
 51
0.000000
  7
STANDARD
  0
TEXT
  8
0
 62
7
 10
-269.400391
 20
158.925003
 40
6.300000
  1
MODEL:APUS-SD10-15-TP
 50
0.000000
 41
0.795466
 51
0.000000
  7
STANDARD
  0
TEXT
  8
0
 62
7
 10
-81.617088
 20
158.925003
 40
6.300000
  1
MODEL:APUS-SD10-30-TP
 50
0.000000
 41
0.788363
 51
0.000000
  7
STANDARD
  0
ENDSEC
  0
EOF
