  0
SECTION
  2
HEADER
  0
ENDSEC
  0
SECTION
  2
TABLES
  0
TABLE
  2
LTYPE
 70
     4
  0
LTYPE
  2
CONTINUOUS
 70
    64
  3
Solid line
 72
    65
 73
     0
 40
0.000000
  0
LTYPE
  2
DASHED
 70
    64
  3
__ __ __ __ __ __ __ __ __ __ __ __ __ __ __
 72
    65
 73
     2
 40
3.500000
 49
2.000000
 49
-1.500000
  0
LTYPE
  2
CENTER
 70
    64
  3
____ _ ____ _ ____ _ ____ _ ____ _ ____ _ ____
 72
    65
 73
     4
 40
17.500000
 49
13.000000
 49
-1.500000
 49
1.500000
 49
-1.500000
  0
LTYPE
  2
PHANTOM
 70
    64
  3
_____ _ _ _____ _ _ _____ _ _ _____ _ _ ____  
 72
    65
 73
     6
 40
15.500000
 49
8.000000
 49
-1.500000
 49
1.500000
 49
-1.500000
 49
1.500000
 49
-1.500000
  0
ENDTAB
  0
TABLE
  2
LAYER
 70
     1
  0
LAYER
  2
0
 70
     0
 62
     7
  6
CONTINUOUS
  0
ENDTAB
  0
TABLE
  2
STYLE
 70
     1
  0
STYLE
  2
STANDARD
 70
     0
 40
0.000000
 41
1.000000
 50
0.000000
 71
     0
 42
0.200000
  3
txt
  4
BIGFONT
  0
ENDTAB
  0
TABLE
  2
VIEW
 70
     0
  0
ENDTAB
  0
ENDSEC
  0
SECTION
  2
BLOCKS
  0
ENDSEC
  0
SECTION
  2
ENTITIES
  0
LINE
  8
0
  6
CONTINUOUS
 62
7
 10
399.799988
 20
276.250000
 11
399.799988
 21
-276.750000
  0
LINE
  8
0
  6
CONTINUOUS
 62
7
 10
-399.250000
 20
276.250000
 11
-399.250000
 21
-276.750000
  0
LINE
  8
0
  6
CONTINUOUS
 62
7
 10
-399.250000
 20
276.250000
 11
399.799988
 21
276.250000
  0
LINE
  8
0
  6
CONTINUOUS
 62
7
 10
-399.250000
 20
-276.750000
 11
399.799988
 21
-276.750000
  0
LINE
  8
0
  6
CONTINUOUS
 62
7
 10
239.800003
 20
-251.750000
 11
399.799988
 21
-251.750000
  0
LINE
  8
0
  6
CONTINUOUS
 62
7
 10
239.800003
 20
251.250000
 11
399.799988
 21
251.250000
  0
LINE
  8
0
  6
CONTINUOUS
 62
7
 10
-399.250000
 20
251.250000
 11
-239.250000
 21
251.250000
  0
LINE
  8
0
  6
CONTINUOUS
 62
7
 10
239.800003
 20
-251.750000
 11
239.800003
 21
-276.750000
  0
LINE
  8
0
  6
CONTINUOUS
 62
7
 10
239.800003
 20
251.250000
 11
239.800003
 21
276.250000
  0
LINE
  8
0
  6
CONTINUOUS
 62
7
 10
-239.250000
 20
276.250000
 11
-239.250000
 21
251.250000
  0
LINE
  8
0
  6
CENTER
 62
2
 10
250.199997
 20
-107.000000
 11
132.000000
 21
-107.000000
  0
LINE
  8
0
  6
CONTINUOUS
 62
7
 10
249.199997
 20
-123.000000
 11
133.000000
 21
-123.000000
  0
LINE
  8
0
  6
CONTINUOUS
 62
7
 10
248.000000
 20
-116.000000
 11
141.000000
 21
-116.000000
  0
LINE
  8
0
  6
CONTINUOUS
 62
7
 10
143.000000
 20
-90.500000
 11
155.800003
 21
-90.500000
  0
LINE
  8
0
  6
CONTINUOUS
 62
7
 10
143.000000
 20
-123.500000
 11
155.800003
 21
-123.500000
  0
LINE
  8
0
  6
CONTINUOUS
 62
7
 10
143.000000
 20
-123.500000
 11
143.000000
 21
-123.000000
  0
LINE
  8
0
  6
CONTINUOUS
 62
7
 10
249.000000
 20
-123.500000
 11
249.000000
 21
-123.000000
  0
LINE
  8
0
  6
CONTINUOUS
 62
7
 10
143.000000
 20
-91.000000
 11
143.000000
 21
-90.500000
  0
LINE
  8
0
  6
CONTINUOUS
 62
7
 10
141.000000
 20
-123.000000
 11
141.000000
 21
-91.000000
  0
LINE
  8
0
  6
CONTINUOUS
 62
7
 10
249.199997
 20
-91.000000
 11
133.000000
 21
-91.000000
  0
LINE
  8
0
  6
CONTINUOUS
 62
7
 10
248.000000
 20
-123.000000
 11
248.000000
 21
-91.000000
  0
LINE
  8
0
  6
CONTINUOUS
 62
7
 10
248.000000
 20
-98.000000
 11
141.000000
 21
-98.000000
  0
LINE
  8
0
  6
CONTINUOUS
 62
7
 10
160.199997
 20
-123.500000
 11
249.000000
 21
-123.500000
  0
LINE
  8
0
  6
CONTINUOUS
 62
7
 10
133.000000
 20
-91.000000
 11
133.000000
 21
-123.000000
  0
LINE
  8
0
  6
CONTINUOUS
 62
7
 10
160.199997
 20
-90.500000
 11
232.199997
 21
-90.500000
  0
LINE
  8
0
  6
DASHED
 62
2
 10
155.800003
 20
-119.000000
 11
155.800003
 21
-123.000000
  0
LINE
  8
0
  6
DASHED
 62
2
 10
160.199997
 20
-119.000000
 11
160.199997
 21
-123.000000
  0
LINE
  8
0
  6
DASHED
 62
2
 10
155.800003
 20
-95.000000
 11
155.800003
 21
-91.000000
  0
LINE
  8
0
  6
DASHED
 62
2
 10
160.199997
 20
-95.000000
 11
160.199997
 21
-91.000000
  0
LINE
  8
0
  6
CONTINUOUS
 62
7
 10
155.800003
 20
-123.000000
 11
155.800003
 21
-123.500000
  0
LINE
  8
0
  6
CONTINUOUS
 62
7
 10
160.199997
 20
-123.000000
 11
160.199997
 21
-123.500000
  0
LINE
  8
0
  6
CONTINUOUS
 62
7
 10
160.199997
 20
-90.500000
 11
160.199997
 21
-91.000000
  0
LINE
  8
0
  6
CONTINUOUS
 62
7
 10
155.800003
 20
-90.500000
 11
155.800003
 21
-91.000000
  0
LINE
  8
0
  6
CONTINUOUS
 62
7
 10
141.000000
 20
-149.500000
 11
248.000000
 21
-149.500000
  0
LINE
  8
0
  6
CONTINUOUS
 62
7
 10
143.000000
 20
-171.500000
 11
249.000000
 21
-171.500000
  0
LINE
  8
0
  6
CONTINUOUS
 62
7
 10
143.000000
 20
-161.500000
 11
143.000000
 21
-171.500000
  0
LINE
  8
0
  6
CONTINUOUS
 62
7
 10
249.000000
 20
-161.500000
 11
249.000000
 21
-171.500000
  0
LINE
  8
0
  6
CONTINUOUS
 62
7
 10
141.000000
 20
-149.500000
 11
141.000000
 21
-170.500000
  0
LINE
  8
0
  6
CONTINUOUS
 62
7
 10
248.000000
 20
-149.500000
 11
248.000000
 21
-161.500000
  0
LINE
  8
0
  6
CONTINUOUS
 62
7
 10
248.000000
 20
-150.000000
 11
249.199997
 21
-150.000000
  0
LINE
  8
0
  6
CONTINUOUS
 62
7
 10
143.000000
 20
-162.000000
 11
249.000000
 21
-162.000000
  0
LINE
  8
0
  6
CONTINUOUS
 62
7
 10
153.800003
 20
-166.000000
 11
163.000000
 21
-166.000000
  0
LINE
  8
0
  6
CONTINUOUS
 62
7
 10
249.600006
 20
-150.500000
 11
249.199997
 21
-150.500000
  0
LINE
  8
0
  6
CONTINUOUS
 62
7
 10
155.800003
 20
-166.000000
 11
155.800003
 21
-171.500000
  0
LINE
  8
0
  6
CONTINUOUS
 62
7
 10
160.199997
 20
-166.000000
 11
160.199997
 21
-171.500000
  0
LINE
  8
0
  6
CENTER
 62
2
 10
158.000000
 20
-165.000000
 11
158.000000
 21
-172.500000
  0
LINE
  8
0
  6
CONTINUOUS
 62
7
 10
155.800003
 20
-47.000000
 11
160.199997
 21
-47.000000
  0
LINE
  8
0
  6
CONTINUOUS
 62
7
 10
133.000000
 20
-170.500000
 11
133.000000
 21
-150.000000
  0
LINE
  8
0
  6
CONTINUOUS
 62
7
 10
141.000000
 20
-170.500000
 11
133.000000
 21
-170.500000
  0
LINE
  8
0
  6
CONTINUOUS
 62
7
 10
141.000000
 20
-150.000000
 11
133.000000
 21
-150.000000
  0
LINE
  8
0
  6
CONTINUOUS
 62
7
 10
141.000000
 20
-161.500000
 11
249.199997
 21
-161.500000
  0
LINE
  8
0
  6
CONTINUOUS
 62
7
 10
143.000000
 20
-168.500000
 11
141.000000
 21
-168.500000
  0
LINE
  8
0
  6
CONTINUOUS
 62
7
 10
223.000000
 20
-166.000000
 11
169.000000
 21
-166.000000
  0
LINE
  8
0
  6
CONTINUOUS
 62
7
 10
238.199997
 20
-166.000000
 11
229.000000
 21
-166.000000
  0
LINE
  8
0
  6
CONTINUOUS
 62
7
 10
249.600006
 20
-154.500000
 11
249.199997
 21
-154.500000
  0
LINE
  8
0
  6
CONTINUOUS
 62
7
 10
141.000000
 20
-64.500000
 11
248.000000
 21
-64.500000
  0
LINE
  8
0
  6
CONTINUOUS
 62
7
 10
143.000000
 20
-42.500000
 11
249.000000
 21
-42.500000
  0
LINE
  8
0
  6
CONTINUOUS
 62
7
 10
143.000000
 20
-52.500000
 11
143.000000
 21
-42.500000
  0
LINE
  8
0
  6
CONTINUOUS
 62
7
 10
249.000000
 20
-52.500000
 11
249.000000
 21
-42.500000
  0
LINE
  8
0
  6
CONTINUOUS
 62
7
 10
141.000000
 20
-64.500000
 11
141.000000
 21
-61.299900
  0
LINE
  8
0
  6
CONTINUOUS
 62
7
 10
248.000000
 20
-64.000000
 11
249.199997
 21
-64.000000
  0
LINE
  8
0
  6
CONTINUOUS
 62
7
 10
141.000000
 20
-52.500000
 11
159.000000
 21
-52.500000
  0
LINE
  8
0
  6
CONTINUOUS
 62
7
 10
143.000000
 20
-52.000000
 11
161.000000
 21
-52.000000
  0
LINE
  8
0
  6
CENTER
 62
2
 10
158.000000
 20
-49.000000
 11
158.000000
 21
-41.500000
  0
LINE
  8
0
  6
CONTINUOUS
 62
7
 10
155.800003
 20
-48.000000
 11
155.800003
 21
-42.500000
  0
LINE
  8
0
  6
CONTINUOUS
 62
7
 10
160.199997
 20
-48.000000
 11
160.199997
 21
-42.500000
  0
LINE
  8
0
  6
CONTINUOUS
 62
7
 10
133.000000
 20
-43.500000
 11
133.000000
 21
-64.000000
  0
LINE
  8
0
  6
CONTINUOUS
 62
7
 10
141.000000
 20
-64.000000
 11
133.000000
 21
-64.000000
  0
LINE
  8
0
  6
CONTINUOUS
 62
7
 10
141.000000
 20
-43.500000
 11
133.000000
 21
-43.500000
  0
LINE
  8
0
  6
CONTINUOUS
 62
7
 10
248.000000
 20
-64.500000
 11
248.000000
 21
-52.500000
  0
LINE
  8
0
  6
CONTINUOUS
 62
7
 10
143.000000
 20
-45.500000
 11
141.000000
 21
-45.500000
  0
LINE
  8
0
  6
CONTINUOUS
 62
7
 10
238.199997
 20
-48.000000
 11
230.000000
 21
-48.000000
  0
LINE
  8
0
  6
CONTINUOUS
 62
7
 10
153.800003
 20
-48.000000
 11
161.000000
 21
-48.000000
  0
LINE
  8
0
  6
CONTINUOUS
 62
7
 10
246.500000
 20
-47.500000
 11
239.500000
 21
-47.500000
  0
LINE
  8
0
  6
CONTINUOUS
 62
7
 10
246.500000
 20
-48.500000
 11
239.500000
 21
-48.500000
  0
LINE
  8
0
  6
CONTINUOUS
 62
7
 10
243.000000
 20
-52.041401
 11
239.500000
 21
-50.020699
  0
LINE
  8
0
  6
CONTINUOUS
 62
7
 10
239.500000
 20
-50.020699
 11
239.500000
 21
-45.979198
  0
LINE
  8
0
  6
CONTINUOUS
 62
7
 10
246.500000
 20
-50.020599
 11
243.000000
 21
-52.041401
  0
LINE
  8
0
  6
CONTINUOUS
 62
7
 10
246.500000
 20
-50.020699
 11
246.500000
 21
-45.979198
  0
LINE
  8
0
  6
CONTINUOUS
 62
7
 10
239.500000
 20
-45.979198
 11
243.000000
 21
-43.958500
  0
LINE
  8
0
  6
CONTINUOUS
 62
7
 10
246.500000
 20
-45.979301
 11
243.000000
 21
-43.958500
  0
LINE
  8
0
  6
CONTINUOUS
 62
7
 10
152.500000
 20
-47.500000
 11
145.500000
 21
-47.500000
  0
LINE
  8
0
  6
CONTINUOUS
 62
7
 10
152.500000
 20
-48.500000
 11
145.500000
 21
-48.500000
  0
LINE
  8
0
  6
CONTINUOUS
 62
7
 10
149.000000
 20
-52.041401
 11
145.500000
 21
-50.020699
  0
LINE
  8
0
  6
CONTINUOUS
 62
7
 10
145.500000
 20
-50.020699
 11
145.500000
 21
-45.979198
  0
LINE
  8
0
  6
CONTINUOUS
 62
7
 10
152.500000
 20
-50.020699
 11
149.000000
 21
-52.041401
  0
LINE
  8
0
  6
CONTINUOUS
 62
7
 10
152.500000
 20
-50.020699
 11
152.500000
 21
-45.979198
  0
LINE
  8
0
  6
CONTINUOUS
 62
7
 10
145.500000
 20
-45.979198
 11
149.000000
 21
-43.958500
  0
LINE
  8
0
  6
CONTINUOUS
 62
7
 10
152.500000
 20
-45.979198
 11
149.000000
 21
-43.958500
  0
LINE
  8
0
  6
CENTER
 62
2
 10
234.000000
 20
-49.000000
 11
234.000000
 21
-41.500000
  0
LINE
  8
0
  6
DASHED
 62
2
 10
236.100006
 20
-47.000000
 11
236.100006
 21
-42.500000
  0
LINE
  8
0
  6
DASHED
 62
2
 10
231.899994
 20
-47.000000
 11
231.899994
 21
-42.500000
  0
LINE
  8
0
  6
DASHED
 62
2
 10
236.500000
 20
-47.000000
 11
236.500000
 21
-42.500000
  0
LINE
  8
0
  6
DASHED
 62
2
 10
231.500000
 20
-47.000000
 11
231.500000
 21
-42.500000
  0
LINE
  8
0
  6
DASHED
 62
2
 10
238.000000
 20
-47.000000
 11
230.000000
 21
-47.000000
  0
LINE
  8
0
  6
DASHED
 62
2
 10
177.000000
 20
-44.099998
 11
171.000000
 21
-44.099998
  0
LINE
  8
0
  6
DASHED
 62
2
 10
177.000000
 20
-44.099998
 11
177.000000
 21
-42.500000
  0
LINE
  8
0
  6
DASHED
 62
2
 10
171.000000
 20
-44.099998
 11
171.000000
 21
-42.500000
  0
LINE
  8
0
  6
DASHED
 62
2
 10
154.000000
 20
-48.000000
 11
154.000000
 21
-47.000000
  0
LINE
  8
0
  6
DASHED
 62
2
 10
238.000000
 20
-48.000000
 11
238.000000
 21
-47.000000
  0
LINE
  8
0
  6
DASHED
 62
2
 10
162.000000
 20
-47.000000
 11
160.199997
 21
-47.000000
  0
LINE
  8
0
  6
DASHED
 62
2
 10
155.800003
 20
-47.000000
 11
154.000000
 21
-47.000000
  0
LINE
  8
0
  6
CENTER
 62
2
 10
233.000000
 20
-147.500000
 11
233.000000
 21
-151.500000
  0
LINE
  8
0
  6
CENTER
 62
2
 10
178.000000
 20
-147.500000
 11
178.000000
 21
-151.500000
  0
LINE
  8
0
  6
CENTER
 62
2
 10
153.000000
 20
-147.500000
 11
153.000000
 21
-151.500000
  0
LINE
  8
0
  6
CENTER
 62
2
 10
131.000000
 20
-163.500000
 11
135.000000
 21
-163.500000
  0
LINE
  8
0
  6
CENTER
 62
2
 10
131.000000
 20
-154.500000
 11
135.000000
 21
-154.500000
  0
LINE
  8
0
  6
CENTER
 62
2
 10
131.000000
 20
-59.500000
 11
135.000000
 21
-59.500000
  0
LINE
  8
0
  6
CENTER
 62
2
 10
131.000000
 20
-50.500000
 11
135.000000
 21
-50.500000
  0
LINE
  8
0
  6
CENTER
 62
2
 10
153.000000
 20
-62.500000
 11
153.000000
 21
-66.500000
  0
LINE
  8
0
  6
CENTER
 62
2
 10
178.000000
 20
-62.500000
 11
178.000000
 21
-66.500000
  0
LINE
  8
0
  6
CENTER
 62
2
 10
233.000000
 20
-62.500000
 11
233.000000
 21
-66.500000
  0
LINE
  8
0
  6
CENTER
 62
2
 10
174.000000
 20
-165.000000
 11
174.000000
 21
-172.500000
  0
LINE
  8
0
  6
DASHED
 62
2
 10
171.899994
 20
-166.000000
 11
171.899994
 21
-169.899994
  0
LINE
  8
0
  6
DASHED
 62
2
 10
176.100006
 20
-166.000000
 11
176.100006
 21
-169.899994
  0
LINE
  8
0
  6
DASHED
 62
2
 10
171.500000
 20
-166.000000
 11
171.500000
 21
-169.899994
  0
LINE
  8
0
  6
DASHED
 62
2
 10
176.500000
 20
-166.000000
 11
176.500000
 21
-169.899994
  0
LINE
  8
0
  6
DASHED
 62
2
 10
171.000000
 20
-169.899994
 11
177.000000
 21
-169.899994
  0
LINE
  8
0
  6
DASHED
 62
2
 10
171.000000
 20
-169.899994
 11
171.000000
 21
-171.500000
  0
LINE
  8
0
  6
DASHED
 62
2
 10
177.000000
 20
-169.899994
 11
177.000000
 21
-171.500000
  0
LINE
  8
0
  6
CENTER
 62
2
 10
234.000000
 20
-165.000000
 11
234.000000
 21
-172.500000
  0
LINE
  8
0
  6
DASHED
 62
2
 10
231.899994
 20
-167.000000
 11
231.899994
 21
-171.500000
  0
LINE
  8
0
  6
DASHED
 62
2
 10
236.100006
 20
-167.000000
 11
236.100006
 21
-171.500000
  0
LINE
  8
0
  6
DASHED
 62
2
 10
231.500000
 20
-167.000000
 11
231.500000
 21
-171.500000
  0
LINE
  8
0
  6
DASHED
 62
2
 10
236.500000
 20
-167.000000
 11
236.500000
 21
-171.500000
  0
LINE
  8
0
  6
DASHED
 62
2
 10
230.000000
 20
-167.000000
 11
238.000000
 21
-167.000000
  0
LINE
  8
0
  6
DASHED
 62
2
 10
230.000000
 20
-166.000000
 11
230.000000
 21
-167.000000
  0
LINE
  8
0
  6
DASHED
 62
2
 10
238.000000
 20
-166.000000
 11
238.000000
 21
-167.000000
  0
LINE
  8
0
  6
DASHED
 62
2
 10
154.000000
 20
-167.000000
 11
155.800003
 21
-167.000000
  0
LINE
  8
0
  6
DASHED
 62
2
 10
154.000000
 20
-166.000000
 11
154.000000
 21
-167.000000
  0
LINE
  8
0
  6
CONTINUOUS
 62
7
 10
160.199997
 20
-167.000000
 11
155.800003
 21
-167.000000
  0
LINE
  8
0
  6
DASHED
 62
2
 10
162.000000
 20
-166.000000
 11
162.000000
 21
-167.000000
  0
LINE
  8
0
  6
DASHED
 62
2
 10
160.199997
 20
-167.000000
 11
162.000000
 21
-167.000000
  0
LINE
  8
0
  6
CONTINUOUS
 62
7
 10
249.199997
 20
-96.000000
 11
249.199997
 21
-91.000000
  0
LINE
  8
0
  6
CONTINUOUS
 62
7
 10
249.600006
 20
-100.000000
 11
249.600006
 21
-96.000000
  0
LINE
  8
0
  6
CONTINUOUS
 62
7
 10
249.600006
 20
-96.000000
 11
248.500000
 21
-96.000000
  0
LINE
  8
0
  6
CONTINUOUS
 62
7
 10
248.500000
 20
-100.000000
 11
248.500000
 21
-96.000000
  0
LINE
  8
0
  6
CONTINUOUS
 62
7
 10
249.600006
 20
-100.000000
 11
248.500000
 21
-100.000000
  0
LINE
  8
0
  6
CONTINUOUS
 62
7
 10
249.199997
 20
-114.000000
 11
249.199997
 21
-100.000000
  0
LINE
  8
0
  6
CONTINUOUS
 62
7
 10
249.600006
 20
-114.000000
 11
248.500000
 21
-114.000000
  0
LINE
  8
0
  6
CONTINUOUS
 62
7
 10
248.500000
 20
-114.000000
 11
248.500000
 21
-118.000000
  0
LINE
  8
0
  6
CONTINUOUS
 62
7
 10
249.600006
 20
-114.000000
 11
249.600006
 21
-118.000000
  0
LINE
  8
0
  6
CONTINUOUS
 62
7
 10
249.600006
 20
-118.000000
 11
248.500000
 21
-118.000000
  0
LINE
  8
0
  6
CONTINUOUS
 62
7
 10
249.199997
 20
-123.000000
 11
249.199997
 21
-118.000000
  0
LINE
  8
0
  6
CONTINUOUS
 62
7
 10
249.000000
 20
-91.000000
 11
249.000000
 21
-90.500000
  0
LINE
  8
0
  6
CENTER
 62
2
 10
149.000000
 20
-87.500000
 11
149.000000
 21
-92.000000
  0
LINE
  8
0
  6
CONTINUOUS
 62
7
 10
149.000000
 20
-89.900002
 11
149.000000
 21
-88.500000
  0
LINE
  8
0
  6
CONTINUOUS
 62
7
 10
145.100006
 20
-89.900002
 11
152.899994
 21
-89.900002
  0
LINE
  8
0
  6
CONTINUOUS
 62
7
 10
152.899994
 20
-89.900002
 11
152.899994
 21
-90.500000
  0
LINE
  8
0
  6
CONTINUOUS
 62
7
 10
145.100006
 20
-89.900002
 11
145.100006
 21
-90.500000
  0
LINE
  8
0
  6
CONTINUOUS
 62
7
 10
152.500000
 20
-88.500000
 11
152.500000
 21
-89.900002
  0
LINE
  8
0
  6
CONTINUOUS
 62
7
 10
145.500000
 20
-88.500000
 11
145.500000
 21
-89.900002
  0
LINE
  8
0
  6
CENTER
 62
2
 10
243.000000
 20
-87.500000
 11
243.000000
 21
-92.000000
  0
LINE
  8
0
  6
CONTINUOUS
 62
7
 10
249.199997
 20
-64.000000
 11
249.199997
 21
-52.500000
  0
LINE
  8
0
  6
CONTINUOUS
 62
7
 10
249.600006
 20
-63.500000
 11
249.600006
 21
-59.500000
  0
LINE
  8
0
  6
CONTINUOUS
 62
7
 10
249.199997
 20
-63.500000
 11
249.600006
 21
-63.500000
  0
LINE
  8
0
  6
CONTINUOUS
 62
7
 10
249.199997
 20
-59.500000
 11
249.600006
 21
-59.500000
  0
LINE
  8
0
  6
CONTINUOUS
 62
7
 10
249.600006
 20
-150.500000
 11
249.600006
 21
-154.500000
  0
LINE
  8
0
  6
CONTINUOUS
 62
7
 10
249.199997
 20
-150.000000
 11
249.199997
 21
-161.500000
  0
LINE
  8
0
  6
CENTER
 62
2
 10
235.199997
 20
148.000000
 11
132.000000
 21
148.000000
  0
LINE
  8
0
  6
CONTINUOUS
 62
7
 10
234.199997
 20
132.000000
 11
133.000000
 21
132.000000
  0
LINE
  8
0
  6
CONTINUOUS
 62
7
 10
233.000000
 20
139.000000
 11
141.000000
 21
139.000000
  0
LINE
  8
0
  6
CONTINUOUS
 62
7
 10
143.000000
 20
164.500000
 11
155.800003
 21
164.500000
  0
LINE
  8
0
  6
CONTINUOUS
 62
7
 10
143.000000
 20
131.500000
 11
155.800003
 21
131.500000
  0
LINE
  8
0
  6
CONTINUOUS
 62
7
 10
143.000000
 20
131.500000
 11
143.000000
 21
132.000000
  0
LINE
  8
0
  6
CONTINUOUS
 62
7
 10
234.000000
 20
131.500000
 11
234.000000
 21
132.000000
  0
LINE
  8
0
  6
CONTINUOUS
 62
7
 10
143.000000
 20
164.000000
 11
143.000000
 21
164.500000
  0
LINE
  8
0
  6
CONTINUOUS
 62
7
 10
141.000000
 20
132.000000
 11
141.000000
 21
164.000000
  0
LINE
  8
0
  6
CONTINUOUS
 62
7
 10
234.199997
 20
164.000000
 11
133.000000
 21
164.000000
  0
LINE
  8
0
  6
CONTINUOUS
 62
7
 10
233.000000
 20
132.000000
 11
233.000000
 21
164.000000
  0
LINE
  8
0
  6
CONTINUOUS
 62
7
 10
233.000000
 20
157.000000
 11
141.000000
 21
157.000000
  0
LINE
  8
0
  6
CONTINUOUS
 62
7
 10
160.199997
 20
131.500000
 11
234.000000
 21
131.500000
  0
LINE
  8
0
  6
CONTINUOUS
 62
7
 10
133.000000
 20
164.000000
 11
133.000000
 21
132.000000
  0
LINE
  8
0
  6
CONTINUOUS
 62
7
 10
160.199997
 20
164.500000
 11
217.199997
 21
164.500000
  0
LINE
  8
0
  6
DASHED
 62
2
 10
155.800003
 20
136.000000
 11
155.800003
 21
132.000000
  0
LINE
  8
0
  6
DASHED
 62
2
 10
160.199997
 20
136.000000
 11
160.199997
 21
132.000000
  0
LINE
  8
0
  6
DASHED
 62
2
 10
155.800003
 20
160.000000
 11
155.800003
 21
164.000000
  0
LINE
  8
0
  6
DASHED
 62
2
 10
160.199997
 20
160.000000
 11
160.199997
 21
164.000000
  0
LINE
  8
0
  6
CONTINUOUS
 62
7
 10
155.800003
 20
132.000000
 11
155.800003
 21
131.500000
  0
LINE
  8
0
  6
CONTINUOUS
 62
7
 10
160.199997
 20
132.000000
 11
160.199997
 21
131.500000
  0
LINE
  8
0
  6
CONTINUOUS
 62
7
 10
160.199997
 20
164.500000
 11
160.199997
 21
164.000000
  0
LINE
  8
0
  6
CONTINUOUS
 62
7
 10
155.800003
 20
164.500000
 11
155.800003
 21
164.000000
  0
LINE
  8
0
  6
CONTINUOUS
 62
7
 10
108.000000
 20
132.000000
 11
108.000000
 21
139.000000
  0
LINE
  8
0
  6
CONTINUOUS
 62
7
 10
107.699997
 20
139.300003
 11
107.699997
 21
156.699997
  0
LINE
  8
0
  6
CONTINUOUS
 62
7
 10
108.000000
 20
139.000000
 11
107.699997
 21
139.300003
  0
LINE
  8
0
  6
CONTINUOUS
 62
7
 10
108.000000
 20
132.000000
 11
87.000000
 21
132.000000
  0
LINE
  8
0
  6
CONTINUOUS
 62
7
 10
108.000000
 20
164.000000
 11
108.000000
 21
157.000000
  0
LINE
  8
0
  6
CONTINUOUS
 62
7
 10
108.000000
 20
157.000000
 11
107.699997
 21
156.699997
  0
LINE
  8
0
  6
CONTINUOUS
 62
7
 10
108.000000
 20
164.000000
 11
87.000000
 21
164.000000
  0
LINE
  8
0
  6
CONTINUOUS
 62
7
 10
95.500000
 20
164.500000
 11
95.500000
 21
164.000000
  0
LINE
  8
0
  6
CONTINUOUS
 62
7
 10
86.000000
 20
164.500000
 11
86.000000
 21
131.500000
  0
LINE
  8
0
  6
CONTINUOUS
 62
7
 10
95.500000
 20
131.500000
 11
86.000000
 21
131.500000
  0
LINE
  8
0
  6
CONTINUOUS
 62
7
 10
95.500000
 20
131.500000
 11
95.500000
 21
132.000000
  0
LINE
  8
0
  6
CENTER
 62
2
 10
108.699997
 20
148.000000
 11
85.000000
 21
148.000000
  0
LINE
  8
0
  6
CONTINUOUS
 62
7
 10
107.500000
 20
164.000000
 11
107.500000
 21
132.000000
  0
LINE
  8
0
  6
CONTINUOUS
 62
7
 10
87.000000
 20
164.000000
 11
87.000000
 21
132.000000
  0
LINE
  8
0
  6
CENTER
 62
2
 10
94.000000
 20
155.000000
 11
94.000000
 21
141.000000
  0
LINE
  8
0
  6
CENTER
 62
2
 10
293.000000
 20
140.600006
 11
293.000000
 21
155.399994
  0
LINE
  8
0
  6
CONTINUOUS
 62
7
 10
287.885986
 20
155.500000
 11
291.500000
 21
155.500000
  0
LINE
  8
0
  6
CONTINUOUS
 62
7
 10
284.000000
 20
155.500000
 11
285.114014
 21
155.500000
  0
LINE
  8
0
  6
CONTINUOUS
 62
7
 10
279.000000
 20
164.000000
 11
279.000000
 21
157.000000
  0
LINE
  8
0
  6
CONTINUOUS
 62
7
 10
279.299988
 20
156.699997
 11
279.299988
 21
139.300003
  0
LINE
  8
0
  6
CONTINUOUS
 62
7
 10
279.000000
 20
157.000000
 11
279.299988
 21
156.699997
  0
LINE
  8
0
  6
CONTINUOUS
 62
7
 10
284.000000
 20
140.500000
 11
285.114014
 21
140.500000
  0
LINE
  8
0
  6
CONTINUOUS
 62
7
 10
279.000000
 20
132.000000
 11
291.500000
 21
132.000000
  0
LINE
  8
0
  6
CONTINUOUS
 62
7
 10
279.000000
 20
132.000000
 11
279.000000
 21
139.000000
  0
LINE
  8
0
  6
CONTINUOUS
 62
7
 10
279.000000
 20
139.000000
 11
279.299988
 21
139.300003
  0
LINE
  8
0
  6
CONTINUOUS
 62
7
 10
279.000000
 20
164.000000
 11
291.500000
 21
164.000000
  0
LINE
  8
0
  6
CONTINUOUS
 62
7
 10
301.000000
 20
131.500000
 11
301.000000
 21
164.500000
  0
LINE
  8
0
  6
CONTINUOUS
 62
7
 10
291.500000
 20
176.500000
 11
291.500000
 21
168.000000
  0
LINE
  8
0
  6
CONTINUOUS
 62
7
 10
291.500000
 20
131.500000
 11
301.000000
 21
131.500000
  0
LINE
  8
0
  6
CENTER
 62
2
 10
278.299988
 20
148.000000
 11
302.000000
 21
148.000000
  0
LINE
  8
0
  6
CONTINUOUS
 62
7
 10
291.000000
 20
132.000000
 11
291.000000
 21
140.500000
  0
LINE
  8
0
  6
CONTINUOUS
 62
7
 10
284.000000
 20
155.500000
 11
284.000000
 21
140.500000
  0
LINE
  8
0
  6
CONTINUOUS
 62
7
 10
291.500000
 20
131.500000
 11
291.500000
 21
140.500000
  0
LINE
  8
0
  6
CONTINUOUS
 62
7
 10
287.885986
 20
140.500000
 11
291.500000
 21
140.500000
  0
LINE
  8
0
  6
CONTINUOUS
 62
7
 10
291.000000
 20
164.000000
 11
291.000000
 21
155.500000
  0
LINE
  8
0
  6
CONTINUOUS
 62
7
 10
141.000000
 20
105.500000
 11
233.000000
 21
105.500000
  0
LINE
  8
0
  6
CONTINUOUS
 62
7
 10
143.000000
 20
83.500000
 11
234.000000
 21
83.500000
  0
LINE
  8
0
  6
CONTINUOUS
 62
7
 10
143.000000
 20
93.500000
 11
143.000000
 21
83.500000
  0
LINE
  8
0
  6
CONTINUOUS
 62
7
 10
234.000000
 20
93.500000
 11
234.000000
 21
83.500000
  0
LINE
  8
0
  6
CONTINUOUS
 62
7
 10
141.000000
 20
105.500000
 11
141.000000
 21
84.500000
  0
LINE
  8
0
  6
CONTINUOUS
 62
7
 10
233.000000
 20
105.500000
 11
233.000000
 21
93.500000
  0
LINE
  8
0
  6
CONTINUOUS
 62
7
 10
233.000000
 20
105.000000
 11
234.199997
 21
105.000000
  0
LINE
  8
0
  6
CONTINUOUS
 62
7
 10
143.000000
 20
93.000000
 11
234.000000
 21
93.000000
  0
LINE
  8
0
  6
CONTINUOUS
 62
7
 10
234.600006
 20
104.500000
 11
234.199997
 21
104.500000
  0
LINE
  8
0
  6
CONTINUOUS
 62
7
 10
133.000000
 20
84.500000
 11
133.000000
 21
105.000000
  0
LINE
  8
0
  6
CONTINUOUS
 62
7
 10
141.000000
 20
84.500000
 11
133.000000
 21
84.500000
  0
LINE
  8
0
  6
CONTINUOUS
 62
7
 10
141.000000
 20
105.000000
 11
133.000000
 21
105.000000
  0
LINE
  8
0
  6
CONTINUOUS
 62
7
 10
141.000000
 20
93.500000
 11
234.199997
 21
93.500000
  0
LINE
  8
0
  6
CONTINUOUS
 62
7
 10
143.000000
 20
86.500000
 11
141.000000
 21
86.500000
  0
LINE
  8
0
  6
CONTINUOUS
 62
7
 10
234.600006
 20
100.500000
 11
234.199997
 21
100.500000
  0
LINE
  8
0
  6
CENTER
 62
2
 10
250.199997
 20
-213.500000
 11
132.000000
 21
-213.500000
  0
LINE
  8
0
  6
CONTINUOUS
 62
7
 10
143.000000
 20
-230.000000
 11
155.800003
 21
-230.000000
  0
LINE
  8
0
  6
CONTINUOUS
 62
7
 10
143.000000
 20
-197.000000
 11
155.800003
 21
-197.000000
  0
LINE
  8
0
  6
CONTINUOUS
 62
7
 10
143.000000
 20
-197.000000
 11
143.000000
 21
-230.000000
  0
LINE
  8
0
  6
CONTINUOUS
 62
7
 10
249.000000
 20
-197.000000
 11
249.000000
 21
-230.000000
  0
LINE
  8
0
  6
CONTINUOUS
 62
7
 10
133.000000
 20
-197.500000
 11
143.000000
 21
-197.500000
  0
LINE
  8
0
  6
CONTINUOUS
 62
7
 10
133.000000
 20
-229.500000
 11
143.000000
 21
-229.500000
  0
LINE
  8
0
  6
CONTINUOUS
 62
7
 10
141.000000
 20
-197.500000
 11
141.000000
 21
-229.500000
  0
LINE
  8
0
  6
CONTINUOUS
 62
7
 10
249.600006
 20
-206.500000
 11
249.199997
 21
-206.500000
  0
LINE
  8
0
  6
CONTINUOUS
 62
7
 10
249.600006
 20
-220.500000
 11
249.199997
 21
-220.500000
  0
LINE
  8
0
  6
CONTINUOUS
 62
7
 10
249.600006
 20
-224.500000
 11
249.199997
 21
-224.500000
  0
LINE
  8
0
  6
CONTINUOUS
 62
7
 10
249.600006
 20
-202.500000
 11
249.199997
 21
-202.500000
  0
LINE
  8
0
  6
CONTINUOUS
 62
7
 10
160.199997
 20
-197.000000
 11
249.000000
 21
-197.000000
  0
LINE
  8
0
  6
CONTINUOUS
 62
7
 10
160.199997
 20
-230.000000
 11
249.000000
 21
-230.000000
  0
LINE
  8
0
  6
CONTINUOUS
 62
7
 10
155.800003
 20
-197.500000
 11
160.199997
 21
-197.500000
  0
LINE
  8
0
  6
CONTINUOUS
 62
7
 10
155.800003
 20
-229.500000
 11
160.199997
 21
-229.500000
  0
LINE
  8
0
  6
CONTINUOUS
 62
7
 10
133.000000
 20
-197.500000
 11
133.000000
 21
-229.500000
  0
LINE
  8
0
  6
CONTINUOUS
 62
7
 10
155.800003
 20
-201.500000
 11
155.800003
 21
-197.000000
  0
LINE
  8
0
  6
CONTINUOUS
 62
7
 10
160.199997
 20
-201.500000
 11
160.199997
 21
-197.000000
  0
LINE
  8
0
  6
CONTINUOUS
 62
7
 10
155.800003
 20
-225.500000
 11
155.800003
 21
-230.000000
  0
LINE
  8
0
  6
CONTINUOUS
 62
7
 10
160.199997
 20
-225.500000
 11
160.199997
 21
-230.000000
  0
LINE
  8
0
  6
CONTINUOUS
 62
7
 10
141.000000
 20
190.500000
 11
233.000000
 21
190.500000
  0
LINE
  8
0
  6
CONTINUOUS
 62
7
 10
143.000000
 20
212.500000
 11
234.000000
 21
212.500000
  0
LINE
  8
0
  6
CONTINUOUS
 62
7
 10
143.000000
 20
202.500000
 11
143.000000
 21
212.500000
  0
LINE
  8
0
  6
CONTINUOUS
 62
7
 10
234.000000
 20
202.500000
 11
234.000000
 21
212.500000
  0
LINE
  8
0
  6
CONTINUOUS
 62
7
 10
141.000000
 20
190.500000
 11
141.000000
 21
193.699997
  0
LINE
  8
0
  6
CONTINUOUS
 62
7
 10
233.000000
 20
191.000000
 11
234.199997
 21
191.000000
  0
LINE
  8
0
  6
CONTINUOUS
 62
7
 10
141.000000
 20
202.500000
 11
159.000000
 21
202.500000
  0
LINE
  8
0
  6
CONTINUOUS
 62
7
 10
143.000000
 20
203.000000
 11
161.000000
 21
203.000000
  0
LINE
  8
0
  6
CENTER
 62
2
 10
158.000000
 20
206.199997
 11
158.000000
 21
213.500000
  0
LINE
  8
0
  6
CONTINUOUS
 62
7
 10
133.000000
 20
211.500000
 11
133.000000
 21
191.000000
  0
LINE
  8
0
  6
CONTINUOUS
 62
7
 10
141.000000
 20
191.000000
 11
133.000000
 21
191.000000
  0
LINE
  8
0
  6
CONTINUOUS
 62
7
 10
141.000000
 20
211.500000
 11
133.000000
 21
211.500000
  0
LINE
  8
0
  6
CONTINUOUS
 62
7
 10
233.000000
 20
190.500000
 11
233.000000
 21
202.500000
  0
LINE
  8
0
  6
CONTINUOUS
 62
7
 10
143.000000
 20
209.500000
 11
141.000000
 21
209.500000
  0
LINE
  8
0
  6
CONTINUOUS
 62
7
 10
231.500000
 20
207.500000
 11
224.500000
 21
207.500000
  0
LINE
  8
0
  6
CONTINUOUS
 62
7
 10
231.500000
 20
206.500000
 11
224.500000
 21
206.500000
  0
LINE
  8
0
  6
CONTINUOUS
 62
7
 10
228.000000
 20
202.959000
 11
224.500000
 21
204.979004
  0
LINE
  8
0
  6
CONTINUOUS
 62
7
 10
224.500000
 20
204.979004
 11
224.500000
 21
209.020996
  0
LINE
  8
0
  6
CONTINUOUS
 62
7
 10
231.500000
 20
204.979004
 11
228.000000
 21
202.959000
  0
LINE
  8
0
  6
CONTINUOUS
 62
7
 10
231.500000
 20
204.979004
 11
231.500000
 21
209.020996
  0
LINE
  8
0
  6
CONTINUOUS
 62
7
 10
224.500000
 20
209.020996
 11
228.000000
 21
211.042007
  0
LINE
  8
0
  6
CONTINUOUS
 62
7
 10
231.500000
 20
209.020996
 11
228.000000
 21
211.041000
  0
LINE
  8
0
  6
CONTINUOUS
 62
7
 10
152.500000
 20
207.500000
 11
145.500000
 21
207.500000
  0
LINE
  8
0
  6
CONTINUOUS
 62
7
 10
152.500000
 20
206.500000
 11
145.500000
 21
206.500000
  0
LINE
  8
0
  6
CONTINUOUS
 62
7
 10
149.000000
 20
202.959000
 11
145.500000
 21
204.979004
  0
LINE
  8
0
  6
CONTINUOUS
 62
7
 10
145.500000
 20
204.979004
 11
145.500000
 21
209.020996
  0
LINE
  8
0
  6
CONTINUOUS
 62
7
 10
152.500000
 20
204.979004
 11
149.000000
 21
202.959000
  0
LINE
  8
0
  6
CONTINUOUS
 62
7
 10
152.500000
 20
204.979004
 11
152.500000
 21
209.020996
  0
LINE
  8
0
  6
CONTINUOUS
 62
7
 10
145.500000
 20
209.020996
 11
149.000000
 21
211.041000
  0
LINE
  8
0
  6
CONTINUOUS
 62
7
 10
152.500000
 20
209.020996
 11
149.000000
 21
211.041000
  0
LINE
  8
0
  6
DASHED
 62
2
 10
154.000000
 20
207.199997
 11
154.000000
 21
208.000000
  0
LINE
  8
0
  6
DASHED
 62
2
 10
162.000000
 20
208.000000
 11
160.199997
 21
208.000000
  0
LINE
  8
0
  6
DASHED
 62
2
 10
155.800003
 20
208.000000
 11
154.000000
 21
208.000000
  0
LINE
  8
0
  6
CENTER
 62
2
 10
218.000000
 20
107.500000
 11
218.000000
 21
103.500000
  0
LINE
  8
0
  6
CENTER
 62
2
 10
153.000000
 20
107.500000
 11
153.000000
 21
103.500000
  0
LINE
  8
0
  6
CENTER
 62
2
 10
131.000000
 20
91.500000
 11
135.000000
 21
91.500000
  0
LINE
  8
0
  6
CENTER
 62
2
 10
131.000000
 20
100.500000
 11
135.000000
 21
100.500000
  0
LINE
  8
0
  6
CENTER
 62
2
 10
131.000000
 20
195.500000
 11
135.000000
 21
195.500000
  0
LINE
  8
0
  6
CENTER
 62
2
 10
131.000000
 20
204.500000
 11
135.000000
 21
204.500000
  0
LINE
  8
0
  6
CENTER
 62
2
 10
153.000000
 20
192.500000
 11
153.000000
 21
188.500000
  0
LINE
  8
0
  6
CENTER
 62
2
 10
218.000000
 20
192.500000
 11
218.000000
 21
188.500000
  0
LINE
  8
0
  6
DASHED
 62
2
 10
154.000000
 20
88.000000
 11
155.800003
 21
88.000000
  0
LINE
  8
0
  6
DASHED
 62
2
 10
154.000000
 20
88.800003
 11
154.000000
 21
88.000000
  0
LINE
  8
0
  6
CONTINUOUS
 62
7
 10
160.199997
 20
88.000000
 11
155.800003
 21
88.000000
  0
LINE
  8
0
  6
DASHED
 62
2
 10
162.000000
 20
88.800003
 11
162.000000
 21
88.000000
  0
LINE
  8
0
  6
DASHED
 62
2
 10
160.199997
 20
88.000000
 11
162.000000
 21
88.000000
  0
LINE
  8
0
  6
CENTER
 62
2
 10
277.000000
 20
160.500000
 11
281.000000
 21
160.500000
  0
LINE
  8
0
  6
CENTER
 62
2
 10
299.000000
 20
160.000000
 11
303.000000
 21
160.000000
  0
LINE
  8
0
  6
CENTER
 62
2
 10
299.000000
 20
136.000000
 11
303.000000
 21
136.000000
  0
LINE
  8
0
  6
CENTER
 62
2
 10
277.000000
 20
135.500000
 11
281.000000
 21
135.500000
  0
LINE
  8
0
  6
CONTINUOUS
 62
7
 10
234.199997
 20
159.000000
 11
234.199997
 21
164.000000
  0
LINE
  8
0
  6
CONTINUOUS
 62
7
 10
234.600006
 20
155.000000
 11
234.600006
 21
159.000000
  0
LINE
  8
0
  6
CONTINUOUS
 62
7
 10
234.600006
 20
159.000000
 11
233.500000
 21
159.000000
  0
LINE
  8
0
  6
CONTINUOUS
 62
7
 10
233.500000
 20
155.000000
 11
233.500000
 21
159.000000
  0
LINE
  8
0
  6
CONTINUOUS
 62
7
 10
234.600006
 20
155.000000
 11
233.500000
 21
155.000000
  0
LINE
  8
0
  6
CONTINUOUS
 62
7
 10
234.199997
 20
141.000000
 11
234.199997
 21
155.000000
  0
LINE
  8
0
  6
CONTINUOUS
 62
7
 10
234.600006
 20
141.000000
 11
233.500000
 21
141.000000
  0
LINE
  8
0
  6
CONTINUOUS
 62
7
 10
233.500000
 20
141.000000
 11
233.500000
 21
137.000000
  0
LINE
  8
0
  6
CONTINUOUS
 62
7
 10
234.600006
 20
141.000000
 11
234.600006
 21
137.000000
  0
LINE
  8
0
  6
CONTINUOUS
 62
7
 10
234.600006
 20
137.000000
 11
233.500000
 21
137.000000
  0
LINE
  8
0
  6
CONTINUOUS
 62
7
 10
234.199997
 20
132.000000
 11
234.199997
 21
137.000000
  0
LINE
  8
0
  6
CONTINUOUS
 62
7
 10
234.000000
 20
164.000000
 11
234.000000
 21
164.500000
  0
LINE
  8
0
  6
CENTER
 62
2
 10
149.000000
 20
167.500000
 11
149.000000
 21
163.000000
  0
LINE
  8
0
  6
CONTINUOUS
 62
7
 10
149.000000
 20
165.100006
 11
149.000000
 21
166.500000
  0
LINE
  8
0
  6
CONTINUOUS
 62
7
 10
145.100006
 20
165.100006
 11
152.899994
 21
165.100006
  0
LINE
  8
0
  6
CONTINUOUS
 62
7
 10
152.899994
 20
165.100006
 11
152.899994
 21
164.500000
  0
LINE
  8
0
  6
CONTINUOUS
 62
7
 10
145.100006
 20
165.100006
 11
145.100006
 21
164.500000
  0
LINE
  8
0
  6
CONTINUOUS
 62
7
 10
152.500000
 20
166.500000
 11
152.500000
 21
165.100006
  0
LINE
  8
0
  6
CONTINUOUS
 62
7
 10
145.500000
 20
166.500000
 11
145.500000
 21
165.100006
  0
LINE
  8
0
  6
CENTER
 62
2
 10
228.000000
 20
167.500000
 11
228.000000
 21
163.000000
  0
LINE
  8
0
  6
CONTINUOUS
 62
7
 10
87.458603
 20
168.000000
 11
87.458603
 21
165.100006
  0
LINE
  8
0
  6
CONTINUOUS
 62
7
 10
87.599998
 20
165.100006
 11
87.599998
 21
164.500000
  0
LINE
  8
0
  6
CONTINUOUS
 62
7
 10
95.541496
 20
165.100006
 11
87.458603
 21
165.100006
  0
LINE
  8
0
  6
CONTINUOUS
 62
7
 10
89.479301
 20
168.000000
 11
89.479301
 21
165.100006
  0
LINE
  8
0
  6
CENTER
 62
2
 10
91.500000
 20
169.000000
 11
91.500000
 21
163.500000
  0
LINE
  8
0
  6
CONTINUOUS
 62
7
 10
95.541496
 20
168.000000
 11
87.458603
 21
168.000000
  0
LINE
  8
0
  6
CONTINUOUS
 62
7
 10
95.541496
 20
168.000000
 11
95.541496
 21
165.100006
  0
LINE
  8
0
  6
CONTINUOUS
 62
7
 10
93.520798
 20
168.000000
 11
93.520798
 21
165.100006
  0
LINE
  8
0
  6
CONTINUOUS
 62
7
 10
95.400002
 20
165.100006
 11
95.400002
 21
164.500000
  0
LINE
  8
0
  6
CONTINUOUS
 62
7
 10
291.459015
 20
168.000000
 11
291.459015
 21
165.100006
  0
LINE
  8
0
  6
CONTINUOUS
 62
7
 10
291.600006
 20
165.100006
 11
291.600006
 21
164.500000
  0
LINE
  8
0
  6
CONTINUOUS
 62
7
 10
299.540985
 20
165.100006
 11
291.459015
 21
165.100006
  0
LINE
  8
0
  6
CONTINUOUS
 62
7
 10
293.479004
 20
168.000000
 11
293.479004
 21
165.100006
  0
LINE
  8
0
  6
CENTER
 62
2
 10
295.500000
 20
169.000000
 11
295.500000
 21
163.500000
  0
LINE
  8
0
  6
CONTINUOUS
 62
7
 10
299.540985
 20
168.000000
 11
291.459015
 21
168.000000
  0
LINE
  8
0
  6
CONTINUOUS
 62
7
 10
299.540985
 20
168.000000
 11
299.540985
 21
165.100006
  0
LINE
  8
0
  6
CONTINUOUS
 62
7
 10
297.520996
 20
168.000000
 11
297.520996
 21
165.100006
  0
LINE
  8
0
  6
CONTINUOUS
 62
7
 10
299.399994
 20
165.100006
 11
299.399994
 21
164.500000
  0
LINE
  8
0
  6
CONTINUOUS
 62
7
 10
234.199997
 20
191.000000
 11
234.199997
 21
202.500000
  0
LINE
  8
0
  6
CONTINUOUS
 62
7
 10
234.600006
 20
191.500000
 11
234.600006
 21
195.500000
  0
LINE
  8
0
  6
CONTINUOUS
 62
7
 10
234.199997
 20
191.500000
 11
234.600006
 21
191.500000
  0
LINE
  8
0
  6
CONTINUOUS
 62
7
 10
234.199997
 20
195.500000
 11
234.600006
 21
195.500000
  0
LINE
  8
0
  6
CONTINUOUS
 62
7
 10
234.600006
 20
104.500000
 11
234.600006
 21
100.500000
  0
LINE
  8
0
  6
CONTINUOUS
 62
7
 10
234.199997
 20
105.000000
 11
234.199997
 21
93.500000
  0
LINE
  8
0
  6
CONTINUOUS
 62
7
 10
249.199997
 20
-197.500000
 11
249.199997
 21
-229.500000
  0
LINE
  8
0
  6
CONTINUOUS
 62
7
 10
249.000000
 20
-197.500000
 11
249.199997
 21
-197.500000
  0
LINE
  8
0
  6
CONTINUOUS
 62
7
 10
249.000000
 20
-229.500000
 11
249.199997
 21
-229.500000
  0
LINE
  8
0
  6
CONTINUOUS
 62
7
 10
249.600006
 20
-202.500000
 11
249.600006
 21
-206.500000
  0
LINE
  8
0
  6
CONTINUOUS
 62
7
 10
249.600006
 20
-220.500000
 11
249.600006
 21
-224.500000
  0
LINE
  8
0
  6
CONTINUOUS
 62
7
 10
152.500000
 20
-233.500000
 11
145.500000
 21
-233.500000
  0
LINE
  8
0
  6
CENTER
 62
2
 10
149.000000
 20
-234.500000
 11
149.000000
 21
-228.500000
  0
LINE
  8
0
  6
CONTINUOUS
 62
7
 10
149.000000
 20
-230.600006
 11
149.000000
 21
-233.500000
  0
LINE
  8
0
  6
CONTINUOUS
 62
7
 10
152.899994
 20
-230.600006
 11
145.100006
 21
-230.600006
  0
LINE
  8
0
  6
CONTINUOUS
 62
7
 10
145.100006
 20
-230.600006
 11
145.100006
 21
-230.000000
  0
LINE
  8
0
  6
CONTINUOUS
 62
7
 10
152.899994
 20
-230.600006
 11
152.899994
 21
-230.000000
  0
LINE
  8
0
  6
CONTINUOUS
 62
7
 10
145.500000
 20
-233.500000
 11
145.500000
 21
-230.600006
  0
LINE
  8
0
  6
CONTINUOUS
 62
7
 10
152.500000
 20
-233.500000
 11
152.500000
 21
-230.600006
  0
LINE
  8
0
  6
CONTINUOUS
 62
7
 10
246.500000
 20
-233.500000
 11
239.500000
 21
-233.500000
  0
LINE
  8
0
  6
CENTER
 62
2
 10
243.000000
 20
-234.500000
 11
243.000000
 21
-228.500000
  0
LINE
  8
0
  6
CONTINUOUS
 62
7
 10
243.000000
 20
-230.600006
 11
243.000000
 21
-233.500000
  0
LINE
  8
0
  6
CONTINUOUS
 62
7
 10
246.899994
 20
-230.600006
 11
239.100006
 21
-230.600006
  0
LINE
  8
0
  6
CONTINUOUS
 62
7
 10
239.100006
 20
-230.600006
 11
239.100006
 21
-230.000000
  0
LINE
  8
0
  6
CONTINUOUS
 62
7
 10
246.899994
 20
-230.600006
 11
246.899994
 21
-230.000000
  0
LINE
  8
0
  6
CONTINUOUS
 62
7
 10
239.500000
 20
-233.500000
 11
239.500000
 21
-230.600006
  0
LINE
  8
0
  6
CONTINUOUS
 62
7
 10
246.500000
 20
-233.500000
 11
246.500000
 21
-230.600006
  0
LINE
  8
0
  6
CENTER
 62
2
 10
235.199997
 20
41.500000
 11
132.000000
 21
41.500000
  0
LINE
  8
0
  6
CONTINUOUS
 62
7
 10
143.000000
 20
25.000000
 11
155.800003
 21
25.000000
  0
LINE
  8
0
  6
CONTINUOUS
 62
7
 10
143.000000
 20
58.000000
 11
155.800003
 21
58.000000
  0
LINE
  8
0
  6
CONTINUOUS
 62
7
 10
143.000000
 20
58.000000
 11
143.000000
 21
25.000000
  0
LINE
  8
0
  6
CONTINUOUS
 62
7
 10
234.000000
 20
58.000000
 11
234.000000
 21
25.000000
  0
LINE
  8
0
  6
CONTINUOUS
 62
7
 10
133.000000
 20
57.500000
 11
143.000000
 21
57.500000
  0
LINE
  8
0
  6
CONTINUOUS
 62
7
 10
133.000000
 20
25.500000
 11
143.000000
 21
25.500000
  0
LINE
  8
0
  6
CONTINUOUS
 62
7
 10
141.000000
 20
57.500000
 11
141.000000
 21
25.500000
  0
LINE
  8
0
  6
CONTINUOUS
 62
7
 10
234.600006
 20
48.500000
 11
234.199997
 21
48.500000
  0
LINE
  8
0
  6
CONTINUOUS
 62
7
 10
234.600006
 20
34.500000
 11
234.199997
 21
34.500000
  0
LINE
  8
0
  6
CONTINUOUS
 62
7
 10
234.600006
 20
30.500000
 11
234.199997
 21
30.500000
  0
LINE
  8
0
  6
CONTINUOUS
 62
7
 10
234.600006
 20
52.500000
 11
234.199997
 21
52.500000
  0
LINE
  8
0
  6
CONTINUOUS
 62
7
 10
160.199997
 20
58.000000
 11
234.000000
 21
58.000000
  0
LINE
  8
0
  6
CONTINUOUS
 62
7
 10
160.199997
 20
25.000000
 11
234.000000
 21
25.000000
  0
LINE
  8
0
  6
CONTINUOUS
 62
7
 10
155.800003
 20
57.500000
 11
160.199997
 21
57.500000
  0
LINE
  8
0
  6
CONTINUOUS
 62
7
 10
155.800003
 20
25.500000
 11
160.199997
 21
25.500000
  0
LINE
  8
0
  6
CONTINUOUS
 62
7
 10
133.000000
 20
57.500000
 11
133.000000
 21
25.500000
  0
LINE
  8
0
  6
CONTINUOUS
 62
7
 10
155.800003
 20
53.500000
 11
155.800003
 21
58.000000
  0
LINE
  8
0
  6
CONTINUOUS
 62
7
 10
160.199997
 20
53.500000
 11
160.199997
 21
58.000000
  0
LINE
  8
0
  6
CONTINUOUS
 62
7
 10
155.800003
 20
29.500000
 11
155.800003
 21
25.000000
  0
LINE
  8
0
  6
CONTINUOUS
 62
7
 10
160.199997
 20
29.500000
 11
160.199997
 21
25.000000
  0
LINE
  8
0
  6
CONTINUOUS
 62
7
 10
234.199997
 20
57.500000
 11
234.199997
 21
25.500000
  0
LINE
  8
0
  6
CONTINUOUS
 62
7
 10
234.000000
 20
57.500000
 11
234.199997
 21
57.500000
  0
LINE
  8
0
  6
CONTINUOUS
 62
7
 10
234.000000
 20
25.500000
 11
234.199997
 21
25.500000
  0
LINE
  8
0
  6
CONTINUOUS
 62
7
 10
234.600006
 20
52.500000
 11
234.600006
 21
48.500000
  0
LINE
  8
0
  6
CONTINUOUS
 62
7
 10
234.600006
 20
34.500000
 11
234.600006
 21
30.500000
  0
LINE
  8
0
  6
CONTINUOUS
 62
7
 10
152.500000
 20
21.500000
 11
145.500000
 21
21.500000
  0
LINE
  8
0
  6
CENTER
 62
2
 10
149.000000
 20
20.500000
 11
149.000000
 21
26.500000
  0
LINE
  8
0
  6
CONTINUOUS
 62
7
 10
149.000000
 20
24.400000
 11
149.000000
 21
21.500000
  0
LINE
  8
0
  6
CONTINUOUS
 62
7
 10
152.899994
 20
24.400000
 11
145.100006
 21
24.400000
  0
LINE
  8
0
  6
CONTINUOUS
 62
7
 10
145.100006
 20
24.400000
 11
145.100006
 21
25.000000
  0
LINE
  8
0
  6
CONTINUOUS
 62
7
 10
152.899994
 20
24.400000
 11
152.899994
 21
25.000000
  0
LINE
  8
0
  6
CONTINUOUS
 62
7
 10
145.500000
 20
21.500000
 11
145.500000
 21
24.400000
  0
LINE
  8
0
  6
CONTINUOUS
 62
7
 10
152.500000
 20
21.500000
 11
152.500000
 21
24.400000
  0
LINE
  8
0
  6
CONTINUOUS
 62
7
 10
231.500000
 20
21.500000
 11
224.500000
 21
21.500000
  0
LINE
  8
0
  6
CENTER
 62
2
 10
228.000000
 20
20.500000
 11
228.000000
 21
26.500000
  0
LINE
  8
0
  6
CONTINUOUS
 62
7
 10
228.000000
 20
24.400000
 11
228.000000
 21
21.500000
  0
LINE
  8
0
  6
CONTINUOUS
 62
7
 10
231.899994
 20
24.400000
 11
224.100006
 21
24.400000
  0
LINE
  8
0
  6
CONTINUOUS
 62
7
 10
224.100006
 20
24.400000
 11
224.100006
 21
25.000000
  0
LINE
  8
0
  6
CONTINUOUS
 62
7
 10
231.899994
 20
24.400000
 11
231.899994
 21
25.000000
  0
LINE
  8
0
  6
CONTINUOUS
 62
7
 10
224.500000
 20
21.500000
 11
224.500000
 21
24.400000
  0
LINE
  8
0
  6
CONTINUOUS
 62
7
 10
231.500000
 20
21.500000
 11
231.500000
 21
24.400000
  0
LINE
  8
0
  6
CONTINUOUS
 62
7
 10
153.800003
 20
88.800003
 11
163.000000
 21
88.800003
  0
LINE
  8
0
  6
CONTINUOUS
 62
7
 10
160.149994
 20
88.000000
 11
155.850006
 21
88.000000
  0
LINE
  8
0
  6
CONTINUOUS
 62
7
 10
160.149994
 20
88.800003
 11
160.149994
 21
83.500000
  0
LINE
  8
0
  6
CONTINUOUS
 62
7
 10
155.850006
 20
88.800003
 11
155.850006
 21
83.500000
  0
LINE
  8
0
  6
CONTINUOUS
 62
7
 10
208.764008
 20
90.800003
 11
168.235992
 21
90.800003
  0
LINE
  8
0
  6
DASHED
 62
2
 10
215.000000
 20
88.800003
 11
215.000000
 21
88.000000
  0
LINE
  8
0
  6
CONTINUOUS
 62
7
 10
223.199997
 20
88.800003
 11
214.000000
 21
88.800003
  0
LINE
  8
0
  6
DASHED
 62
2
 10
223.000000
 20
88.000000
 11
215.000000
 21
88.000000
  0
LINE
  8
0
  6
CENTER
 62
2
 10
219.000000
 20
89.800003
 11
219.000000
 21
82.500000
  0
LINE
  8
0
  6
DASHED
 62
2
 10
221.100006
 20
88.000000
 11
221.100006
 21
83.500000
  0
LINE
  8
0
  6
DASHED
 62
2
 10
221.500000
 20
88.000000
 11
221.500000
 21
83.500000
  0
LINE
  8
0
  6
DASHED
 62
2
 10
223.000000
 20
88.800003
 11
223.000000
 21
88.000000
  0
LINE
  8
0
  6
DASHED
 62
2
 10
216.899994
 20
88.000000
 11
216.899994
 21
83.500000
  0
LINE
  8
0
  6
DASHED
 62
2
 10
216.500000
 20
88.000000
 11
216.500000
 21
83.500000
  0
LINE
  8
0
  6
DASHED
 62
2
 10
176.500000
 20
90.800003
 11
176.500000
 21
83.500000
  0
LINE
  8
0
  6
DASHED
 62
2
 10
176.100006
 20
90.800003
 11
176.100006
 21
83.500000
  0
LINE
  8
0
  6
CENTER
 62
2
 10
174.000000
 20
91.800003
 11
174.000000
 21
82.500000
  0
LINE
  8
0
  6
DASHED
 62
2
 10
171.899994
 20
90.800003
 11
171.899994
 21
83.500000
  0
LINE
  8
0
  6
DASHED
 62
2
 10
171.500000
 20
90.800003
 11
171.500000
 21
83.500000
  0
LINE
  8
0
  6
CENTER
 62
2
 10
158.000000
 20
89.800003
 11
158.000000
 21
82.500000
  0
LINE
  8
0
  6
CONTINUOUS
 62
7
 10
153.800003
 20
207.199997
 11
161.000000
 21
207.199997
  0
LINE
  8
0
  6
CONTINUOUS
 62
7
 10
155.850006
 20
207.199997
 11
155.850006
 21
212.500000
  0
LINE
  8
0
  6
CONTINUOUS
 62
7
 10
160.149994
 20
208.000000
 11
155.850006
 21
208.000000
  0
LINE
  8
0
  6
CONTINUOUS
 62
7
 10
160.149994
 20
207.199997
 11
160.149994
 21
212.500000
  0
LINE
  8
0
  6
DASHED
 62
2
 10
170.000000
 20
205.199997
 11
178.000000
 21
205.199997
  0
LINE
  8
0
  6
CENTER
 62
2
 10
174.000000
 20
204.199997
 11
174.000000
 21
213.500000
  0
LINE
  8
0
  6
DASHED
 62
2
 10
171.500000
 20
205.199997
 11
171.500000
 21
212.500000
  0
LINE
  8
0
  6
DASHED
 62
2
 10
176.500000
 20
205.199997
 11
176.500000
 21
212.500000
  0
LINE
  8
0
  6
DASHED
 62
2
 10
176.100006
 20
205.199997
 11
176.100006
 21
212.500000
  0
LINE
  8
0
  6
DASHED
 62
2
 10
171.899994
 20
205.199997
 11
171.899994
 21
212.500000
  0
LINE
  8
0
  6
CONTINUOUS
 62
7
 10
223.199997
 20
207.199997
 11
215.000000
 21
207.199997
  0
LINE
  8
0
  6
CENTER
 62
2
 10
219.000000
 20
206.199997
 11
219.000000
 21
213.500000
  0
LINE
  8
0
  6
DASHED
 62
2
 10
223.000000
 20
208.000000
 11
215.000000
 21
208.000000
  0
LINE
  8
0
  6
DASHED
 62
2
 10
216.899994
 20
208.000000
 11
216.899994
 21
212.500000
  0
LINE
  8
0
  6
DASHED
 62
2
 10
221.100006
 20
208.000000
 11
221.100006
 21
212.500000
  0
LINE
  8
0
  6
DASHED
 62
2
 10
221.500000
 20
208.000000
 11
221.500000
 21
212.500000
  0
LINE
  8
0
  6
DASHED
 62
2
 10
216.500000
 20
208.000000
 11
216.500000
 21
212.500000
  0
LINE
  8
0
  6
DASHED
 62
2
 10
223.000000
 20
207.199997
 11
223.000000
 21
208.000000
  0
LINE
  8
0
  6
CENTER
 62
2
 10
149.000000
 20
211.899994
 11
149.000000
 21
202.100006
  0
LINE
  8
0
  6
CENTER
 62
2
 10
144.100006
 20
207.000000
 11
153.899994
 21
207.000000
  0
LINE
  8
0
  6
CENTER
 62
2
 10
228.000000
 20
211.899994
 11
228.000000
 21
202.100006
  0
LINE
  8
0
  6
CENTER
 62
2
 10
223.100006
 20
207.000000
 11
232.899994
 21
207.000000
  0
LINE
  8
0
  6
CENTER
 62
2
 10
214.800003
 20
196.699997
 11
214.800003
 21
192.699997
  0
LINE
  8
0
  6
CENTER
 62
2
 10
212.800003
 20
194.699997
 11
216.800003
 21
194.699997
  0
LINE
  8
0
  6
CENTER
 62
2
 10
153.000000
 20
163.000000
 11
153.000000
 21
158.000000
  0
LINE
  8
0
  6
CENTER
 62
2
 10
150.500000
 20
160.500000
 11
155.500000
 21
160.500000
  0
LINE
  8
0
  6
CENTER
 62
2
 10
158.000000
 20
165.000000
 11
158.000000
 21
155.000000
  0
LINE
  8
0
  6
CENTER
 62
2
 10
153.000000
 20
160.000000
 11
163.000000
 21
160.000000
  0
LINE
  8
0
  6
CENTER
 62
2
 10
193.000000
 20
163.000000
 11
193.000000
 21
158.000000
  0
LINE
  8
0
  6
CENTER
 62
2
 10
190.500000
 20
160.500000
 11
195.500000
 21
160.500000
  0
LINE
  8
0
  6
CENTER
 62
2
 10
186.000000
 20
163.500000
 11
186.000000
 21
157.500000
  0
LINE
  8
0
  6
CENTER
 62
2
 10
183.000000
 20
160.500000
 11
189.000000
 21
160.500000
  0
LINE
  8
0
  6
CENTER
 62
2
 10
219.000000
 20
165.000000
 11
219.000000
 21
155.000000
  0
LINE
  8
0
  6
CENTER
 62
2
 10
214.000000
 20
160.000000
 11
224.000000
 21
160.000000
  0
LINE
  8
0
  6
CENTER
 62
2
 10
218.000000
 20
163.000000
 11
218.000000
 21
158.000000
  0
LINE
  8
0
  6
CENTER
 62
2
 10
215.500000
 20
160.500000
 11
220.500000
 21
160.500000
  0
LINE
  8
0
  6
CENTER
 62
2
 10
218.000000
 20
138.000000
 11
218.000000
 21
133.000000
  0
LINE
  8
0
  6
CENTER
 62
2
 10
215.500000
 20
135.500000
 11
220.500000
 21
135.500000
  0
LINE
  8
0
  6
CENTER
 62
2
 10
219.000000
 20
141.000000
 11
219.000000
 21
131.000000
  0
LINE
  8
0
  6
CENTER
 62
2
 10
214.000000
 20
136.000000
 11
224.000000
 21
136.000000
  0
LINE
  8
0
  6
CENTER
 62
2
 10
186.000000
 20
138.500000
 11
186.000000
 21
132.500000
  0
LINE
  8
0
  6
CENTER
 62
2
 10
183.000000
 20
135.500000
 11
189.000000
 21
135.500000
  0
LINE
  8
0
  6
CENTER
 62
2
 10
193.000000
 20
138.000000
 11
193.000000
 21
133.000000
  0
LINE
  8
0
  6
CENTER
 62
2
 10
190.500000
 20
135.500000
 11
195.500000
 21
135.500000
  0
LINE
  8
0
  6
CENTER
 62
2
 10
158.000000
 20
141.000000
 11
158.000000
 21
131.000000
  0
LINE
  8
0
  6
CENTER
 62
2
 10
153.000000
 20
136.000000
 11
163.000000
 21
136.000000
  0
LINE
  8
0
  6
CENTER
 62
2
 10
153.000000
 20
138.000000
 11
153.000000
 21
133.000000
  0
LINE
  8
0
  6
CENTER
 62
2
 10
150.500000
 20
135.500000
 11
155.500000
 21
135.500000
  0
LINE
  8
0
  6
CENTER
 62
2
 10
94.000000
 20
139.000000
 11
94.000000
 21
133.000000
  0
LINE
  8
0
  6
CENTER
 62
2
 10
91.000000
 20
136.000000
 11
97.000000
 21
136.000000
  0
LINE
  8
0
  6
CENTER
 62
2
 10
103.000000
 20
141.500000
 11
103.000000
 21
131.500000
  0
LINE
  8
0
  6
CENTER
 62
2
 10
98.000000
 20
136.500000
 11
108.000000
 21
136.500000
  0
LINE
  8
0
  6
CENTER
 62
2
 10
103.000000
 20
164.500000
 11
103.000000
 21
154.500000
  0
LINE
  8
0
  6
CENTER
 62
2
 10
98.000000
 20
159.500000
 11
108.000000
 21
159.500000
  0
LINE
  8
0
  6
CENTER
 62
2
 10
94.000000
 20
163.000000
 11
94.000000
 21
157.000000
  0
LINE
  8
0
  6
CENTER
 62
2
 10
91.000000
 20
160.000000
 11
97.000000
 21
160.000000
  0
LINE
  8
0
  6
CENTER
 62
2
 10
103.000000
 20
151.000000
 11
103.000000
 21
145.000000
  0
LINE
  8
0
  6
CENTER
 62
2
 10
149.000000
 20
92.500000
 11
149.000000
 21
85.500000
  0
LINE
  8
0
  6
CENTER
 62
2
 10
145.500000
 20
89.000000
 11
152.500000
 21
89.000000
  0
LINE
  8
0
  6
CENTER
 62
2
 10
166.000000
 20
91.500000
 11
166.000000
 21
86.500000
  0
LINE
  8
0
  6
CENTER
 62
2
 10
163.500000
 20
89.000000
 11
168.500000
 21
89.000000
  0
LINE
  8
0
  6
CENTER
 62
2
 10
228.000000
 20
92.500000
 11
228.000000
 21
85.500000
  0
LINE
  8
0
  6
CENTER
 62
2
 10
224.500000
 20
89.000000
 11
231.500000
 21
89.000000
  0
LINE
  8
0
  6
CENTER
 62
2
 10
221.699997
 20
103.500000
 11
221.699997
 21
98.500000
  0
LINE
  8
0
  6
CENTER
 62
2
 10
219.199997
 20
101.000000
 11
224.199997
 21
101.000000
  0
LINE
  8
0
  6
CENTER
 62
2
 10
224.800003
 20
103.300003
 11
224.800003
 21
99.300003
  0
LINE
  8
0
  6
CENTER
 62
2
 10
222.800003
 20
101.300003
 11
226.800003
 21
101.300003
  0
LINE
  8
0
  6
CENTER
 62
2
 10
228.199997
 20
103.500000
 11
228.199997
 21
98.500000
  0
LINE
  8
0
  6
CENTER
 62
2
 10
225.699997
 20
101.000000
 11
230.699997
 21
101.000000
  0
LINE
  8
0
  6
CENTER
 62
2
 10
214.800003
 20
103.300003
 11
214.800003
 21
99.300003
  0
LINE
  8
0
  6
CENTER
 62
2
 10
212.800003
 20
101.300003
 11
216.800003
 21
101.300003
  0
LINE
  8
0
  6
CENTER
 62
2
 10
158.000000
 20
56.700001
 11
158.000000
 21
50.299999
  0
LINE
  8
0
  6
CENTER
 62
2
 10
154.800003
 20
53.500000
 11
161.199997
 21
53.500000
  0
LINE
  8
0
  6
CENTER
 62
2
 10
158.000000
 20
32.700001
 11
158.000000
 21
26.299999
  0
LINE
  8
0
  6
CENTER
 62
2
 10
154.800003
 20
29.500000
 11
161.199997
 21
29.500000
  0
LINE
  8
0
  6
CENTER
 62
2
 10
174.000000
 20
57.000000
 11
174.000000
 21
50.000000
  0
LINE
  8
0
  6
CENTER
 62
2
 10
170.500000
 20
53.500000
 11
177.500000
 21
53.500000
  0
LINE
  8
0
  6
CENTER
 62
2
 10
219.000000
 20
57.000000
 11
219.000000
 21
50.000000
  0
LINE
  8
0
  6
CENTER
 62
2
 10
215.500000
 20
53.500000
 11
222.500000
 21
53.500000
  0
LINE
  8
0
  6
CENTER
 62
2
 10
219.000000
 20
33.000000
 11
219.000000
 21
26.000000
  0
LINE
  8
0
  6
CENTER
 62
2
 10
215.500000
 20
29.500000
 11
222.500000
 21
29.500000
  0
LINE
  8
0
  6
CENTER
 62
2
 10
174.000000
 20
33.000000
 11
174.000000
 21
26.000000
  0
LINE
  8
0
  6
CENTER
 62
2
 10
170.500000
 20
29.500000
 11
177.500000
 21
29.500000
  0
LINE
  8
0
  6
CENTER
 62
2
 10
149.000000
 20
-43.099998
 11
149.000000
 21
-52.900002
  0
LINE
  8
0
  6
CENTER
 62
2
 10
144.100006
 20
-48.000000
 11
153.800003
 21
-48.000000
  0
LINE
  8
0
  6
CENTER
 62
2
 10
243.000000
 20
-43.099998
 11
243.000000
 21
-52.900002
  0
LINE
  8
0
  6
CENTER
 62
2
 10
238.199997
 20
-48.000000
 11
247.899994
 21
-48.000000
  0
LINE
  8
0
  6
CENTER
 62
2
 10
153.000000
 20
-92.000000
 11
153.000000
 21
-97.000000
  0
LINE
  8
0
  6
CENTER
 62
2
 10
150.500000
 20
-94.500000
 11
155.500000
 21
-94.500000
  0
LINE
  8
0
  6
CENTER
 62
2
 10
158.000000
 20
-90.000000
 11
158.000000
 21
-100.000000
  0
LINE
  8
0
  6
CENTER
 62
2
 10
153.000000
 20
-95.000000
 11
163.000000
 21
-95.000000
  0
LINE
  8
0
  6
CENTER
 62
2
 10
153.000000
 20
-117.000000
 11
153.000000
 21
-122.000000
  0
LINE
  8
0
  6
CENTER
 62
2
 10
150.500000
 20
-119.500000
 11
155.500000
 21
-119.500000
  0
LINE
  8
0
  6
CENTER
 62
2
 10
158.000000
 20
-114.000000
 11
158.000000
 21
-124.000000
  0
LINE
  8
0
  6
CENTER
 62
2
 10
153.000000
 20
-119.000000
 11
163.000000
 21
-119.000000
  0
LINE
  8
0
  6
CENTER
 62
2
 10
208.000000
 20
-92.000000
 11
208.000000
 21
-97.000000
  0
LINE
  8
0
  6
CENTER
 62
2
 10
205.500000
 20
-94.500000
 11
210.500000
 21
-94.500000
  0
LINE
  8
0
  6
CENTER
 62
2
 10
208.000000
 20
-117.000000
 11
208.000000
 21
-122.000000
  0
LINE
  8
0
  6
CENTER
 62
2
 10
205.500000
 20
-119.500000
 11
210.500000
 21
-119.500000
  0
LINE
  8
0
  6
CENTER
 62
2
 10
186.000000
 20
-116.500000
 11
186.000000
 21
-122.500000
  0
LINE
  8
0
  6
CENTER
 62
2
 10
183.000000
 20
-119.500000
 11
189.000000
 21
-119.500000
  0
LINE
  8
0
  6
CENTER
 62
2
 10
186.000000
 20
-91.500000
 11
186.000000
 21
-97.500000
  0
LINE
  8
0
  6
CENTER
 62
2
 10
183.000000
 20
-94.500000
 11
189.000000
 21
-94.500000
  0
LINE
  8
0
  6
CENTER
 62
2
 10
233.000000
 20
-92.000000
 11
233.000000
 21
-97.000000
  0
LINE
  8
0
  6
CENTER
 62
2
 10
230.500000
 20
-94.500000
 11
235.500000
 21
-94.500000
  0
LINE
  8
0
  6
CENTER
 62
2
 10
234.000000
 20
-90.000000
 11
234.000000
 21
-100.000000
  0
LINE
  8
0
  6
CENTER
 62
2
 10
229.000000
 20
-95.000000
 11
239.000000
 21
-95.000000
  0
LINE
  8
0
  6
CENTER
 62
2
 10
234.000000
 20
-114.000000
 11
234.000000
 21
-124.000000
  0
LINE
  8
0
  6
CENTER
 62
2
 10
229.000000
 20
-119.000000
 11
239.000000
 21
-119.000000
  0
LINE
  8
0
  6
CENTER
 62
2
 10
233.000000
 20
-117.000000
 11
233.000000
 21
-122.000000
  0
LINE
  8
0
  6
CENTER
 62
2
 10
230.500000
 20
-119.500000
 11
235.500000
 21
-119.500000
  0
LINE
  8
0
  6
CENTER
 62
2
 10
149.000000
 20
-162.500000
 11
149.000000
 21
-169.500000
  0
LINE
  8
0
  6
CENTER
 62
2
 10
145.500000
 20
-166.000000
 11
152.500000
 21
-166.000000
  0
LINE
  8
0
  6
CENTER
 62
2
 10
166.000000
 20
-163.500000
 11
166.000000
 21
-168.500000
  0
LINE
  8
0
  6
CENTER
 62
2
 10
163.500000
 20
-166.000000
 11
168.500000
 21
-166.000000
  0
LINE
  8
0
  6
CENTER
 62
2
 10
226.000000
 20
-163.500000
 11
226.000000
 21
-168.500000
  0
LINE
  8
0
  6
CENTER
 62
2
 10
223.500000
 20
-166.000000
 11
228.500000
 21
-166.000000
  0
LINE
  8
0
  6
CENTER
 62
2
 10
243.000000
 20
-162.500000
 11
243.000000
 21
-169.500000
  0
LINE
  8
0
  6
CENTER
 62
2
 10
239.500000
 20
-166.000000
 11
246.500000
 21
-166.000000
  0
LINE
  8
0
  6
CENTER
 62
2
 10
243.199997
 20
-151.500000
 11
243.199997
 21
-156.500000
  0
LINE
  8
0
  6
CENTER
 62
2
 10
240.699997
 20
-154.000000
 11
245.699997
 21
-154.000000
  0
LINE
  8
0
  6
CENTER
 62
2
 10
239.800003
 20
-151.699997
 11
239.800003
 21
-155.699997
  0
LINE
  8
0
  6
CENTER
 62
2
 10
237.800003
 20
-153.699997
 11
241.800003
 21
-153.699997
  0
LINE
  8
0
  6
CENTER
 62
2
 10
236.699997
 20
-151.500000
 11
236.699997
 21
-156.500000
  0
LINE
  8
0
  6
CENTER
 62
2
 10
234.199997
 20
-154.000000
 11
239.199997
 21
-154.000000
  0
LINE
  8
0
  6
CENTER
 62
2
 10
229.800003
 20
-151.699997
 11
229.800003
 21
-155.699997
  0
LINE
  8
0
  6
CENTER
 62
2
 10
227.800003
 20
-153.699997
 11
231.800003
 21
-153.699997
  0
LINE
  8
0
  6
CENTER
 62
2
 10
158.000000
 20
-198.300003
 11
158.000000
 21
-204.699997
  0
LINE
  8
0
  6
CENTER
 62
2
 10
154.800003
 20
-201.500000
 11
161.199997
 21
-201.500000
  0
LINE
  8
0
  6
CENTER
 62
2
 10
158.000000
 20
-222.300003
 11
158.000000
 21
-228.699997
  0
LINE
  8
0
  6
CENTER
 62
2
 10
154.800003
 20
-225.500000
 11
161.199997
 21
-225.500000
  0
LINE
  8
0
  6
CENTER
 62
2
 10
174.000000
 20
-221.500000
 11
174.000000
 21
-229.500000
  0
LINE
  8
0
  6
CENTER
 62
2
 10
170.000000
 20
-225.500000
 11
178.000000
 21
-225.500000
  0
LINE
  8
0
  6
CENTER
 62
2
 10
174.000000
 20
-197.500000
 11
174.000000
 21
-205.500000
  0
LINE
  8
0
  6
CENTER
 62
2
 10
170.000000
 20
-201.500000
 11
178.000000
 21
-201.500000
  0
LINE
  8
0
  6
CENTER
 62
2
 10
234.000000
 20
-198.000000
 11
234.000000
 21
-205.000000
  0
LINE
  8
0
  6
CENTER
 62
2
 10
230.500000
 20
-201.500000
 11
237.500000
 21
-201.500000
  0
LINE
  8
0
  6
CENTER
 62
2
 10
234.000000
 20
-222.000000
 11
234.000000
 21
-229.000000
  0
LINE
  8
0
  6
CENTER
 62
2
 10
230.500000
 20
-225.500000
 11
237.500000
 21
-225.500000
  0
LINE
  8
0
  6
CONTINUOUS
 62
7
 10
217.199997
 20
164.000000
 11
217.199997
 21
173.000000
  0
LINE
  8
0
  6
CONTINUOUS
 62
7
 10
232.699997
 20
173.000000
 11
217.199997
 21
173.000000
  0
LINE
  8
0
  6
CONTINUOUS
 62
7
 10
232.699997
 20
164.000000
 11
232.699997
 21
173.000000
  0
LINE
  8
0
  6
CONTINUOUS
 62
7
 10
232.699997
 20
164.500000
 11
234.000000
 21
164.500000
  0
LINE
  8
0
  6
CONTINUOUS
 62
7
 10
232.199997
 20
-91.000000
 11
232.199997
 21
-82.000000
  0
LINE
  8
0
  6
CONTINUOUS
 62
7
 10
247.699997
 20
-82.000000
 11
232.199997
 21
-82.000000
  0
LINE
  8
0
  6
CONTINUOUS
 62
7
 10
247.699997
 20
-91.000000
 11
247.699997
 21
-82.000000
  0
LINE
  8
0
  6
CONTINUOUS
 62
7
 10
247.699997
 20
-90.500000
 11
249.000000
 21
-90.500000
  0
LINE
  8
0
  6
CONTINUOUS
 62
7
 10
217.199997
 20
192.500000
 11
217.199997
 21
200.500000
  0
LINE
  8
0
  6
CONTINUOUS
 62
7
 10
217.199997
 20
200.500000
 11
232.699997
 21
200.500000
  0
LINE
  8
0
  6
CONTINUOUS
 62
7
 10
232.699997
 20
192.500000
 11
232.699997
 21
200.500000
  0
LINE
  8
0
  6
CONTINUOUS
 62
7
 10
217.199997
 20
192.500000
 11
232.699997
 21
192.500000
  0
LINE
  8
0
  6
CONTINUOUS
 62
7
 10
167.199997
 20
203.000000
 11
234.000000
 21
203.000000
  0
LINE
  8
0
  6
CONTINUOUS
 62
7
 10
166.199997
 20
202.500000
 11
234.199997
 21
202.500000
  0
LINE
  8
0
  6
CONTINUOUS
 62
7
 10
247.699997
 20
-62.500000
 11
247.699997
 21
-54.500000
  0
LINE
  8
0
  6
CENTER
 62
2
 10
229.800003
 20
-58.299999
 11
229.800003
 21
-62.299999
  0
LINE
  8
0
  6
CENTER
 62
2
 10
227.800003
 20
-60.299999
 11
231.800003
 21
-60.299999
  0
LINE
  8
0
  6
CONTINUOUS
 62
7
 10
232.199997
 20
-62.500000
 11
232.199997
 21
-54.500000
  0
LINE
  8
0
  6
CONTINUOUS
 62
7
 10
232.199997
 20
-54.500000
 11
247.699997
 21
-54.500000
  0
LINE
  8
0
  6
CONTINUOUS
 62
7
 10
232.199997
 20
-62.500000
 11
247.699997
 21
-62.500000
  0
LINE
  8
0
  6
DASHED
 62
2
 10
171.500000
 20
-48.000000
 11
171.500000
 21
-44.099998
  0
LINE
  8
0
  6
DASHED
 62
2
 10
171.899994
 20
-48.000000
 11
171.899994
 21
-44.099998
  0
LINE
  8
0
  6
CENTER
 62
2
 10
174.000000
 20
-49.000000
 11
174.000000
 21
-41.500000
  0
LINE
  8
0
  6
DASHED
 62
2
 10
176.100006
 20
-48.000000
 11
176.100006
 21
-44.099998
  0
LINE
  8
0
  6
DASHED
 62
2
 10
176.500000
 20
-48.000000
 11
176.500000
 21
-44.099998
  0
LINE
  8
0
  6
DASHED
 62
2
 10
170.000000
 20
-48.000000
 11
178.000000
 21
-48.000000
  0
LINE
  8
0
  6
CONTINUOUS
 62
7
 10
167.199997
 20
-52.000000
 11
249.000000
 21
-52.000000
  0
LINE
  8
0
  6
CONTINUOUS
 62
7
 10
166.199997
 20
-52.500000
 11
249.199997
 21
-52.500000
  0
LINE
  8
0
  6
CONTINUOUS
 62
7
 10
281.000000
 20
173.000000
 11
289.000000
 21
173.000000
  0
LINE
  8
0
  6
CONTINUOUS
 62
7
 10
106.000000
 20
164.500000
 11
106.000000
 21
164.000000
  0
LINE
  8
0
  6
CONTINUOUS
 62
7
 10
98.000000
 20
164.500000
 11
98.000000
 21
164.000000
  0
LINE
  8
0
  6
CONTINUOUS
 62
7
 10
301.000000
 20
164.500000
 11
289.000000
 21
164.500000
  0
LINE
  8
0
  6
CONTINUOUS
 62
7
 10
300.500000
 20
164.500000
 11
300.500000
 21
176.500000
  0
LINE
  8
0
  6
CONTINUOUS
 62
7
 10
279.500000
 20
176.500000
 11
300.500000
 21
176.500000
  0
LINE
  8
0
  6
CONTINUOUS
 62
7
 10
279.500000
 20
164.500000
 11
279.500000
 21
176.500000
  0
LINE
  8
0
  6
CONTINUOUS
 62
7
 10
281.000000
 20
173.000000
 11
281.000000
 21
164.000000
  0
LINE
  8
0
  6
CONTINUOUS
 62
7
 10
289.000000
 20
173.000000
 11
289.000000
 21
164.000000
  0
LINE
  8
0
  6
CONTINUOUS
 62
7
 10
281.000000
 20
164.500000
 11
279.500000
 21
164.500000
  0
LINE
  8
0
  6
CONTINUOUS
 62
7
 10
143.000000
 20
36.500000
 11
141.000000
 21
36.500000
  0
LINE
  8
0
  6
CONTINUOUS
 62
7
 10
143.000000
 20
46.500000
 11
141.000000
 21
46.500000
  0
LINE
  8
0
  6
CONTINUOUS
 62
7
 10
217.199997
 20
25.000000
 11
217.199997
 21
16.500000
  0
LINE
  8
0
  6
CONTINUOUS
 62
7
 10
232.699997
 20
16.500000
 11
217.199997
 21
16.500000
  0
LINE
  8
0
  6
CONTINUOUS
 62
7
 10
232.699997
 20
25.000000
 11
232.699997
 21
16.500000
  0
LINE
  8
0
  6
CONTINUOUS
 62
7
 10
232.199997
 20
-230.000000
 11
232.199997
 21
-238.500000
  0
LINE
  8
0
  6
CONTINUOUS
 62
7
 10
247.699997
 20
-238.500000
 11
232.199997
 21
-238.500000
  0
LINE
  8
0
  6
CONTINUOUS
 62
7
 10
247.699997
 20
-230.000000
 11
247.699997
 21
-238.500000
  0
LINE
  8
0
  6
CONTINUOUS
 62
7
 10
143.000000
 20
-218.500000
 11
141.000000
 21
-218.500000
  0
LINE
  8
0
  6
CONTINUOUS
 62
7
 10
143.000000
 20
-208.500000
 11
141.000000
 21
-208.500000
  0
LINE
  8
0
  6
CONTINUOUS
 62
7
 10
215.000000
 20
203.000000
 11
215.000000
 21
212.000000
  0
LINE
  8
0
  6
CONTINUOUS
 62
7
 10
159.000000
 20
191.000000
 11
165.699997
 21
191.000000
  0
LINE
  8
0
  6
CONTINUOUS
 62
7
 10
161.000000
 20
191.000000
 11
161.000000
 21
212.000000
  0
LINE
  8
0
  6
CONTINUOUS
 62
7
 10
165.699997
 20
191.000000
 11
165.699997
 21
201.500000
  0
LINE
  8
0
  6
CONTINUOUS
 62
7
 10
161.000000
 20
212.000000
 11
215.000000
 21
212.000000
  0
LINE
  8
0
  6
CENTER
 62
2
 10
177.199997
 20
197.000000
 11
139.199997
 21
197.000000
  0
LINE
  8
0
  6
CONTINUOUS
 62
7
 10
159.000000
 20
199.397995
 11
161.000000
 21
199.397995
  0
LINE
  8
0
  6
CONTINUOUS
 62
7
 10
159.000000
 20
191.000000
 11
159.000000
 21
203.000000
  0
LINE
  8
0
  6
CONTINUOUS
 62
7
 10
159.000000
 20
193.436005
 11
161.000000
 21
193.436005
  0
LINE
  8
0
  6
CONTINUOUS
 62
7
 10
159.000000
 20
200.563995
 11
161.000000
 21
200.563995
  0
LINE
  8
0
  6
CONTINUOUS
 62
7
 10
159.000000
 20
194.602005
 11
161.000000
 21
194.602005
  0
LINE
  8
0
  6
CONTINUOUS
 62
7
 10
166.199997
 20
191.500000
 11
166.199997
 21
202.500000
  0
LINE
  8
0
  6
CONTINUOUS
 62
7
 10
166.199997
 20
191.500000
 11
172.199997
 21
191.500000
  0
LINE
  8
0
  6
CONTINUOUS
 62
7
 10
172.199997
 20
202.500000
 11
172.199997
 21
191.500000
  0
LINE
  8
0
  6
CONTINUOUS
 62
7
 10
176.199997
 20
198.000000
 11
176.199997
 21
196.000000
  0
LINE
  8
0
  6
CONTINUOUS
 62
7
 10
176.199997
 20
198.000000
 11
172.199997
 21
198.000000
  0
LINE
  8
0
  6
CONTINUOUS
 62
7
 10
176.199997
 20
196.000000
 11
172.199997
 21
196.000000
  0
LINE
  8
0
  6
CONTINUOUS
 62
7
 10
140.199997
 20
193.699997
 11
140.199997
 21
196.250000
  0
LINE
  8
0
  6
CONTINUOUS
 62
7
 10
141.199997
 20
193.699997
 11
140.199997
 21
193.699997
  0
LINE
  8
0
  6
CONTINUOUS
 62
7
 10
141.199997
 20
193.000000
 11
141.199997
 21
201.000000
  0
LINE
  8
0
  6
CONTINUOUS
 62
7
 10
141.199997
 20
196.250000
 11
140.199997
 21
196.250000
  0
LINE
  8
0
  6
CONTINUOUS
 62
7
 10
141.199997
 20
197.750000
 11
140.199997
 21
197.750000
  0
LINE
  8
0
  6
CONTINUOUS
 62
7
 10
140.199997
 20
197.750000
 11
140.199997
 21
200.300003
  0
LINE
  8
0
  6
CONTINUOUS
 62
7
 10
141.199997
 20
200.300003
 11
140.199997
 21
200.300003
  0
LINE
  8
0
  6
DASHED
 62
2
 10
162.000000
 20
207.199997
 11
162.000000
 21
208.000000
  0
LINE
  8
0
  6
CONTINUOUS
 62
7
 10
141.000000
 20
200.300003
 11
141.000000
 21
211.500000
  0
LINE
  8
0
  6
CONTINUOUS
 62
7
 10
141.000000
 20
196.250000
 11
141.000000
 21
197.750000
  0
LINE
  8
0
  6
CONTINUOUS
 62
7
 10
172.199997
 20
165.000000
 11
172.199997
 21
176.000000
  0
LINE
  8
0
  6
CONTINUOUS
 62
7
 10
172.199997
 20
171.500000
 11
176.199997
 21
171.500000
  0
LINE
  8
0
  6
CONTINUOUS
 62
7
 10
172.199997
 20
169.500000
 11
176.199997
 21
169.500000
  0
LINE
  8
0
  6
CONTINUOUS
 62
7
 10
176.199997
 20
169.500000
 11
176.199997
 21
171.500000
  0
LINE
  8
0
  6
CONTINUOUS
 62
7
 10
166.199997
 20
165.000000
 11
172.199997
 21
165.000000
  0
LINE
  8
0
  6
CONTINUOUS
 62
7
 10
166.199997
 20
165.000000
 11
166.199997
 21
176.000000
  0
LINE
  8
0
  6
CONTINUOUS
 62
7
 10
165.699997
 20
166.500000
 11
166.199997
 21
166.500000
  0
LINE
  8
0
  6
CONTINUOUS
 62
2
 10
165.699997
 20
167.000000
 11
166.199997
 21
167.000000
  0
LINE
  8
0
  6
CONTINUOUS
 62
2
 10
165.699997
 20
174.000000
 11
166.199997
 21
174.000000
  0
LINE
  8
0
  6
CONTINUOUS
 62
7
 10
165.699997
 20
174.500000
 11
166.199997
 21
174.500000
  0
LINE
  8
0
  6
CONTINUOUS
 62
7
 10
161.000000
 20
164.500000
 11
161.000000
 21
176.500000
  0
LINE
  8
0
  6
CONTINUOUS
 62
7
 10
165.699997
 20
164.500000
 11
165.699997
 21
176.500000
  0
LINE
  8
0
  6
CONTINUOUS
 62
7
 10
166.199997
 20
176.000000
 11
172.199997
 21
176.000000
  0
LINE
  8
0
  6
CONTINUOUS
 62
7
 10
140.199997
 20
167.199997
 11
140.199997
 21
173.800003
  0
LINE
  8
0
  6
CONTINUOUS
 62
7
 10
141.199997
 20
166.500000
 11
141.199997
 21
174.500000
  0
LINE
  8
0
  6
CONTINUOUS
 62
2
 10
159.000000
 20
173.800003
 11
141.199997
 21
173.800003
  0
LINE
  8
0
  6
CONTINUOUS
 62
7
 10
159.000000
 20
174.500000
 11
141.199997
 21
174.500000
  0
LINE
  8
0
  6
CONTINUOUS
 62
2
 10
159.000000
 20
167.199997
 11
141.199997
 21
167.199997
  0
LINE
  8
0
  6
CONTINUOUS
 62
7
 10
159.000000
 20
166.500000
 11
141.199997
 21
166.500000
  0
LINE
  8
0
  6
CENTER
 62
2
 10
177.199997
 20
170.500000
 11
139.199997
 21
170.500000
  0
LINE
  8
0
  6
CONTINUOUS
 62
7
 10
161.000000
 20
176.500000
 11
215.000000
 21
176.500000
  0
LINE
  8
0
  6
CONTINUOUS
 62
7
 10
159.000000
 20
176.000000
 11
159.000000
 21
165.000000
  0
LINE
  8
0
  6
CONTINUOUS
 62
7
 10
161.000000
 20
165.000000
 11
159.000000
 21
165.000000
  0
LINE
  8
0
  6
CONTINUOUS
 62
7
 10
161.000000
 20
165.673004
 11
159.000000
 21
165.673004
  0
LINE
  8
0
  6
CONTINUOUS
 62
7
 10
161.000000
 20
169.826996
 11
159.000000
 21
169.826996
  0
LINE
  8
0
  6
CONTINUOUS
 62
7
 10
161.000000
 20
171.173004
 11
159.000000
 21
171.173004
  0
LINE
  8
0
  6
CONTINUOUS
 62
7
 10
161.000000
 20
176.000000
 11
159.000000
 21
176.000000
  0
LINE
  8
0
  6
CONTINUOUS
 62
7
 10
161.000000
 20
175.326996
 11
159.000000
 21
175.326996
  0
LINE
  8
0
  6
CONTINUOUS
 62
7
 10
215.000000
 20
164.500000
 11
215.000000
 21
176.500000
  0
LINE
  8
0
  6
CONTINUOUS
 62
7
 10
141.199997
 20
173.800003
 11
140.199997
 21
173.800003
  0
LINE
  8
0
  6
CONTINUOUS
 62
7
 10
141.199997
 20
167.199997
 11
140.199997
 21
167.199997
  0
LINE
  8
0
  6
CONTINUOUS
 62
7
 10
95.537903
 20
169.826996
 11
97.935799
 21
165.673004
  0
LINE
  8
0
  6
CONTINUOUS
 62
7
 10
97.935799
 20
175.326996
 11
95.537903
 21
171.173004
  0
LINE
  8
0
  6
CONTINUOUS
 62
7
 10
103.898003
 20
176.000000
 11
99.102097
 21
176.000000
  0
LINE
  8
0
  6
CONTINUOUS
 62
7
 10
107.461998
 20
171.173004
 11
105.064003
 21
175.326996
  0
LINE
  8
0
  6
CONTINUOUS
 62
7
 10
105.064003
 20
165.673004
 11
107.461998
 21
169.826996
  0
LINE
  8
0
  6
CONTINUOUS
 62
7
 10
103.898003
 20
165.000000
 11
99.102097
 21
165.000000
  0
LINE
  8
0
  6
CONTINUOUS
 62
7
 10
100.750000
 20
168.863998
 11
100.750000
 21
166.570999
  0
LINE
  8
0
  6
CONTINUOUS
 62
7
 10
102.250000
 20
168.863998
 11
102.250000
 21
166.570999
  0
LINE
  8
0
  6
CONTINUOUS
 62
7
 10
102.250000
 20
174.429001
 11
102.250000
 21
172.136002
  0
LINE
  8
0
  6
CONTINUOUS
 62
7
 10
100.750000
 20
174.429001
 11
100.750000
 21
172.136002
  0
LINE
  8
0
  6
CENTER
 62
2
 10
108.500000
 20
170.500000
 11
94.500000
 21
170.500000
  0
LINE
  8
0
  6
CENTER
 62
2
 10
101.500000
 20
163.500000
 11
101.500000
 21
177.500000
  0
LINE
  8
0
  6
CONTINUOUS
 62
7
 10
86.000000
 20
164.500000
 11
107.500000
 21
164.500000
  0
LINE
  8
0
  6
CONTINUOUS
 62
7
 10
86.500000
 20
176.500000
 11
107.500000
 21
176.500000
  0
LINE
  8
0
  6
CONTINUOUS
 62
7
 10
86.500000
 20
176.500000
 11
86.500000
 21
164.500000
  0
LINE
  8
0
  6
CONTINUOUS
 62
7
 10
107.500000
 20
176.500000
 11
107.500000
 21
164.500000
  0
LINE
  8
0
  6
CONTINUOUS
 62
7
 10
291.500000
 20
165.100006
 11
291.500000
 21
155.500000
  0
LINE
  8
0
  6
CENTER
 62
2
 10
285.500000
 20
177.000000
 11
285.500000
 21
164.000000
  0
LINE
  8
0
  6
CENTER
 62
2
 10
279.000000
 20
170.500000
 11
292.000000
 21
170.500000
  0
LINE
  8
0
  6
CONTINUOUS
 62
7
 10
161.000000
 20
25.000000
 11
161.000000
 21
13.000000
  0
LINE
  8
0
  6
CONTINUOUS
 62
2
 10
159.000000
 20
15.700000
 11
141.199997
 21
15.700000
  0
LINE
  8
0
  6
CONTINUOUS
 62
7
 10
159.000000
 20
15.000000
 11
141.199997
 21
15.000000
  0
LINE
  8
0
  6
CONTINUOUS
 62
2
 10
159.000000
 20
22.299999
 11
152.500000
 21
22.299999
  0
LINE
  8
0
  6
CONTINUOUS
 62
7
 10
159.000000
 20
23.000000
 11
152.500000
 21
23.000000
  0
LINE
  8
0
  6
CENTER
 62
2
 10
162.000000
 20
19.000000
 11
139.199997
 21
19.000000
  0
LINE
  8
0
  6
CONTINUOUS
 62
7
 10
161.000000
 20
13.000000
 11
215.000000
 21
13.000000
  0
LINE
  8
0
  6
CONTINUOUS
 62
7
 10
159.000000
 20
13.500000
 11
159.000000
 21
24.500099
  0
LINE
  8
0
  6
CONTINUOUS
 62
7
 10
161.000000
 20
24.500099
 11
159.000000
 21
24.500099
  0
LINE
  8
0
  6
CONTINUOUS
 62
7
 10
161.000000
 20
23.826700
 11
159.000000
 21
23.826700
  0
LINE
  8
0
  6
CONTINUOUS
 62
7
 10
161.000000
 20
19.673401
 11
159.000000
 21
19.673401
  0
LINE
  8
0
  6
CONTINUOUS
 62
7
 10
161.000000
 20
18.326700
 11
159.000000
 21
18.326700
  0
LINE
  8
0
  6
CONTINUOUS
 62
7
 10
161.000000
 20
13.500000
 11
159.000000
 21
13.500000
  0
LINE
  8
0
  6
CONTINUOUS
 62
7
 10
161.000000
 20
14.173400
 11
159.000000
 21
14.173400
  0
LINE
  8
0
  6
CONTINUOUS
 62
7
 10
215.000000
 20
25.000000
 11
215.000000
 21
13.000000
  0
LINE
  8
0
  6
CONTINUOUS
 62
7
 10
140.199997
 20
22.299999
 11
140.199997
 21
15.700000
  0
LINE
  8
0
  6
CONTINUOUS
 62
7
 10
141.199997
 20
23.000000
 11
141.199997
 21
15.000000
  0
LINE
  8
0
  6
CONTINUOUS
 62
7
 10
141.199997
 20
15.700000
 11
140.199997
 21
15.700000
  0
LINE
  8
0
  6
CONTINUOUS
 62
7
 10
141.199997
 20
22.299999
 11
140.199997
 21
22.299999
  0
LINE
  8
0
  6
CONTINUOUS
 62
7
 10
145.500000
 20
23.000000
 11
141.199997
 21
23.000000
  0
LINE
  8
0
  6
CONTINUOUS
 62
2
 10
145.500000
 20
22.299999
 11
141.199997
 21
22.299999
  0
LINE
  8
0
  6
CENTER
 62
2
 10
-164.800003
 20
148.000000
 11
-243.000000
 21
148.000000
  0
LINE
  8
0
  6
CONTINUOUS
 62
7
 10
-165.800003
 20
132.000000
 11
-242.000000
 21
132.000000
  0
LINE
  8
0
  6
CONTINUOUS
 62
7
 10
-167.000000
 20
139.000000
 11
-234.000000
 21
139.000000
  0
LINE
  8
0
  6
CONTINUOUS
 62
7
 10
-232.000000
 20
164.500000
 11
-219.199997
 21
164.500000
  0
LINE
  8
0
  6
CONTINUOUS
 62
7
 10
-232.000000
 20
131.500000
 11
-219.199997
 21
131.500000
  0
LINE
  8
0
  6
CONTINUOUS
 62
7
 10
-232.000000
 20
131.500000
 11
-232.000000
 21
132.000000
  0
LINE
  8
0
  6
CONTINUOUS
 62
7
 10
-166.000000
 20
131.500000
 11
-166.000000
 21
132.000000
  0
LINE
  8
0
  6
CONTINUOUS
 62
7
 10
-232.000000
 20
164.000000
 11
-232.000000
 21
164.500000
  0
LINE
  8
0
  6
CONTINUOUS
 62
7
 10
-234.000000
 20
132.000000
 11
-234.000000
 21
164.000000
  0
LINE
  8
0
  6
CONTINUOUS
 62
7
 10
-165.800003
 20
164.000000
 11
-242.000000
 21
164.000000
  0
LINE
  8
0
  6
CONTINUOUS
 62
7
 10
-167.000000
 20
132.000000
 11
-167.000000
 21
164.000000
  0
LINE
  8
0
  6
CONTINUOUS
 62
7
 10
-167.000000
 20
157.000000
 11
-234.000000
 21
157.000000
  0
LINE
  8
0
  6
CONTINUOUS
 62
7
 10
-214.800003
 20
131.500000
 11
-166.000000
 21
131.500000
  0
LINE
  8
0
  6
CONTINUOUS
 62
7
 10
-242.000000
 20
164.000000
 11
-242.000000
 21
132.000000
  0
LINE
  8
0
  6
CONTINUOUS
 62
7
 10
-214.800003
 20
164.500000
 11
-182.800003
 21
164.500000
  0
LINE
  8
0
  6
DASHED
 62
2
 10
-219.199997
 20
136.000000
 11
-219.199997
 21
132.000000
  0
LINE
  8
0
  6
DASHED
 62
2
 10
-214.800003
 20
136.000000
 11
-214.800003
 21
132.000000
  0
LINE
  8
0
  6
DASHED
 62
2
 10
-219.199997
 20
160.000000
 11
-219.199997
 21
164.000000
  0
LINE
  8
0
  6
DASHED
 62
2
 10
-214.800003
 20
160.000000
 11
-214.800003
 21
164.000000
  0
LINE
  8
0
  6
CONTINUOUS
 62
7
 10
-219.199997
 20
132.000000
 11
-219.199997
 21
131.500000
  0
LINE
  8
0
  6
CONTINUOUS
 62
7
 10
-214.800003
 20
132.000000
 11
-214.800003
 21
131.500000
  0
LINE
  8
0
  6
CONTINUOUS
 62
7
 10
-214.800003
 20
164.500000
 11
-214.800003
 21
164.000000
  0
LINE
  8
0
  6
CONTINUOUS
 62
7
 10
-219.199997
 20
164.500000
 11
-219.199997
 21
164.000000
  0
LINE
  8
0
  6
CONTINUOUS
 62
7
 10
108.000000
 20
-123.000000
 11
108.000000
 21
-116.000000
  0
LINE
  8
0
  6
CONTINUOUS
 62
7
 10
107.699997
 20
-115.699997
 11
107.699997
 21
-98.300003
  0
LINE
  8
0
  6
CONTINUOUS
 62
7
 10
108.000000
 20
-116.000000
 11
107.699997
 21
-115.699997
  0
LINE
  8
0
  6
CONTINUOUS
 62
7
 10
108.000000
 20
-123.000000
 11
87.000000
 21
-123.000000
  0
LINE
  8
0
  6
CONTINUOUS
 62
7
 10
108.000000
 20
-91.000000
 11
108.000000
 21
-98.000000
  0
LINE
  8
0
  6
CONTINUOUS
 62
7
 10
108.000000
 20
-97.999901
 11
107.699997
 21
-98.299896
  0
LINE
  8
0
  6
CONTINUOUS
 62
7
 10
108.000000
 20
-91.000000
 11
87.000000
 21
-91.000000
  0
LINE
  8
0
  6
CONTINUOUS
 62
7
 10
95.500000
 20
-90.500000
 11
95.500000
 21
-91.000000
  0
LINE
  8
0
  6
CONTINUOUS
 62
7
 10
86.000000
 20
-90.500000
 11
86.000000
 21
-123.500000
  0
LINE
  8
0
  6
CONTINUOUS
 62
7
 10
95.500000
 20
-123.500000
 11
86.000000
 21
-123.500000
  0
LINE
  8
0
  6
CONTINUOUS
 62
7
 10
95.500000
 20
-123.500000
 11
95.500000
 21
-123.000000
  0
LINE
  8
0
  6
CENTER
 62
2
 10
108.699997
 20
-107.000000
 11
85.000000
 21
-107.000000
  0
LINE
  8
0
  6
CONTINUOUS
 62
7
 10
107.500000
 20
-91.000000
 11
107.500000
 21
-123.000000
  0
LINE
  8
0
  6
CONTINUOUS
 62
7
 10
87.000000
 20
-91.000000
 11
87.000000
 21
-123.000000
  0
LINE
  8
0
  6
CENTER
 62
2
 10
94.000000
 20
-100.000000
 11
94.000000
 21
-114.000000
  0
LINE
  8
0
  6
CONTINUOUS
 62
7
 10
-234.000000
 20
105.500000
 11
-167.000000
 21
105.500000
  0
LINE
  8
0
  6
CONTINUOUS
 62
7
 10
-232.000000
 20
83.500000
 11
-166.000000
 21
83.500000
  0
LINE
  8
0
  6
CONTINUOUS
 62
7
 10
-232.000000
 20
93.500000
 11
-232.000000
 21
83.500000
  0
LINE
  8
0
  6
CONTINUOUS
 62
7
 10
-166.000000
 20
93.500000
 11
-166.000000
 21
83.500000
  0
LINE
  8
0
  6
CONTINUOUS
 62
7
 10
-234.000000
 20
105.500000
 11
-234.000000
 21
84.500000
  0
LINE
  8
0
  6
CONTINUOUS
 62
7
 10
-167.000000
 20
105.500000
 11
-167.000000
 21
93.500000
  0
LINE
  8
0
  6
CONTINUOUS
 62
7
 10
-167.000000
 20
105.000000
 11
-165.800003
 21
105.000000
  0
LINE
  8
0
  6
CONTINUOUS
 62
7
 10
-232.000000
 20
93.000000
 11
-166.000000
 21
93.000000
  0
LINE
  8
0
  6
CONTINUOUS
 62
7
 10
-165.399994
 20
104.500000
 11
-165.800003
 21
104.500000
  0
LINE
  8
0
  6
CONTINUOUS
 62
7
 10
-242.000000
 20
84.500000
 11
-242.000000
 21
105.000000
  0
LINE
  8
0
  6
CONTINUOUS
 62
7
 10
-234.000000
 20
84.500000
 11
-242.000000
 21
84.500000
  0
LINE
  8
0
  6
CONTINUOUS
 62
7
 10
-234.000000
 20
105.000000
 11
-242.000000
 21
105.000000
  0
LINE
  8
0
  6
CONTINUOUS
 62
7
 10
-234.000000
 20
93.500000
 11
-165.800003
 21
93.500000
  0
LINE
  8
0
  6
CONTINUOUS
 62
7
 10
-232.000000
 20
86.500000
 11
-234.000000
 21
86.500000
  0
LINE
  8
0
  6
CONTINUOUS
 62
7
 10
-165.399994
 20
100.500000
 11
-165.800003
 21
100.500000
  0
LINE
  8
0
  6
CONTINUOUS
 62
7
 10
-234.000000
 20
190.500000
 11
-167.000000
 21
190.500000
  0
LINE
  8
0
  6
CONTINUOUS
 62
7
 10
-232.000000
 20
212.500000
 11
-166.000000
 21
212.500000
  0
LINE
  8
0
  6
CONTINUOUS
 62
7
 10
-232.000000
 20
202.500000
 11
-232.000000
 21
212.500000
  0
LINE
  8
0
  6
CONTINUOUS
 62
7
 10
-166.000000
 20
202.500000
 11
-166.000000
 21
212.500000
  0
LINE
  8
0
  6
CONTINUOUS
 62
7
 10
-234.000000
 20
190.500000
 11
-234.000000
 21
193.699997
  0
LINE
  8
0
  6
CONTINUOUS
 62
7
 10
-167.000000
 20
191.000000
 11
-165.800003
 21
191.000000
  0
LINE
  8
0
  6
CONTINUOUS
 62
7
 10
-234.000000
 20
202.500000
 11
-216.000000
 21
202.500000
  0
LINE
  8
0
  6
CONTINUOUS
 62
7
 10
-232.000000
 20
203.000000
 11
-214.000000
 21
203.000000
  0
LINE
  8
0
  6
CENTER
 62
2
 10
-217.000000
 20
206.199997
 11
-217.000000
 21
213.500000
  0
LINE
  8
0
  6
CONTINUOUS
 62
7
 10
-242.000000
 20
211.500000
 11
-242.000000
 21
191.000000
  0
LINE
  8
0
  6
CONTINUOUS
 62
7
 10
-234.000000
 20
191.000000
 11
-242.000000
 21
191.000000
  0
LINE
  8
0
  6
CONTINUOUS
 62
7
 10
-234.000000
 20
211.500000
 11
-242.000000
 21
211.500000
  0
LINE
  8
0
  6
CONTINUOUS
 62
7
 10
-167.000000
 20
190.500000
 11
-167.000000
 21
202.500000
  0
LINE
  8
0
  6
CONTINUOUS
 62
7
 10
-232.000000
 20
209.500000
 11
-234.000000
 21
209.500000
  0
LINE
  8
0
  6
CONTINUOUS
 62
7
 10
-168.500000
 20
207.500000
 11
-175.500000
 21
207.500000
  0
LINE
  8
0
  6
CONTINUOUS
 62
7
 10
-168.500000
 20
206.500000
 11
-175.500000
 21
206.500000
  0
LINE
  8
0
  6
CONTINUOUS
 62
7
 10
-172.000000
 20
202.959000
 11
-175.500000
 21
204.979004
  0
LINE
  8
0
  6
CONTINUOUS
 62
7
 10
-175.500000
 20
204.979004
 11
-175.500000
 21
209.020996
  0
LINE
  8
0
  6
CONTINUOUS
 62
7
 10
-168.500000
 20
204.979004
 11
-172.000000
 21
202.959000
  0
LINE
  8
0
  6
CONTINUOUS
 62
7
 10
-168.500000
 20
204.979004
 11
-168.500000
 21
209.020996
  0
LINE
  8
0
  6
CONTINUOUS
 62
7
 10
-175.500000
 20
209.020996
 11
-172.000000
 21
211.041000
  0
LINE
  8
0
  6
CONTINUOUS
 62
7
 10
-168.500000
 20
209.020996
 11
-172.000000
 21
211.041000
  0
LINE
  8
0
  6
CONTINUOUS
 62
7
 10
-222.500000
 20
207.500000
 11
-229.500000
 21
207.500000
  0
LINE
  8
0
  6
CONTINUOUS
 62
7
 10
-222.500000
 20
206.500000
 11
-229.500000
 21
206.500000
  0
LINE
  8
0
  6
CONTINUOUS
 62
7
 10
-226.000000
 20
202.959000
 11
-229.500000
 21
204.979004
  0
LINE
  8
0
  6
CONTINUOUS
 62
7
 10
-229.500000
 20
204.979004
 11
-229.500000
 21
209.020996
  0
LINE
  8
0
  6
CONTINUOUS
 62
7
 10
-222.500000
 20
204.979004
 11
-226.000000
 21
202.959000
  0
LINE
  8
0
  6
CONTINUOUS
 62
7
 10
-222.500000
 20
204.979004
 11
-222.500000
 21
209.020996
  0
LINE
  8
0
  6
CONTINUOUS
 62
7
 10
-229.500000
 20
209.020996
 11
-226.000000
 21
211.041000
  0
LINE
  8
0
  6
CONTINUOUS
 62
7
 10
-222.500000
 20
209.020996
 11
-226.000000
 21
211.041000
  0
LINE
  8
0
  6
DASHED
 62
2
 10
-221.000000
 20
207.199997
 11
-221.000000
 21
208.000000
  0
LINE
  8
0
  6
DASHED
 62
2
 10
-213.000000
 20
208.000000
 11
-214.800003
 21
208.000000
  0
LINE
  8
0
  6
DASHED
 62
2
 10
-219.199997
 20
208.000000
 11
-221.000000
 21
208.000000
  0
LINE
  8
0
  6
CENTER
 62
2
 10
-182.000000
 20
107.500000
 11
-182.000000
 21
103.500000
  0
LINE
  8
0
  6
CENTER
 62
2
 10
-202.000000
 20
107.500000
 11
-202.000000
 21
103.500000
  0
LINE
  8
0
  6
CENTER
 62
2
 10
-222.000000
 20
107.500000
 11
-222.000000
 21
103.500000
  0
LINE
  8
0
  6
CENTER
 62
2
 10
-244.000000
 20
91.500000
 11
-240.000000
 21
91.500000
  0
LINE
  8
0
  6
CENTER
 62
2
 10
-244.000000
 20
100.500000
 11
-240.000000
 21
100.500000
  0
LINE
  8
0
  6
CENTER
 62
2
 10
-244.000000
 20
195.500000
 11
-240.000000
 21
195.500000
  0
LINE
  8
0
  6
CENTER
 62
2
 10
-244.000000
 20
204.500000
 11
-240.000000
 21
204.500000
  0
LINE
  8
0
  6
CENTER
 62
2
 10
-222.000000
 20
192.500000
 11
-222.000000
 21
188.500000
  0
LINE
  8
0
  6
CENTER
 62
2
 10
-202.000000
 20
192.500000
 11
-202.000000
 21
188.500000
  0
LINE
  8
0
  6
CENTER
 62
2
 10
-182.000000
 20
192.500000
 11
-182.000000
 21
188.500000
  0
LINE
  8
0
  6
DASHED
 62
2
 10
-221.000000
 20
88.000000
 11
-219.199997
 21
88.000000
  0
LINE
  8
0
  6
DASHED
 62
2
 10
-221.000000
 20
88.800003
 11
-221.000000
 21
88.000000
  0
LINE
  8
0
  6
CONTINUOUS
 62
7
 10
-214.800003
 20
88.000000
 11
-219.199997
 21
88.000000
  0
LINE
  8
0
  6
DASHED
 62
2
 10
-213.000000
 20
88.800003
 11
-213.000000
 21
88.000000
  0
LINE
  8
0
  6
DASHED
 62
2
 10
-214.800003
 20
88.000000
 11
-213.000000
 21
88.000000
  0
LINE
  8
0
  6
CONTINUOUS
 62
7
 10
-165.800003
 20
159.000000
 11
-165.800003
 21
164.000000
  0
LINE
  8
0
  6
CONTINUOUS
 62
7
 10
-165.399994
 20
155.000000
 11
-165.399994
 21
159.000000
  0
LINE
  8
0
  6
CONTINUOUS
 62
7
 10
-165.399994
 20
159.000000
 11
-166.500000
 21
159.000000
  0
LINE
  8
0
  6
CONTINUOUS
 62
7
 10
-166.500000
 20
155.000000
 11
-166.500000
 21
159.000000
  0
LINE
  8
0
  6
CONTINUOUS
 62
7
 10
-165.399994
 20
155.000000
 11
-166.500000
 21
155.000000
  0
LINE
  8
0
  6
CONTINUOUS
 62
7
 10
-165.800003
 20
141.000000
 11
-165.800003
 21
155.000000
  0
LINE
  8
0
  6
CONTINUOUS
 62
7
 10
-165.399994
 20
141.000000
 11
-166.500000
 21
141.000000
  0
LINE
  8
0
  6
CONTINUOUS
 62
7
 10
-166.500000
 20
141.000000
 11
-166.500000
 21
137.000000
  0
LINE
  8
0
  6
CONTINUOUS
 62
7
 10
-165.399994
 20
141.000000
 11
-165.399994
 21
137.000000
  0
LINE
  8
0
  6
CONTINUOUS
 62
7
 10
-165.399994
 20
137.000000
 11
-166.500000
 21
137.000000
  0
LINE
  8
0
  6
CONTINUOUS
 62
7
 10
-165.800003
 20
132.000000
 11
-165.800003
 21
137.000000
  0
LINE
  8
0
  6
CONTINUOUS
 62
7
 10
-166.000000
 20
164.000000
 11
-166.000000
 21
164.500000
  0
LINE
  8
0
  6
CENTER
 62
2
 10
-226.000000
 20
167.500000
 11
-226.000000
 21
163.000000
  0
LINE
  8
0
  6
CONTINUOUS
 62
7
 10
-226.000000
 20
165.100006
 11
-226.000000
 21
166.500000
  0
LINE
  8
0
  6
CONTINUOUS
 62
7
 10
-229.899994
 20
165.100006
 11
-222.100006
 21
165.100006
  0
LINE
  8
0
  6
CONTINUOUS
 62
7
 10
-222.100006
 20
165.100006
 11
-222.100006
 21
164.500000
  0
LINE
  8
0
  6
CONTINUOUS
 62
7
 10
-229.899994
 20
165.100006
 11
-229.899994
 21
164.500000
  0
LINE
  8
0
  6
CONTINUOUS
 62
7
 10
-222.500000
 20
166.500000
 11
-222.500000
 21
165.100006
  0
LINE
  8
0
  6
CONTINUOUS
 62
7
 10
-229.500000
 20
166.500000
 11
-229.500000
 21
165.100006
  0
LINE
  8
0
  6
CENTER
 62
2
 10
-172.000000
 20
167.500000
 11
-172.000000
 21
163.000000
  0
LINE
  8
0
  6
CONTINUOUS
 62
7
 10
87.458603
 20
-87.000000
 11
87.458603
 21
-89.900002
  0
LINE
  8
0
  6
CONTINUOUS
 62
7
 10
87.599998
 20
-89.900002
 11
87.599998
 21
-90.500000
  0
LINE
  8
0
  6
CONTINUOUS
 62
7
 10
95.541496
 20
-89.900002
 11
87.458603
 21
-89.900002
  0
LINE
  8
0
  6
CONTINUOUS
 62
7
 10
89.479301
 20
-87.000000
 11
89.479301
 21
-89.900002
  0
LINE
  8
0
  6
CENTER
 62
2
 10
91.500000
 20
-86.000000
 11
91.500000
 21
-91.500000
  0
LINE
  8
0
  6
CONTINUOUS
 62
7
 10
95.541496
 20
-87.000000
 11
87.458603
 21
-87.000000
  0
LINE
  8
0
  6
CONTINUOUS
 62
7
 10
95.541496
 20
-87.000000
 11
95.541496
 21
-89.900002
  0
LINE
  8
0
  6
CONTINUOUS
 62
7
 10
93.520798
 20
-87.000000
 11
93.520798
 21
-89.900002
  0
LINE
  8
0
  6
CONTINUOUS
 62
7
 10
95.400002
 20
-89.900002
 11
95.400002
 21
-90.500000
  0
LINE
  8
0
  6
CONTINUOUS
 62
7
 10
-165.800003
 20
191.000000
 11
-165.800003
 21
202.500000
  0
LINE
  8
0
  6
CONTINUOUS
 62
7
 10
-165.399994
 20
191.500000
 11
-165.399994
 21
195.500000
  0
LINE
  8
0
  6
CONTINUOUS
 62
7
 10
-165.800003
 20
191.500000
 11
-165.399994
 21
191.500000
  0
LINE
  8
0
  6
CONTINUOUS
 62
7
 10
-165.800003
 20
195.500000
 11
-165.399994
 21
195.500000
  0
LINE
  8
0
  6
CONTINUOUS
 62
7
 10
-165.399994
 20
104.500000
 11
-165.399994
 21
100.500000
  0
LINE
  8
0
  6
CONTINUOUS
 62
7
 10
-165.800003
 20
105.000000
 11
-165.800003
 21
93.500000
  0
LINE
  8
0
  6
CENTER
 62
2
 10
-164.800003
 20
41.500000
 11
-243.000000
 21
41.500000
  0
LINE
  8
0
  6
CONTINUOUS
 62
7
 10
-232.000000
 20
25.000000
 11
-219.199997
 21
25.000000
  0
LINE
  8
0
  6
CONTINUOUS
 62
7
 10
-232.000000
 20
58.000000
 11
-219.199997
 21
58.000000
  0
LINE
  8
0
  6
CONTINUOUS
 62
7
 10
-232.000000
 20
58.000000
 11
-232.000000
 21
25.000000
  0
LINE
  8
0
  6
CONTINUOUS
 62
7
 10
-166.000000
 20
58.000000
 11
-166.000000
 21
25.000000
  0
LINE
  8
0
  6
CONTINUOUS
 62
7
 10
-242.000000
 20
57.500000
 11
-232.000000
 21
57.500000
  0
LINE
  8
0
  6
CONTINUOUS
 62
7
 10
-242.000000
 20
25.500000
 11
-232.000000
 21
25.500000
  0
LINE
  8
0
  6
CONTINUOUS
 62
7
 10
-234.000000
 20
57.500000
 11
-234.000000
 21
25.500000
  0
LINE
  8
0
  6
CONTINUOUS
 62
7
 10
-165.399994
 20
48.500000
 11
-165.800003
 21
48.500000
  0
LINE
  8
0
  6
CONTINUOUS
 62
7
 10
-165.399994
 20
34.500000
 11
-165.800003
 21
34.500000
  0
LINE
  8
0
  6
CONTINUOUS
 62
7
 10
-165.399994
 20
30.500000
 11
-165.800003
 21
30.500000
  0
LINE
  8
0
  6
CONTINUOUS
 62
7
 10
-165.399994
 20
52.500000
 11
-165.800003
 21
52.500000
  0
LINE
  8
0
  6
CONTINUOUS
 62
7
 10
-214.800003
 20
58.000000
 11
-166.000000
 21
58.000000
  0
LINE
  8
0
  6
CONTINUOUS
 62
7
 10
-214.800003
 20
25.000000
 11
-166.000000
 21
25.000000
  0
LINE
  8
0
  6
CONTINUOUS
 62
7
 10
-219.199997
 20
57.500000
 11
-214.800003
 21
57.500000
  0
LINE
  8
0
  6
CONTINUOUS
 62
7
 10
-219.199997
 20
25.500000
 11
-214.800003
 21
25.500000
  0
LINE
  8
0
  6
CONTINUOUS
 62
7
 10
-242.000000
 20
57.500000
 11
-242.000000
 21
25.500000
  0
LINE
  8
0
  6
CONTINUOUS
 62
7
 10
-219.199997
 20
53.500000
 11
-219.199997
 21
58.000000
  0
LINE
  8
0
  6
CONTINUOUS
 62
7
 10
-214.800003
 20
53.500000
 11
-214.800003
 21
58.000000
  0
LINE
  8
0
  6
CONTINUOUS
 62
7
 10
-219.199997
 20
29.500000
 11
-219.199997
 21
25.000000
  0
LINE
  8
0
  6
CONTINUOUS
 62
7
 10
-214.800003
 20
29.500000
 11
-214.800003
 21
25.000000
  0
LINE
  8
0
  6
CONTINUOUS
 62
7
 10
-165.800003
 20
57.500000
 11
-165.800003
 21
25.500000
  0
LINE
  8
0
  6
CONTINUOUS
 62
7
 10
-166.000000
 20
57.500000
 11
-165.800003
 21
57.500000
  0
LINE
  8
0
  6
CONTINUOUS
 62
7
 10
-166.000000
 20
25.500000
 11
-165.800003
 21
25.500000
  0
LINE
  8
0
  6
CONTINUOUS
 62
7
 10
-165.399994
 20
52.500000
 11
-165.399994
 21
48.500000
  0
LINE
  8
0
  6
CONTINUOUS
 62
7
 10
-165.399994
 20
34.500000
 11
-165.399994
 21
30.500000
  0
LINE
  8
0
  6
CONTINUOUS
 62
7
 10
-222.500000
 20
21.500000
 11
-229.500000
 21
21.500000
  0
LINE
  8
0
  6
CENTER
 62
2
 10
-226.000000
 20
20.500000
 11
-226.000000
 21
26.500000
  0
LINE
  8
0
  6
CONTINUOUS
 62
7
 10
-226.000000
 20
24.400000
 11
-226.000000
 21
21.500000
  0
LINE
  8
0
  6
CONTINUOUS
 62
7
 10
-222.100006
 20
24.400000
 11
-229.899994
 21
24.400000
  0
LINE
  8
0
  6
CONTINUOUS
 62
7
 10
-229.899994
 20
24.400000
 11
-229.899994
 21
25.000000
  0
LINE
  8
0
  6
CONTINUOUS
 62
7
 10
-222.100006
 20
24.400000
 11
-222.100006
 21
25.000000
  0
LINE
  8
0
  6
CONTINUOUS
 62
7
 10
-229.500000
 20
21.500000
 11
-229.500000
 21
24.400000
  0
LINE
  8
0
  6
CONTINUOUS
 62
7
 10
-222.500000
 20
21.500000
 11
-222.500000
 21
24.400000
  0
LINE
  8
0
  6
CONTINUOUS
 62
7
 10
-168.500000
 20
21.500000
 11
-175.500000
 21
21.500000
  0
LINE
  8
0
  6
CENTER
 62
2
 10
-172.000000
 20
20.500000
 11
-172.000000
 21
26.500000
  0
LINE
  8
0
  6
CONTINUOUS
 62
7
 10
-172.000000
 20
24.400000
 11
-172.000000
 21
21.500000
  0
LINE
  8
0
  6
CONTINUOUS
 62
7
 10
-168.100006
 20
24.400000
 11
-175.899994
 21
24.400000
  0
LINE
  8
0
  6
CONTINUOUS
 62
7
 10
-175.899994
 20
24.400000
 11
-175.899994
 21
25.000000
  0
LINE
  8
0
  6
CONTINUOUS
 62
7
 10
-168.100006
 20
24.400000
 11
-168.100006
 21
25.000000
  0
LINE
  8
0
  6
CONTINUOUS
 62
7
 10
-175.500000
 20
21.500000
 11
-175.500000
 21
24.400000
  0
LINE
  8
0
  6
CONTINUOUS
 62
7
 10
-168.500000
 20
21.500000
 11
-168.500000
 21
24.400000
  0
LINE
  8
0
  6
CONTINUOUS
 62
7
 10
-221.199997
 20
88.800003
 11
-212.000000
 21
88.800003
  0
LINE
  8
0
  6
CONTINUOUS
 62
7
 10
-214.850006
 20
88.000000
 11
-219.149994
 21
88.000000
  0
LINE
  8
0
  6
CONTINUOUS
 62
7
 10
-214.850006
 20
88.800003
 11
-214.850006
 21
83.500000
  0
LINE
  8
0
  6
CONTINUOUS
 62
7
 10
-219.149994
 20
88.800003
 11
-219.149994
 21
83.500000
  0
LINE
  8
0
  6
CONTINUOUS
 62
7
 10
-191.235992
 20
90.800003
 11
-206.764008
 21
90.800003
  0
LINE
  8
0
  6
DASHED
 62
2
 10
-185.000000
 20
88.800003
 11
-185.000000
 21
88.000000
  0
LINE
  8
0
  6
CONTINUOUS
 62
7
 10
-176.800003
 20
88.800003
 11
-186.000000
 21
88.800003
  0
LINE
  8
0
  6
DASHED
 62
2
 10
-177.000000
 20
88.000000
 11
-185.000000
 21
88.000000
  0
LINE
  8
0
  6
CENTER
 62
2
 10
-181.000000
 20
89.800003
 11
-181.000000
 21
82.500000
  0
LINE
  8
0
  6
DASHED
 62
2
 10
-178.899994
 20
88.000000
 11
-178.899994
 21
83.500000
  0
LINE
  8
0
  6
DASHED
 62
2
 10
-178.500000
 20
88.000000
 11
-178.500000
 21
83.500000
  0
LINE
  8
0
  6
DASHED
 62
2
 10
-177.000000
 20
88.800003
 11
-177.000000
 21
88.000000
  0
LINE
  8
0
  6
DASHED
 62
2
 10
-183.100006
 20
88.000000
 11
-183.100006
 21
83.500000
  0
LINE
  8
0
  6
DASHED
 62
2
 10
-183.500000
 20
88.000000
 11
-183.500000
 21
83.500000
  0
LINE
  8
0
  6
DASHED
 62
2
 10
-198.500000
 20
90.800003
 11
-198.500000
 21
83.500000
  0
LINE
  8
0
  6
DASHED
 62
2
 10
-198.899994
 20
90.800003
 11
-198.899994
 21
83.500000
  0
LINE
  8
0
  6
CENTER
 62
2
 10
-201.000000
 20
91.800003
 11
-201.000000
 21
82.500000
  0
LINE
  8
0
  6
DASHED
 62
2
 10
-203.100006
 20
90.800003
 11
-203.100006
 21
83.500000
  0
LINE
  8
0
  6
DASHED
 62
2
 10
-203.500000
 20
90.800003
 11
-203.500000
 21
83.500000
  0
LINE
  8
0
  6
CENTER
 62
2
 10
-217.000000
 20
89.800003
 11
-217.000000
 21
82.500000
  0
LINE
  8
0
  6
CONTINUOUS
 62
7
 10
-221.199997
 20
207.199997
 11
-214.000000
 21
207.199997
  0
LINE
  8
0
  6
CONTINUOUS
 62
7
 10
-219.149994
 20
207.199997
 11
-219.149994
 21
212.500000
  0
LINE
  8
0
  6
CONTINUOUS
 62
7
 10
-214.850006
 20
208.000000
 11
-219.149994
 21
208.000000
  0
LINE
  8
0
  6
CONTINUOUS
 62
7
 10
-214.850006
 20
207.199997
 11
-214.850006
 21
212.500000
  0
LINE
  8
0
  6
DASHED
 62
2
 10
-205.000000
 20
205.199997
 11
-197.000000
 21
205.199997
  0
LINE
  8
0
  6
CENTER
 62
2
 10
-201.000000
 20
204.199997
 11
-201.000000
 21
213.500000
  0
LINE
  8
0
  6
DASHED
 62
2
 10
-203.500000
 20
205.199997
 11
-203.500000
 21
212.500000
  0
LINE
  8
0
  6
DASHED
 62
2
 10
-198.500000
 20
205.199997
 11
-198.500000
 21
212.500000
  0
LINE
  8
0
  6
DASHED
 62
2
 10
-198.899994
 20
205.199997
 11
-198.899994
 21
212.500000
  0
LINE
  8
0
  6
DASHED
 62
2
 10
-203.100006
 20
205.199997
 11
-203.100006
 21
212.500000
  0
LINE
  8
0
  6
CONTINUOUS
 62
7
 10
-176.800003
 20
207.199997
 11
-185.000000
 21
207.199997
  0
LINE
  8
0
  6
CENTER
 62
2
 10
-181.000000
 20
206.199997
 11
-181.000000
 21
213.500000
  0
LINE
  8
0
  6
DASHED
 62
2
 10
-177.000000
 20
208.000000
 11
-185.000000
 21
208.000000
  0
LINE
  8
0
  6
DASHED
 62
2
 10
-183.100006
 20
208.000000
 11
-183.100006
 21
212.500000
  0
LINE
  8
0
  6
DASHED
 62
2
 10
-178.899994
 20
208.000000
 11
-178.899994
 21
212.500000
  0
LINE
  8
0
  6
DASHED
 62
2
 10
-178.500000
 20
208.000000
 11
-178.500000
 21
212.500000
  0
LINE
  8
0
  6
DASHED
 62
2
 10
-183.500000
 20
208.000000
 11
-183.500000
 21
212.500000
  0
LINE
  8
0
  6
DASHED
 62
2
 10
-177.000000
 20
207.199997
 11
-177.000000
 21
208.000000
  0
LINE
  8
0
  6
CENTER
 62
2
 10
-226.000000
 20
211.899994
 11
-226.000000
 21
202.100006
  0
LINE
  8
0
  6
CENTER
 62
2
 10
-230.899994
 20
207.000000
 11
-221.100006
 21
207.000000
  0
LINE
  8
0
  6
CENTER
 62
2
 10
-172.000000
 20
211.899994
 11
-172.000000
 21
202.100006
  0
LINE
  8
0
  6
CENTER
 62
2
 10
-176.899994
 20
207.000000
 11
-167.100006
 21
207.000000
  0
LINE
  8
0
  6
CENTER
 62
2
 10
-185.199997
 20
196.699997
 11
-185.199997
 21
192.699997
  0
LINE
  8
0
  6
CENTER
 62
2
 10
-187.199997
 20
194.699997
 11
-183.199997
 21
194.699997
  0
LINE
  8
0
  6
CENTER
 62
2
 10
-222.000000
 20
163.000000
 11
-222.000000
 21
158.000000
  0
LINE
  8
0
  6
CENTER
 62
2
 10
-224.500000
 20
160.500000
 11
-219.500000
 21
160.500000
  0
LINE
  8
0
  6
CENTER
 62
2
 10
-217.000000
 20
165.000000
 11
-217.000000
 21
155.000000
  0
LINE
  8
0
  6
CENTER
 62
2
 10
-222.000000
 20
160.000000
 11
-212.000000
 21
160.000000
  0
LINE
  8
0
  6
CENTER
 62
2
 10
-202.000000
 20
163.000000
 11
-202.000000
 21
158.000000
  0
LINE
  8
0
  6
CENTER
 62
2
 10
-204.500000
 20
160.500000
 11
-199.500000
 21
160.500000
  0
LINE
  8
0
  6
CENTER
 62
2
 10
-197.000000
 20
163.500000
 11
-197.000000
 21
157.500000
  0
LINE
  8
0
  6
CENTER
 62
2
 10
-200.000000
 20
160.500000
 11
-194.000000
 21
160.500000
  0
LINE
  8
0
  6
CENTER
 62
2
 10
-181.000000
 20
165.000000
 11
-181.000000
 21
155.000000
  0
LINE
  8
0
  6
CENTER
 62
2
 10
-186.000000
 20
160.000000
 11
-176.000000
 21
160.000000
  0
LINE
  8
0
  6
CENTER
 62
2
 10
-182.000000
 20
163.000000
 11
-182.000000
 21
158.000000
  0
LINE
  8
0
  6
CENTER
 62
2
 10
-184.500000
 20
160.500000
 11
-179.500000
 21
160.500000
  0
LINE
  8
0
  6
CENTER
 62
2
 10
-182.000000
 20
138.000000
 11
-182.000000
 21
133.000000
  0
LINE
  8
0
  6
CENTER
 62
2
 10
-184.500000
 20
135.500000
 11
-179.500000
 21
135.500000
  0
LINE
  8
0
  6
CENTER
 62
2
 10
-181.000000
 20
141.000000
 11
-181.000000
 21
131.000000
  0
LINE
  8
0
  6
CENTER
 62
2
 10
-186.000000
 20
136.000000
 11
-176.000000
 21
136.000000
  0
LINE
  8
0
  6
CENTER
 62
2
 10
-197.000000
 20
138.500000
 11
-197.000000
 21
132.500000
  0
LINE
  8
0
  6
CENTER
 62
2
 10
-200.000000
 20
135.500000
 11
-194.000000
 21
135.500000
  0
LINE
  8
0
  6
CENTER
 62
2
 10
-202.000000
 20
138.000000
 11
-202.000000
 21
133.000000
  0
LINE
  8
0
  6
CENTER
 62
2
 10
-204.500000
 20
135.500000
 11
-199.500000
 21
135.500000
  0
LINE
  8
0
  6
CENTER
 62
2
 10
-217.000000
 20
141.000000
 11
-217.000000
 21
131.000000
  0
LINE
  8
0
  6
CENTER
 62
2
 10
-222.000000
 20
136.000000
 11
-212.000000
 21
136.000000
  0
LINE
  8
0
  6
CENTER
 62
2
 10
-222.000000
 20
138.000000
 11
-222.000000
 21
133.000000
  0
LINE
  8
0
  6
CENTER
 62
2
 10
-224.500000
 20
135.500000
 11
-219.500000
 21
135.500000
  0
LINE
  8
0
  6
CENTER
 62
2
 10
94.000000
 20
-116.000000
 11
94.000000
 21
-122.000000
  0
LINE
  8
0
  6
CENTER
 62
2
 10
91.000000
 20
-119.000000
 11
97.000000
 21
-119.000000
  0
LINE
  8
0
  6
CENTER
 62
2
 10
103.000000
 20
-113.500000
 11
103.000000
 21
-123.500000
  0
LINE
  8
0
  6
CENTER
 62
2
 10
98.000000
 20
-118.500000
 11
108.000000
 21
-118.500000
  0
LINE
  8
0
  6
CENTER
 62
2
 10
103.000000
 20
-90.500000
 11
103.000000
 21
-100.500000
  0
LINE
  8
0
  6
CENTER
 62
2
 10
98.000000
 20
-95.500000
 11
108.000000
 21
-95.500000
  0
LINE
  8
0
  6
CENTER
 62
2
 10
94.000000
 20
-92.000000
 11
94.000000
 21
-98.000000
  0
LINE
  8
0
  6
CENTER
 62
2
 10
91.000000
 20
-95.000000
 11
97.000000
 21
-95.000000
  0
LINE
  8
0
  6
CENTER
 62
2
 10
103.000000
 20
-104.000000
 11
103.000000
 21
-110.000000
  0
LINE
  8
0
  6
CENTER
 62
2
 10
-226.000000
 20
92.500000
 11
-226.000000
 21
85.500000
  0
LINE
  8
0
  6
CENTER
 62
2
 10
-229.500000
 20
89.000000
 11
-222.500000
 21
89.000000
  0
LINE
  8
0
  6
CENTER
 62
2
 10
-209.000000
 20
91.500000
 11
-209.000000
 21
86.500000
  0
LINE
  8
0
  6
CENTER
 62
2
 10
-211.500000
 20
89.000000
 11
-206.500000
 21
89.000000
  0
LINE
  8
0
  6
CENTER
 62
2
 10
-189.000000
 20
91.500000
 11
-189.000000
 21
86.500000
  0
LINE
  8
0
  6
CENTER
 62
2
 10
-191.500000
 20
89.000000
 11
-186.500000
 21
89.000000
  0
LINE
  8
0
  6
CENTER
 62
2
 10
-172.000000
 20
92.500000
 11
-172.000000
 21
85.500000
  0
LINE
  8
0
  6
CENTER
 62
2
 10
-175.500000
 20
89.000000
 11
-168.500000
 21
89.000000
  0
LINE
  8
0
  6
CENTER
 62
2
 10
-178.300003
 20
103.500000
 11
-178.300003
 21
98.500000
  0
LINE
  8
0
  6
CENTER
 62
2
 10
-180.800003
 20
101.000000
 11
-175.800003
 21
101.000000
  0
LINE
  8
0
  6
CENTER
 62
2
 10
-175.199997
 20
103.300003
 11
-175.199997
 21
99.300003
  0
LINE
  8
0
  6
CENTER
 62
2
 10
-177.199997
 20
101.300003
 11
-173.199997
 21
101.300003
  0
LINE
  8
0
  6
CENTER
 62
2
 10
-171.800003
 20
103.500000
 11
-171.800003
 21
98.500000
  0
LINE
  8
0
  6
CENTER
 62
2
 10
-174.300003
 20
101.000000
 11
-169.300003
 21
101.000000
  0
LINE
  8
0
  6
CENTER
 62
2
 10
-185.199997
 20
103.300003
 11
-185.199997
 21
99.300003
  0
LINE
  8
0
  6
CENTER
 62
2
 10
-187.199997
 20
101.300003
 11
-183.199997
 21
101.300003
  0
LINE
  8
0
  6
CENTER
 62
2
 10
-217.000000
 20
56.700001
 11
-217.000000
 21
50.299999
  0
LINE
  8
0
  6
CENTER
 62
2
 10
-220.199997
 20
53.500000
 11
-213.800003
 21
53.500000
  0
LINE
  8
0
  6
CENTER
 62
2
 10
-217.000000
 20
32.700001
 11
-217.000000
 21
26.299999
  0
LINE
  8
0
  6
CENTER
 62
2
 10
-220.199997
 20
29.500000
 11
-213.800003
 21
29.500000
  0
LINE
  8
0
  6
CENTER
 62
2
 10
-201.000000
 20
57.000000
 11
-201.000000
 21
50.000000
  0
LINE
  8
0
  6
CENTER
 62
2
 10
-204.500000
 20
53.500000
 11
-197.500000
 21
53.500000
  0
LINE
  8
0
  6
CENTER
 62
2
 10
-181.000000
 20
57.000000
 11
-181.000000
 21
50.000000
  0
LINE
  8
0
  6
CENTER
 62
2
 10
-184.500000
 20
53.500000
 11
-177.500000
 21
53.500000
  0
LINE
  8
0
  6
CENTER
 62
2
 10
-181.000000
 20
33.000000
 11
-181.000000
 21
26.000000
  0
LINE
  8
0
  6
CENTER
 62
2
 10
-184.500000
 20
29.500000
 11
-177.500000
 21
29.500000
  0
LINE
  8
0
  6
CENTER
 62
2
 10
-201.000000
 20
33.000000
 11
-201.000000
 21
26.000000
  0
LINE
  8
0
  6
CENTER
 62
2
 10
-204.500000
 20
29.500000
 11
-197.500000
 21
29.500000
  0
LINE
  8
0
  6
CONTINUOUS
 62
7
 10
-182.800003
 20
164.000000
 11
-182.800003
 21
173.000000
  0
LINE
  8
0
  6
CONTINUOUS
 62
7
 10
-167.300003
 20
173.000000
 11
-182.800003
 21
173.000000
  0
LINE
  8
0
  6
CONTINUOUS
 62
7
 10
-167.300003
 20
164.000000
 11
-167.300003
 21
173.000000
  0
LINE
  8
0
  6
CONTINUOUS
 62
7
 10
-167.300003
 20
164.500000
 11
-166.000000
 21
164.500000
  0
LINE
  8
0
  6
CONTINUOUS
 62
7
 10
-182.800003
 20
192.500000
 11
-182.800003
 21
200.500000
  0
LINE
  8
0
  6
CONTINUOUS
 62
7
 10
-182.800003
 20
200.500000
 11
-167.300003
 21
200.500000
  0
LINE
  8
0
  6
CONTINUOUS
 62
7
 10
-167.300003
 20
192.500000
 11
-167.300003
 21
200.500000
  0
LINE
  8
0
  6
CONTINUOUS
 62
7
 10
-182.800003
 20
192.500000
 11
-167.300003
 21
192.500000
  0
LINE
  8
0
  6
CONTINUOUS
 62
7
 10
-207.800003
 20
203.000000
 11
-166.000000
 21
203.000000
  0
LINE
  8
0
  6
CONTINUOUS
 62
7
 10
-208.800003
 20
202.500000
 11
-165.800003
 21
202.500000
  0
LINE
  8
0
  6
CONTINUOUS
 62
7
 10
106.000000
 20
-90.500000
 11
106.000000
 21
-91.000000
  0
LINE
  8
0
  6
CONTINUOUS
 62
7
 10
98.000000
 20
-90.500000
 11
98.000000
 21
-91.000000
  0
LINE
  8
0
  6
CONTINUOUS
 62
7
 10
-232.000000
 20
36.500000
 11
-234.000000
 21
36.500000
  0
LINE
  8
0
  6
CONTINUOUS
 62
7
 10
-232.000000
 20
46.500000
 11
-234.000000
 21
46.500000
  0
LINE
  8
0
  6
CONTINUOUS
 62
7
 10
-182.800003
 20
25.000000
 11
-182.800003
 21
16.500000
  0
LINE
  8
0
  6
CONTINUOUS
 62
7
 10
-167.300003
 20
16.500000
 11
-182.800003
 21
16.500000
  0
LINE
  8
0
  6
CONTINUOUS
 62
7
 10
-167.300003
 20
25.000000
 11
-167.300003
 21
16.500000
  0
LINE
  8
0
  6
CONTINUOUS
 62
7
 10
-185.000000
 20
203.000000
 11
-185.000000
 21
212.000000
  0
LINE
  8
0
  6
CONTINUOUS
 62
7
 10
-216.000000
 20
191.000000
 11
-209.300003
 21
191.000000
  0
LINE
  8
0
  6
CONTINUOUS
 62
7
 10
-214.000000
 20
191.000000
 11
-214.000000
 21
212.000000
  0
LINE
  8
0
  6
CONTINUOUS
 62
7
 10
-209.300003
 20
191.000000
 11
-209.300003
 21
201.500000
  0
LINE
  8
0
  6
CONTINUOUS
 62
7
 10
-214.000000
 20
212.000000
 11
-185.000000
 21
212.000000
  0
LINE
  8
0
  6
CENTER
 62
2
 10
-197.800003
 20
197.000000
 11
-235.800003
 21
197.000000
  0
LINE
  8
0
  6
CONTINUOUS
 62
7
 10
-216.000000
 20
199.397995
 11
-214.000000
 21
199.397995
  0
LINE
  8
0
  6
CONTINUOUS
 62
7
 10
-216.000000
 20
191.000000
 11
-216.000000
 21
203.000000
  0
LINE
  8
0
  6
CONTINUOUS
 62
7
 10
-216.000000
 20
193.436005
 11
-214.000000
 21
193.436005
  0
LINE
  8
0
  6
CONTINUOUS
 62
7
 10
-216.000000
 20
200.563995
 11
-214.000000
 21
200.563995
  0
LINE
  8
0
  6
CONTINUOUS
 62
7
 10
-216.000000
 20
194.602005
 11
-214.000000
 21
194.602005
  0
LINE
  8
0
  6
CONTINUOUS
 62
7
 10
-208.800003
 20
191.500000
 11
-208.800003
 21
202.500000
  0
LINE
  8
0
  6
CONTINUOUS
 62
7
 10
-208.800003
 20
191.500000
 11
-202.800003
 21
191.500000
  0
LINE
  8
0
  6
CONTINUOUS
 62
7
 10
-202.800003
 20
202.500000
 11
-202.800003
 21
191.500000
  0
LINE
  8
0
  6
CONTINUOUS
 62
7
 10
-198.800003
 20
198.000000
 11
-198.800003
 21
196.000000
  0
LINE
  8
0
  6
CONTINUOUS
 62
7
 10
-198.800003
 20
198.000000
 11
-202.800003
 21
198.000000
  0
LINE
  8
0
  6
CONTINUOUS
 62
7
 10
-198.800003
 20
196.000000
 11
-202.800003
 21
196.000000
  0
LINE
  8
0
  6
CONTINUOUS
 62
7
 10
-234.800003
 20
193.699997
 11
-234.800003
 21
196.250000
  0
LINE
  8
0
  6
CONTINUOUS
 62
7
 10
-233.800003
 20
193.000000
 11
-233.800003
 21
201.000000
  0
LINE
  8
0
  6
CONTINUOUS
 62
7
 10
-233.800003
 20
196.250000
 11
-234.800003
 21
196.250000
  0
LINE
  8
0
  6
CONTINUOUS
 62
7
 10
-233.800003
 20
197.750000
 11
-234.800003
 21
197.750000
  0
LINE
  8
0
  6
CONTINUOUS
 62
7
 10
-234.800003
 20
197.750000
 11
-234.800003
 21
200.300003
  0
LINE
  8
0
  6
DASHED
 62
2
 10
-213.000000
 20
207.199997
 11
-213.000000
 21
208.000000
  0
LINE
  8
0
  6
CONTINUOUS
 62
7
 10
-234.000000
 20
200.300003
 11
-234.000000
 21
211.500000
  0
LINE
  8
0
  6
CONTINUOUS
 62
7
 10
-234.000000
 20
196.250000
 11
-234.000000
 21
197.750000
  0
LINE
  8
0
  6
CONTINUOUS
 62
7
 10
-202.800003
 20
165.000000
 11
-202.800003
 21
176.000000
  0
LINE
  8
0
  6
CONTINUOUS
 62
7
 10
-202.800003
 20
171.500000
 11
-198.800003
 21
171.500000
  0
LINE
  8
0
  6
CONTINUOUS
 62
7
 10
-202.800003
 20
169.500000
 11
-198.800003
 21
169.500000
  0
LINE
  8
0
  6
CONTINUOUS
 62
7
 10
-198.800003
 20
169.500000
 11
-198.800003
 21
171.500000
  0
LINE
  8
0
  6
CONTINUOUS
 62
7
 10
-208.800003
 20
165.000000
 11
-202.800003
 21
165.000000
  0
LINE
  8
0
  6
CONTINUOUS
 62
7
 10
-208.800003
 20
165.000000
 11
-208.800003
 21
176.000000
  0
LINE
  8
0
  6
CONTINUOUS
 62
7
 10
-209.300003
 20
166.500000
 11
-208.800003
 21
166.500000
  0
LINE
  8
0
  6
CONTINUOUS
 62
7
 10
-209.300003
 20
174.500000
 11
-208.800003
 21
174.500000
  0
LINE
  8
0
  6
CONTINUOUS
 62
7
 10
-214.000000
 20
164.500000
 11
-214.000000
 21
176.500000
  0
LINE
  8
0
  6
CONTINUOUS
 62
7
 10
-209.300003
 20
164.500000
 11
-209.300003
 21
176.500000
  0
LINE
  8
0
  6
CONTINUOUS
 62
7
 10
-208.800003
 20
176.000000
 11
-202.800003
 21
176.000000
  0
LINE
  8
0
  6
CONTINUOUS
 62
7
 10
-234.800003
 20
167.199997
 11
-234.800003
 21
173.800003
  0
LINE
  8
0
  6
CONTINUOUS
 62
7
 10
-233.800003
 20
166.500000
 11
-233.800003
 21
174.500000
  0
LINE
  8
0
  6
CONTINUOUS
 62
2
 10
-208.800003
 20
173.800003
 11
-209.300003
 21
173.800003
  0
LINE
  8
0
  6
CONTINUOUS
 62
7
 10
-216.000000
 20
174.500000
 11
-233.800003
 21
174.500000
  0
LINE
  8
0
  6
CONTINUOUS
 62
2
 10
-208.800003
 20
167.199997
 11
-209.300003
 21
167.199997
  0
LINE
  8
0
  6
CONTINUOUS
 62
7
 10
-216.000000
 20
166.500000
 11
-233.800003
 21
166.500000
  0
LINE
  8
0
  6
CENTER
 62
2
 10
-197.800003
 20
170.500000
 11
-235.800003
 21
170.500000
  0
LINE
  8
0
  6
CONTINUOUS
 62
7
 10
-214.000000
 20
176.500000
 11
-185.000000
 21
176.500000
  0
LINE
  8
0
  6
CONTINUOUS
 62
7
 10
-216.000000
 20
176.000000
 11
-216.000000
 21
165.000000
  0
LINE
  8
0
  6
CONTINUOUS
 62
7
 10
-214.000000
 20
165.000000
 11
-216.000000
 21
165.000000
  0
LINE
  8
0
  6
CONTINUOUS
 62
7
 10
-214.000000
 20
165.673004
 11
-216.000000
 21
165.673004
  0
LINE
  8
0
  6
CONTINUOUS
 62
7
 10
-214.000000
 20
169.826996
 11
-216.000000
 21
169.826996
  0
LINE
  8
0
  6
CONTINUOUS
 62
7
 10
-214.000000
 20
171.173004
 11
-216.000000
 21
171.173004
  0
LINE
  8
0
  6
CONTINUOUS
 62
7
 10
-214.000000
 20
176.000000
 11
-216.000000
 21
176.000000
  0
LINE
  8
0
  6
CONTINUOUS
 62
7
 10
-214.000000
 20
175.326996
 11
-216.000000
 21
175.326996
  0
LINE
  8
0
  6
CONTINUOUS
 62
7
 10
-185.000000
 20
164.500000
 11
-185.000000
 21
176.500000
  0
LINE
  8
0
  6
CONTINUOUS
 62
7
 10
-233.800003
 20
173.800003
 11
-234.800003
 21
173.800003
  0
LINE
  8
0
  6
CONTINUOUS
 62
7
 10
-233.800003
 20
167.199997
 11
-234.800003
 21
167.199997
  0
LINE
  8
0
  6
CONTINUOUS
 62
7
 10
95.537903
 20
-85.173302
 11
97.935799
 21
-89.326599
  0
LINE
  8
0
  6
CONTINUOUS
 62
7
 10
97.935799
 20
-79.673302
 11
95.537903
 21
-83.826599
  0
LINE
  8
0
  6
CONTINUOUS
 62
7
 10
103.898003
 20
-79.000000
 11
99.102097
 21
-79.000000
  0
LINE
  8
0
  6
CONTINUOUS
 62
7
 10
107.461998
 20
-83.826698
 11
105.064003
 21
-79.673302
  0
LINE
  8
0
  6
CONTINUOUS
 62
7
 10
105.064003
 20
-89.326698
 11
107.461998
 21
-85.173302
  0
LINE
  8
0
  6
CONTINUOUS
 62
7
 10
103.898003
 20
-90.000000
 11
99.102097
 21
-90.000000
  0
LINE
  8
0
  6
CONTINUOUS
 62
7
 10
100.750000
 20
-86.136299
 11
100.750000
 21
-88.429001
  0
LINE
  8
0
  6
CONTINUOUS
 62
7
 10
102.250000
 20
-86.136299
 11
102.250000
 21
-88.429001
  0
LINE
  8
0
  6
CONTINUOUS
 62
7
 10
102.250000
 20
-80.570900
 11
102.250000
 21
-82.863701
  0
LINE
  8
0
  6
CONTINUOUS
 62
7
 10
100.750000
 20
-80.570900
 11
100.750000
 21
-82.863701
  0
LINE
  8
0
  6
CENTER
 62
2
 10
108.500000
 20
-84.500000
 11
94.500000
 21
-84.500000
  0
LINE
  8
0
  6
CENTER
 62
2
 10
101.500000
 20
-91.500000
 11
101.500000
 21
-77.500000
  0
LINE
  8
0
  6
CONTINUOUS
 62
7
 10
86.000000
 20
-90.500000
 11
107.500000
 21
-90.500000
  0
LINE
  8
0
  6
CONTINUOUS
 62
7
 10
86.500000
 20
-78.500000
 11
107.500000
 21
-78.500000
  0
LINE
  8
0
  6
CONTINUOUS
 62
7
 10
86.500000
 20
-78.500000
 11
86.500000
 21
-90.500000
  0
LINE
  8
0
  6
CONTINUOUS
 62
7
 10
107.500000
 20
-78.500000
 11
107.500000
 21
-90.500000
  0
LINE
  8
0
  6
CONTINUOUS
 62
7
 10
-214.000000
 20
25.000000
 11
-214.000000
 21
13.000000
  0
LINE
  8
0
  6
CONTINUOUS
 62
2
 10
-216.000000
 20
15.700000
 11
-233.800003
 21
15.700000
  0
LINE
  8
0
  6
CONTINUOUS
 62
7
 10
-216.000000
 20
15.000000
 11
-233.800003
 21
15.000000
  0
LINE
  8
0
  6
CONTINUOUS
 62
2
 10
-216.000000
 20
22.299999
 11
-222.500000
 21
22.299999
  0
LINE
  8
0
  6
CONTINUOUS
 62
7
 10
-216.000000
 20
23.000000
 11
-222.500000
 21
23.000000
  0
LINE
  8
0
  6
CENTER
 62
2
 10
-213.000000
 20
19.000000
 11
-235.800003
 21
19.000000
  0
LINE
  8
0
  6
CONTINUOUS
 62
7
 10
-214.000000
 20
13.000000
 11
-185.000000
 21
13.000000
  0
LINE
  8
0
  6
CONTINUOUS
 62
7
 10
-216.000000
 20
13.500000
 11
-216.000000
 21
24.500099
  0
LINE
  8
0
  6
CONTINUOUS
 62
7
 10
-214.000000
 20
24.500099
 11
-216.000000
 21
24.500099
  0
LINE
  8
0
  6
CONTINUOUS
 62
7
 10
-214.000000
 20
23.826700
 11
-216.000000
 21
23.826700
  0
LINE
  8
0
  6
CONTINUOUS
 62
7
 10
-214.000000
 20
19.673401
 11
-216.000000
 21
19.673401
  0
LINE
  8
0
  6
CONTINUOUS
 62
7
 10
-214.000000
 20
18.326700
 11
-216.000000
 21
18.326700
  0
LINE
  8
0
  6
CONTINUOUS
 62
7
 10
-214.000000
 20
13.500000
 11
-216.000000
 21
13.500000
  0
LINE
  8
0
  6
CONTINUOUS
 62
7
 10
-214.000000
 20
14.173400
 11
-216.000000
 21
14.173400
  0
LINE
  8
0
  6
CONTINUOUS
 62
7
 10
-185.000000
 20
25.000000
 11
-185.000000
 21
13.000000
  0
LINE
  8
0
  6
CONTINUOUS
 62
7
 10
-234.800003
 20
22.299999
 11
-234.800003
 21
15.700000
  0
LINE
  8
0
  6
CONTINUOUS
 62
7
 10
-233.800003
 20
23.000000
 11
-233.800003
 21
15.000000
  0
LINE
  8
0
  6
CONTINUOUS
 62
7
 10
-233.800003
 20
15.700000
 11
-234.800003
 21
15.700000
  0
LINE
  8
0
  6
CONTINUOUS
 62
7
 10
-233.800003
 20
22.299999
 11
-234.800003
 21
22.299999
  0
LINE
  8
0
  6
CONTINUOUS
 62
7
 10
-229.500000
 20
23.000000
 11
-233.800003
 21
23.000000
  0
LINE
  8
0
  6
CONTINUOUS
 62
2
 10
-229.500000
 20
22.299999
 11
-233.800003
 21
22.299999
  0
LINE
  8
0
  6
CENTER
 62
2
 10
178.000000
 20
163.000000
 11
178.000000
 21
158.000000
  0
LINE
  8
0
  6
CENTER
 62
2
 10
175.500000
 20
160.500000
 11
180.500000
 21
160.500000
  0
LINE
  8
0
  6
CENTER
 62
2
 10
178.000000
 20
138.000000
 11
178.000000
 21
133.000000
  0
LINE
  8
0
  6
CENTER
 62
2
 10
175.500000
 20
135.500000
 11
180.500000
 21
135.500000
  0
LINE
  8
0
  6
CENTER
 62
2
 10
178.000000
 20
192.500000
 11
178.000000
 21
188.500000
  0
LINE
  8
0
  6
CENTER
 62
2
 10
193.000000
 20
192.500000
 11
193.000000
 21
188.500000
  0
LINE
  8
0
  6
CENTER
 62
2
 10
193.000000
 20
107.500000
 11
193.000000
 21
103.500000
  0
LINE
  8
0
  6
CENTER
 62
2
 10
178.000000
 20
107.500000
 11
178.000000
 21
103.500000
  0
LINE
  8
0
  6
CENTER
 62
2
 10
211.000000
 20
91.500000
 11
211.000000
 21
86.500000
  0
LINE
  8
0
  6
CENTER
 62
2
 10
208.500000
 20
89.000000
 11
213.500000
 21
89.000000
  0
LINE
  8
0
  6
CENTER
 62
2
 10
293.000000
 20
-114.400002
 11
293.000000
 21
-99.599998
  0
LINE
  8
0
  6
CONTINUOUS
 62
7
 10
287.885986
 20
-99.500000
 11
291.500000
 21
-99.500000
  0
LINE
  8
0
  6
CONTINUOUS
 62
7
 10
284.000000
 20
-99.500000
 11
285.114014
 21
-99.500000
  0
LINE
  8
0
  6
CONTINUOUS
 62
7
 10
279.000000
 20
-91.000000
 11
279.000000
 21
-98.000000
  0
LINE
  8
0
  6
CONTINUOUS
 62
7
 10
279.299988
 20
-98.300003
 11
279.299988
 21
-115.699997
  0
LINE
  8
0
  6
CONTINUOUS
 62
7
 10
279.000000
 20
-98.000000
 11
279.299988
 21
-98.300003
  0
LINE
  8
0
  6
CONTINUOUS
 62
7
 10
284.000000
 20
-114.500000
 11
285.114014
 21
-114.500000
  0
LINE
  8
0
  6
CONTINUOUS
 62
7
 10
279.000000
 20
-123.000000
 11
291.500000
 21
-123.000000
  0
LINE
  8
0
  6
CONTINUOUS
 62
7
 10
279.000000
 20
-123.000000
 11
279.000000
 21
-116.000000
  0
LINE
  8
0
  6
CONTINUOUS
 62
7
 10
279.000000
 20
-116.000000
 11
279.299988
 21
-115.699997
  0
LINE
  8
0
  6
CONTINUOUS
 62
7
 10
279.000000
 20
-91.000000
 11
291.500000
 21
-91.000000
  0
LINE
  8
0
  6
CONTINUOUS
 62
7
 10
301.000000
 20
-123.500000
 11
301.000000
 21
-90.500000
  0
LINE
  8
0
  6
CONTINUOUS
 62
7
 10
291.500000
 20
-78.500000
 11
291.500000
 21
-87.000000
  0
LINE
  8
0
  6
CONTINUOUS
 62
7
 10
291.500000
 20
-123.500000
 11
301.000000
 21
-123.500000
  0
LINE
  8
0
  6
CENTER
 62
2
 10
278.299988
 20
-107.000000
 11
302.000000
 21
-107.000000
  0
LINE
  8
0
  6
CONTINUOUS
 62
7
 10
291.000000
 20
-123.000000
 11
291.000000
 21
-114.500000
  0
LINE
  8
0
  6
CONTINUOUS
 62
7
 10
284.000000
 20
-99.500000
 11
284.000000
 21
-114.500000
  0
LINE
  8
0
  6
CONTINUOUS
 62
7
 10
291.500000
 20
-123.500000
 11
291.500000
 21
-114.500000
  0
LINE
  8
0
  6
CONTINUOUS
 62
7
 10
287.885986
 20
-114.500000
 11
291.500000
 21
-114.500000
  0
LINE
  8
0
  6
CONTINUOUS
 62
7
 10
291.000000
 20
-91.000000
 11
291.000000
 21
-99.500000
  0
LINE
  8
0
  6
CENTER
 62
2
 10
277.000000
 20
-94.500000
 11
281.000000
 21
-94.500000
  0
LINE
  8
0
  6
CENTER
 62
2
 10
299.000000
 20
-95.000000
 11
303.000000
 21
-95.000000
  0
LINE
  8
0
  6
CENTER
 62
2
 10
299.000000
 20
-119.000000
 11
303.000000
 21
-119.000000
  0
LINE
  8
0
  6
CENTER
 62
2
 10
277.000000
 20
-119.500000
 11
281.000000
 21
-119.500000
  0
LINE
  8
0
  6
CONTINUOUS
 62
7
 10
291.459015
 20
-87.000000
 11
291.459015
 21
-89.900002
  0
LINE
  8
0
  6
CONTINUOUS
 62
7
 10
291.600006
 20
-89.900002
 11
291.600006
 21
-90.500000
  0
LINE
  8
0
  6
CONTINUOUS
 62
7
 10
299.540985
 20
-89.900002
 11
291.459015
 21
-89.900002
  0
LINE
  8
0
  6
CONTINUOUS
 62
7
 10
293.479004
 20
-87.000000
 11
293.479004
 21
-89.900002
  0
LINE
  8
0
  6
CENTER
 62
2
 10
295.500000
 20
-86.000000
 11
295.500000
 21
-91.500000
  0
LINE
  8
0
  6
CONTINUOUS
 62
7
 10
299.540985
 20
-87.000000
 11
291.459015
 21
-87.000000
  0
LINE
  8
0
  6
CONTINUOUS
 62
7
 10
299.540985
 20
-87.000000
 11
299.540985
 21
-89.900002
  0
LINE
  8
0
  6
CONTINUOUS
 62
7
 10
297.520996
 20
-87.000000
 11
297.520996
 21
-89.900002
  0
LINE
  8
0
  6
CONTINUOUS
 62
7
 10
299.399994
 20
-89.900002
 11
299.399994
 21
-90.500000
  0
LINE
  8
0
  6
CONTINUOUS
 62
7
 10
281.000000
 20
-82.000000
 11
289.000000
 21
-82.000000
  0
LINE
  8
0
  6
CONTINUOUS
 62
7
 10
301.000000
 20
-90.500000
 11
289.000000
 21
-90.500000
  0
LINE
  8
0
  6
CONTINUOUS
 62
7
 10
300.500000
 20
-90.500000
 11
300.500000
 21
-78.500000
  0
LINE
  8
0
  6
CONTINUOUS
 62
7
 10
279.500000
 20
-78.500000
 11
300.500000
 21
-78.500000
  0
LINE
  8
0
  6
CONTINUOUS
 62
7
 10
279.500000
 20
-90.500000
 11
279.500000
 21
-78.500000
  0
LINE
  8
0
  6
CONTINUOUS
 62
7
 10
281.000000
 20
-82.000000
 11
281.000000
 21
-91.000000
  0
LINE
  8
0
  6
CONTINUOUS
 62
7
 10
289.000000
 20
-82.000000
 11
289.000000
 21
-91.000000
  0
LINE
  8
0
  6
CONTINUOUS
 62
7
 10
281.000000
 20
-90.500000
 11
279.500000
 21
-90.500000
  0
LINE
  8
0
  6
CONTINUOUS
 62
7
 10
291.500000
 20
-89.900002
 11
291.500000
 21
-99.500000
  0
LINE
  8
0
  6
CENTER
 62
2
 10
285.500000
 20
-78.000000
 11
285.500000
 21
-91.000000
  0
LINE
  8
0
  6
CENTER
 62
2
 10
279.000000
 20
-84.500000
 11
292.000000
 21
-84.500000
  0
LINE
  8
0
  6
CONTINUOUS
 62
7
 10
230.000000
 20
-52.000000
 11
230.000000
 21
-43.000000
  0
LINE
  8
0
  6
CONTINUOUS
 62
7
 10
159.000000
 20
-64.000000
 11
165.699997
 21
-64.000000
  0
LINE
  8
0
  6
CONTINUOUS
 62
7
 10
161.000000
 20
-63.999901
 11
161.000000
 21
-43.000000
  0
LINE
  8
0
  6
CONTINUOUS
 62
7
 10
165.699997
 20
-64.000000
 11
165.699997
 21
-53.500000
  0
LINE
  8
0
  6
CONTINUOUS
 62
7
 10
161.000000
 20
-43.000000
 11
230.000000
 21
-43.000000
  0
LINE
  8
0
  6
CONTINUOUS
 62
2
 10
159.000000
 20
-54.700001
 11
141.199997
 21
-54.700001
  0
LINE
  8
0
  6
CONTINUOUS
 62
7
 10
159.000000
 20
-62.000000
 11
141.199997
 21
-62.000000
  0
LINE
  8
0
  6
CONTINUOUS
 62
2
 10
166.199997
 20
-61.299900
 11
165.699997
 21
-61.299900
  0
LINE
  8
0
  6
CONTINUOUS
 62
2
 10
159.000000
 20
-61.299900
 11
141.199997
 21
-61.299900
  0
LINE
  8
0
  6
CONTINUOUS
 62
2
 10
166.199997
 20
-54.700001
 11
165.699997
 21
-54.700001
  0
LINE
  8
0
  6
CENTER
 62
2
 10
177.199997
 20
-58.000000
 11
139.199997
 21
-58.000000
  0
LINE
  8
0
  6
CONTINUOUS
 62
7
 10
159.000000
 20
-55.602100
 11
161.000000
 21
-55.602100
  0
LINE
  8
0
  6
CONTINUOUS
 62
7
 10
159.000000
 20
-63.999901
 11
159.000000
 21
-52.000000
  0
LINE
  8
0
  6
CONTINUOUS
 62
7
 10
159.000000
 20
-61.564098
 11
161.000000
 21
-61.564098
  0
LINE
  8
0
  6
CONTINUOUS
 62
7
 10
159.000000
 20
-54.435799
 11
161.000000
 21
-54.435799
  0
LINE
  8
0
  6
CONTINUOUS
 62
7
 10
159.000000
 20
-60.397900
 11
161.000000
 21
-60.397900
  0
LINE
  8
0
  6
CONTINUOUS
 62
7
 10
166.199997
 20
-63.500000
 11
166.199997
 21
-52.500000
  0
LINE
  8
0
  6
CONTINUOUS
 62
7
 10
166.199997
 20
-63.500000
 11
172.199997
 21
-63.500000
  0
LINE
  8
0
  6
CONTINUOUS
 62
7
 10
172.199997
 20
-52.500000
 11
172.199997
 21
-63.500000
  0
LINE
  8
0
  6
CONTINUOUS
 62
7
 10
176.199997
 20
-57.000000
 11
176.199997
 21
-58.999901
  0
LINE
  8
0
  6
CONTINUOUS
 62
7
 10
176.199997
 20
-57.000000
 11
172.199997
 21
-57.000000
  0
LINE
  8
0
  6
CONTINUOUS
 62
7
 10
176.199997
 20
-58.999901
 11
172.199997
 21
-58.999901
  0
LINE
  8
0
  6
CONTINUOUS
 62
7
 10
159.000000
 20
-53.999901
 11
141.199997
 21
-53.999901
  0
LINE
  8
0
  6
CONTINUOUS
 62
7
 10
166.199997
 20
-62.000000
 11
165.699997
 21
-62.000000
  0
LINE
  8
0
  6
CONTINUOUS
 62
7
 10
166.199997
 20
-53.999901
 11
165.699997
 21
-53.999901
  0
LINE
  8
0
  6
CONTINUOUS
 62
7
 10
140.199997
 20
-61.299900
 11
140.199997
 21
-58.749901
  0
LINE
  8
0
  6
CONTINUOUS
 62
7
 10
141.199997
 20
-61.299900
 11
140.199997
 21
-61.299900
  0
LINE
  8
0
  6
CONTINUOUS
 62
7
 10
141.199997
 20
-62.000000
 11
141.199997
 21
-53.999901
  0
LINE
  8
0
  6
CONTINUOUS
 62
7
 10
141.199997
 20
-58.749901
 11
140.199997
 21
-58.749901
  0
LINE
  8
0
  6
CONTINUOUS
 62
7
 10
141.199997
 20
-57.250000
 11
140.199997
 21
-57.250000
  0
LINE
  8
0
  6
CONTINUOUS
 62
7
 10
140.199997
 20
-57.250000
 11
140.199997
 21
-54.700001
  0
LINE
  8
0
  6
CONTINUOUS
 62
7
 10
141.199997
 20
-54.700001
 11
140.199997
 21
-54.700001
  0
LINE
  8
0
  6
CONTINUOUS
 62
7
 10
141.000000
 20
-54.700001
 11
141.000000
 21
-43.500000
  0
LINE
  8
0
  6
CONTINUOUS
 62
7
 10
141.000000
 20
-58.749901
 11
141.000000
 21
-57.250000
  0
LINE
  8
0
  6
DASHED
 62
2
 10
162.000000
 20
-48.000000
 11
162.000000
 21
-47.000000
  0
LINE
  8
0
  6
CONTINUOUS
 62
7
 10
172.199997
 20
-90.000000
 11
172.199997
 21
-79.000000
  0
LINE
  8
0
  6
CONTINUOUS
 62
7
 10
172.199997
 20
-83.500000
 11
176.199997
 21
-83.500000
  0
LINE
  8
0
  6
CONTINUOUS
 62
7
 10
172.199997
 20
-85.500000
 11
176.199997
 21
-85.500000
  0
LINE
  8
0
  6
CONTINUOUS
 62
7
 10
176.199997
 20
-85.500000
 11
176.199997
 21
-83.500000
  0
LINE
  8
0
  6
CONTINUOUS
 62
7
 10
166.199997
 20
-90.000000
 11
172.199997
 21
-90.000000
  0
LINE
  8
0
  6
CONTINUOUS
 62
7
 10
166.199997
 20
-90.000000
 11
166.199997
 21
-79.000000
  0
LINE
  8
0
  6
CONTINUOUS
 62
7
 10
165.699997
 20
-88.500000
 11
166.199997
 21
-88.500000
  0
LINE
  8
0
  6
CONTINUOUS
 62
7
 10
165.699997
 20
-80.500000
 11
166.199997
 21
-80.500000
  0
LINE
  8
0
  6
CONTINUOUS
 62
7
 10
166.199997
 20
-79.000000
 11
171.699997
 21
-79.000000
  0
LINE
  8
0
  6
CONTINUOUS
 62
7
 10
161.000000
 20
-90.500000
 11
161.000000
 21
-78.500000
  0
LINE
  8
0
  6
CONTINUOUS
 62
7
 10
165.699997
 20
-90.500000
 11
165.699997
 21
-78.500000
  0
LINE
  8
0
  6
CONTINUOUS
 62
7
 10
166.199997
 20
-79.000000
 11
172.199997
 21
-79.000000
  0
LINE
  8
0
  6
CONTINUOUS
 62
7
 10
140.199997
 20
-87.800003
 11
140.199997
 21
-81.199997
  0
LINE
  8
0
  6
CONTINUOUS
 62
7
 10
141.199997
 20
-88.500000
 11
141.199997
 21
-80.500000
  0
LINE
  8
0
  6
CONTINUOUS
 62
2
 10
166.199997
 20
-81.199997
 11
165.699997
 21
-81.199997
  0
LINE
  8
0
  6
CONTINUOUS
 62
7
 10
159.000000
 20
-80.500000
 11
141.199997
 21
-80.500000
  0
LINE
  8
0
  6
CONTINUOUS
 62
2
 10
166.199997
 20
-87.800003
 11
165.699997
 21
-87.800003
  0
LINE
  8
0
  6
CONTINUOUS
 62
7
 10
159.000000
 20
-88.500000
 11
141.199997
 21
-88.500000
  0
LINE
  8
0
  6
CENTER
 62
2
 10
177.199997
 20
-84.500000
 11
139.199997
 21
-84.500000
  0
LINE
  8
0
  6
CONTINUOUS
 62
7
 10
161.000000
 20
-78.500000
 11
230.000000
 21
-78.500000
  0
LINE
  8
0
  6
CONTINUOUS
 62
7
 10
159.000000
 20
-79.000000
 11
159.000000
 21
-90.000000
  0
LINE
  8
0
  6
CONTINUOUS
 62
7
 10
161.000000
 20
-90.000000
 11
159.000000
 21
-90.000000
  0
LINE
  8
0
  6
CONTINUOUS
 62
7
 10
161.000000
 20
-89.326599
 11
159.000000
 21
-89.326599
  0
LINE
  8
0
  6
CONTINUOUS
 62
7
 10
161.000000
 20
-85.173302
 11
159.000000
 21
-85.173302
  0
LINE
  8
0
  6
CONTINUOUS
 62
7
 10
161.000000
 20
-83.826599
 11
159.000000
 21
-83.826599
  0
LINE
  8
0
  6
CONTINUOUS
 62
7
 10
161.000000
 20
-79.000000
 11
159.000000
 21
-79.000000
  0
LINE
  8
0
  6
CONTINUOUS
 62
7
 10
161.000000
 20
-79.673302
 11
159.000000
 21
-79.673302
  0
LINE
  8
0
  6
CONTINUOUS
 62
7
 10
230.000000
 20
-90.500000
 11
230.000000
 21
-78.500000
  0
LINE
  8
0
  6
CONTINUOUS
 62
7
 10
141.199997
 20
-81.199997
 11
140.199997
 21
-81.199997
  0
LINE
  8
0
  6
CONTINUOUS
 62
7
 10
141.199997
 20
-87.800003
 11
140.199997
 21
-87.800003
  0
LINE
  8
0
  6
CONTINUOUS
 62
7
 10
161.000000
 20
-230.000000
 11
161.000000
 21
-242.000000
  0
LINE
  8
0
  6
CONTINUOUS
 62
2
 10
159.000000
 20
-239.300003
 11
141.199997
 21
-239.300003
  0
LINE
  8
0
  6
CONTINUOUS
 62
7
 10
159.000000
 20
-240.000000
 11
141.199997
 21
-240.000000
  0
LINE
  8
0
  6
CONTINUOUS
 62
2
 10
159.000000
 20
-232.699997
 11
152.500000
 21
-232.699997
  0
LINE
  8
0
  6
CONTINUOUS
 62
7
 10
159.000000
 20
-232.000000
 11
152.500000
 21
-232.000000
  0
LINE
  8
0
  6
CENTER
 62
2
 10
162.000000
 20
-236.000000
 11
139.199997
 21
-236.000000
  0
LINE
  8
0
  6
CONTINUOUS
 62
7
 10
161.000000
 20
-242.000000
 11
230.000000
 21
-242.000000
  0
LINE
  8
0
  6
CONTINUOUS
 62
7
 10
159.000000
 20
-241.500000
 11
159.000000
 21
-230.500000
  0
LINE
  8
0
  6
CONTINUOUS
 62
7
 10
161.000000
 20
-230.500000
 11
159.000000
 21
-230.500000
  0
LINE
  8
0
  6
CONTINUOUS
 62
7
 10
161.000000
 20
-231.173004
 11
159.000000
 21
-231.173004
  0
LINE
  8
0
  6
CONTINUOUS
 62
7
 10
161.000000
 20
-235.326996
 11
159.000000
 21
-235.326996
  0
LINE
  8
0
  6
CONTINUOUS
 62
7
 10
161.000000
 20
-236.673004
 11
159.000000
 21
-236.673004
  0
LINE
  8
0
  6
CONTINUOUS
 62
7
 10
161.000000
 20
-241.500000
 11
159.000000
 21
-241.500000
  0
LINE
  8
0
  6
CONTINUOUS
 62
7
 10
161.000000
 20
-240.826996
 11
159.000000
 21
-240.826996
  0
LINE
  8
0
  6
CONTINUOUS
 62
7
 10
230.000000
 20
-230.000000
 11
230.000000
 21
-242.000000
  0
LINE
  8
0
  6
CONTINUOUS
 62
7
 10
140.199997
 20
-232.699997
 11
140.199997
 21
-239.300003
  0
LINE
  8
0
  6
CONTINUOUS
 62
7
 10
141.199997
 20
-232.000000
 11
141.199997
 21
-240.000000
  0
LINE
  8
0
  6
CONTINUOUS
 62
7
 10
141.199997
 20
-239.300003
 11
140.199997
 21
-239.300003
  0
LINE
  8
0
  6
CONTINUOUS
 62
7
 10
141.199997
 20
-232.699997
 11
140.199997
 21
-232.699997
  0
LINE
  8
0
  6
CONTINUOUS
 62
7
 10
145.500000
 20
-232.000000
 11
141.199997
 21
-232.000000
  0
LINE
  8
0
  6
CONTINUOUS
 62
2
 10
145.500000
 20
-232.699997
 11
141.199997
 21
-232.699997
  0
LINE
  8
0
  6
CONTINUOUS
 62
7
 10
-267.000000
 20
132.000000
 11
-267.000000
 21
139.000000
  0
LINE
  8
0
  6
CONTINUOUS
 62
7
 10
-267.299988
 20
139.300003
 11
-267.299988
 21
156.699997
  0
LINE
  8
0
  6
CONTINUOUS
 62
7
 10
-267.000000
 20
139.000000
 11
-267.299988
 21
139.300003
  0
LINE
  8
0
  6
CONTINUOUS
 62
7
 10
-267.000000
 20
132.000000
 11
-288.000000
 21
132.000000
  0
LINE
  8
0
  6
CONTINUOUS
 62
7
 10
-267.000000
 20
164.000000
 11
-267.000000
 21
157.000000
  0
LINE
  8
0
  6
CONTINUOUS
 62
7
 10
-267.000000
 20
157.000000
 11
-267.299988
 21
156.699997
  0
LINE
  8
0
  6
CONTINUOUS
 62
7
 10
-267.000000
 20
164.000000
 11
-288.000000
 21
164.000000
  0
LINE
  8
0
  6
CONTINUOUS
 62
7
 10
-279.500000
 20
164.500000
 11
-279.500000
 21
164.000000
  0
LINE
  8
0
  6
CONTINUOUS
 62
7
 10
-289.000000
 20
164.500000
 11
-289.000000
 21
131.500000
  0
LINE
  8
0
  6
CONTINUOUS
 62
7
 10
-279.500000
 20
131.500000
 11
-289.000000
 21
131.500000
  0
LINE
  8
0
  6
CONTINUOUS
 62
7
 10
-279.500000
 20
131.500000
 11
-279.500000
 21
132.000000
  0
LINE
  8
0
  6
CENTER
 62
2
 10
-266.299988
 20
148.000000
 11
-290.000000
 21
148.000000
  0
LINE
  8
0
  6
CONTINUOUS
 62
7
 10
-267.500000
 20
164.000000
 11
-267.500000
 21
132.000000
  0
LINE
  8
0
  6
CONTINUOUS
 62
7
 10
-288.000000
 20
164.000000
 11
-288.000000
 21
132.000000
  0
LINE
  8
0
  6
CENTER
 62
2
 10
-281.000000
 20
155.000000
 11
-281.000000
 21
141.000000
  0
LINE
  8
0
  6
CONTINUOUS
 62
7
 10
-287.540985
 20
168.000000
 11
-287.540985
 21
165.100006
  0
LINE
  8
0
  6
CONTINUOUS
 62
7
 10
-287.399994
 20
165.100006
 11
-287.399994
 21
164.500000
  0
LINE
  8
0
  6
CONTINUOUS
 62
7
 10
-279.459015
 20
165.100006
 11
-287.540985
 21
165.100006
  0
LINE
  8
0
  6
CONTINUOUS
 62
7
 10
-285.520996
 20
168.000000
 11
-285.520996
 21
165.100006
  0
LINE
  8
0
  6
CENTER
 62
2
 10
-283.500000
 20
169.000000
 11
-283.500000
 21
163.500000
  0
LINE
  8
0
  6
CONTINUOUS
 62
7
 10
-279.459015
 20
168.000000
 11
-287.540985
 21
168.000000
  0
LINE
  8
0
  6
CONTINUOUS
 62
7
 10
-279.459015
 20
168.000000
 11
-279.459015
 21
165.100006
  0
LINE
  8
0
  6
CONTINUOUS
 62
7
 10
-281.479004
 20
168.000000
 11
-281.479004
 21
165.100006
  0
LINE
  8
0
  6
CONTINUOUS
 62
7
 10
-279.600006
 20
165.100006
 11
-279.600006
 21
164.500000
  0
LINE
  8
0
  6
CENTER
 62
2
 10
-281.000000
 20
139.000000
 11
-281.000000
 21
133.000000
  0
LINE
  8
0
  6
CENTER
 62
2
 10
-284.000000
 20
136.000000
 11
-278.000000
 21
136.000000
  0
LINE
  8
0
  6
CENTER
 62
2
 10
-272.000000
 20
141.500000
 11
-272.000000
 21
131.500000
  0
LINE
  8
0
  6
CENTER
 62
2
 10
-277.000000
 20
136.500000
 11
-267.000000
 21
136.500000
  0
LINE
  8
0
  6
CENTER
 62
2
 10
-272.000000
 20
164.500000
 11
-272.000000
 21
154.500000
  0
LINE
  8
0
  6
CENTER
 62
2
 10
-277.000000
 20
159.500000
 11
-267.000000
 21
159.500000
  0
LINE
  8
0
  6
CENTER
 62
2
 10
-281.000000
 20
163.000000
 11
-281.000000
 21
157.000000
  0
LINE
  8
0
  6
CENTER
 62
2
 10
-284.000000
 20
160.000000
 11
-278.000000
 21
160.000000
  0
LINE
  8
0
  6
CENTER
 62
2
 10
-272.000000
 20
151.000000
 11
-272.000000
 21
145.000000
  0
LINE
  8
0
  6
CONTINUOUS
 62
7
 10
-269.000000
 20
164.500000
 11
-269.000000
 21
164.000000
  0
LINE
  8
0
  6
CONTINUOUS
 62
7
 10
-277.000000
 20
164.500000
 11
-277.000000
 21
164.000000
  0
LINE
  8
0
  6
CONTINUOUS
 62
7
 10
-279.462006
 20
169.826996
 11
-277.063995
 21
165.673004
  0
LINE
  8
0
  6
CONTINUOUS
 62
7
 10
-277.063995
 20
175.326996
 11
-279.462006
 21
171.173004
  0
LINE
  8
0
  6
CONTINUOUS
 62
7
 10
-271.101990
 20
176.000000
 11
-275.898010
 21
176.000000
  0
LINE
  8
0
  6
CONTINUOUS
 62
7
 10
-267.537994
 20
171.173004
 11
-269.936005
 21
175.326996
  0
LINE
  8
0
  6
CONTINUOUS
 62
7
 10
-269.936005
 20
165.673004
 11
-267.537994
 21
169.826996
  0
LINE
  8
0
  6
CONTINUOUS
 62
7
 10
-271.101990
 20
165.000000
 11
-275.898010
 21
165.000000
  0
LINE
  8
0
  6
CONTINUOUS
 62
7
 10
-274.250000
 20
168.863998
 11
-274.250000
 21
166.570999
  0
LINE
  8
0
  6
CONTINUOUS
 62
7
 10
-272.750000
 20
168.863998
 11
-272.750000
 21
166.570999
  0
LINE
  8
0
  6
CONTINUOUS
 62
7
 10
-272.750000
 20
174.429001
 11
-272.750000
 21
172.136002
  0
LINE
  8
0
  6
CONTINUOUS
 62
7
 10
-274.250000
 20
174.429001
 11
-274.250000
 21
172.136002
  0
LINE
  8
0
  6
CENTER
 62
2
 10
-266.500000
 20
170.500000
 11
-280.500000
 21
170.500000
  0
LINE
  8
0
  6
CENTER
 62
2
 10
-273.500000
 20
163.500000
 11
-273.500000
 21
177.500000
  0
LINE
  8
0
  6
CONTINUOUS
 62
7
 10
-289.000000
 20
164.500000
 11
-267.500000
 21
164.500000
  0
LINE
  8
0
  6
CONTINUOUS
 62
7
 10
-288.500000
 20
176.500000
 11
-267.500000
 21
176.500000
  0
LINE
  8
0
  6
CONTINUOUS
 62
7
 10
-288.500000
 20
176.500000
 11
-288.500000
 21
164.500000
  0
LINE
  8
0
  6
CONTINUOUS
 62
7
 10
-267.500000
 20
176.500000
 11
-267.500000
 21
164.500000
  0
LINE
  8
0
  6
CENTER
 62
2
 10
-122.000000
 20
140.600006
 11
-122.000000
 21
155.399994
  0
LINE
  8
0
  6
CONTINUOUS
 62
7
 10
-127.113998
 20
155.500000
 11
-123.500000
 21
155.500000
  0
LINE
  8
0
  6
CONTINUOUS
 62
7
 10
-131.000000
 20
155.500000
 11
-129.886002
 21
155.500000
  0
LINE
  8
0
  6
CONTINUOUS
 62
7
 10
-136.000000
 20
164.000000
 11
-136.000000
 21
157.000000
  0
LINE
  8
0
  6
CONTINUOUS
 62
7
 10
-135.699997
 20
156.699997
 11
-135.699997
 21
139.300003
  0
LINE
  8
0
  6
CONTINUOUS
 62
7
 10
-136.000000
 20
157.000000
 11
-135.699997
 21
156.699997
  0
LINE
  8
0
  6
CONTINUOUS
 62
7
 10
-131.000000
 20
140.500000
 11
-129.886002
 21
140.500000
  0
LINE
  8
0
  6
CONTINUOUS
 62
7
 10
-136.000000
 20
132.000000
 11
-123.500000
 21
132.000000
  0
LINE
  8
0
  6
CONTINUOUS
 62
7
 10
-136.000000
 20
132.000000
 11
-136.000000
 21
139.000000
  0
LINE
  8
0
  6
CONTINUOUS
 62
7
 10
-136.000000
 20
139.000000
 11
-135.699997
 21
139.300003
  0
LINE
  8
0
  6
CONTINUOUS
 62
7
 10
-136.000000
 20
164.000000
 11
-123.500000
 21
164.000000
  0
LINE
  8
0
  6
CONTINUOUS
 62
7
 10
-114.000000
 20
131.500000
 11
-114.000000
 21
164.500000
  0
LINE
  8
0
  6
CONTINUOUS
 62
7
 10
-123.500000
 20
176.500000
 11
-123.500000
 21
168.000000
  0
LINE
  8
0
  6
CONTINUOUS
 62
7
 10
-123.500000
 20
131.500000
 11
-114.000000
 21
131.500000
  0
LINE
  8
0
  6
CENTER
 62
2
 10
-136.699997
 20
148.000000
 11
-113.000000
 21
148.000000
  0
LINE
  8
0
  6
CONTINUOUS
 62
7
 10
-124.000000
 20
132.000000
 11
-124.000000
 21
140.500000
  0
LINE
  8
0
  6
CONTINUOUS
 62
7
 10
-131.000000
 20
155.500000
 11
-131.000000
 21
140.500000
  0
LINE
  8
0
  6
CONTINUOUS
 62
7
 10
-123.500000
 20
131.500000
 11
-123.500000
 21
140.500000
  0
LINE
  8
0
  6
CONTINUOUS
 62
7
 10
-127.113998
 20
140.500000
 11
-123.500000
 21
140.500000
  0
LINE
  8
0
  6
CONTINUOUS
 62
7
 10
-124.000000
 20
164.000000
 11
-124.000000
 21
155.500000
  0
LINE
  8
0
  6
CENTER
 62
2
 10
-138.000000
 20
160.500000
 11
-134.000000
 21
160.500000
  0
LINE
  8
0
  6
CENTER
 62
2
 10
-116.000000
 20
160.000000
 11
-112.000000
 21
160.000000
  0
LINE
  8
0
  6
CENTER
 62
2
 10
-116.000000
 20
136.000000
 11
-112.000000
 21
136.000000
  0
LINE
  8
0
  6
CENTER
 62
2
 10
-138.000000
 20
135.500000
 11
-134.000000
 21
135.500000
  0
LINE
  8
0
  6
CONTINUOUS
 62
7
 10
-123.541000
 20
168.000000
 11
-123.541000
 21
165.100006
  0
LINE
  8
0
  6
CONTINUOUS
 62
7
 10
-123.400002
 20
165.100006
 11
-123.400002
 21
164.500000
  0
LINE
  8
0
  6
CONTINUOUS
 62
7
 10
-115.459000
 20
165.100006
 11
-123.541000
 21
165.100006
  0
LINE
  8
0
  6
CONTINUOUS
 62
7
 10
-121.521004
 20
168.000000
 11
-121.521004
 21
165.100006
  0
LINE
  8
0
  6
CENTER
 62
2
 10
-119.500000
 20
169.000000
 11
-119.500000
 21
163.500000
  0
LINE
  8
0
  6
CONTINUOUS
 62
7
 10
-115.459000
 20
168.000000
 11
-123.541000
 21
168.000000
  0
LINE
  8
0
  6
CONTINUOUS
 62
7
 10
-115.459000
 20
168.000000
 11
-115.459000
 21
165.100006
  0
LINE
  8
0
  6
CONTINUOUS
 62
7
 10
-117.478996
 20
168.000000
 11
-117.478996
 21
165.100006
  0
LINE
  8
0
  6
CONTINUOUS
 62
7
 10
-115.599998
 20
165.100006
 11
-115.599998
 21
164.500000
  0
LINE
  8
0
  6
CONTINUOUS
 62
7
 10
-134.000000
 20
173.000000
 11
-126.000000
 21
173.000000
  0
LINE
  8
0
  6
CONTINUOUS
 62
7
 10
-114.000000
 20
164.500000
 11
-126.000000
 21
164.500000
  0
LINE
  8
0
  6
CONTINUOUS
 62
7
 10
-114.500000
 20
164.500000
 11
-114.500000
 21
176.500000
  0
LINE
  8
0
  6
CONTINUOUS
 62
7
 10
-135.500000
 20
176.500000
 11
-114.500000
 21
176.500000
  0
LINE
  8
0
  6
CONTINUOUS
 62
7
 10
-135.500000
 20
164.500000
 11
-135.500000
 21
176.500000
  0
LINE
  8
0
  6
CONTINUOUS
 62
7
 10
-134.000000
 20
173.000000
 11
-134.000000
 21
164.000000
  0
LINE
  8
0
  6
CONTINUOUS
 62
7
 10
-126.000000
 20
173.000000
 11
-126.000000
 21
164.000000
  0
LINE
  8
0
  6
CONTINUOUS
 62
7
 10
-134.000000
 20
164.500000
 11
-135.500000
 21
164.500000
  0
LINE
  8
0
  6
CONTINUOUS
 62
7
 10
-123.500000
 20
165.100006
 11
-123.500000
 21
155.500000
  0
LINE
  8
0
  6
CENTER
 62
2
 10
-129.500000
 20
177.000000
 11
-129.500000
 21
164.000000
  0
LINE
  8
0
  6
CENTER
 62
2
 10
-136.000000
 20
170.500000
 11
-123.000000
 21
170.500000
  0
LINE
  8
0
  6
CENTER
 62
2
 10
-122.000000
 20
-114.400002
 11
-122.000000
 21
-99.599998
  0
LINE
  8
0
  6
CONTINUOUS
 62
7
 10
-127.113998
 20
-99.500000
 11
-123.500000
 21
-99.500000
  0
LINE
  8
0
  6
CONTINUOUS
 62
7
 10
-131.000000
 20
-99.500000
 11
-129.886002
 21
-99.500000
  0
LINE
  8
0
  6
CONTINUOUS
 62
7
 10
-136.000000
 20
-91.000000
 11
-136.000000
 21
-98.000000
  0
LINE
  8
0
  6
CONTINUOUS
 62
7
 10
-135.699997
 20
-98.300003
 11
-135.699997
 21
-115.699997
  0
LINE
  8
0
  6
CONTINUOUS
 62
7
 10
-136.000000
 20
-98.000000
 11
-135.699997
 21
-98.300003
  0
LINE
  8
0
  6
CONTINUOUS
 62
7
 10
-131.000000
 20
-114.500000
 11
-129.886002
 21
-114.500000
  0
LINE
  8
0
  6
CONTINUOUS
 62
7
 10
-136.000000
 20
-123.000000
 11
-123.500000
 21
-123.000000
  0
LINE
  8
0
  6
CONTINUOUS
 62
7
 10
-136.000000
 20
-123.000000
 11
-136.000000
 21
-116.000000
  0
LINE
  8
0
  6
CONTINUOUS
 62
7
 10
-136.000000
 20
-116.000000
 11
-135.699997
 21
-115.699997
  0
LINE
  8
0
  6
CONTINUOUS
 62
7
 10
-136.000000
 20
-91.000000
 11
-123.500000
 21
-91.000000
  0
LINE
  8
0
  6
CONTINUOUS
 62
7
 10
-114.000000
 20
-123.500000
 11
-114.000000
 21
-90.500000
  0
LINE
  8
0
  6
CONTINUOUS
 62
7
 10
-123.500000
 20
-78.500000
 11
-123.500000
 21
-87.000000
  0
LINE
  8
0
  6
CONTINUOUS
 62
7
 10
-123.500000
 20
-123.500000
 11
-114.000000
 21
-123.500000
  0
LINE
  8
0
  6
CENTER
 62
2
 10
-136.699997
 20
-107.000000
 11
-113.000000
 21
-107.000000
  0
LINE
  8
0
  6
CONTINUOUS
 62
7
 10
-124.000000
 20
-123.000000
 11
-124.000000
 21
-114.500000
  0
LINE
  8
0
  6
CONTINUOUS
 62
7
 10
-131.000000
 20
-99.500000
 11
-131.000000
 21
-114.500000
  0
LINE
  8
0
  6
CONTINUOUS
 62
7
 10
-123.500000
 20
-123.500000
 11
-123.500000
 21
-114.500000
  0
LINE
  8
0
  6
CONTINUOUS
 62
7
 10
-127.113998
 20
-114.500000
 11
-123.500000
 21
-114.500000
  0
LINE
  8
0
  6
CONTINUOUS
 62
7
 10
-124.000000
 20
-91.000000
 11
-124.000000
 21
-99.500000
  0
LINE
  8
0
  6
CENTER
 62
2
 10
-138.000000
 20
-94.500000
 11
-134.000000
 21
-94.500000
  0
LINE
  8
0
  6
CENTER
 62
2
 10
-116.000000
 20
-95.000000
 11
-112.000000
 21
-95.000000
  0
LINE
  8
0
  6
CENTER
 62
2
 10
-116.000000
 20
-119.000000
 11
-112.000000
 21
-119.000000
  0
LINE
  8
0
  6
CENTER
 62
2
 10
-138.000000
 20
-119.500000
 11
-134.000000
 21
-119.500000
  0
LINE
  8
0
  6
CONTINUOUS
 62
7
 10
-123.541000
 20
-87.000000
 11
-123.541000
 21
-89.900002
  0
LINE
  8
0
  6
CONTINUOUS
 62
7
 10
-123.400002
 20
-89.900002
 11
-123.400002
 21
-90.500000
  0
LINE
  8
0
  6
CONTINUOUS
 62
7
 10
-115.459000
 20
-89.900002
 11
-123.541000
 21
-89.900002
  0
LINE
  8
0
  6
CONTINUOUS
 62
7
 10
-121.521004
 20
-87.000000
 11
-121.521004
 21
-89.900002
  0
LINE
  8
0
  6
CENTER
 62
2
 10
-119.500000
 20
-86.000000
 11
-119.500000
 21
-91.500000
  0
LINE
  8
0
  6
CONTINUOUS
 62
7
 10
-115.459000
 20
-87.000000
 11
-123.541000
 21
-87.000000
  0
LINE
  8
0
  6
CONTINUOUS
 62
7
 10
-115.459000
 20
-87.000000
 11
-115.459000
 21
-89.900002
  0
LINE
  8
0
  6
CONTINUOUS
 62
7
 10
-117.478996
 20
-87.000000
 11
-117.478996
 21
-89.900002
  0
LINE
  8
0
  6
CONTINUOUS
 62
7
 10
-115.599998
 20
-89.900002
 11
-115.599998
 21
-90.500000
  0
LINE
  8
0
  6
CONTINUOUS
 62
7
 10
-134.000000
 20
-82.000000
 11
-126.000000
 21
-82.000000
  0
LINE
  8
0
  6
CONTINUOUS
 62
7
 10
-114.000000
 20
-90.500000
 11
-126.000000
 21
-90.500000
  0
LINE
  8
0
  6
CONTINUOUS
 62
7
 10
-114.500000
 20
-90.500000
 11
-114.500000
 21
-78.500000
  0
LINE
  8
0
  6
CONTINUOUS
 62
7
 10
-135.500000
 20
-78.500000
 11
-114.500000
 21
-78.500000
  0
LINE
  8
0
  6
CONTINUOUS
 62
7
 10
-135.500000
 20
-90.500000
 11
-135.500000
 21
-78.500000
  0
LINE
  8
0
  6
CONTINUOUS
 62
7
 10
-134.000000
 20
-82.000000
 11
-134.000000
 21
-91.000000
  0
LINE
  8
0
  6
CONTINUOUS
 62
7
 10
-126.000000
 20
-82.000000
 11
-126.000000
 21
-91.000000
  0
LINE
  8
0
  6
CONTINUOUS
 62
7
 10
-134.000000
 20
-90.500000
 11
-135.500000
 21
-90.500000
  0
LINE
  8
0
  6
CONTINUOUS
 62
7
 10
-123.500000
 20
-89.900002
 11
-123.500000
 21
-99.500000
  0
LINE
  8
0
  6
CENTER
 62
2
 10
-129.500000
 20
-78.000000
 11
-129.500000
 21
-91.000000
  0
LINE
  8
0
  6
CENTER
 62
2
 10
-136.000000
 20
-84.500000
 11
-123.000000
 21
-84.500000
  0
LINE
  8
0
  6
CENTER
 62
2
 10
-154.800003
 20
-107.000000
 11
-243.000000
 21
-107.000000
  0
LINE
  8
0
  6
CONTINUOUS
 62
7
 10
-155.800003
 20
-123.000000
 11
-242.000000
 21
-123.000000
  0
LINE
  8
0
  6
CONTINUOUS
 62
7
 10
-157.000000
 20
-116.000000
 11
-234.000000
 21
-116.000000
  0
LINE
  8
0
  6
CONTINUOUS
 62
7
 10
-232.000000
 20
-90.500000
 11
-219.199997
 21
-90.500000
  0
LINE
  8
0
  6
CONTINUOUS
 62
7
 10
-232.000000
 20
-123.500000
 11
-219.199997
 21
-123.500000
  0
LINE
  8
0
  6
CONTINUOUS
 62
7
 10
-232.000000
 20
-123.500000
 11
-232.000000
 21
-123.000000
  0
LINE
  8
0
  6
CONTINUOUS
 62
7
 10
-156.000000
 20
-123.500000
 11
-156.000000
 21
-123.000000
  0
LINE
  8
0
  6
CONTINUOUS
 62
7
 10
-232.000000
 20
-91.000000
 11
-232.000000
 21
-90.500000
  0
LINE
  8
0
  6
CONTINUOUS
 62
7
 10
-234.000000
 20
-123.000000
 11
-234.000000
 21
-91.000000
  0
LINE
  8
0
  6
CONTINUOUS
 62
7
 10
-155.800003
 20
-91.000000
 11
-242.000000
 21
-91.000000
  0
LINE
  8
0
  6
CONTINUOUS
 62
7
 10
-157.000000
 20
-123.000000
 11
-157.000000
 21
-91.000000
  0
LINE
  8
0
  6
CONTINUOUS
 62
7
 10
-157.000000
 20
-98.000000
 11
-234.000000
 21
-98.000000
  0
LINE
  8
0
  6
CONTINUOUS
 62
7
 10
-214.800003
 20
-123.500000
 11
-156.000000
 21
-123.500000
  0
LINE
  8
0
  6
CONTINUOUS
 62
7
 10
-242.000000
 20
-91.000000
 11
-242.000000
 21
-123.000000
  0
LINE
  8
0
  6
CONTINUOUS
 62
7
 10
-214.800003
 20
-90.500000
 11
-172.800003
 21
-90.500000
  0
LINE
  8
0
  6
DASHED
 62
2
 10
-219.199997
 20
-119.000000
 11
-219.199997
 21
-123.000000
  0
LINE
  8
0
  6
DASHED
 62
2
 10
-214.800003
 20
-119.000000
 11
-214.800003
 21
-123.000000
  0
LINE
  8
0
  6
DASHED
 62
2
 10
-219.199997
 20
-95.000000
 11
-219.199997
 21
-91.000000
  0
LINE
  8
0
  6
DASHED
 62
2
 10
-214.800003
 20
-95.000000
 11
-214.800003
 21
-91.000000
  0
LINE
  8
0
  6
CONTINUOUS
 62
7
 10
-219.199997
 20
-123.000000
 11
-219.199997
 21
-123.500000
  0
LINE
  8
0
  6
CONTINUOUS
 62
7
 10
-214.800003
 20
-123.000000
 11
-214.800003
 21
-123.500000
  0
LINE
  8
0
  6
CONTINUOUS
 62
7
 10
-214.800003
 20
-90.500000
 11
-214.800003
 21
-91.000000
  0
LINE
  8
0
  6
CONTINUOUS
 62
7
 10
-219.199997
 20
-90.500000
 11
-219.199997
 21
-91.000000
  0
LINE
  8
0
  6
CONTINUOUS
 62
7
 10
-234.000000
 20
-149.500000
 11
-157.000000
 21
-149.500000
  0
LINE
  8
0
  6
CONTINUOUS
 62
7
 10
-232.000000
 20
-171.500000
 11
-156.000000
 21
-171.500000
  0
LINE
  8
0
  6
CONTINUOUS
 62
7
 10
-232.000000
 20
-161.500000
 11
-232.000000
 21
-171.500000
  0
LINE
  8
0
  6
CONTINUOUS
 62
7
 10
-156.000000
 20
-161.500000
 11
-156.000000
 21
-171.500000
  0
LINE
  8
0
  6
CONTINUOUS
 62
7
 10
-234.000000
 20
-149.500000
 11
-234.000000
 21
-170.500000
  0
LINE
  8
0
  6
CONTINUOUS
 62
7
 10
-157.000000
 20
-149.500000
 11
-157.000000
 21
-161.500000
  0
LINE
  8
0
  6
CONTINUOUS
 62
7
 10
-157.000000
 20
-150.000000
 11
-155.800003
 21
-150.000000
  0
LINE
  8
0
  6
CONTINUOUS
 62
7
 10
-232.000000
 20
-162.000000
 11
-156.000000
 21
-162.000000
  0
LINE
  8
0
  6
CONTINUOUS
 62
7
 10
-221.199997
 20
-166.000000
 11
-212.000000
 21
-166.000000
  0
LINE
  8
0
  6
CONTINUOUS
 62
7
 10
-155.399994
 20
-150.500000
 11
-155.800003
 21
-150.500000
  0
LINE
  8
0
  6
CONTINUOUS
 62
7
 10
-219.199997
 20
-166.000000
 11
-219.199997
 21
-171.500000
  0
LINE
  8
0
  6
CONTINUOUS
 62
7
 10
-214.800003
 20
-166.000000
 11
-214.800003
 21
-171.500000
  0
LINE
  8
0
  6
CENTER
 62
2
 10
-217.000000
 20
-165.000000
 11
-217.000000
 21
-172.500000
  0
LINE
  8
0
  6
CONTINUOUS
 62
7
 10
-219.199997
 20
-47.000000
 11
-214.800003
 21
-47.000000
  0
LINE
  8
0
  6
CONTINUOUS
 62
7
 10
-242.000000
 20
-170.500000
 11
-242.000000
 21
-150.000000
  0
LINE
  8
0
  6
CONTINUOUS
 62
7
 10
-234.000000
 20
-170.500000
 11
-242.000000
 21
-170.500000
  0
LINE
  8
0
  6
CONTINUOUS
 62
7
 10
-234.000000
 20
-150.000000
 11
-242.000000
 21
-150.000000
  0
LINE
  8
0
  6
CONTINUOUS
 62
7
 10
-234.000000
 20
-161.500000
 11
-155.800003
 21
-161.500000
  0
LINE
  8
0
  6
CONTINUOUS
 62
7
 10
-232.000000
 20
-168.500000
 11
-234.000000
 21
-168.500000
  0
LINE
  8
0
  6
CONTINUOUS
 62
7
 10
-182.000000
 20
-166.000000
 11
-206.000000
 21
-166.000000
  0
LINE
  8
0
  6
CONTINUOUS
 62
7
 10
-166.800003
 20
-166.000000
 11
-176.000000
 21
-166.000000
  0
LINE
  8
0
  6
CONTINUOUS
 62
7
 10
-155.399994
 20
-154.500000
 11
-155.800003
 21
-154.500000
  0
LINE
  8
0
  6
CONTINUOUS
 62
7
 10
-234.000000
 20
-64.500000
 11
-157.000000
 21
-64.500000
  0
LINE
  8
0
  6
CONTINUOUS
 62
7
 10
-232.000000
 20
-42.500000
 11
-156.000000
 21
-42.500000
  0
LINE
  8
0
  6
CONTINUOUS
 62
7
 10
-232.000000
 20
-52.500000
 11
-232.000000
 21
-42.500000
  0
LINE
  8
0
  6
CONTINUOUS
 62
7
 10
-156.000000
 20
-52.500000
 11
-156.000000
 21
-42.500000
  0
LINE
  8
0
  6
CONTINUOUS
 62
7
 10
-234.000000
 20
-64.500000
 11
-234.000000
 21
-61.299900
  0
LINE
  8
0
  6
CONTINUOUS
 62
7
 10
-157.000000
 20
-64.000000
 11
-155.800003
 21
-64.000000
  0
LINE
  8
0
  6
CONTINUOUS
 62
7
 10
-234.000000
 20
-52.500000
 11
-216.000000
 21
-52.500000
  0
LINE
  8
0
  6
CONTINUOUS
 62
7
 10
-232.000000
 20
-52.000000
 11
-214.000000
 21
-52.000000
  0
LINE
  8
0
  6
CENTER
 62
2
 10
-217.000000
 20
-49.000000
 11
-217.000000
 21
-41.500000
  0
LINE
  8
0
  6
CONTINUOUS
 62
7
 10
-219.199997
 20
-48.000000
 11
-219.199997
 21
-42.500000
  0
LINE
  8
0
  6
CONTINUOUS
 62
7
 10
-214.800003
 20
-48.000000
 11
-214.800003
 21
-42.500000
  0
LINE
  8
0
  6
CONTINUOUS
 62
7
 10
-242.000000
 20
-43.500000
 11
-242.000000
 21
-64.000000
  0
LINE
  8
0
  6
CONTINUOUS
 62
7
 10
-234.000000
 20
-64.000000
 11
-242.000000
 21
-64.000000
  0
LINE
  8
0
  6
CONTINUOUS
 62
7
 10
-234.000000
 20
-43.500000
 11
-242.000000
 21
-43.500000
  0
LINE
  8
0
  6
CONTINUOUS
 62
7
 10
-157.000000
 20
-64.500000
 11
-157.000000
 21
-52.500000
  0
LINE
  8
0
  6
CONTINUOUS
 62
7
 10
-232.000000
 20
-45.500000
 11
-234.000000
 21
-45.500000
  0
LINE
  8
0
  6
CONTINUOUS
 62
7
 10
-166.800003
 20
-48.000000
 11
-175.000000
 21
-48.000000
  0
LINE
  8
0
  6
CONTINUOUS
 62
7
 10
-221.199997
 20
-48.000000
 11
-214.000000
 21
-48.000000
  0
LINE
  8
0
  6
CONTINUOUS
 62
7
 10
-158.500000
 20
-47.500000
 11
-165.500000
 21
-47.500000
  0
LINE
  8
0
  6
CONTINUOUS
 62
7
 10
-158.500000
 20
-48.500000
 11
-165.500000
 21
-48.500000
  0
LINE
  8
0
  6
CONTINUOUS
 62
7
 10
-162.000000
 20
-52.041401
 11
-165.500000
 21
-50.020699
  0
LINE
  8
0
  6
CONTINUOUS
 62
7
 10
-165.500000
 20
-50.020699
 11
-165.500000
 21
-45.979198
  0
LINE
  8
0
  6
CONTINUOUS
 62
7
 10
-158.500000
 20
-50.020699
 11
-162.000000
 21
-52.041401
  0
LINE
  8
0
  6
CONTINUOUS
 62
7
 10
-158.500000
 20
-50.020699
 11
-158.500000
 21
-45.979198
  0
LINE
  8
0
  6
CONTINUOUS
 62
7
 10
-165.500000
 20
-45.979198
 11
-162.000000
 21
-43.958500
  0
LINE
  8
0
  6
CONTINUOUS
 62
7
 10
-158.500000
 20
-45.979198
 11
-162.000000
 21
-43.958500
  0
LINE
  8
0
  6
CONTINUOUS
 62
7
 10
-222.500000
 20
-47.500000
 11
-229.500000
 21
-47.500000
  0
LINE
  8
0
  6
CONTINUOUS
 62
7
 10
-222.500000
 20
-48.500000
 11
-229.500000
 21
-48.500000
  0
LINE
  8
0
  6
CONTINUOUS
 62
7
 10
-226.000000
 20
-52.041401
 11
-229.500000
 21
-50.020699
  0
LINE
  8
0
  6
CONTINUOUS
 62
7
 10
-229.500000
 20
-50.020699
 11
-229.500000
 21
-45.979198
  0
LINE
  8
0
  6
CONTINUOUS
 62
7
 10
-222.500000
 20
-50.020699
 11
-226.000000
 21
-52.041401
  0
LINE
  8
0
  6
CONTINUOUS
 62
7
 10
-222.500000
 20
-50.020699
 11
-222.500000
 21
-45.979198
  0
LINE
  8
0
  6
CONTINUOUS
 62
7
 10
-229.500000
 20
-45.979198
 11
-226.000000
 21
-43.958500
  0
LINE
  8
0
  6
CONTINUOUS
 62
7
 10
-222.500000
 20
-45.979198
 11
-226.000000
 21
-43.958500
  0
LINE
  8
0
  6
CENTER
 62
2
 10
-171.000000
 20
-49.000000
 11
-171.000000
 21
-41.500000
  0
LINE
  8
0
  6
DASHED
 62
2
 10
-168.899994
 20
-47.000000
 11
-168.899994
 21
-42.500000
  0
LINE
  8
0
  6
DASHED
 62
2
 10
-173.100006
 20
-47.000000
 11
-173.100006
 21
-42.500000
  0
LINE
  8
0
  6
DASHED
 62
2
 10
-168.500000
 20
-47.000000
 11
-168.500000
 21
-42.500000
  0
LINE
  8
0
  6
DASHED
 62
2
 10
-173.500000
 20
-47.000000
 11
-173.500000
 21
-42.500000
  0
LINE
  8
0
  6
DASHED
 62
2
 10
-167.000000
 20
-47.000000
 11
-175.000000
 21
-47.000000
  0
LINE
  8
0
  6
DASHED
 62
2
 10
-198.000000
 20
-44.099998
 11
-204.000000
 21
-44.099998
  0
LINE
  8
0
  6
DASHED
 62
2
 10
-198.000000
 20
-44.099998
 11
-198.000000
 21
-42.500000
  0
LINE
  8
0
  6
DASHED
 62
2
 10
-204.000000
 20
-44.099998
 11
-204.000000
 21
-42.500000
  0
LINE
  8
0
  6
DASHED
 62
2
 10
-221.000000
 20
-48.000000
 11
-221.000000
 21
-47.000000
  0
LINE
  8
0
  6
DASHED
 62
2
 10
-167.000000
 20
-48.000000
 11
-167.000000
 21
-47.000000
  0
LINE
  8
0
  6
DASHED
 62
2
 10
-213.000000
 20
-47.000000
 11
-214.800003
 21
-47.000000
  0
LINE
  8
0
  6
DASHED
 62
2
 10
-219.199997
 20
-47.000000
 11
-221.000000
 21
-47.000000
  0
LINE
  8
0
  6
CENTER
 62
2
 10
-172.000000
 20
-147.500000
 11
-172.000000
 21
-151.500000
  0
LINE
  8
0
  6
CENTER
 62
2
 10
-197.000000
 20
-147.500000
 11
-197.000000
 21
-151.500000
  0
LINE
  8
0
  6
CENTER
 62
2
 10
-222.000000
 20
-147.500000
 11
-222.000000
 21
-151.500000
  0
LINE
  8
0
  6
CENTER
 62
2
 10
-244.000000
 20
-163.500000
 11
-240.000000
 21
-163.500000
  0
LINE
  8
0
  6
CENTER
 62
2
 10
-244.000000
 20
-154.500000
 11
-240.000000
 21
-154.500000
  0
LINE
  8
0
  6
CENTER
 62
2
 10
-244.000000
 20
-59.500000
 11
-240.000000
 21
-59.500000
  0
LINE
  8
0
  6
CENTER
 62
2
 10
-244.000000
 20
-50.500000
 11
-240.000000
 21
-50.500000
  0
LINE
  8
0
  6
CENTER
 62
2
 10
-222.000000
 20
-62.500000
 11
-222.000000
 21
-66.500000
  0
LINE
  8
0
  6
CENTER
 62
2
 10
-197.000000
 20
-62.500000
 11
-197.000000
 21
-66.500000
  0
LINE
  8
0
  6
CENTER
 62
2
 10
-172.000000
 20
-62.500000
 11
-172.000000
 21
-66.500000
  0
LINE
  8
0
  6
CENTER
 62
2
 10
-201.000000
 20
-165.000000
 11
-201.000000
 21
-172.500000
  0
LINE
  8
0
  6
DASHED
 62
2
 10
-203.100006
 20
-166.000000
 11
-203.100006
 21
-169.899994
  0
LINE
  8
0
  6
DASHED
 62
2
 10
-198.899994
 20
-166.000000
 11
-198.899994
 21
-169.899994
  0
LINE
  8
0
  6
DASHED
 62
2
 10
-203.500000
 20
-166.000000
 11
-203.500000
 21
-169.899994
  0
LINE
  8
0
  6
DASHED
 62
2
 10
-198.500000
 20
-166.000000
 11
-198.500000
 21
-169.899994
  0
LINE
  8
0
  6
DASHED
 62
2
 10
-204.000000
 20
-169.899994
 11
-198.000000
 21
-169.899994
  0
LINE
  8
0
  6
DASHED
 62
2
 10
-204.000000
 20
-169.899994
 11
-204.000000
 21
-171.500000
  0
LINE
  8
0
  6
DASHED
 62
2
 10
-198.000000
 20
-169.899994
 11
-198.000000
 21
-171.500000
  0
LINE
  8
0
  6
CENTER
 62
2
 10
-171.000000
 20
-165.000000
 11
-171.000000
 21
-172.500000
  0
LINE
  8
0
  6
DASHED
 62
2
 10
-173.100006
 20
-167.000000
 11
-173.100006
 21
-171.500000
  0
LINE
  8
0
  6
DASHED
 62
2
 10
-168.899994
 20
-167.000000
 11
-168.899994
 21
-171.500000
  0
LINE
  8
0
  6
DASHED
 62
2
 10
-173.500000
 20
-167.000000
 11
-173.500000
 21
-171.500000
  0
LINE
  8
0
  6
DASHED
 62
2
 10
-168.500000
 20
-167.000000
 11
-168.500000
 21
-171.500000
  0
LINE
  8
0
  6
DASHED
 62
2
 10
-175.000000
 20
-167.000000
 11
-167.000000
 21
-167.000000
  0
LINE
  8
0
  6
DASHED
 62
2
 10
-175.000000
 20
-166.000000
 11
-175.000000
 21
-167.000000
  0
LINE
  8
0
  6
DASHED
 62
2
 10
-167.000000
 20
-166.000000
 11
-167.000000
 21
-167.000000
  0
LINE
  8
0
  6
DASHED
 62
2
 10
-221.000000
 20
-167.000000
 11
-219.199997
 21
-167.000000
  0
LINE
  8
0
  6
DASHED
 62
2
 10
-221.000000
 20
-166.000000
 11
-221.000000
 21
-167.000000
  0
LINE
  8
0
  6
CONTINUOUS
 62
7
 10
-214.800003
 20
-167.000000
 11
-219.199997
 21
-167.000000
  0
LINE
  8
0
  6
DASHED
 62
2
 10
-213.000000
 20
-166.000000
 11
-213.000000
 21
-167.000000
  0
LINE
  8
0
  6
DASHED
 62
2
 10
-214.800003
 20
-167.000000
 11
-213.000000
 21
-167.000000
  0
LINE
  8
0
  6
CONTINUOUS
 62
7
 10
-155.800003
 20
-96.000000
 11
-155.800003
 21
-91.000000
  0
LINE
  8
0
  6
CONTINUOUS
 62
7
 10
-155.399994
 20
-100.000000
 11
-155.399994
 21
-96.000000
  0
LINE
  8
0
  6
CONTINUOUS
 62
7
 10
-155.399994
 20
-96.000000
 11
-156.500000
 21
-96.000000
  0
LINE
  8
0
  6
CONTINUOUS
 62
7
 10
-156.500000
 20
-100.000000
 11
-156.500000
 21
-96.000000
  0
LINE
  8
0
  6
CONTINUOUS
 62
7
 10
-155.399994
 20
-100.000000
 11
-156.500000
 21
-100.000000
  0
LINE
  8
0
  6
CONTINUOUS
 62
7
 10
-155.800003
 20
-114.000000
 11
-155.800003
 21
-100.000000
  0
LINE
  8
0
  6
CONTINUOUS
 62
7
 10
-155.399994
 20
-114.000000
 11
-156.500000
 21
-114.000000
  0
LINE
  8
0
  6
CONTINUOUS
 62
7
 10
-156.500000
 20
-114.000000
 11
-156.500000
 21
-118.000000
  0
LINE
  8
0
  6
CONTINUOUS
 62
7
 10
-155.399994
 20
-114.000000
 11
-155.399994
 21
-118.000000
  0
LINE
  8
0
  6
CONTINUOUS
 62
7
 10
-155.399994
 20
-118.000000
 11
-156.500000
 21
-118.000000
  0
LINE
  8
0
  6
CONTINUOUS
 62
7
 10
-155.800003
 20
-123.000000
 11
-155.800003
 21
-118.000000
  0
LINE
  8
0
  6
CONTINUOUS
 62
7
 10
-156.000000
 20
-91.000000
 11
-156.000000
 21
-90.500000
  0
LINE
  8
0
  6
CENTER
 62
2
 10
-226.000000
 20
-87.500000
 11
-226.000000
 21
-92.000000
  0
LINE
  8
0
  6
CONTINUOUS
 62
7
 10
-226.000000
 20
-89.900002
 11
-226.000000
 21
-88.500000
  0
LINE
  8
0
  6
CONTINUOUS
 62
7
 10
-229.899994
 20
-89.900002
 11
-222.100006
 21
-89.900002
  0
LINE
  8
0
  6
CONTINUOUS
 62
7
 10
-222.100006
 20
-89.900002
 11
-222.100006
 21
-90.500000
  0
LINE
  8
0
  6
CONTINUOUS
 62
7
 10
-229.899994
 20
-89.900002
 11
-229.899994
 21
-90.500000
  0
LINE
  8
0
  6
CONTINUOUS
 62
7
 10
-222.500000
 20
-88.500000
 11
-222.500000
 21
-89.900002
  0
LINE
  8
0
  6
CONTINUOUS
 62
7
 10
-229.500000
 20
-88.500000
 11
-229.500000
 21
-89.900002
  0
LINE
  8
0
  6
CENTER
 62
2
 10
-162.000000
 20
-87.500000
 11
-162.000000
 21
-92.000000
  0
LINE
  8
0
  6
CONTINUOUS
 62
7
 10
-155.800003
 20
-64.000000
 11
-155.800003
 21
-52.500000
  0
LINE
  8
0
  6
CONTINUOUS
 62
7
 10
-155.399994
 20
-63.500000
 11
-155.399994
 21
-59.500000
  0
LINE
  8
0
  6
CONTINUOUS
 62
7
 10
-155.800003
 20
-63.500000
 11
-155.399994
 21
-63.500000
  0
LINE
  8
0
  6
CONTINUOUS
 62
7
 10
-155.800003
 20
-59.500000
 11
-155.399994
 21
-59.500000
  0
LINE
  8
0
  6
CONTINUOUS
 62
7
 10
-155.399994
 20
-150.500000
 11
-155.399994
 21
-154.500000
  0
LINE
  8
0
  6
CONTINUOUS
 62
7
 10
-155.800003
 20
-150.000000
 11
-155.800003
 21
-161.500000
  0
LINE
  8
0
  6
CENTER
 62
2
 10
-154.800003
 20
-213.500000
 11
-243.000000
 21
-213.500000
  0
LINE
  8
0
  6
CONTINUOUS
 62
7
 10
-232.000000
 20
-230.000000
 11
-219.199997
 21
-230.000000
  0
LINE
  8
0
  6
CONTINUOUS
 62
7
 10
-232.000000
 20
-197.000000
 11
-219.199997
 21
-197.000000
  0
LINE
  8
0
  6
CONTINUOUS
 62
7
 10
-232.000000
 20
-197.000000
 11
-232.000000
 21
-230.000000
  0
LINE
  8
0
  6
CONTINUOUS
 62
7
 10
-156.000000
 20
-197.000000
 11
-156.000000
 21
-230.000000
  0
LINE
  8
0
  6
CONTINUOUS
 62
7
 10
-242.000000
 20
-197.500000
 11
-232.000000
 21
-197.500000
  0
LINE
  8
0
  6
CONTINUOUS
 62
7
 10
-242.000000
 20
-229.500000
 11
-232.000000
 21
-229.500000
  0
LINE
  8
0
  6
CONTINUOUS
 62
7
 10
-234.000000
 20
-197.500000
 11
-234.000000
 21
-229.500000
  0
LINE
  8
0
  6
CONTINUOUS
 62
7
 10
-155.399994
 20
-206.500000
 11
-155.800003
 21
-206.500000
  0
LINE
  8
0
  6
CONTINUOUS
 62
7
 10
-155.399994
 20
-220.500000
 11
-155.800003
 21
-220.500000
  0
LINE
  8
0
  6
CONTINUOUS
 62
7
 10
-155.399994
 20
-224.500000
 11
-155.800003
 21
-224.500000
  0
LINE
  8
0
  6
CONTINUOUS
 62
7
 10
-155.399994
 20
-202.500000
 11
-155.800003
 21
-202.500000
  0
LINE
  8
0
  6
CONTINUOUS
 62
7
 10
-214.800003
 20
-197.000000
 11
-156.000000
 21
-197.000000
  0
LINE
  8
0
  6
CONTINUOUS
 62
7
 10
-214.800003
 20
-230.000000
 11
-156.000000
 21
-230.000000
  0
LINE
  8
0
  6
CONTINUOUS
 62
7
 10
-219.199997
 20
-197.500000
 11
-214.800003
 21
-197.500000
  0
LINE
  8
0
  6
CONTINUOUS
 62
7
 10
-219.199997
 20
-229.500000
 11
-214.800003
 21
-229.500000
  0
LINE
  8
0
  6
CONTINUOUS
 62
7
 10
-242.000000
 20
-197.500000
 11
-242.000000
 21
-229.500000
  0
LINE
  8
0
  6
CONTINUOUS
 62
7
 10
-219.199997
 20
-201.500000
 11
-219.199997
 21
-197.000000
  0
LINE
  8
0
  6
CONTINUOUS
 62
7
 10
-214.800003
 20
-201.500000
 11
-214.800003
 21
-197.000000
  0
LINE
  8
0
  6
CONTINUOUS
 62
7
 10
-219.199997
 20
-225.500000
 11
-219.199997
 21
-230.000000
  0
LINE
  8
0
  6
CONTINUOUS
 62
7
 10
-214.800003
 20
-225.500000
 11
-214.800003
 21
-230.000000
  0
LINE
  8
0
  6
CONTINUOUS
 62
7
 10
-155.800003
 20
-197.500000
 11
-155.800003
 21
-229.500000
  0
LINE
  8
0
  6
CONTINUOUS
 62
7
 10
-156.000000
 20
-197.500000
 11
-155.800003
 21
-197.500000
  0
LINE
  8
0
  6
CONTINUOUS
 62
7
 10
-156.000000
 20
-229.500000
 11
-155.800003
 21
-229.500000
  0
LINE
  8
0
  6
CONTINUOUS
 62
7
 10
-155.399994
 20
-202.500000
 11
-155.399994
 21
-206.500000
  0
LINE
  8
0
  6
CONTINUOUS
 62
7
 10
-155.399994
 20
-220.500000
 11
-155.399994
 21
-224.500000
  0
LINE
  8
0
  6
CONTINUOUS
 62
7
 10
-222.500000
 20
-233.500000
 11
-229.500000
 21
-233.500000
  0
LINE
  8
0
  6
CENTER
 62
2
 10
-226.000000
 20
-234.500000
 11
-226.000000
 21
-228.500000
  0
LINE
  8
0
  6
CONTINUOUS
 62
7
 10
-226.000000
 20
-230.600006
 11
-226.000000
 21
-233.500000
  0
LINE
  8
0
  6
CONTINUOUS
 62
7
 10
-222.100006
 20
-230.600006
 11
-229.899994
 21
-230.600006
  0
LINE
  8
0
  6
CONTINUOUS
 62
7
 10
-229.899994
 20
-230.600006
 11
-229.899994
 21
-230.000000
  0
LINE
  8
0
  6
CONTINUOUS
 62
7
 10
-222.100006
 20
-230.600006
 11
-222.100006
 21
-230.000000
  0
LINE
  8
0
  6
CONTINUOUS
 62
7
 10
-229.500000
 20
-233.500000
 11
-229.500000
 21
-230.600006
  0
LINE
  8
0
  6
CONTINUOUS
 62
7
 10
-222.500000
 20
-233.500000
 11
-222.500000
 21
-230.600006
  0
LINE
  8
0
  6
CONTINUOUS
 62
7
 10
-158.500000
 20
-233.500000
 11
-165.500000
 21
-233.500000
  0
LINE
  8
0
  6
CENTER
 62
2
 10
-162.000000
 20
-234.500000
 11
-162.000000
 21
-228.500000
  0
LINE
  8
0
  6
CONTINUOUS
 62
7
 10
-162.000000
 20
-230.600006
 11
-162.000000
 21
-233.500000
  0
LINE
  8
0
  6
CONTINUOUS
 62
7
 10
-158.100006
 20
-230.600006
 11
-165.899994
 21
-230.600006
  0
LINE
  8
0
  6
CONTINUOUS
 62
7
 10
-165.899994
 20
-230.600006
 11
-165.899994
 21
-230.000000
  0
LINE
  8
0
  6
CONTINUOUS
 62
7
 10
-158.100006
 20
-230.600006
 11
-158.100006
 21
-230.000000
  0
LINE
  8
0
  6
CONTINUOUS
 62
7
 10
-165.500000
 20
-233.500000
 11
-165.500000
 21
-230.600006
  0
LINE
  8
0
  6
CONTINUOUS
 62
7
 10
-158.500000
 20
-233.500000
 11
-158.500000
 21
-230.600006
  0
LINE
  8
0
  6
CENTER
 62
2
 10
-226.000000
 20
-43.099998
 11
-226.000000
 21
-52.900002
  0
LINE
  8
0
  6
CENTER
 62
2
 10
-230.899994
 20
-48.000000
 11
-221.199997
 21
-48.000000
  0
LINE
  8
0
  6
CENTER
 62
2
 10
-162.000000
 20
-43.099998
 11
-162.000000
 21
-52.900002
  0
LINE
  8
0
  6
CENTER
 62
2
 10
-166.800003
 20
-48.000000
 11
-157.100006
 21
-48.000000
  0
LINE
  8
0
  6
CENTER
 62
2
 10
-222.000000
 20
-92.000000
 11
-222.000000
 21
-97.000000
  0
LINE
  8
0
  6
CENTER
 62
2
 10
-224.500000
 20
-94.500000
 11
-219.500000
 21
-94.500000
  0
LINE
  8
0
  6
CENTER
 62
2
 10
-217.000000
 20
-90.000000
 11
-217.000000
 21
-100.000000
  0
LINE
  8
0
  6
CENTER
 62
2
 10
-222.000000
 20
-95.000000
 11
-212.000000
 21
-95.000000
  0
LINE
  8
0
  6
CENTER
 62
2
 10
-222.000000
 20
-117.000000
 11
-222.000000
 21
-122.000000
  0
LINE
  8
0
  6
CENTER
 62
2
 10
-224.500000
 20
-119.500000
 11
-219.500000
 21
-119.500000
  0
LINE
  8
0
  6
CENTER
 62
2
 10
-217.000000
 20
-114.000000
 11
-217.000000
 21
-124.000000
  0
LINE
  8
0
  6
CENTER
 62
2
 10
-222.000000
 20
-119.000000
 11
-212.000000
 21
-119.000000
  0
LINE
  8
0
  6
CENTER
 62
2
 10
-197.000000
 20
-92.000000
 11
-197.000000
 21
-97.000000
  0
LINE
  8
0
  6
CENTER
 62
2
 10
-199.500000
 20
-94.500000
 11
-194.500000
 21
-94.500000
  0
LINE
  8
0
  6
CENTER
 62
2
 10
-197.000000
 20
-117.000000
 11
-197.000000
 21
-122.000000
  0
LINE
  8
0
  6
CENTER
 62
2
 10
-199.500000
 20
-119.500000
 11
-194.500000
 21
-119.500000
  0
LINE
  8
0
  6
CENTER
 62
2
 10
-189.000000
 20
-116.500000
 11
-189.000000
 21
-122.500000
  0
LINE
  8
0
  6
CENTER
 62
2
 10
-192.000000
 20
-119.500000
 11
-186.000000
 21
-119.500000
  0
LINE
  8
0
  6
CENTER
 62
2
 10
-189.000000
 20
-91.500000
 11
-189.000000
 21
-97.500000
  0
LINE
  8
0
  6
CENTER
 62
2
 10
-192.000000
 20
-94.500000
 11
-186.000000
 21
-94.500000
  0
LINE
  8
0
  6
CENTER
 62
2
 10
-172.000000
 20
-92.000000
 11
-172.000000
 21
-97.000000
  0
LINE
  8
0
  6
CENTER
 62
2
 10
-174.500000
 20
-94.500000
 11
-169.500000
 21
-94.500000
  0
LINE
  8
0
  6
CENTER
 62
2
 10
-171.000000
 20
-90.000000
 11
-171.000000
 21
-100.000000
  0
LINE
  8
0
  6
CENTER
 62
2
 10
-176.000000
 20
-95.000000
 11
-166.000000
 21
-95.000000
  0
LINE
  8
0
  6
CENTER
 62
2
 10
-171.000000
 20
-114.000000
 11
-171.000000
 21
-124.000000
  0
LINE
  8
0
  6
CENTER
 62
2
 10
-176.000000
 20
-119.000000
 11
-166.000000
 21
-119.000000
  0
LINE
  8
0
  6
CENTER
 62
2
 10
-172.000000
 20
-117.000000
 11
-172.000000
 21
-122.000000
  0
LINE
  8
0
  6
CENTER
 62
2
 10
-174.500000
 20
-119.500000
 11
-169.500000
 21
-119.500000
  0
LINE
  8
0
  6
CENTER
 62
2
 10
-226.000000
 20
-162.500000
 11
-226.000000
 21
-169.500000
  0
LINE
  8
0
  6
CENTER
 62
2
 10
-229.500000
 20
-166.000000
 11
-222.500000
 21
-166.000000
  0
LINE
  8
0
  6
CENTER
 62
2
 10
-209.000000
 20
-163.500000
 11
-209.000000
 21
-168.500000
  0
LINE
  8
0
  6
CENTER
 62
2
 10
-211.500000
 20
-166.000000
 11
-206.500000
 21
-166.000000
  0
LINE
  8
0
  6
CENTER
 62
2
 10
-179.000000
 20
-163.500000
 11
-179.000000
 21
-168.500000
  0
LINE
  8
0
  6
CENTER
 62
2
 10
-181.500000
 20
-166.000000
 11
-176.500000
 21
-166.000000
  0
LINE
  8
0
  6
CENTER
 62
2
 10
-162.000000
 20
-162.500000
 11
-162.000000
 21
-169.500000
  0
LINE
  8
0
  6
CENTER
 62
2
 10
-165.500000
 20
-166.000000
 11
-158.500000
 21
-166.000000
  0
LINE
  8
0
  6
CENTER
 62
2
 10
-161.800003
 20
-151.500000
 11
-161.800003
 21
-156.500000
  0
LINE
  8
0
  6
CENTER
 62
2
 10
-164.300003
 20
-154.000000
 11
-159.300003
 21
-154.000000
  0
LINE
  8
0
  6
CENTER
 62
2
 10
-165.199997
 20
-151.699997
 11
-165.199997
 21
-155.699997
  0
LINE
  8
0
  6
CENTER
 62
2
 10
-167.199997
 20
-153.699997
 11
-163.199997
 21
-153.699997
  0
LINE
  8
0
  6
CENTER
 62
2
 10
-168.300003
 20
-151.500000
 11
-168.300003
 21
-156.500000
  0
LINE
  8
0
  6
CENTER
 62
2
 10
-170.800003
 20
-154.000000
 11
-165.800003
 21
-154.000000
  0
LINE
  8
0
  6
CENTER
 62
2
 10
-175.199997
 20
-151.699997
 11
-175.199997
 21
-155.699997
  0
LINE
  8
0
  6
CENTER
 62
2
 10
-177.199997
 20
-153.699997
 11
-173.199997
 21
-153.699997
  0
LINE
  8
0
  6
CENTER
 62
2
 10
-217.000000
 20
-198.300003
 11
-217.000000
 21
-204.699997
  0
LINE
  8
0
  6
CENTER
 62
2
 10
-220.199997
 20
-201.500000
 11
-213.800003
 21
-201.500000
  0
LINE
  8
0
  6
CENTER
 62
2
 10
-217.000000
 20
-222.300003
 11
-217.000000
 21
-228.699997
  0
LINE
  8
0
  6
CENTER
 62
2
 10
-220.199997
 20
-225.500000
 11
-213.800003
 21
-225.500000
  0
LINE
  8
0
  6
CENTER
 62
2
 10
-201.000000
 20
-221.500000
 11
-201.000000
 21
-229.500000
  0
LINE
  8
0
  6
CENTER
 62
2
 10
-205.000000
 20
-225.500000
 11
-197.000000
 21
-225.500000
  0
LINE
  8
0
  6
CENTER
 62
2
 10
-201.000000
 20
-197.500000
 11
-201.000000
 21
-205.500000
  0
LINE
  8
0
  6
CENTER
 62
2
 10
-205.000000
 20
-201.500000
 11
-197.000000
 21
-201.500000
  0
LINE
  8
0
  6
CENTER
 62
2
 10
-171.000000
 20
-198.000000
 11
-171.000000
 21
-205.000000
  0
LINE
  8
0
  6
CENTER
 62
2
 10
-174.500000
 20
-201.500000
 11
-167.500000
 21
-201.500000
  0
LINE
  8
0
  6
CENTER
 62
2
 10
-171.000000
 20
-222.000000
 11
-171.000000
 21
-229.000000
  0
LINE
  8
0
  6
CENTER
 62
2
 10
-174.500000
 20
-225.500000
 11
-167.500000
 21
-225.500000
  0
LINE
  8
0
  6
CONTINUOUS
 62
7
 10
-172.800003
 20
-91.000000
 11
-172.800003
 21
-82.000000
  0
LINE
  8
0
  6
CONTINUOUS
 62
7
 10
-157.300003
 20
-82.000000
 11
-172.800003
 21
-82.000000
  0
LINE
  8
0
  6
CONTINUOUS
 62
7
 10
-157.300003
 20
-91.000000
 11
-157.300003
 21
-82.000000
  0
LINE
  8
0
  6
CONTINUOUS
 62
7
 10
-157.300003
 20
-90.500000
 11
-156.000000
 21
-90.500000
  0
LINE
  8
0
  6
CONTINUOUS
 62
7
 10
-157.300003
 20
-62.500000
 11
-157.300003
 21
-54.500000
  0
LINE
  8
0
  6
CENTER
 62
2
 10
-175.199997
 20
-58.299999
 11
-175.199997
 21
-62.299999
  0
LINE
  8
0
  6
CENTER
 62
2
 10
-177.199997
 20
-60.299999
 11
-173.199997
 21
-60.299999
  0
LINE
  8
0
  6
CONTINUOUS
 62
7
 10
-172.800003
 20
-62.500000
 11
-172.800003
 21
-54.500000
  0
LINE
  8
0
  6
CONTINUOUS
 62
7
 10
-172.800003
 20
-54.500000
 11
-157.300003
 21
-54.500000
  0
LINE
  8
0
  6
CONTINUOUS
 62
7
 10
-172.800003
 20
-62.500000
 11
-157.300003
 21
-62.500000
  0
LINE
  8
0
  6
DASHED
 62
2
 10
-203.500000
 20
-48.000000
 11
-203.500000
 21
-44.099998
  0
LINE
  8
0
  6
DASHED
 62
2
 10
-203.100006
 20
-48.000000
 11
-203.100006
 21
-44.099998
  0
LINE
  8
0
  6
CENTER
 62
2
 10
-201.000000
 20
-49.000000
 11
-201.000000
 21
-41.500000
  0
LINE
  8
0
  6
DASHED
 62
2
 10
-198.899994
 20
-48.000000
 11
-198.899994
 21
-44.099998
  0
LINE
  8
0
  6
DASHED
 62
2
 10
-198.500000
 20
-48.000000
 11
-198.500000
 21
-44.099998
  0
LINE
  8
0
  6
DASHED
 62
2
 10
-205.000000
 20
-48.000000
 11
-197.000000
 21
-48.000000
  0
LINE
  8
0
  6
CONTINUOUS
 62
7
 10
-207.800003
 20
-52.000000
 11
-156.000000
 21
-52.000000
  0
LINE
  8
0
  6
CONTINUOUS
 62
7
 10
-208.800003
 20
-52.500000
 11
-155.800003
 21
-52.500000
  0
LINE
  8
0
  6
CONTINUOUS
 62
7
 10
-172.800003
 20
-230.000000
 11
-172.800003
 21
-238.500000
  0
LINE
  8
0
  6
CONTINUOUS
 62
7
 10
-157.300003
 20
-238.500000
 11
-172.800003
 21
-238.500000
  0
LINE
  8
0
  6
CONTINUOUS
 62
7
 10
-157.300003
 20
-230.000000
 11
-157.300003
 21
-238.500000
  0
LINE
  8
0
  6
CONTINUOUS
 62
7
 10
-232.000000
 20
-218.500000
 11
-234.000000
 21
-218.500000
  0
LINE
  8
0
  6
CONTINUOUS
 62
7
 10
-232.000000
 20
-208.500000
 11
-234.000000
 21
-208.500000
  0
LINE
  8
0
  6
CONTINUOUS
 62
7
 10
-267.000000
 20
-123.000000
 11
-267.000000
 21
-116.000000
  0
LINE
  8
0
  6
CONTINUOUS
 62
7
 10
-267.299988
 20
-115.699997
 11
-267.299988
 21
-98.300003
  0
LINE
  8
0
  6
CONTINUOUS
 62
7
 10
-267.000000
 20
-116.000000
 11
-267.299988
 21
-115.699997
  0
LINE
  8
0
  6
CONTINUOUS
 62
7
 10
-267.000000
 20
-123.000000
 11
-288.000000
 21
-123.000000
  0
LINE
  8
0
  6
CONTINUOUS
 62
7
 10
-267.000000
 20
-91.000000
 11
-267.000000
 21
-98.000000
  0
LINE
  8
0
  6
CONTINUOUS
 62
7
 10
-267.000000
 20
-98.000000
 11
-267.299988
 21
-98.300003
  0
LINE
  8
0
  6
CONTINUOUS
 62
7
 10
-267.000000
 20
-91.000000
 11
-288.000000
 21
-91.000000
  0
LINE
  8
0
  6
CONTINUOUS
 62
7
 10
-279.500000
 20
-90.500000
 11
-279.500000
 21
-91.000000
  0
LINE
  8
0
  6
CONTINUOUS
 62
7
 10
-289.000000
 20
-90.500000
 11
-289.000000
 21
-123.500000
  0
LINE
  8
0
  6
CONTINUOUS
 62
7
 10
-279.500000
 20
-123.500000
 11
-289.000000
 21
-123.500000
  0
LINE
  8
0
  6
CONTINUOUS
 62
7
 10
-279.500000
 20
-123.500000
 11
-279.500000
 21
-123.000000
  0
LINE
  8
0
  6
CENTER
 62
2
 10
-266.299988
 20
-107.000000
 11
-290.000000
 21
-107.000000
  0
LINE
  8
0
  6
CONTINUOUS
 62
7
 10
-267.500000
 20
-91.000000
 11
-267.500000
 21
-123.000000
  0
LINE
  8
0
  6
CONTINUOUS
 62
7
 10
-288.000000
 20
-91.000000
 11
-288.000000
 21
-123.000000
  0
LINE
  8
0
  6
CENTER
 62
2
 10
-281.000000
 20
-100.000000
 11
-281.000000
 21
-114.000000
  0
LINE
  8
0
  6
CONTINUOUS
 62
7
 10
-287.540985
 20
-87.000000
 11
-287.540985
 21
-89.900002
  0
LINE
  8
0
  6
CONTINUOUS
 62
7
 10
-287.399994
 20
-89.900002
 11
-287.399994
 21
-90.500000
  0
LINE
  8
0
  6
CONTINUOUS
 62
7
 10
-279.459015
 20
-89.900002
 11
-287.540985
 21
-89.900002
  0
LINE
  8
0
  6
CONTINUOUS
 62
7
 10
-285.520996
 20
-87.000000
 11
-285.520996
 21
-89.900002
  0
LINE
  8
0
  6
CENTER
 62
2
 10
-283.500000
 20
-86.000000
 11
-283.500000
 21
-91.500000
  0
LINE
  8
0
  6
CONTINUOUS
 62
7
 10
-279.459015
 20
-87.000000
 11
-287.540985
 21
-87.000000
  0
LINE
  8
0
  6
CONTINUOUS
 62
7
 10
-279.459015
 20
-87.000000
 11
-279.459015
 21
-89.900002
  0
LINE
  8
0
  6
CONTINUOUS
 62
7
 10
-281.479004
 20
-87.000000
 11
-281.479004
 21
-89.900002
  0
LINE
  8
0
  6
CONTINUOUS
 62
7
 10
-279.600006
 20
-89.900002
 11
-279.600006
 21
-90.500000
  0
LINE
  8
0
  6
CENTER
 62
2
 10
-281.000000
 20
-116.000000
 11
-281.000000
 21
-122.000000
  0
LINE
  8
0
  6
CENTER
 62
2
 10
-284.000000
 20
-119.000000
 11
-278.000000
 21
-119.000000
  0
LINE
  8
0
  6
CENTER
 62
2
 10
-272.000000
 20
-113.500000
 11
-272.000000
 21
-123.500000
  0
LINE
  8
0
  6
CENTER
 62
2
 10
-277.000000
 20
-118.500000
 11
-267.000000
 21
-118.500000
  0
LINE
  8
0
  6
CENTER
 62
2
 10
-272.000000
 20
-90.500000
 11
-272.000000
 21
-100.500000
  0
LINE
  8
0
  6
CENTER
 62
2
 10
-277.000000
 20
-95.500000
 11
-267.000000
 21
-95.500000
  0
LINE
  8
0
  6
CENTER
 62
2
 10
-281.000000
 20
-92.000000
 11
-281.000000
 21
-98.000000
  0
LINE
  8
0
  6
CENTER
 62
2
 10
-284.000000
 20
-95.000000
 11
-278.000000
 21
-95.000000
  0
LINE
  8
0
  6
CENTER
 62
2
 10
-272.000000
 20
-104.000000
 11
-272.000000
 21
-110.000000
  0
LINE
  8
0
  6
CONTINUOUS
 62
7
 10
-269.000000
 20
-90.500000
 11
-269.000000
 21
-91.000000
  0
LINE
  8
0
  6
CONTINUOUS
 62
7
 10
-277.000000
 20
-90.500000
 11
-277.000000
 21
-91.000000
  0
LINE
  8
0
  6
CONTINUOUS
 62
7
 10
-279.462006
 20
-85.173302
 11
-277.063995
 21
-89.326599
  0
LINE
  8
0
  6
CONTINUOUS
 62
7
 10
-277.063995
 20
-79.673401
 11
-279.462006
 21
-83.826698
  0
LINE
  8
0
  6
CONTINUOUS
 62
7
 10
-271.101990
 20
-79.000000
 11
-275.898010
 21
-79.000000
  0
LINE
  8
0
  6
CONTINUOUS
 62
7
 10
-267.537994
 20
-83.826599
 11
-269.936005
 21
-79.673302
  0
LINE
  8
0
  6
CONTINUOUS
 62
7
 10
-269.936005
 20
-89.326698
 11
-267.537994
 21
-85.173401
  0
LINE
  8
0
  6
CONTINUOUS
 62
7
 10
-271.101990
 20
-90.000000
 11
-275.898010
 21
-90.000000
  0
LINE
  8
0
  6
CONTINUOUS
 62
7
 10
-274.250000
 20
-86.136299
 11
-274.250000
 21
-88.429001
  0
LINE
  8
0
  6
CONTINUOUS
 62
7
 10
-272.750000
 20
-86.136299
 11
-272.750000
 21
-88.429001
  0
LINE
  8
0
  6
CONTINUOUS
 62
7
 10
-272.750000
 20
-80.570900
 11
-272.750000
 21
-82.863701
  0
LINE
  8
0
  6
CONTINUOUS
 62
7
 10
-274.250000
 20
-80.570900
 11
-274.250000
 21
-82.863701
  0
LINE
  8
0
  6
CENTER
 62
2
 10
-266.500000
 20
-84.500000
 11
-280.500000
 21
-84.500000
  0
LINE
  8
0
  6
CENTER
 62
2
 10
-273.500000
 20
-91.500000
 11
-273.500000
 21
-77.500000
  0
LINE
  8
0
  6
CONTINUOUS
 62
7
 10
-289.000000
 20
-90.500000
 11
-267.500000
 21
-90.500000
  0
LINE
  8
0
  6
CONTINUOUS
 62
7
 10
-288.500000
 20
-78.500000
 11
-267.500000
 21
-78.500000
  0
LINE
  8
0
  6
CONTINUOUS
 62
7
 10
-288.500000
 20
-78.500000
 11
-288.500000
 21
-90.500000
  0
LINE
  8
0
  6
CONTINUOUS
 62
7
 10
-267.500000
 20
-78.500000
 11
-267.500000
 21
-90.500000
  0
LINE
  8
0
  6
CONTINUOUS
 62
7
 10
-175.000000
 20
-52.000000
 11
-175.000000
 21
-43.000000
  0
LINE
  8
0
  6
CONTINUOUS
 62
7
 10
-216.000000
 20
-64.000000
 11
-209.300003
 21
-64.000000
  0
LINE
  8
0
  6
CONTINUOUS
 62
7
 10
-214.000000
 20
-63.999901
 11
-214.000000
 21
-43.000000
  0
LINE
  8
0
  6
CONTINUOUS
 62
7
 10
-209.300003
 20
-64.000000
 11
-209.300003
 21
-53.500000
  0
LINE
  8
0
  6
CONTINUOUS
 62
7
 10
-214.000000
 20
-43.000000
 11
-175.000000
 21
-43.000000
  0
LINE
  8
0
  6
CONTINUOUS
 62
2
 10
-216.000000
 20
-54.700001
 11
-233.800003
 21
-54.700001
  0
LINE
  8
0
  6
CONTINUOUS
 62
7
 10
-216.000000
 20
-62.000000
 11
-233.800003
 21
-62.000000
  0
LINE
  8
0
  6
CONTINUOUS
 62
2
 10
-208.800003
 20
-61.299900
 11
-209.300003
 21
-61.299900
  0
LINE
  8
0
  6
CONTINUOUS
 62
2
 10
-216.000000
 20
-61.299900
 11
-233.800003
 21
-61.299900
  0
LINE
  8
0
  6
CONTINUOUS
 62
2
 10
-208.800003
 20
-54.700001
 11
-209.300003
 21
-54.700001
  0
LINE
  8
0
  6
CENTER
 62
2
 10
-197.800003
 20
-58.000000
 11
-235.800003
 21
-58.000000
  0
LINE
  8
0
  6
CONTINUOUS
 62
7
 10
-216.000000
 20
-55.602100
 11
-214.000000
 21
-55.602100
  0
LINE
  8
0
  6
CONTINUOUS
 62
7
 10
-216.000000
 20
-63.999901
 11
-216.000000
 21
-52.000000
  0
LINE
  8
0
  6
CONTINUOUS
 62
7
 10
-216.000000
 20
-61.564098
 11
-214.000000
 21
-61.564098
  0
LINE
  8
0
  6
CONTINUOUS
 62
7
 10
-216.000000
 20
-54.435799
 11
-214.000000
 21
-54.435799
  0
LINE
  8
0
  6
CONTINUOUS
 62
7
 10
-216.000000
 20
-60.397900
 11
-214.000000
 21
-60.397900
  0
LINE
  8
0
  6
CONTINUOUS
 62
7
 10
-208.800003
 20
-63.500000
 11
-208.800003
 21
-52.500000
  0
LINE
  8
0
  6
CONTINUOUS
 62
7
 10
-208.800003
 20
-63.500000
 11
-202.800003
 21
-63.500000
  0
LINE
  8
0
  6
CONTINUOUS
 62
7
 10
-202.800003
 20
-52.500000
 11
-202.800003
 21
-63.500000
  0
LINE
  8
0
  6
CONTINUOUS
 62
7
 10
-198.800003
 20
-57.000000
 11
-198.800003
 21
-58.999901
  0
LINE
  8
0
  6
CONTINUOUS
 62
7
 10
-198.800003
 20
-57.000000
 11
-202.800003
 21
-57.000000
  0
LINE
  8
0
  6
CONTINUOUS
 62
7
 10
-198.800003
 20
-58.999901
 11
-202.800003
 21
-58.999901
  0
LINE
  8
0
  6
CONTINUOUS
 62
7
 10
-216.000000
 20
-53.999901
 11
-233.800003
 21
-53.999901
  0
LINE
  8
0
  6
CONTINUOUS
 62
7
 10
-208.800003
 20
-62.000000
 11
-209.300003
 21
-62.000000
  0
LINE
  8
0
  6
CONTINUOUS
 62
7
 10
-208.800003
 20
-53.999901
 11
-209.300003
 21
-53.999901
  0
LINE
  8
0
  6
CONTINUOUS
 62
7
 10
-234.800003
 20
-61.299900
 11
-234.800003
 21
-58.749901
  0
LINE
  8
0
  6
CONTINUOUS
 62
7
 10
-233.800003
 20
-61.299900
 11
-234.800003
 21
-61.299900
  0
LINE
  8
0
  6
CONTINUOUS
 62
7
 10
-233.800003
 20
-62.000000
 11
-233.800003
 21
-53.999901
  0
LINE
  8
0
  6
CONTINUOUS
 62
7
 10
-233.800003
 20
-58.749901
 11
-234.800003
 21
-58.749901
  0
LINE
  8
0
  6
CONTINUOUS
 62
7
 10
-233.800003
 20
-57.250000
 11
-234.800003
 21
-57.250000
  0
LINE
  8
0
  6
CONTINUOUS
 62
7
 10
-234.800003
 20
-57.250000
 11
-234.800003
 21
-54.700001
  0
LINE
  8
0
  6
CONTINUOUS
 62
7
 10
-233.800003
 20
-54.700001
 11
-234.800003
 21
-54.700001
  0
LINE
  8
0
  6
CONTINUOUS
 62
7
 10
-234.000000
 20
-54.700001
 11
-234.000000
 21
-43.500000
  0
LINE
  8
0
  6
CONTINUOUS
 62
7
 10
-234.000000
 20
-58.749901
 11
-234.000000
 21
-57.250000
  0
LINE
  8
0
  6
DASHED
 62
2
 10
-213.000000
 20
-48.000000
 11
-213.000000
 21
-47.000000
  0
LINE
  8
0
  6
CONTINUOUS
 62
7
 10
-202.800003
 20
-90.000000
 11
-202.800003
 21
-79.000000
  0
LINE
  8
0
  6
CONTINUOUS
 62
7
 10
-202.800003
 20
-83.500000
 11
-198.800003
 21
-83.500000
  0
LINE
  8
0
  6
CONTINUOUS
 62
7
 10
-202.800003
 20
-85.500000
 11
-198.800003
 21
-85.500000
  0
LINE
  8
0
  6
CONTINUOUS
 62
7
 10
-198.800003
 20
-85.500000
 11
-198.800003
 21
-83.500000
  0
LINE
  8
0
  6
CONTINUOUS
 62
7
 10
-208.800003
 20
-90.000000
 11
-202.800003
 21
-90.000000
  0
LINE
  8
0
  6
CONTINUOUS
 62
7
 10
-208.800003
 20
-90.000000
 11
-208.800003
 21
-79.000000
  0
LINE
  8
0
  6
CONTINUOUS
 62
7
 10
-209.300003
 20
-88.500000
 11
-208.800003
 21
-88.500000
  0
LINE
  8
0
  6
CONTINUOUS
 62
7
 10
-209.300003
 20
-80.500000
 11
-208.800003
 21
-80.500000
  0
LINE
  8
0
  6
CONTINUOUS
 62
7
 10
-208.800003
 20
-79.000000
 11
-203.300003
 21
-79.000000
  0
LINE
  8
0
  6
CONTINUOUS
 62
7
 10
-214.000000
 20
-90.500000
 11
-214.000000
 21
-78.500000
  0
LINE
  8
0
  6
CONTINUOUS
 62
7
 10
-209.300003
 20
-90.500000
 11
-209.300003
 21
-78.500000
  0
LINE
  8
0
  6
CONTINUOUS
 62
7
 10
-208.800003
 20
-79.000000
 11
-202.800003
 21
-79.000000
  0
LINE
  8
0
  6
CONTINUOUS
 62
7
 10
-234.800003
 20
-87.800003
 11
-234.800003
 21
-81.199997
  0
LINE
  8
0
  6
CONTINUOUS
 62
7
 10
-233.800003
 20
-88.500000
 11
-233.800003
 21
-80.500000
  0
LINE
  8
0
  6
CONTINUOUS
 62
2
 10
-208.800003
 20
-81.199997
 11
-209.300003
 21
-81.199997
  0
LINE
  8
0
  6
CONTINUOUS
 62
7
 10
-216.000000
 20
-80.500000
 11
-233.800003
 21
-80.500000
  0
LINE
  8
0
  6
CONTINUOUS
 62
2
 10
-208.800003
 20
-87.800003
 11
-209.300003
 21
-87.800003
  0
LINE
  8
0
  6
CONTINUOUS
 62
7
 10
-216.000000
 20
-88.500000
 11
-233.800003
 21
-88.500000
  0
LINE
  8
0
  6
CENTER
 62
2
 10
-197.800003
 20
-84.500000
 11
-235.800003
 21
-84.500000
  0
LINE
  8
0
  6
CONTINUOUS
 62
7
 10
-214.000000
 20
-78.500000
 11
-175.000000
 21
-78.500000
  0
LINE
  8
0
  6
CONTINUOUS
 62
7
 10
-216.000000
 20
-79.000000
 11
-216.000000
 21
-90.000000
  0
LINE
  8
0
  6
CONTINUOUS
 62
7
 10
-214.000000
 20
-90.000000
 11
-216.000000
 21
-90.000000
  0
LINE
  8
0
  6
CONTINUOUS
 62
7
 10
-214.000000
 20
-89.326599
 11
-216.000000
 21
-89.326599
  0
LINE
  8
0
  6
CONTINUOUS
 62
7
 10
-214.000000
 20
-85.173302
 11
-216.000000
 21
-85.173302
  0
LINE
  8
0
  6
CONTINUOUS
 62
7
 10
-214.000000
 20
-83.826599
 11
-216.000000
 21
-83.826599
  0
LINE
  8
0
  6
CONTINUOUS
 62
7
 10
-214.000000
 20
-79.000000
 11
-216.000000
 21
-79.000000
  0
LINE
  8
0
  6
CONTINUOUS
 62
7
 10
-214.000000
 20
-79.673302
 11
-216.000000
 21
-79.673302
  0
LINE
  8
0
  6
CONTINUOUS
 62
7
 10
-175.000000
 20
-90.500000
 11
-175.000000
 21
-78.500000
  0
LINE
  8
0
  6
CONTINUOUS
 62
7
 10
-233.800003
 20
-81.199997
 11
-234.800003
 21
-81.199997
  0
LINE
  8
0
  6
CONTINUOUS
 62
7
 10
-233.800003
 20
-87.800003
 11
-234.800003
 21
-87.800003
  0
LINE
  8
0
  6
CONTINUOUS
 62
7
 10
-214.000000
 20
-230.000000
 11
-214.000000
 21
-242.000000
  0
LINE
  8
0
  6
CONTINUOUS
 62
2
 10
-216.000000
 20
-239.300003
 11
-233.800003
 21
-239.300003
  0
LINE
  8
0
  6
CONTINUOUS
 62
7
 10
-216.000000
 20
-240.000000
 11
-233.800003
 21
-240.000000
  0
LINE
  8
0
  6
CONTINUOUS
 62
2
 10
-216.000000
 20
-232.699997
 11
-222.500000
 21
-232.699997
  0
LINE
  8
0
  6
CONTINUOUS
 62
7
 10
-216.000000
 20
-232.000000
 11
-222.500000
 21
-232.000000
  0
LINE
  8
0
  6
CENTER
 62
2
 10
-213.000000
 20
-236.000000
 11
-235.800003
 21
-236.000000
  0
LINE
  8
0
  6
CONTINUOUS
 62
7
 10
-214.000000
 20
-242.000000
 11
-175.000000
 21
-242.000000
  0
LINE
  8
0
  6
CONTINUOUS
 62
7
 10
-216.000000
 20
-241.500000
 11
-216.000000
 21
-230.500000
  0
LINE
  8
0
  6
CONTINUOUS
 62
7
 10
-214.000000
 20
-230.500000
 11
-216.000000
 21
-230.500000
  0
LINE
  8
0
  6
CONTINUOUS
 62
7
 10
-214.000000
 20
-231.173004
 11
-216.000000
 21
-231.173004
  0
LINE
  8
0
  6
CONTINUOUS
 62
7
 10
-214.000000
 20
-235.326996
 11
-216.000000
 21
-235.326996
  0
LINE
  8
0
  6
CONTINUOUS
 62
7
 10
-214.000000
 20
-236.673004
 11
-216.000000
 21
-236.673004
  0
LINE
  8
0
  6
CONTINUOUS
 62
7
 10
-214.000000
 20
-241.500000
 11
-216.000000
 21
-241.500000
  0
LINE
  8
0
  6
CONTINUOUS
 62
7
 10
-214.000000
 20
-240.826996
 11
-216.000000
 21
-240.826996
  0
LINE
  8
0
  6
CONTINUOUS
 62
7
 10
-175.000000
 20
-230.000000
 11
-175.000000
 21
-242.000000
  0
LINE
  8
0
  6
CONTINUOUS
 62
7
 10
-234.800003
 20
-232.699997
 11
-234.800003
 21
-239.300003
  0
LINE
  8
0
  6
CONTINUOUS
 62
7
 10
-233.800003
 20
-232.000000
 11
-233.800003
 21
-240.000000
  0
LINE
  8
0
  6
CONTINUOUS
 62
7
 10
-233.800003
 20
-239.300003
 11
-234.800003
 21
-239.300003
  0
LINE
  8
0
  6
CONTINUOUS
 62
7
 10
-233.800003
 20
-232.699997
 11
-234.800003
 21
-232.699997
  0
LINE
  8
0
  6
CONTINUOUS
 62
7
 10
-229.500000
 20
-232.000000
 11
-233.800003
 21
-232.000000
  0
LINE
  8
0
  6
CONTINUOUS
 62
2
 10
-229.500000
 20
-232.699997
 11
-233.800003
 21
-232.699997
  0
LINE
  8
0
  6
CENTER
 62
2
 10
178.000000
 20
-117.000000
 11
178.000000
 21
-122.000000
  0
LINE
  8
0
  6
CENTER
 62
2
 10
175.500000
 20
-119.500000
 11
180.500000
 21
-119.500000
  0
LINE
  8
0
  6
CENTER
 62
2
 10
178.000000
 20
-92.000000
 11
178.000000
 21
-97.000000
  0
LINE
  8
0
  6
CENTER
 62
2
 10
175.500000
 20
-94.500000
 11
180.500000
 21
-94.500000
  0
LINE
  8
0
  6
CENTER
 62
2
 10
208.000000
 20
-62.500000
 11
208.000000
 21
-66.500000
  0
LINE
  8
0
  6
CENTER
 62
2
 10
208.000000
 20
-147.500000
 11
208.000000
 21
-151.500000
  0
LINE
  8
0
  6
CONTINUOUS
 62
7
 10
-208.800003
 20
193.000000
 11
-209.300003
 21
193.000000
  0
LINE
  8
0
  6
CONTINUOUS
 62
7
 10
-208.800003
 20
201.000000
 11
-209.300003
 21
201.000000
  0
LINE
  8
0
  6
CONTINUOUS
 62
7
 10
-216.000000
 20
193.000000
 11
-233.800003
 21
193.000000
  0
LINE
  8
0
  6
CONTINUOUS
 62
7
 10
-216.000000
 20
201.000000
 11
-233.800003
 21
201.000000
  0
LINE
  8
0
  6
CONTINUOUS
 62
7
 10
-233.800003
 20
193.699997
 11
-234.800003
 21
193.699997
  0
LINE
  8
0
  6
CONTINUOUS
 62
7
 10
-233.800003
 20
200.300003
 11
-234.800003
 21
200.300003
  0
LINE
  8
0
  6
CONTINUOUS
 62
2
 10
-208.800003
 20
193.699997
 11
-209.300003
 21
193.699997
  0
LINE
  8
0
  6
CONTINUOUS
 62
2
 10
-208.800003
 20
200.300003
 11
-209.300003
 21
200.300003
  0
LINE
  8
0
  6
CONTINUOUS
 62
2
 10
-216.000000
 20
200.300003
 11
-233.800003
 21
200.300003
  0
LINE
  8
0
  6
CONTINUOUS
 62
2
 10
-216.000000
 20
193.699997
 11
-233.800003
 21
193.699997
  0
LINE
  8
0
  6
CONTINUOUS
 62
2
 10
-216.000000
 20
173.800003
 11
-233.800003
 21
173.800003
  0
LINE
  8
0
  6
CONTINUOUS
 62
2
 10
-216.000000
 20
167.199997
 11
-233.800003
 21
167.199997
  0
LINE
  8
0
  6
CONTINUOUS
 62
7
 10
166.199997
 20
201.000000
 11
165.699997
 21
201.000000
  0
LINE
  8
0
  6
CONTINUOUS
 62
7
 10
166.199997
 20
193.000000
 11
165.699997
 21
193.000000
  0
LINE
  8
0
  6
CONTINUOUS
 62
7
 10
159.000000
 20
193.000000
 11
141.199997
 21
193.000000
  0
LINE
  8
0
  6
CONTINUOUS
 62
7
 10
159.000000
 20
201.000000
 11
141.199997
 21
201.000000
  0
LINE
  8
0
  6
CONTINUOUS
 62
2
 10
166.199997
 20
200.300003
 11
165.699997
 21
200.300003
  0
LINE
  8
0
  6
CONTINUOUS
 62
2
 10
166.199997
 20
193.699997
 11
165.699997
 21
193.699997
  0
LINE
  8
0
  6
CONTINUOUS
 62
2
 10
159.000000
 20
193.699997
 11
141.199997
 21
193.699997
  0
LINE
  8
0
  6
CONTINUOUS
 62
2
 10
159.000000
 20
200.300003
 11
141.199997
 21
200.300003
  0
LINE
  8
0
  6
CONTINUOUS
 62
2
 10
-216.000000
 20
-87.800003
 11
-233.800003
 21
-87.800003
  0
LINE
  8
0
  6
CONTINUOUS
 62
2
 10
-216.000000
 20
-81.199997
 11
-233.800003
 21
-81.199997
  0
LINE
  8
0
  6
CONTINUOUS
 62
2
 10
159.000000
 20
-87.800003
 11
141.199997
 21
-87.800003
  0
LINE
  8
0
  6
CONTINUOUS
 62
2
 10
159.000000
 20
-81.199997
 11
141.199997
 21
-81.199997
  0
LINE
  8
0
  6
CENTER
 62
2
 10
-244.000000
 20
136.000000
 11
-240.000000
 21
136.000000
  0
LINE
  8
0
  6
CENTER
 62
2
 10
-244.000000
 20
160.000000
 11
-240.000000
 21
160.000000
  0
LINE
  8
0
  6
CENTER
 62
2
 10
131.000000
 20
136.000000
 11
135.000000
 21
136.000000
  0
LINE
  8
0
  6
CENTER
 62
2
 10
131.000000
 20
160.000000
 11
135.000000
 21
160.000000
  0
LINE
  8
0
  6
CENTER
 62
2
 10
-244.000000
 20
-119.000000
 11
-240.000000
 21
-119.000000
  0
LINE
  8
0
  6
CENTER
 62
2
 10
-244.000000
 20
-95.000000
 11
-240.000000
 21
-95.000000
  0
LINE
  8
0
  6
CENTER
 62
2
 10
131.000000
 20
-119.000000
 11
135.000000
 21
-119.000000
  0
LINE
  8
0
  6
CENTER
 62
2
 10
131.000000
 20
-95.000000
 11
135.000000
 21
-95.000000
  0
LINE
  8
0
  6
CONTINUOUS
 62
7
 10
102.207001
 20
-85.207100
 11
100.792999
 21
-83.792900
  0
LINE
  8
0
  6
CONTINUOUS
 62
7
 10
100.792999
 20
-85.207100
 11
102.207001
 21
-83.792900
  0
LINE
  8
0
  6
CONTINUOUS
 62
7
 10
-274.207001
 20
169.792999
 11
-272.792999
 21
171.207001
  0
LINE
  8
0
  6
CONTINUOUS
 62
7
 10
-272.792999
 20
169.792999
 11
-274.207001
 21
171.207001
  0
LINE
  8
0
  6
CONTINUOUS
 62
7
 10
100.792999
 20
169.792999
 11
102.207001
 21
171.207001
  0
LINE
  8
0
  6
CONTINUOUS
 62
7
 10
102.207001
 20
169.792999
 11
100.792999
 21
171.207001
  0
LINE
  8
0
  6
CONTINUOUS
 62
7
 10
-274.207001
 20
-85.207001
 11
-272.792999
 21
-83.792801
  0
LINE
  8
0
  6
CONTINUOUS
 62
7
 10
-272.792999
 20
-85.207100
 11
-274.207001
 21
-83.792900
  0
LINE
  8
0
  6
CONTINUOUS
 62
7
 10
0.274994
 20
276.250000
 11
0.274994
 21
-276.750000
  0
LINE
  8
0
  6
CONTINUOUS
 62
7
 10
-399.250000
 20
-0.250000
 11
399.799988
 21
-0.250000
  0
CIRCLE
  8
0
  6
CONTINUOUS
 62
7
 10
186.000000
 20
-94.500000
 40
2.000000
  0
CIRCLE
  8
0
  6
CONTINUOUS
 62
2
 10
208.000000
 20
-119.500000
 40
1.500000
  0
CIRCLE
  8
0
  6
CONTINUOUS
 62
7
 10
208.000000
 20
-119.500000
 40
1.200000
  0
CIRCLE
  8
0
  6
CONTINUOUS
 62
7
 10
153.000000
 20
-119.500000
 40
1.200000
  0
CIRCLE
  8
0
  6
CONTINUOUS
 62
2
 10
153.000000
 20
-119.500000
 40
1.500000
  0
CIRCLE
  8
0
  6
CONTINUOUS
 62
7
 10
186.000000
 20
-119.500000
 40
2.000000
  0
CIRCLE
  8
0
  6
CONTINUOUS
 62
2
 10
233.000000
 20
-119.500000
 40
1.500000
  0
CIRCLE
  8
0
  6
CONTINUOUS
 62
7
 10
233.000000
 20
-119.500000
 40
1.200000
  0
CIRCLE
  8
0
  6
CONTINUOUS
 62
7
 10
153.000000
 20
-94.500000
 40
1.200000
  0
CIRCLE
  8
0
  6
CONTINUOUS
 62
2
 10
153.000000
 20
-94.500000
 40
1.500000
  0
CIRCLE
  8
0
  6
CONTINUOUS
 62
7
 10
233.000000
 20
-94.500000
 40
1.200000
  0
CIRCLE
  8
0
  6
CONTINUOUS
 62
2
 10
233.000000
 20
-94.500000
 40
1.500000
  0
CIRCLE
  8
0
  6
CONTINUOUS
 62
7
 10
208.000000
 20
-94.500000
 40
1.200000
  0
CIRCLE
  8
0
  6
CONTINUOUS
 62
2
 10
208.000000
 20
-94.500000
 40
1.500000
  0
ARC
  8
0
  6
DASHED
 62
2
 10
158.000000
 20
-95.000000
 40
2.200000
 50
180.000000
 51
0.000000
  0
ARC
  8
0
  6
DASHED
 62
2
 10
158.000000
 20
-119.000000
 40
2.200000
 50
0.000000
 51
180.000000
  0
CIRCLE
  8
0
  6
DASHED
 62
2
 10
234.000000
 20
-95.000000
 40
4.000000
  0
ARC
  8
0
  6
DASHED
 62
2
 10
158.000000
 20
-95.000000
 40
4.000000
 50
123.366997
 51
416.632996
  0
CIRCLE
  8
0
  6
DASHED
 62
2
 10
234.000000
 20
-119.000000
 40
4.000000
  0
ARC
  8
0
  6
DASHED
 62
2
 10
158.000000
 20
-119.000000
 40
4.000000
 50
303.367004
 51
236.632996
  0
CIRCLE
  8
0
  6
DASHED
 62
2
 10
234.000000
 20
-95.000000
 40
2.500000
  0
CIRCLE
  8
0
  6
DASHED
 62
2
 10
234.000000
 20
-119.000000
 40
2.500000
  0
CIRCLE
  8
0
  6
DASHED
 62
2
 10
234.000000
 20
-119.000000
 40
2.100000
  0
CIRCLE
  8
0
  6
DASHED
 62
2
 10
234.000000
 20
-95.000000
 40
2.100000
  0
CIRCLE
  8
0
  6
CONTINUOUS
 62
2
 10
149.000000
 20
-166.000000
 40
2.500000
  0
CIRCLE
  8
0
  6
CONTINUOUS
 62
7
 10
149.000000
 20
-166.000000
 40
2.100000
  0
CIRCLE
  8
0
  6
CONTINUOUS
 62
2
 10
243.000000
 20
-166.000000
 40
2.500000
  0
CIRCLE
  8
0
  6
CONTINUOUS
 62
7
 10
243.000000
 20
-166.000000
 40
2.100000
  0
ARC
  8
0
  6
CONTINUOUS
 62
7
 10
149.000000
 20
-166.000000
 40
4.800000
 50
0.000000
 51
56.442600
  0
ARC
  8
0
  6
CONTINUOUS
 62
7
 10
243.000000
 20
-166.000000
 40
4.800000
 50
123.556999
 51
180.000000
  0
CIRCLE
  8
0
  6
CONTINUOUS
 62
2
 10
166.000000
 20
-166.000000
 40
1.500000
  0
CIRCLE
  8
0
  6
CONTINUOUS
 62
2
 10
226.000000
 20
-166.000000
 40
1.500000
  0
ARC
  8
0
  6
CONTINUOUS
 62
7
 10
166.000000
 20
-166.000000
 40
3.000000
 50
0.000000
 51
180.000000
  0
ARC
  8
0
  6
CONTINUOUS
 62
7
 10
226.000000
 20
-166.000000
 40
3.000000
 50
0.000000
 51
180.000000
  0
CIRCLE
  8
0
  6
CONTINUOUS
 62
2
 10
239.800003
 20
-153.699997
 40
1.000000
  0
CIRCLE
  8
0
  6
CONTINUOUS
 62
2
 10
229.800003
 20
-153.699997
 40
1.000000
  0
CIRCLE
  8
0
  6
CONTINUOUS
 62
2
 10
236.699997
 20
-154.000000
 40
1.500000
  0
CIRCLE
  8
0
  6
CONTINUOUS
 62
2
 10
243.199997
 20
-154.000000
 40
1.500000
  0
ARC
  8
0
  6
CONTINUOUS
 62
7
 10
149.000000
 20
-48.000000
 40
4.800000
 50
303.557007
 51
0.000000
  0
ARC
  8
0
  6
CONTINUOUS
 62
7
 10
243.000000
 20
-48.000000
 40
4.800000
 50
180.000000
 51
236.442993
  0
CIRCLE
  8
0
  6
CONTINUOUS
 62
7
 10
186.000000
 20
160.500000
 40
2.000000
  0
CIRCLE
  8
0
  6
CONTINUOUS
 62
2
 10
193.000000
 20
135.500000
 40
1.500000
  0
CIRCLE
  8
0
  6
CONTINUOUS
 62
7
 10
193.000000
 20
135.500000
 40
1.200000
  0
CIRCLE
  8
0
  6
CONTINUOUS
 62
7
 10
153.000000
 20
135.500000
 40
1.200000
  0
CIRCLE
  8
0
  6
CONTINUOUS
 62
2
 10
153.000000
 20
135.500000
 40
1.500000
  0
CIRCLE
  8
0
  6
CONTINUOUS
 62
7
 10
186.000000
 20
135.500000
 40
2.000000
  0
CIRCLE
  8
0
  6
CONTINUOUS
 62
2
 10
218.000000
 20
135.500000
 40
1.500000
  0
CIRCLE
  8
0
  6
CONTINUOUS
 62
7
 10
218.000000
 20
135.500000
 40
1.200000
  0
CIRCLE
  8
0
  6
CONTINUOUS
 62
7
 10
153.000000
 20
160.500000
 40
1.200000
  0
CIRCLE
  8
0
  6
CONTINUOUS
 62
2
 10
153.000000
 20
160.500000
 40
1.500000
  0
CIRCLE
  8
0
  6
CONTINUOUS
 62
7
 10
218.000000
 20
160.500000
 40
1.200000
  0
CIRCLE
  8
0
  6
CONTINUOUS
 62
2
 10
218.000000
 20
160.500000
 40
1.500000
  0
CIRCLE
  8
0
  6
CONTINUOUS
 62
7
 10
193.000000
 20
160.500000
 40
1.200000
  0
CIRCLE
  8
0
  6
CONTINUOUS
 62
2
 10
193.000000
 20
160.500000
 40
1.500000
  0
ARC
  8
0
  6
DASHED
 62
2
 10
158.000000
 20
160.000000
 40
2.200000
 50
180.000000
 51
0.000000
  0
ARC
  8
0
  6
DASHED
 62
2
 10
158.000000
 20
136.000000
 40
2.200000
 50
0.000000
 51
180.000000
  0
CIRCLE
  8
0
  6
DASHED
 62
2
 10
219.000000
 20
160.000000
 40
4.000000
  0
ARC
  8
0
  6
DASHED
 62
2
 10
158.000000
 20
160.000000
 40
3.999990
 50
123.366997
 51
416.632996
  0
CIRCLE
  8
0
  6
DASHED
 62
2
 10
219.000000
 20
136.000000
 40
4.000000
  0
ARC
  8
0
  6
DASHED
 62
2
 10
158.000000
 20
136.000000
 40
3.999990
 50
303.367004
 51
236.632996
  0
CIRCLE
  8
0
  6
DASHED
 62
2
 10
219.000000
 20
160.000000
 40
2.500000
  0
CIRCLE
  8
0
  6
DASHED
 62
2
 10
219.000000
 20
136.000000
 40
2.500000
  0
CIRCLE
  8
0
  6
DASHED
 62
2
 10
219.000000
 20
136.000000
 40
2.100000
  0
CIRCLE
  8
0
  6
DASHED
 62
2
 10
219.000000
 20
160.000000
 40
2.100000
  0
CIRCLE
  8
0
  6
CONTINUOUS
 62
7
 10
94.000000
 20
148.000000
 40
6.000000
  0
CIRCLE
  8
0
  6
CONTINUOUS
 62
7
 10
103.000000
 20
136.500000
 40
4.000000
  0
CIRCLE
  8
0
  6
CONTINUOUS
 62
7
 10
103.000000
 20
159.500000
 40
4.000000
  0
CIRCLE
  8
0
  6
CONTINUOUS
 62
2
 10
94.000000
 20
160.000000
 40
2.000000
  0
CIRCLE
  8
0
  6
CONTINUOUS
 62
7
 10
94.000000
 20
160.000000
 40
1.650000
  0
CIRCLE
  8
0
  6
CONTINUOUS
 62
2
 10
103.000000
 20
148.000000
 40
2.000000
  0
CIRCLE
  8
0
  6
CONTINUOUS
 62
7
 10
103.000000
 20
148.000000
 40
1.650000
  0
CIRCLE
  8
0
  6
CONTINUOUS
 62
2
 10
94.000000
 20
136.000000
 40
2.000000
  0
CIRCLE
  8
0
  6
CONTINUOUS
 62
7
 10
94.000000
 20
136.000000
 40
1.650000
  0
ARC
  8
0
  6
CONTINUOUS
 62
7
 10
284.500000
 20
141.000000
 40
2.300020
 50
180.000000
 51
183.186996
  0
ARC
  8
0
  6
CONTINUOUS
 62
7
 10
284.500000
 20
155.000000
 40
2.300000
 50
176.815002
 51
180.000000
  0
ARC
  8
0
  6
CONTINUOUS
 62
7
 10
286.500000
 20
156.300003
 40
1.600000
 50
209.998993
 51
330.001007
  0
ARC
  8
0
  6
CONTINUOUS
 62
7
 10
286.500000
 20
139.699997
 40
1.600000
 50
29.999399
 51
150.001007
  0
CIRCLE
  8
0
  6
CONTINUOUS
 62
7
 10
293.000000
 20
148.000000
 40
6.400000
  0
CIRCLE
  8
0
  6
CONTINUOUS
 62
2
 10
149.000000
 20
89.000000
 40
2.500000
  0
CIRCLE
  8
0
  6
CONTINUOUS
 62
7
 10
149.000000
 20
89.000000
 40
2.100000
  0
CIRCLE
  8
0
  6
CONTINUOUS
 62
2
 10
228.000000
 20
89.000000
 40
2.500000
  0
CIRCLE
  8
0
  6
CONTINUOUS
 62
7
 10
228.000000
 20
89.000000
 40
2.100000
  0
CIRCLE
  8
0
  6
CONTINUOUS
 62
2
 10
166.000000
 20
89.000000
 40
1.500000
  0
CIRCLE
  8
0
  6
CONTINUOUS
 62
2
 10
211.000000
 20
89.000000
 40
1.500000
  0
CIRCLE
  8
0
  6
CONTINUOUS
 62
2
 10
224.800003
 20
101.300003
 40
1.000000
  0
CIRCLE
  8
0
  6
CONTINUOUS
 62
2
 10
214.800003
 20
101.300003
 40
1.000000
  0
CIRCLE
  8
0
  6
CONTINUOUS
 62
2
 10
221.699997
 20
101.000000
 40
1.500000
  0
CIRCLE
  8
0
  6
CONTINUOUS
 62
2
 10
228.199997
 20
101.000000
 40
1.500000
  0
ARC
  8
0
  6
CONTINUOUS
 62
7
 10
158.000000
 20
-201.500000
 40
2.200000
 50
180.000000
 51
0.000000
  0
ARC
  8
0
  6
CONTINUOUS
 62
7
 10
158.000000
 20
-225.500000
 40
2.200000
 50
0.000000
 51
180.000000
  0
CIRCLE
  8
0
  6
CONTINUOUS
 62
2
 10
174.000000
 20
-225.500000
 40
2.500000
  0
CIRCLE
  8
0
  6
CONTINUOUS
 62
7
 10
174.000000
 20
-225.500000
 40
2.100000
  0
CIRCLE
  8
0
  6
CONTINUOUS
 62
7
 10
174.000000
 20
-225.500000
 40
3.000000
  0
CIRCLE
  8
0
  6
CONTINUOUS
 62
2
 10
174.000000
 20
-201.500000
 40
2.500000
  0
CIRCLE
  8
0
  6
CONTINUOUS
 62
7
 10
174.000000
 20
-201.500000
 40
2.100000
  0
CIRCLE
  8
0
  6
CONTINUOUS
 62
7
 10
174.000000
 20
-201.500000
 40
3.000000
  0
CIRCLE
  8
0
  6
CONTINUOUS
 62
2
 10
234.000000
 20
-201.500000
 40
2.500000
  0
CIRCLE
  8
0
  6
CONTINUOUS
 62
7
 10
234.000000
 20
-201.500000
 40
2.100000
  0
CIRCLE
  8
0
  6
CONTINUOUS
 62
7
 10
234.000000
 20
-225.500000
 40
2.100000
  0
CIRCLE
  8
0
  6
CONTINUOUS
 62
2
 10
234.000000
 20
-225.500000
 40
2.500000
  0
CIRCLE
  8
0
  6
CONTINUOUS
 62
2
 10
214.800003
 20
194.699997
 40
1.000000
  0
ARC
  8
0
  6
CONTINUOUS
 62
7
 10
158.000000
 20
53.500000
 40
2.200000
 50
180.000000
 51
0.000000
  0
ARC
  8
0
  6
CONTINUOUS
 62
7
 10
158.000000
 20
29.500000
 40
2.200000
 50
0.000000
 51
180.000000
  0
CIRCLE
  8
0
  6
CONTINUOUS
 62
2
 10
174.000000
 20
29.500000
 40
2.500000
  0
CIRCLE
  8
0
  6
CONTINUOUS
 62
7
 10
174.000000
 20
29.500000
 40
2.100000
  0
CIRCLE
  8
0
  6
CONTINUOUS
 62
2
 10
174.000000
 20
53.500000
 40
2.500000
  0
CIRCLE
  8
0
  6
CONTINUOUS
 62
7
 10
174.000000
 20
53.500000
 40
2.100000
  0
CIRCLE
  8
0
  6
CONTINUOUS
 62
2
 10
219.000000
 20
53.500000
 40
2.500000
  0
CIRCLE
  8
0
  6
CONTINUOUS
 62
7
 10
219.000000
 20
53.500000
 40
2.100000
  0
CIRCLE
  8
0
  6
CONTINUOUS
 62
7
 10
219.000000
 20
29.500000
 40
2.100000
  0
CIRCLE
  8
0
  6
CONTINUOUS
 62
2
 10
219.000000
 20
29.500000
 40
2.500000
  0
ARC
  8
0
  6
CONTINUOUS
 62
7
 10
149.000000
 20
88.800003
 40
4.800000
 50
0.000000
 51
61.044498
  0
ARC
  8
0
  6
CONTINUOUS
 62
7
 10
166.000000
 20
88.800003
 40
3.000000
 50
41.809898
 51
180.000000
  0
ARC
  8
0
  6
CONTINUOUS
 62
7
 10
211.000000
 20
88.800003
 40
3.000000
 50
0.000000
 51
138.190002
  0
ARC
  8
0
  6
CONTINUOUS
 62
7
 10
228.000000
 20
88.800003
 40
4.800000
 50
118.955002
 51
180.000000
  0
ARC
  8
0
  6
CONTINUOUS
 62
7
 10
149.000000
 20
207.199997
 40
4.800000
 50
298.954987
 51
0.000000
  0
ARC
  8
0
  6
CONTINUOUS
 62
7
 10
228.000000
 20
207.199997
 40
4.800000
 50
180.000000
 51
241.044998
  0
CIRCLE
  8
0
  6
CONTINUOUS
 62
7
 10
221.699997
 20
101.000000
 40
1.200000
  0
CIRCLE
  8
0
  6
CONTINUOUS
 62
7
 10
228.199997
 20
101.000000
 40
1.200000
  0
CIRCLE
  8
0
  6
CONTINUOUS
 62
7
 10
166.000000
 20
89.000000
 40
1.200000
  0
CIRCLE
  8
0
  6
CONTINUOUS
 62
7
 10
166.000000
 20
-166.000000
 40
1.200000
  0
CIRCLE
  8
0
  6
CONTINUOUS
 62
7
 10
226.000000
 20
-166.000000
 40
1.200000
  0
CIRCLE
  8
0
  6
CONTINUOUS
 62
7
 10
236.699997
 20
-154.000000
 40
1.200000
  0
CIRCLE
  8
0
  6
CONTINUOUS
 62
7
 10
243.199997
 20
-154.000000
 40
1.200000
  0
CIRCLE
  8
0
  6
CONTINUOUS
 62
7
 10
214.800003
 20
194.699997
 40
0.800000
  0
CIRCLE
  8
0
  6
CONTINUOUS
 62
7
 10
214.800003
 20
101.300003
 40
0.800000
  0
CIRCLE
  8
0
  6
CONTINUOUS
 62
7
 10
224.800003
 20
101.300003
 40
0.800000
  0
CIRCLE
  8
0
  6
CONTINUOUS
 62
7
 10
229.800003
 20
-153.699997
 40
0.800000
  0
CIRCLE
  8
0
  6
CONTINUOUS
 62
7
 10
239.800003
 20
-153.699997
 40
0.800000
  0
CIRCLE
  8
0
  6
CONTINUOUS
 62
7
 10
229.800003
 20
-60.299999
 40
0.800000
  0
CIRCLE
  8
0
  6
CONTINUOUS
 62
2
 10
229.800003
 20
-60.299999
 40
1.000000
  0
ARC
  8
0
  6
CONTINUOUS
 62
7
 10
167.199997
 20
201.500000
 40
1.500000
 50
90.000000
 51
180.000000
  0
CIRCLE
  8
0
  6
CONTINUOUS
 62
7
 10
101.500000
 20
170.500000
 40
1.800000
  0
ARC
  8
0
  6
CONTINUOUS
 62
7
 10
101.500000
 20
170.500000
 40
6.000000
 50
173.557007
 51
186.442993
  0
ARC
  8
0
  6
CONTINUOUS
 62
7
 10
101.500000
 20
170.500000
 40
6.000000
 50
293.556000
 51
306.442993
  0
ARC
  8
0
  6
CONTINUOUS
 62
7
 10
101.500000
 20
170.500000
 40
6.000000
 50
113.556999
 51
126.444000
  0
ARC
  8
0
  6
CONTINUOUS
 62
7
 10
101.500000
 20
170.500000
 40
6.000000
 50
53.556499
 51
66.443497
  0
ARC
  8
0
  6
CONTINUOUS
 62
7
 10
101.500000
 20
170.500000
 40
6.000000
 50
353.556000
 51
6.443500
  0
ARC
  8
0
  6
CONTINUOUS
 62
7
 10
101.500000
 20
170.500000
 40
6.000000
 50
233.556000
 51
246.442993
  0
CIRCLE
  8
0
  6
CONTINUOUS
 62
7
 10
101.500000
 20
170.500000
 40
4.000000
  0
ARC
  8
0
  6
CONTINUOUS
 62
7
 10
285.500000
 20
170.500000
 40
5.499990
 50
309.520996
 51
215.097000
  0
CIRCLE
  8
0
  6
CONTINUOUS
 62
7
 10
-197.000000
 20
160.500000
 40
2.000000
  0
CIRCLE
  8
0
  6
CONTINUOUS
 62
2
 10
-202.000000
 20
135.500000
 40
1.500000
  0
CIRCLE
  8
0
  6
CONTINUOUS
 62
7
 10
-202.000000
 20
135.500000
 40
1.200000
  0
CIRCLE
  8
0
  6
CONTINUOUS
 62
7
 10
-222.000000
 20
135.500000
 40
1.200000
  0
CIRCLE
  8
0
  6
CONTINUOUS
 62
2
 10
-222.000000
 20
135.500000
 40
1.500000
  0
CIRCLE
  8
0
  6
CONTINUOUS
 62
7
 10
-197.000000
 20
135.500000
 40
2.000000
  0
CIRCLE
  8
0
  6
CONTINUOUS
 62
2
 10
-182.000000
 20
135.500000
 40
1.500000
  0
CIRCLE
  8
0
  6
CONTINUOUS
 62
7
 10
-182.000000
 20
135.500000
 40
1.200000
  0
CIRCLE
  8
0
  6
CONTINUOUS
 62
7
 10
-222.000000
 20
160.500000
 40
1.200000
  0
CIRCLE
  8
0
  6
CONTINUOUS
 62
2
 10
-222.000000
 20
160.500000
 40
1.500000
  0
CIRCLE
  8
0
  6
CONTINUOUS
 62
7
 10
-182.000000
 20
160.500000
 40
1.200000
  0
CIRCLE
  8
0
  6
CONTINUOUS
 62
2
 10
-182.000000
 20
160.500000
 40
1.500000
  0
CIRCLE
  8
0
  6
CONTINUOUS
 62
7
 10
-202.000000
 20
160.500000
 40
1.200000
  0
CIRCLE
  8
0
  6
CONTINUOUS
 62
2
 10
-202.000000
 20
160.500000
 40
1.500000
  0
ARC
  8
0
  6
DASHED
 62
2
 10
-217.000000
 20
160.000000
 40
2.200000
 50
180.000000
 51
0.000000
  0
ARC
  8
0
  6
DASHED
 62
2
 10
-217.000000
 20
136.000000
 40
2.200000
 50
0.000000
 51
180.000000
  0
CIRCLE
  8
0
  6
DASHED
 62
2
 10
-181.000000
 20
160.000000
 40
4.000000
  0
ARC
  8
0
  6
DASHED
 62
2
 10
-217.000000
 20
160.000000
 40
3.999990
 50
123.366997
 51
416.632996
  0
CIRCLE
  8
0
  6
DASHED
 62
2
 10
-181.000000
 20
136.000000
 40
4.000000
  0
ARC
  8
0
  6
DASHED
 62
2
 10
-217.000000
 20
136.000000
 40
3.999990
 50
303.367004
 51
236.632996
  0
CIRCLE
  8
0
  6
DASHED
 62
2
 10
-181.000000
 20
160.000000
 40
2.500000
  0
CIRCLE
  8
0
  6
DASHED
 62
2
 10
-181.000000
 20
136.000000
 40
2.500000
  0
CIRCLE
  8
0
  6
DASHED
 62
2
 10
-181.000000
 20
136.000000
 40
2.100000
  0
CIRCLE
  8
0
  6
DASHED
 62
2
 10
-181.000000
 20
160.000000
 40
2.100000
  0
CIRCLE
  8
0
  6
CONTINUOUS
 62
7
 10
94.000000
 20
-107.000000
 40
6.000000
  0
CIRCLE
  8
0
  6
CONTINUOUS
 62
7
 10
103.000000
 20
-118.500000
 40
4.000000
  0
CIRCLE
  8
0
  6
CONTINUOUS
 62
7
 10
103.000000
 20
-95.500000
 40
4.000000
  0
CIRCLE
  8
0
  6
CONTINUOUS
 62
2
 10
94.000000
 20
-95.000000
 40
2.000000
  0
CIRCLE
  8
0
  6
CONTINUOUS
 62
7
 10
94.000000
 20
-95.000000
 40
1.650000
  0
CIRCLE
  8
0
  6
CONTINUOUS
 62
2
 10
103.000000
 20
-107.000000
 40
2.000000
  0
CIRCLE
  8
0
  6
CONTINUOUS
 62
7
 10
103.000000
 20
-107.000000
 40
1.650000
  0
CIRCLE
  8
0
  6
CONTINUOUS
 62
2
 10
94.000000
 20
-119.000000
 40
2.000000
  0
CIRCLE
  8
0
  6
CONTINUOUS
 62
7
 10
94.000000
 20
-119.000000
 40
1.650000
  0
CIRCLE
  8
0
  6
CONTINUOUS
 62
2
 10
-226.000000
 20
89.000000
 40
2.500000
  0
CIRCLE
  8
0
  6
CONTINUOUS
 62
7
 10
-226.000000
 20
89.000000
 40
2.100000
  0
CIRCLE
  8
0
  6
CONTINUOUS
 62
2
 10
-172.000000
 20
89.000000
 40
2.500000
  0
CIRCLE
  8
0
  6
CONTINUOUS
 62
7
 10
-172.000000
 20
89.000000
 40
2.100000
  0
CIRCLE
  8
0
  6
CONTINUOUS
 62
2
 10
-209.000000
 20
89.000000
 40
1.500000
  0
CIRCLE
  8
0
  6
CONTINUOUS
 62
2
 10
-189.000000
 20
89.000000
 40
1.500000
  0
CIRCLE
  8
0
  6
CONTINUOUS
 62
2
 10
-175.199997
 20
101.300003
 40
1.000000
  0
CIRCLE
  8
0
  6
CONTINUOUS
 62
2
 10
-185.199997
 20
101.300003
 40
1.000000
  0
CIRCLE
  8
0
  6
CONTINUOUS
 62
2
 10
-178.300003
 20
101.000000
 40
1.500000
  0
CIRCLE
  8
0
  6
CONTINUOUS
 62
2
 10
-171.800003
 20
101.000000
 40
1.500000
  0
CIRCLE
  8
0
  6
CONTINUOUS
 62
2
 10
-185.199997
 20
194.699997
 40
1.000000
  0
ARC
  8
0
  6
CONTINUOUS
 62
7
 10
-217.000000
 20
53.500000
 40
2.200000
 50
180.000000
 51
0.000000
  0
ARC
  8
0
  6
CONTINUOUS
 62
7
 10
-217.000000
 20
29.500000
 40
2.200000
 50
0.000000
 51
180.000000
  0
CIRCLE
  8
0
  6
CONTINUOUS
 62
2
 10
-201.000000
 20
29.500000
 40
2.500000
  0
CIRCLE
  8
0
  6
CONTINUOUS
 62
7
 10
-201.000000
 20
29.500000
 40
2.100000
  0
CIRCLE
  8
0
  6
CONTINUOUS
 62
2
 10
-201.000000
 20
53.500000
 40
2.500000
  0
CIRCLE
  8
0
  6
CONTINUOUS
 62
7
 10
-201.000000
 20
53.500000
 40
2.100000
  0
CIRCLE
  8
0
  6
CONTINUOUS
 62
2
 10
-181.000000
 20
53.500000
 40
2.500000
  0
CIRCLE
  8
0
  6
CONTINUOUS
 62
7
 10
-181.000000
 20
53.500000
 40
2.100000
  0
CIRCLE
  8
0
  6
CONTINUOUS
 62
7
 10
-181.000000
 20
29.500000
 40
2.100000
  0
CIRCLE
  8
0
  6
CONTINUOUS
 62
2
 10
-181.000000
 20
29.500000
 40
2.500000
  0
ARC
  8
0
  6
CONTINUOUS
 62
7
 10
-226.000000
 20
88.800003
 40
4.800000
 50
0.000000
 51
61.044498
  0
ARC
  8
0
  6
CONTINUOUS
 62
7
 10
-209.000000
 20
88.800003
 40
3.000000
 50
41.809898
 51
180.000000
  0
ARC
  8
0
  6
CONTINUOUS
 62
7
 10
-189.000000
 20
88.800003
 40
3.000000
 50
0.000000
 51
138.190002
  0
ARC
  8
0
  6
CONTINUOUS
 62
7
 10
-172.000000
 20
88.800003
 40
4.800000
 50
118.955002
 51
180.000000
  0
ARC
  8
0
  6
CONTINUOUS
 62
7
 10
-226.000000
 20
207.199997
 40
4.800000
 50
298.954987
 51
0.000000
  0
ARC
  8
0
  6
CONTINUOUS
 62
7
 10
-172.000000
 20
207.199997
 40
4.800000
 50
180.000000
 51
241.044998
  0
CIRCLE
  8
0
  6
CONTINUOUS
 62
7
 10
-178.300003
 20
101.000000
 40
1.200000
  0
CIRCLE
  8
0
  6
CONTINUOUS
 62
7
 10
-171.800003
 20
101.000000
 40
1.200000
  0
CIRCLE
  8
0
  6
CONTINUOUS
 62
7
 10
-209.000000
 20
89.000000
 40
1.200000
  0
CIRCLE
  8
0
  6
CONTINUOUS
 62
7
 10
-189.000000
 20
89.000000
 40
1.200000
  0
CIRCLE
  8
0
  6
CONTINUOUS
 62
7
 10
-185.199997
 20
194.699997
 40
0.800000
  0
CIRCLE
  8
0
  6
CONTINUOUS
 62
7
 10
-185.199997
 20
101.300003
 40
0.800000
  0
CIRCLE
  8
0
  6
CONTINUOUS
 62
7
 10
-175.199997
 20
101.300003
 40
0.800000
  0
ARC
  8
0
  6
CONTINUOUS
 62
7
 10
-207.800003
 20
201.500000
 40
1.500000
 50
90.000000
 51
180.000000
  0
CIRCLE
  8
0
  6
CONTINUOUS
 62
7
 10
101.500000
 20
-84.500000
 40
1.800000
  0
ARC
  8
0
  6
CONTINUOUS
 62
7
 10
101.500000
 20
-84.500000
 40
6.000000
 50
173.556000
 51
186.444000
  0
ARC
  8
0
  6
CONTINUOUS
 62
7
 10
101.500000
 20
-84.500000
 40
6.000000
 50
293.556000
 51
306.442993
  0
ARC
  8
0
  6
CONTINUOUS
 62
7
 10
101.500000
 20
-84.500000
 40
6.000000
 50
113.556999
 51
126.444000
  0
ARC
  8
0
  6
CONTINUOUS
 62
7
 10
101.500000
 20
-84.500000
 40
6.000000
 50
53.556499
 51
66.443497
  0
ARC
  8
0
  6
CONTINUOUS
 62
7
 10
101.500000
 20
-84.500000
 40
6.000000
 50
353.556000
 51
6.443570
  0
ARC
  8
0
  6
CONTINUOUS
 62
7
 10
101.500000
 20
-84.500000
 40
6.000000
 50
233.556000
 51
246.442993
  0
CIRCLE
  8
0
  6
CONTINUOUS
 62
7
 10
101.500000
 20
-84.500000
 40
4.000000
  0
CIRCLE
  8
0
  6
CONTINUOUS
 62
7
 10
178.000000
 20
160.500000
 40
1.200000
  0
CIRCLE
  8
0
  6
CONTINUOUS
 62
2
 10
178.000000
 20
160.500000
 40
1.500000
  0
CIRCLE
  8
0
  6
CONTINUOUS
 62
2
 10
178.000000
 20
135.500000
 40
1.500000
  0
CIRCLE
  8
0
  6
CONTINUOUS
 62
7
 10
178.000000
 20
135.500000
 40
1.200000
  0
CIRCLE
  8
0
  6
CONTINUOUS
 62
7
 10
211.000000
 20
89.000000
 40
1.200000
  0
ARC
  8
0
  6
CONTINUOUS
 62
7
 10
284.500000
 20
-114.000000
 40
2.300020
 50
180.000000
 51
183.186996
  0
ARC
  8
0
  6
CONTINUOUS
 62
7
 10
284.500000
 20
-100.000000
 40
2.300000
 50
176.815002
 51
180.000000
  0
ARC
  8
0
  6
CONTINUOUS
 62
7
 10
286.500000
 20
-98.699997
 40
1.600000
 50
209.998993
 51
330.001007
  0
ARC
  8
0
  6
CONTINUOUS
 62
7
 10
286.500000
 20
-115.300003
 40
1.600000
 50
29.999399
 51
150.001007
  0
CIRCLE
  8
0
  6
CONTINUOUS
 62
7
 10
293.000000
 20
-107.000000
 40
6.400000
  0
ARC
  8
0
  6
CONTINUOUS
 62
7
 10
285.500000
 20
-84.500000
 40
5.500000
 50
309.520996
 51
215.097000
  0
ARC
  8
0
  6
CONTINUOUS
 62
7
 10
167.199997
 20
-53.500000
 40
1.500000
 50
90.000000
 51
180.000000
  0
CIRCLE
  8
0
  6
CONTINUOUS
 62
7
 10
-281.000000
 20
148.000000
 40
6.000000
  0
CIRCLE
  8
0
  6
CONTINUOUS
 62
7
 10
-272.000000
 20
136.500000
 40
4.000000
  0
CIRCLE
  8
0
  6
CONTINUOUS
 62
7
 10
-272.000000
 20
159.500000
 40
4.000000
  0
CIRCLE
  8
0
  6
CONTINUOUS
 62
2
 10
-281.000000
 20
160.000000
 40
2.000000
  0
CIRCLE
  8
0
  6
CONTINUOUS
 62
7
 10
-281.000000
 20
160.000000
 40
1.650000
  0
CIRCLE
  8
0
  6
CONTINUOUS
 62
2
 10
-272.000000
 20
148.000000
 40
2.000000
  0
CIRCLE
  8
0
  6
CONTINUOUS
 62
7
 10
-272.000000
 20
148.000000
 40
1.650000
  0
CIRCLE
  8
0
  6
CONTINUOUS
 62
2
 10
-281.000000
 20
136.000000
 40
2.000000
  0
CIRCLE
  8
0
  6
CONTINUOUS
 62
7
 10
-281.000000
 20
136.000000
 40
1.650000
  0
CIRCLE
  8
0
  6
CONTINUOUS
 62
7
 10
-273.500000
 20
170.500000
 40
1.800000
  0
ARC
  8
0
  6
CONTINUOUS
 62
7
 10
-273.500000
 20
170.500000
 40
6.000000
 50
173.557007
 51
186.442993
  0
ARC
  8
0
  6
CONTINUOUS
 62
7
 10
-273.500000
 20
170.500000
 40
6.000000
 50
293.556000
 51
306.442993
  0
ARC
  8
0
  6
CONTINUOUS
 62
7
 10
-273.500000
 20
170.500000
 40
6.000000
 50
113.556999
 51
126.444000
  0
ARC
  8
0
  6
CONTINUOUS
 62
7
 10
-273.500000
 20
170.500000
 40
6.000000
 50
53.556499
 51
66.443497
  0
ARC
  8
0
  6
CONTINUOUS
 62
7
 10
-273.500000
 20
170.500000
 40
6.000000
 50
353.556000
 51
6.443500
  0
ARC
  8
0
  6
CONTINUOUS
 62
7
 10
-273.500000
 20
170.500000
 40
6.000000
 50
233.556000
 51
246.442993
  0
CIRCLE
  8
0
  6
CONTINUOUS
 62
7
 10
-273.500000
 20
170.500000
 40
4.000000
  0
ARC
  8
0
  6
CONTINUOUS
 62
7
 10
-130.500000
 20
141.000000
 40
2.300000
 50
180.000000
 51
183.186996
  0
ARC
  8
0
  6
CONTINUOUS
 62
7
 10
-130.500000
 20
155.000000
 40
2.300000
 50
176.815002
 51
180.000000
  0
ARC
  8
0
  6
CONTINUOUS
 62
7
 10
-128.500000
 20
156.300003
 40
1.600000
 50
209.998993
 51
330.001007
  0
ARC
  8
0
  6
CONTINUOUS
 62
7
 10
-128.500000
 20
139.699997
 40
1.600000
 50
29.999399
 51
150.001007
  0
CIRCLE
  8
0
  6
CONTINUOUS
 62
7
 10
-122.000000
 20
148.000000
 40
6.400000
  0
ARC
  8
0
  6
CONTINUOUS
 62
7
 10
-129.500000
 20
170.500000
 40
5.500000
 50
309.520996
 51
215.097000
  0
ARC
  8
0
  6
CONTINUOUS
 62
7
 10
-130.500000
 20
-114.000000
 40
2.300000
 50
180.000000
 51
183.186996
  0
ARC
  8
0
  6
CONTINUOUS
 62
7
 10
-130.500000
 20
-100.000000
 40
2.300000
 50
176.815002
 51
180.000000
  0
ARC
  8
0
  6
CONTINUOUS
 62
7
 10
-128.500000
 20
-98.699997
 40
1.600000
 50
209.998993
 51
330.001007
  0
ARC
  8
0
  6
CONTINUOUS
 62
7
 10
-128.500000
 20
-115.300003
 40
1.600000
 50
29.999399
 51
150.001007
  0
CIRCLE
  8
0
  6
CONTINUOUS
 62
7
 10
-122.000000
 20
-107.000000
 40
6.400000
  0
ARC
  8
0
  6
CONTINUOUS
 62
7
 10
-129.500000
 20
-84.500000
 40
5.500000
 50
309.520996
 51
215.097000
  0
CIRCLE
  8
0
  6
CONTINUOUS
 62
7
 10
-189.000000
 20
-94.500000
 40
2.000000
  0
CIRCLE
  8
0
  6
CONTINUOUS
 62
2
 10
-197.000000
 20
-119.500000
 40
1.500000
  0
CIRCLE
  8
0
  6
CONTINUOUS
 62
7
 10
-197.000000
 20
-119.500000
 40
1.200000
  0
CIRCLE
  8
0
  6
CONTINUOUS
 62
7
 10
-222.000000
 20
-119.500000
 40
1.200000
  0
CIRCLE
  8
0
  6
CONTINUOUS
 62
2
 10
-222.000000
 20
-119.500000
 40
1.500000
  0
CIRCLE
  8
0
  6
CONTINUOUS
 62
7
 10
-189.000000
 20
-119.500000
 40
2.000000
  0
CIRCLE
  8
0
  6
CONTINUOUS
 62
2
 10
-172.000000
 20
-119.500000
 40
1.500000
  0
CIRCLE
  8
0
  6
CONTINUOUS
 62
7
 10
-172.000000
 20
-119.500000
 40
1.200000
  0
CIRCLE
  8
0
  6
CONTINUOUS
 62
7
 10
-222.000000
 20
-94.500000
 40
1.200000
  0
CIRCLE
  8
0
  6
CONTINUOUS
 62
2
 10
-222.000000
 20
-94.500000
 40
1.500000
  0
CIRCLE
  8
0
  6
CONTINUOUS
 62
7
 10
-172.000000
 20
-94.500000
 40
1.200000
  0
CIRCLE
  8
0
  6
CONTINUOUS
 62
2
 10
-172.000000
 20
-94.500000
 40
1.500000
  0
CIRCLE
  8
0
  6
CONTINUOUS
 62
7
 10
-197.000000
 20
-94.500000
 40
1.200000
  0
CIRCLE
  8
0
  6
CONTINUOUS
 62
2
 10
-197.000000
 20
-94.500000
 40
1.500000
  0
ARC
  8
0
  6
DASHED
 62
2
 10
-217.000000
 20
-95.000000
 40
2.200000
 50
180.000000
 51
0.000000
  0
ARC
  8
0
  6
DASHED
 62
2
 10
-217.000000
 20
-119.000000
 40
2.200000
 50
0.000000
 51
180.000000
  0
CIRCLE
  8
0
  6
DASHED
 62
2
 10
-171.000000
 20
-95.000000
 40
4.000000
  0
ARC
  8
0
  6
DASHED
 62
2
 10
-217.000000
 20
-95.000000
 40
4.000000
 50
123.366997
 51
416.632996
  0
CIRCLE
  8
0
  6
DASHED
 62
2
 10
-171.000000
 20
-119.000000
 40
4.000000
  0
ARC
  8
0
  6
DASHED
 62
2
 10
-217.000000
 20
-119.000000
 40
4.000000
 50
303.367004
 51
236.632996
  0
CIRCLE
  8
0
  6
DASHED
 62
2
 10
-171.000000
 20
-95.000000
 40
2.500000
  0
CIRCLE
  8
0
  6
DASHED
 62
2
 10
-171.000000
 20
-119.000000
 40
2.500000
  0
CIRCLE
  8
0
  6
DASHED
 62
2
 10
-171.000000
 20
-119.000000
 40
2.100000
  0
CIRCLE
  8
0
  6
DASHED
 62
2
 10
-171.000000
 20
-95.000000
 40
2.100000
  0
CIRCLE
  8
0
  6
CONTINUOUS
 62
2
 10
-226.000000
 20
-166.000000
 40
2.500000
  0
CIRCLE
  8
0
  6
CONTINUOUS
 62
7
 10
-226.000000
 20
-166.000000
 40
2.100000
  0
CIRCLE
  8
0
  6
CONTINUOUS
 62
2
 10
-162.000000
 20
-166.000000
 40
2.500000
  0
CIRCLE
  8
0
  6
CONTINUOUS
 62
7
 10
-162.000000
 20
-166.000000
 40
2.100000
  0
ARC
  8
0
  6
CONTINUOUS
 62
7
 10
-226.000000
 20
-166.000000
 40
4.800000
 50
0.000000
 51
56.442600
  0
ARC
  8
0
  6
CONTINUOUS
 62
7
 10
-162.000000
 20
-166.000000
 40
4.800000
 50
123.556999
 51
180.000000
  0
CIRCLE
  8
0
  6
CONTINUOUS
 62
2
 10
-209.000000
 20
-166.000000
 40
1.500000
  0
CIRCLE
  8
0
  6
CONTINUOUS
 62
2
 10
-179.000000
 20
-166.000000
 40
1.500000
  0
ARC
  8
0
  6
CONTINUOUS
 62
7
 10
-209.000000
 20
-166.000000
 40
3.000000
 50
0.000000
 51
180.000000
  0
ARC
  8
0
  6
CONTINUOUS
 62
7
 10
-179.000000
 20
-166.000000
 40
3.000000
 50
0.000000
 51
180.000000
  0
CIRCLE
  8
0
  6
CONTINUOUS
 62
2
 10
-165.199997
 20
-153.699997
 40
1.000000
  0
CIRCLE
  8
0
  6
CONTINUOUS
 62
2
 10
-175.199997
 20
-153.699997
 40
1.000000
  0
CIRCLE
  8
0
  6
CONTINUOUS
 62
2
 10
-168.300003
 20
-154.000000
 40
1.500000
  0
CIRCLE
  8
0
  6
CONTINUOUS
 62
2
 10
-161.800003
 20
-154.000000
 40
1.500000
  0
ARC
  8
0
  6
CONTINUOUS
 62
7
 10
-226.000000
 20
-48.000000
 40
4.800000
 50
303.557007
 51
0.000000
  0
ARC
  8
0
  6
CONTINUOUS
 62
7
 10
-162.000000
 20
-48.000000
 40
4.800000
 50
180.000000
 51
236.442993
  0
ARC
  8
0
  6
CONTINUOUS
 62
7
 10
-217.000000
 20
-201.500000
 40
2.200000
 50
180.000000
 51
0.000000
  0
ARC
  8
0
  6
CONTINUOUS
 62
7
 10
-217.000000
 20
-225.500000
 40
2.200000
 50
0.000000
 51
180.000000
  0
CIRCLE
  8
0
  6
CONTINUOUS
 62
2
 10
-201.000000
 20
-225.500000
 40
2.500000
  0
CIRCLE
  8
0
  6
CONTINUOUS
 62
7
 10
-201.000000
 20
-225.500000
 40
2.100000
  0
CIRCLE
  8
0
  6
CONTINUOUS
 62
7
 10
-201.000000
 20
-225.500000
 40
3.000000
  0
CIRCLE
  8
0
  6
CONTINUOUS
 62
2
 10
-201.000000
 20
-201.500000
 40
2.500000
  0
CIRCLE
  8
0
  6
CONTINUOUS
 62
7
 10
-201.000000
 20
-201.500000
 40
2.100000
  0
CIRCLE
  8
0
  6
CONTINUOUS
 62
7
 10
-201.000000
 20
-201.500000
 40
3.000000
  0
CIRCLE
  8
0
  6
CONTINUOUS
 62
2
 10
-171.000000
 20
-201.500000
 40
2.500000
  0
CIRCLE
  8
0
  6
CONTINUOUS
 62
7
 10
-171.000000
 20
-201.500000
 40
2.100000
  0
CIRCLE
  8
0
  6
CONTINUOUS
 62
7
 10
-171.000000
 20
-225.500000
 40
2.100000
  0
CIRCLE
  8
0
  6
CONTINUOUS
 62
2
 10
-171.000000
 20
-225.500000
 40
2.500000
  0
CIRCLE
  8
0
  6
CONTINUOUS
 62
7
 10
-209.000000
 20
-166.000000
 40
1.200000
  0
CIRCLE
  8
0
  6
CONTINUOUS
 62
7
 10
-179.000000
 20
-166.000000
 40
1.200000
  0
CIRCLE
  8
0
  6
CONTINUOUS
 62
7
 10
-168.300003
 20
-154.000000
 40
1.200000
  0
CIRCLE
  8
0
  6
CONTINUOUS
 62
7
 10
-161.800003
 20
-154.000000
 40
1.200000
  0
CIRCLE
  8
0
  6
CONTINUOUS
 62
7
 10
-175.199997
 20
-153.699997
 40
0.800000
  0
CIRCLE
  8
0
  6
CONTINUOUS
 62
7
 10
-165.199997
 20
-153.699997
 40
0.800000
  0
CIRCLE
  8
0
  6
CONTINUOUS
 62
7
 10
-175.199997
 20
-60.299999
 40
0.800000
  0
CIRCLE
  8
0
  6
CONTINUOUS
 62
2
 10
-175.199997
 20
-60.299999
 40
1.000000
  0
CIRCLE
  8
0
  6
CONTINUOUS
 62
7
 10
-281.000000
 20
-107.000000
 40
6.000000
  0
CIRCLE
  8
0
  6
CONTINUOUS
 62
7
 10
-272.000000
 20
-118.500000
 40
4.000000
  0
CIRCLE
  8
0
  6
CONTINUOUS
 62
7
 10
-272.000000
 20
-95.500000
 40
4.000000
  0
CIRCLE
  8
0
  6
CONTINUOUS
 62
2
 10
-281.000000
 20
-95.000000
 40
2.000000
  0
CIRCLE
  8
0
  6
CONTINUOUS
 62
7
 10
-281.000000
 20
-95.000000
 40
1.650000
  0
CIRCLE
  8
0
  6
CONTINUOUS
 62
2
 10
-272.000000
 20
-107.000000
 40
2.000000
  0
CIRCLE
  8
0
  6
CONTINUOUS
 62
7
 10
-272.000000
 20
-107.000000
 40
1.650000
  0
CIRCLE
  8
0
  6
CONTINUOUS
 62
2
 10
-281.000000
 20
-119.000000
 40
2.000000
  0
CIRCLE
  8
0
  6
CONTINUOUS
 62
7
 10
-281.000000
 20
-119.000000
 40
1.650000
  0
CIRCLE
  8
0
  6
CONTINUOUS
 62
7
 10
-273.500000
 20
-84.500000
 40
1.800000
  0
ARC
  8
0
  6
CONTINUOUS
 62
7
 10
-273.500000
 20
-84.500000
 40
6.000000
 50
173.556000
 51
186.444000
  0
ARC
  8
0
  6
CONTINUOUS
 62
7
 10
-273.500000
 20
-84.500000
 40
6.000000
 50
293.556000
 51
306.442993
  0
ARC
  8
0
  6
CONTINUOUS
 62
7
 10
-273.500000
 20
-84.500000
 40
6.000000
 50
113.556999
 51
126.444000
  0
ARC
  8
0
  6
CONTINUOUS
 62
7
 10
-273.500000
 20
-84.500000
 40
6.000000
 50
53.556499
 51
66.443497
  0
ARC
  8
0
  6
CONTINUOUS
 62
7
 10
-273.500000
 20
-84.500000
 40
6.000000
 50
353.556000
 51
6.443570
  0
ARC
  8
0
  6
CONTINUOUS
 62
7
 10
-273.500000
 20
-84.500000
 40
6.000000
 50
233.556000
 51
246.442993
  0
CIRCLE
  8
0
  6
CONTINUOUS
 62
7
 10
-273.500000
 20
-84.500000
 40
4.000000
  0
ARC
  8
0
  6
CONTINUOUS
 62
7
 10
-207.800003
 20
-53.500000
 40
1.500000
 50
90.000000
 51
180.000000
  0
CIRCLE
  8
0
  6
CONTINUOUS
 62
2
 10
178.000000
 20
-119.500000
 40
1.500000
  0
CIRCLE
  8
0
  6
CONTINUOUS
 62
7
 10
178.000000
 20
-119.500000
 40
1.200000
  0
CIRCLE
  8
0
  6
CONTINUOUS
 62
7
 10
178.000000
 20
-94.500000
 40
1.200000
  0
CIRCLE
  8
0
  6
CONTINUOUS
 62
2
 10
178.000000
 20
-94.500000
 40
1.500000
  0
TEXT
  8
0
 62
7
 10
249.264832
 20
-267.375000
 40
12.500000
  1
KOGANEI CORP.
 50
0.000000
 41
0.771525
 51
0.000000
  7
STANDARD
  0
TEXT
  8
0
 62
7
 10
292.414673
 20
261.500000
 40
9.000000
  1
Ver.1.0
 50
0.000000
 41
1.010331
 51
0.000000
  7
STANDARD
  0
TEXT
  8
0
 62
7
 10
15.774433
 20
-22.500000
 40
9.000000
  1
MODEL:APU-SD12-60-TP-QY
 50
0.000000
 41
0.774955
 51
0.000000
  7
STANDARD
  0
TEXT
  8
0
 62
7
 10
-346.635315
 20
261.500000
 40
9.000000
  1
AP UNIT
 50
0.000000
 41
0.832036
 51
0.000000
  7
STANDARD
  0
TEXT
  8
0
 62
7
 10
-383.750580
 20
-22.500000
 40
9.000000
  1
MODEL:APU-SD12-30-TP-QY
 50
0.000000
 41
0.774955
 51
0.000000
  7
STANDARD
  0
TEXT
  8
0
 62
7
 10
15.774433
 20
229.000000
 40
9.000000
  1
MODEL:APU-SD12-45-TP-QY
 50
0.000000
 41
0.768804
 51
0.000000
  7
STANDARD
  0
TEXT
  8
0
 62
7
 10
-383.750580
 20
229.000000
 40
9.000000
  1
MODEL:APU-SD12-20-TP-QY
 50
0.000000
 41
0.774955
 51
0.000000
  7
STANDARD
  0
ENDSEC
  0
EOF
