  0
SECTION
  2
HEADER
  0
ENDSEC
  0
SECTION
  2
TABLES
  0
TABLE
  2
LTYPE
 70
     4
  0
LTYPE
  2
CONTINUOUS
 70
    64
  3
Solid line
 72
    65
 73
     0
 40
0.000000
  0
LTYPE
  2
DASHED
 70
    64
  3
__ __ __ __ __ __ __ __ __ __ __ __ __ __ __
 72
    65
 73
     2
 40
3.500000
 49
2.000000
 49
-1.500000
  0
LTYPE
  2
CENTER
 70
    64
  3
____ _ ____ _ ____ _ ____ _ ____ _ ____ _ ____
 72
    65
 73
     4
 40
17.500000
 49
13.000000
 49
-1.500000
 49
1.500000
 49
-1.500000
  0
LTYPE
  2
PHANTOM
 70
    64
  3
_____ _ _ _____ _ _ _____ _ _ _____ _ _ ____  
 72
    65
 73
     6
 40
15.500000
 49
8.000000
 49
-1.500000
 49
1.500000
 49
-1.500000
 49
1.500000
 49
-1.500000
  0
ENDTAB
  0
TABLE
  2
LAYER
 70
     1
  0
LAYER
  2
0
 70
     0
 62
     7
  6
CONTINUOUS
  0
ENDTAB
  0
TABLE
  2
STYLE
 70
     1
  0
STYLE
  2
STANDARD
 70
     0
 40
0.000000
 41
1.000000
 50
0.000000
 71
     0
 42
0.200000
  3
txt
  4
BIGFONT
  0
ENDTAB
  0
TABLE
  2
VIEW
 70
     0
  0
ENDTAB
  0
ENDSEC
  0
SECTION
  2
BLOCKS
  0
ENDSEC
  0
SECTION
  2
ENTITIES
  0
LINE
  8
0
  6
CONTINUOUS
 62
7
 10
399.799988
 20
276.250000
 11
399.799988
 21
-276.750000
  0
LINE
  8
0
  6
CONTINUOUS
 62
7
 10
-399.250000
 20
276.250000
 11
-399.250000
 21
-276.750000
  0
LINE
  8
0
  6
CONTINUOUS
 62
7
 10
-399.250000
 20
276.250000
 11
399.799988
 21
276.250000
  0
LINE
  8
0
  6
CONTINUOUS
 62
7
 10
-399.250000
 20
-276.750000
 11
399.799988
 21
-276.750000
  0
LINE
  8
0
  6
CONTINUOUS
 62
7
 10
239.800003
 20
-251.750000
 11
399.799988
 21
-251.750000
  0
LINE
  8
0
  6
CONTINUOUS
 62
7
 10
239.800003
 20
251.250000
 11
399.799988
 21
251.250000
  0
LINE
  8
0
  6
CONTINUOUS
 62
7
 10
-399.250000
 20
251.250000
 11
-239.250000
 21
251.250000
  0
LINE
  8
0
  6
CONTINUOUS
 62
7
 10
239.800003
 20
-251.750000
 11
239.800003
 21
-276.750000
  0
LINE
  8
0
  6
CONTINUOUS
 62
7
 10
239.800003
 20
251.250000
 11
239.800003
 21
276.250000
  0
LINE
  8
0
  6
CONTINUOUS
 62
7
 10
-239.250000
 20
276.250000
 11
-239.250000
 21
251.250000
  0
LINE
  8
0
  6
CENTER
 62
2
 10
245.199997
 20
-112.000000
 11
127.000000
 21
-112.000000
  0
LINE
  8
0
  6
CONTINUOUS
 62
7
 10
244.199997
 20
-128.000000
 11
128.000000
 21
-128.000000
  0
LINE
  8
0
  6
CONTINUOUS
 62
7
 10
243.000000
 20
-121.000000
 11
136.000000
 21
-121.000000
  0
LINE
  8
0
  6
CONTINUOUS
 62
7
 10
138.000000
 20
-95.500000
 11
150.800003
 21
-95.500000
  0
LINE
  8
0
  6
CONTINUOUS
 62
7
 10
138.000000
 20
-128.500000
 11
150.800003
 21
-128.500000
  0
LINE
  8
0
  6
CONTINUOUS
 62
7
 10
138.000000
 20
-128.500000
 11
138.000000
 21
-128.000000
  0
LINE
  8
0
  6
CONTINUOUS
 62
7
 10
244.000000
 20
-128.500000
 11
244.000000
 21
-128.000000
  0
LINE
  8
0
  6
CONTINUOUS
 62
7
 10
138.000000
 20
-96.000000
 11
138.000000
 21
-95.500000
  0
LINE
  8
0
  6
CONTINUOUS
 62
7
 10
136.000000
 20
-128.000000
 11
136.000000
 21
-96.000000
  0
LINE
  8
0
  6
CONTINUOUS
 62
7
 10
244.199997
 20
-96.000000
 11
128.000000
 21
-96.000000
  0
LINE
  8
0
  6
CONTINUOUS
 62
7
 10
243.000000
 20
-128.000000
 11
243.000000
 21
-96.000000
  0
LINE
  8
0
  6
CONTINUOUS
 62
7
 10
243.000000
 20
-103.000000
 11
136.000000
 21
-103.000000
  0
LINE
  8
0
  6
CONTINUOUS
 62
7
 10
155.199997
 20
-128.500000
 11
244.000000
 21
-128.500000
  0
LINE
  8
0
  6
CONTINUOUS
 62
7
 10
128.000000
 20
-96.000000
 11
128.000000
 21
-128.000000
  0
LINE
  8
0
  6
CONTINUOUS
 62
7
 10
155.199997
 20
-95.500000
 11
227.199997
 21
-95.500000
  0
LINE
  8
0
  6
DASHED
 62
2
 10
150.800003
 20
-124.000000
 11
150.800003
 21
-128.000000
  0
LINE
  8
0
  6
DASHED
 62
2
 10
155.199997
 20
-124.000000
 11
155.199997
 21
-128.000000
  0
LINE
  8
0
  6
DASHED
 62
2
 10
150.800003
 20
-100.000000
 11
150.800003
 21
-96.000000
  0
LINE
  8
0
  6
DASHED
 62
2
 10
155.199997
 20
-100.000000
 11
155.199997
 21
-96.000000
  0
LINE
  8
0
  6
CONTINUOUS
 62
7
 10
150.800003
 20
-128.000000
 11
150.800003
 21
-128.500000
  0
LINE
  8
0
  6
CONTINUOUS
 62
7
 10
155.199997
 20
-128.000000
 11
155.199997
 21
-128.500000
  0
LINE
  8
0
  6
CONTINUOUS
 62
7
 10
155.199997
 20
-95.500000
 11
155.199997
 21
-96.000000
  0
LINE
  8
0
  6
CONTINUOUS
 62
7
 10
150.800003
 20
-95.500000
 11
150.800003
 21
-96.000000
  0
LINE
  8
0
  6
CONTINUOUS
 62
7
 10
136.000000
 20
-154.500000
 11
243.000000
 21
-154.500000
  0
LINE
  8
0
  6
CONTINUOUS
 62
7
 10
138.000000
 20
-176.500000
 11
244.000000
 21
-176.500000
  0
LINE
  8
0
  6
CONTINUOUS
 62
7
 10
138.000000
 20
-166.500000
 11
138.000000
 21
-176.500000
  0
LINE
  8
0
  6
CONTINUOUS
 62
7
 10
244.000000
 20
-166.500000
 11
244.000000
 21
-176.500000
  0
LINE
  8
0
  6
CONTINUOUS
 62
7
 10
136.000000
 20
-154.500000
 11
136.000000
 21
-175.500000
  0
LINE
  8
0
  6
CONTINUOUS
 62
7
 10
243.000000
 20
-154.500000
 11
243.000000
 21
-166.500000
  0
LINE
  8
0
  6
CONTINUOUS
 62
7
 10
138.000000
 20
-167.000000
 11
244.000000
 21
-167.000000
  0
LINE
  8
0
  6
CONTINUOUS
 62
7
 10
148.800003
 20
-171.000000
 11
158.000000
 21
-171.000000
  0
LINE
  8
0
  6
CONTINUOUS
 62
7
 10
150.800003
 20
-171.000000
 11
150.800003
 21
-176.500000
  0
LINE
  8
0
  6
CONTINUOUS
 62
7
 10
155.199997
 20
-171.000000
 11
155.199997
 21
-176.500000
  0
LINE
  8
0
  6
CENTER
 62
2
 10
153.000000
 20
-170.000000
 11
153.000000
 21
-177.500000
  0
LINE
  8
0
  6
CONTINUOUS
 62
7
 10
128.000000
 20
-175.500000
 11
128.000000
 21
-155.000000
  0
LINE
  8
0
  6
CONTINUOUS
 62
7
 10
136.000000
 20
-175.500000
 11
128.000000
 21
-175.500000
  0
LINE
  8
0
  6
CONTINUOUS
 62
7
 10
136.000000
 20
-155.000000
 11
128.000000
 21
-155.000000
  0
LINE
  8
0
  6
CONTINUOUS
 62
7
 10
138.000000
 20
-173.500000
 11
136.000000
 21
-173.500000
  0
LINE
  8
0
  6
CONTINUOUS
 62
7
 10
218.000000
 20
-171.000000
 11
164.000000
 21
-171.000000
  0
LINE
  8
0
  6
CONTINUOUS
 62
7
 10
233.199997
 20
-171.000000
 11
224.000000
 21
-171.000000
  0
LINE
  8
0
  6
CENTER
 62
2
 10
228.000000
 20
-152.500000
 11
228.000000
 21
-156.500000
  0
LINE
  8
0
  6
CENTER
 62
2
 10
173.000000
 20
-152.500000
 11
173.000000
 21
-156.500000
  0
LINE
  8
0
  6
CENTER
 62
2
 10
148.000000
 20
-152.500000
 11
148.000000
 21
-156.500000
  0
LINE
  8
0
  6
CENTER
 62
2
 10
126.000000
 20
-168.500000
 11
130.000000
 21
-168.500000
  0
LINE
  8
0
  6
CENTER
 62
2
 10
126.000000
 20
-159.500000
 11
130.000000
 21
-159.500000
  0
LINE
  8
0
  6
CENTER
 62
2
 10
169.000000
 20
-170.000000
 11
169.000000
 21
-177.500000
  0
LINE
  8
0
  6
DASHED
 62
2
 10
166.899994
 20
-171.000000
 11
166.899994
 21
-174.899994
  0
LINE
  8
0
  6
DASHED
 62
2
 10
171.100006
 20
-171.000000
 11
171.100006
 21
-174.899994
  0
LINE
  8
0
  6
DASHED
 62
2
 10
166.500000
 20
-171.000000
 11
166.500000
 21
-174.899994
  0
LINE
  8
0
  6
DASHED
 62
2
 10
171.500000
 20
-171.000000
 11
171.500000
 21
-174.899994
  0
LINE
  8
0
  6
DASHED
 62
2
 10
166.000000
 20
-174.899994
 11
172.000000
 21
-174.899994
  0
LINE
  8
0
  6
DASHED
 62
2
 10
166.000000
 20
-174.899994
 11
166.000000
 21
-176.500000
  0
LINE
  8
0
  6
DASHED
 62
2
 10
172.000000
 20
-174.899994
 11
172.000000
 21
-176.500000
  0
LINE
  8
0
  6
CENTER
 62
2
 10
229.000000
 20
-170.000000
 11
229.000000
 21
-177.500000
  0
LINE
  8
0
  6
DASHED
 62
2
 10
226.899994
 20
-172.000000
 11
226.899994
 21
-176.500000
  0
LINE
  8
0
  6
DASHED
 62
2
 10
231.100006
 20
-172.000000
 11
231.100006
 21
-176.500000
  0
LINE
  8
0
  6
DASHED
 62
2
 10
226.500000
 20
-172.000000
 11
226.500000
 21
-176.500000
  0
LINE
  8
0
  6
DASHED
 62
2
 10
231.500000
 20
-172.000000
 11
231.500000
 21
-176.500000
  0
LINE
  8
0
  6
DASHED
 62
2
 10
225.000000
 20
-172.000000
 11
233.000000
 21
-172.000000
  0
LINE
  8
0
  6
DASHED
 62
2
 10
225.000000
 20
-171.000000
 11
225.000000
 21
-172.000000
  0
LINE
  8
0
  6
DASHED
 62
2
 10
233.000000
 20
-171.000000
 11
233.000000
 21
-172.000000
  0
LINE
  8
0
  6
DASHED
 62
2
 10
149.000000
 20
-172.000000
 11
150.800003
 21
-172.000000
  0
LINE
  8
0
  6
DASHED
 62
2
 10
149.000000
 20
-171.000000
 11
149.000000
 21
-172.000000
  0
LINE
  8
0
  6
CONTINUOUS
 62
7
 10
155.199997
 20
-172.000000
 11
150.800003
 21
-172.000000
  0
LINE
  8
0
  6
DASHED
 62
2
 10
157.000000
 20
-171.000000
 11
157.000000
 21
-172.000000
  0
LINE
  8
0
  6
DASHED
 62
2
 10
155.199997
 20
-172.000000
 11
157.000000
 21
-172.000000
  0
LINE
  8
0
  6
CENTER
 62
2
 10
-164.800003
 20
-112.000000
 11
-253.000000
 21
-112.000000
  0
LINE
  8
0
  6
CONTINUOUS
 62
7
 10
-165.800003
 20
-128.000000
 11
-252.000000
 21
-128.000000
  0
LINE
  8
0
  6
CONTINUOUS
 62
7
 10
-167.000000
 20
-121.000000
 11
-244.000000
 21
-121.000000
  0
LINE
  8
0
  6
CONTINUOUS
 62
7
 10
-242.000000
 20
-95.500000
 11
-229.199997
 21
-95.500000
  0
LINE
  8
0
  6
CONTINUOUS
 62
7
 10
-242.000000
 20
-128.500000
 11
-229.199997
 21
-128.500000
  0
LINE
  8
0
  6
CONTINUOUS
 62
7
 10
-242.000000
 20
-128.500000
 11
-242.000000
 21
-128.000000
  0
LINE
  8
0
  6
CONTINUOUS
 62
7
 10
-166.000000
 20
-128.500000
 11
-166.000000
 21
-128.000000
  0
LINE
  8
0
  6
CONTINUOUS
 62
7
 10
-242.000000
 20
-96.000000
 11
-242.000000
 21
-95.500000
  0
LINE
  8
0
  6
CONTINUOUS
 62
7
 10
-244.000000
 20
-128.000000
 11
-244.000000
 21
-96.000000
  0
LINE
  8
0
  6
CONTINUOUS
 62
7
 10
-165.800003
 20
-96.000000
 11
-252.000000
 21
-96.000000
  0
LINE
  8
0
  6
CONTINUOUS
 62
7
 10
-167.000000
 20
-128.000000
 11
-167.000000
 21
-96.000000
  0
LINE
  8
0
  6
CONTINUOUS
 62
7
 10
-167.000000
 20
-103.000000
 11
-244.000000
 21
-103.000000
  0
LINE
  8
0
  6
CONTINUOUS
 62
7
 10
-224.800003
 20
-128.500000
 11
-166.000000
 21
-128.500000
  0
LINE
  8
0
  6
CONTINUOUS
 62
7
 10
-252.000000
 20
-96.000000
 11
-252.000000
 21
-128.000000
  0
LINE
  8
0
  6
CONTINUOUS
 62
7
 10
-224.800003
 20
-95.500000
 11
-182.800003
 21
-95.500000
  0
LINE
  8
0
  6
DASHED
 62
2
 10
-229.199997
 20
-124.000000
 11
-229.199997
 21
-128.000000
  0
LINE
  8
0
  6
DASHED
 62
2
 10
-224.800003
 20
-124.000000
 11
-224.800003
 21
-128.000000
  0
LINE
  8
0
  6
DASHED
 62
2
 10
-229.199997
 20
-100.000000
 11
-229.199997
 21
-96.000000
  0
LINE
  8
0
  6
DASHED
 62
2
 10
-224.800003
 20
-100.000000
 11
-224.800003
 21
-96.000000
  0
LINE
  8
0
  6
CONTINUOUS
 62
7
 10
-229.199997
 20
-128.000000
 11
-229.199997
 21
-128.500000
  0
LINE
  8
0
  6
CONTINUOUS
 62
7
 10
-224.800003
 20
-128.000000
 11
-224.800003
 21
-128.500000
  0
LINE
  8
0
  6
CONTINUOUS
 62
7
 10
-224.800003
 20
-95.500000
 11
-224.800003
 21
-96.000000
  0
LINE
  8
0
  6
CONTINUOUS
 62
7
 10
-229.199997
 20
-95.500000
 11
-229.199997
 21
-96.000000
  0
LINE
  8
0
  6
CONTINUOUS
 62
7
 10
-244.000000
 20
-154.500000
 11
-167.000000
 21
-154.500000
  0
LINE
  8
0
  6
CONTINUOUS
 62
7
 10
-242.000000
 20
-176.500000
 11
-166.000000
 21
-176.500000
  0
LINE
  8
0
  6
CONTINUOUS
 62
7
 10
-242.000000
 20
-166.500000
 11
-242.000000
 21
-176.500000
  0
LINE
  8
0
  6
CONTINUOUS
 62
7
 10
-166.000000
 20
-166.500000
 11
-166.000000
 21
-176.500000
  0
LINE
  8
0
  6
CONTINUOUS
 62
7
 10
-244.000000
 20
-154.500000
 11
-244.000000
 21
-175.500000
  0
LINE
  8
0
  6
CONTINUOUS
 62
7
 10
-167.000000
 20
-154.500000
 11
-167.000000
 21
-166.500000
  0
LINE
  8
0
  6
CONTINUOUS
 62
7
 10
-167.000000
 20
-155.000000
 11
-165.800003
 21
-155.000000
  0
LINE
  8
0
  6
CONTINUOUS
 62
7
 10
-242.000000
 20
-167.000000
 11
-166.000000
 21
-167.000000
  0
LINE
  8
0
  6
CONTINUOUS
 62
7
 10
-231.199997
 20
-171.000000
 11
-222.000000
 21
-171.000000
  0
LINE
  8
0
  6
CONTINUOUS
 62
7
 10
-165.399994
 20
-155.500000
 11
-165.800003
 21
-155.500000
  0
LINE
  8
0
  6
CONTINUOUS
 62
7
 10
-229.199997
 20
-171.000000
 11
-229.199997
 21
-176.500000
  0
LINE
  8
0
  6
CONTINUOUS
 62
7
 10
-224.800003
 20
-171.000000
 11
-224.800003
 21
-176.500000
  0
LINE
  8
0
  6
CENTER
 62
2
 10
-227.000000
 20
-170.000000
 11
-227.000000
 21
-177.500000
  0
LINE
  8
0
  6
CONTINUOUS
 62
7
 10
150.800003
 20
-52.000000
 11
155.199997
 21
-52.000000
  0
LINE
  8
0
  6
CONTINUOUS
 62
7
 10
-252.000000
 20
-175.500000
 11
-252.000000
 21
-155.000000
  0
LINE
  8
0
  6
CONTINUOUS
 62
7
 10
-244.000000
 20
-175.500000
 11
-252.000000
 21
-175.500000
  0
LINE
  8
0
  6
CONTINUOUS
 62
7
 10
-244.000000
 20
-155.000000
 11
-252.000000
 21
-155.000000
  0
LINE
  8
0
  6
CONTINUOUS
 62
7
 10
-244.000000
 20
-166.500000
 11
-165.800003
 21
-166.500000
  0
LINE
  8
0
  6
CONTINUOUS
 62
7
 10
-242.000000
 20
-173.500000
 11
-244.000000
 21
-173.500000
  0
LINE
  8
0
  6
CONTINUOUS
 62
7
 10
-192.000000
 20
-171.000000
 11
-216.000000
 21
-171.000000
  0
LINE
  8
0
  6
CONTINUOUS
 62
7
 10
-176.800003
 20
-171.000000
 11
-186.000000
 21
-171.000000
  0
LINE
  8
0
  6
CONTINUOUS
 62
7
 10
-165.399994
 20
-159.500000
 11
-165.800003
 21
-159.500000
  0
LINE
  8
0
  6
CONTINUOUS
 62
7
 10
136.000000
 20
-69.500000
 11
243.000000
 21
-69.500000
  0
LINE
  8
0
  6
CONTINUOUS
 62
7
 10
138.000000
 20
-47.500000
 11
244.000000
 21
-47.500000
  0
LINE
  8
0
  6
CONTINUOUS
 62
7
 10
138.000000
 20
-57.500000
 11
138.000000
 21
-47.500000
  0
LINE
  8
0
  6
CONTINUOUS
 62
7
 10
244.000000
 20
-48.000000
 11
244.000000
 21
-47.500000
  0
LINE
  8
0
  6
CONTINUOUS
 62
7
 10
136.000000
 20
-69.500000
 11
136.000000
 21
-48.500000
  0
LINE
  8
0
  6
CONTINUOUS
 62
7
 10
243.000000
 20
-69.000000
 11
244.199997
 21
-69.000000
  0
LINE
  8
0
  6
CONTINUOUS
 62
7
 10
136.000000
 20
-57.500000
 11
157.000000
 21
-57.500000
  0
LINE
  8
0
  6
CONTINUOUS
 62
7
 10
138.000000
 20
-57.000000
 11
157.000000
 21
-57.000000
  0
LINE
  8
0
  6
CENTER
 62
2
 10
153.000000
 20
-54.000000
 11
153.000000
 21
-46.500000
  0
LINE
  8
0
  6
CONTINUOUS
 62
7
 10
150.800003
 20
-53.000000
 11
150.800003
 21
-47.500000
  0
LINE
  8
0
  6
CONTINUOUS
 62
7
 10
155.199997
 20
-53.000000
 11
155.199997
 21
-47.500000
  0
LINE
  8
0
  6
CONTINUOUS
 62
7
 10
128.000000
 20
-48.500000
 11
128.000000
 21
-69.000000
  0
LINE
  8
0
  6
CONTINUOUS
 62
7
 10
136.000000
 20
-69.000000
 11
128.000000
 21
-69.000000
  0
LINE
  8
0
  6
CONTINUOUS
 62
7
 10
136.000000
 20
-48.500000
 11
128.000000
 21
-48.500000
  0
LINE
  8
0
  6
CONTINUOUS
 62
7
 10
243.000000
 20
-69.500000
 11
243.000000
 21
-65.300003
  0
LINE
  8
0
  6
CONTINUOUS
 62
7
 10
138.000000
 20
-50.500000
 11
136.000000
 21
-50.500000
  0
LINE
  8
0
  6
DASHED
 62
2
 10
233.000000
 20
-53.000000
 11
225.000000
 21
-53.000000
  0
LINE
  8
0
  6
CONTINUOUS
 62
7
 10
148.800003
 20
-53.000000
 11
157.000000
 21
-53.000000
  0
LINE
  8
0
  6
CONTINUOUS
 62
7
 10
147.500000
 20
-52.500000
 11
140.500000
 21
-52.500000
  0
LINE
  8
0
  6
CONTINUOUS
 62
7
 10
147.500000
 20
-53.500000
 11
140.500000
 21
-53.500000
  0
LINE
  8
0
  6
CONTINUOUS
 62
7
 10
144.000000
 20
-57.041401
 11
140.500000
 21
-55.020699
  0
LINE
  8
0
  6
CONTINUOUS
 62
7
 10
140.500000
 20
-55.020699
 11
140.500000
 21
-50.979198
  0
LINE
  8
0
  6
CONTINUOUS
 62
7
 10
147.500000
 20
-55.020699
 11
144.000000
 21
-57.041401
  0
LINE
  8
0
  6
CONTINUOUS
 62
7
 10
147.500000
 20
-55.020699
 11
147.500000
 21
-50.979198
  0
LINE
  8
0
  6
CONTINUOUS
 62
7
 10
140.500000
 20
-50.979198
 11
144.000000
 21
-48.958500
  0
LINE
  8
0
  6
CONTINUOUS
 62
7
 10
147.500000
 20
-50.979301
 11
144.000000
 21
-48.958500
  0
LINE
  8
0
  6
CENTER
 62
2
 10
229.000000
 20
-54.000000
 11
229.000000
 21
-46.500000
  0
LINE
  8
0
  6
DASHED
 62
2
 10
231.100006
 20
-52.000000
 11
231.100006
 21
-47.500000
  0
LINE
  8
0
  6
DASHED
 62
2
 10
226.899994
 20
-52.000000
 11
226.899994
 21
-47.500000
  0
LINE
  8
0
  6
DASHED
 62
2
 10
231.500000
 20
-52.000000
 11
231.500000
 21
-47.500000
  0
LINE
  8
0
  6
DASHED
 62
2
 10
226.500000
 20
-52.000000
 11
226.500000
 21
-47.500000
  0
LINE
  8
0
  6
DASHED
 62
2
 10
233.000000
 20
-52.000000
 11
225.000000
 21
-52.000000
  0
LINE
  8
0
  6
DASHED
 62
2
 10
172.000000
 20
-49.099998
 11
166.000000
 21
-49.099998
  0
LINE
  8
0
  6
DASHED
 62
2
 10
172.000000
 20
-49.099998
 11
172.000000
 21
-47.500000
  0
LINE
  8
0
  6
DASHED
 62
2
 10
166.000000
 20
-49.099998
 11
166.000000
 21
-47.500000
  0
LINE
  8
0
  6
DASHED
 62
2
 10
149.000000
 20
-53.000000
 11
149.000000
 21
-52.000000
  0
LINE
  8
0
  6
DASHED
 62
2
 10
233.000000
 20
-53.000000
 11
233.000000
 21
-52.000000
  0
LINE
  8
0
  6
DASHED
 62
2
 10
157.000000
 20
-52.000000
 11
155.199997
 21
-52.000000
  0
LINE
  8
0
  6
DASHED
 62
2
 10
150.800003
 20
-52.000000
 11
149.000000
 21
-52.000000
  0
LINE
  8
0
  6
CENTER
 62
2
 10
-182.000000
 20
-152.500000
 11
-182.000000
 21
-156.500000
  0
LINE
  8
0
  6
CENTER
 62
2
 10
-207.000000
 20
-152.500000
 11
-207.000000
 21
-156.500000
  0
LINE
  8
0
  6
CENTER
 62
2
 10
-232.000000
 20
-152.500000
 11
-232.000000
 21
-156.500000
  0
LINE
  8
0
  6
CENTER
 62
2
 10
-254.000000
 20
-168.500000
 11
-250.000000
 21
-168.500000
  0
LINE
  8
0
  6
CENTER
 62
2
 10
-254.000000
 20
-159.500000
 11
-250.000000
 21
-159.500000
  0
LINE
  8
0
  6
CENTER
 62
2
 10
126.000000
 20
-64.500000
 11
130.000000
 21
-64.500000
  0
LINE
  8
0
  6
CENTER
 62
2
 10
126.000000
 20
-55.500000
 11
130.000000
 21
-55.500000
  0
LINE
  8
0
  6
CENTER
 62
2
 10
148.000000
 20
-67.500000
 11
148.000000
 21
-71.500000
  0
LINE
  8
0
  6
CENTER
 62
2
 10
173.000000
 20
-67.500000
 11
173.000000
 21
-71.500000
  0
LINE
  8
0
  6
CENTER
 62
2
 10
228.000000
 20
-67.500000
 11
228.000000
 21
-71.500000
  0
LINE
  8
0
  6
CENTER
 62
2
 10
-211.000000
 20
-170.000000
 11
-211.000000
 21
-177.500000
  0
LINE
  8
0
  6
DASHED
 62
2
 10
-213.100006
 20
-171.000000
 11
-213.100006
 21
-174.899994
  0
LINE
  8
0
  6
DASHED
 62
2
 10
-208.899994
 20
-171.000000
 11
-208.899994
 21
-174.899994
  0
LINE
  8
0
  6
DASHED
 62
2
 10
-213.500000
 20
-171.000000
 11
-213.500000
 21
-174.899994
  0
LINE
  8
0
  6
DASHED
 62
2
 10
-208.500000
 20
-171.000000
 11
-208.500000
 21
-174.899994
  0
LINE
  8
0
  6
DASHED
 62
2
 10
-214.000000
 20
-174.899994
 11
-208.000000
 21
-174.899994
  0
LINE
  8
0
  6
DASHED
 62
2
 10
-214.000000
 20
-174.899994
 11
-214.000000
 21
-176.500000
  0
LINE
  8
0
  6
DASHED
 62
2
 10
-208.000000
 20
-174.899994
 11
-208.000000
 21
-176.500000
  0
LINE
  8
0
  6
CENTER
 62
2
 10
-181.000000
 20
-170.000000
 11
-181.000000
 21
-177.500000
  0
LINE
  8
0
  6
DASHED
 62
2
 10
-183.100006
 20
-172.000000
 11
-183.100006
 21
-176.500000
  0
LINE
  8
0
  6
DASHED
 62
2
 10
-178.899994
 20
-172.000000
 11
-178.899994
 21
-176.500000
  0
LINE
  8
0
  6
DASHED
 62
2
 10
-183.500000
 20
-172.000000
 11
-183.500000
 21
-176.500000
  0
LINE
  8
0
  6
DASHED
 62
2
 10
-178.500000
 20
-172.000000
 11
-178.500000
 21
-176.500000
  0
LINE
  8
0
  6
DASHED
 62
2
 10
-185.000000
 20
-172.000000
 11
-177.000000
 21
-172.000000
  0
LINE
  8
0
  6
DASHED
 62
2
 10
-185.000000
 20
-171.000000
 11
-185.000000
 21
-172.000000
  0
LINE
  8
0
  6
DASHED
 62
2
 10
-177.000000
 20
-171.000000
 11
-177.000000
 21
-172.000000
  0
LINE
  8
0
  6
DASHED
 62
2
 10
-231.000000
 20
-172.000000
 11
-229.199997
 21
-172.000000
  0
LINE
  8
0
  6
DASHED
 62
2
 10
-231.000000
 20
-171.000000
 11
-231.000000
 21
-172.000000
  0
LINE
  8
0
  6
CONTINUOUS
 62
7
 10
-224.800003
 20
-172.000000
 11
-229.199997
 21
-172.000000
  0
LINE
  8
0
  6
DASHED
 62
2
 10
-223.000000
 20
-171.000000
 11
-223.000000
 21
-172.000000
  0
LINE
  8
0
  6
DASHED
 62
2
 10
-224.800003
 20
-172.000000
 11
-223.000000
 21
-172.000000
  0
LINE
  8
0
  6
CENTER
 62
2
 10
203.000000
 20
-152.500000
 11
203.000000
 21
-156.500000
  0
LINE
  8
0
  6
CONTINUOUS
 62
7
 10
-165.800003
 20
-101.000000
 11
-165.800003
 21
-96.000000
  0
LINE
  8
0
  6
CONTINUOUS
 62
7
 10
-165.399994
 20
-105.000000
 11
-165.399994
 21
-101.000000
  0
LINE
  8
0
  6
CONTINUOUS
 62
7
 10
-165.399994
 20
-101.000000
 11
-166.500000
 21
-101.000000
  0
LINE
  8
0
  6
CONTINUOUS
 62
7
 10
-166.500000
 20
-105.000000
 11
-166.500000
 21
-101.000000
  0
LINE
  8
0
  6
CONTINUOUS
 62
7
 10
-165.399994
 20
-105.000000
 11
-166.500000
 21
-105.000000
  0
LINE
  8
0
  6
CONTINUOUS
 62
7
 10
-165.800003
 20
-119.000000
 11
-165.800003
 21
-105.000000
  0
LINE
  8
0
  6
CONTINUOUS
 62
7
 10
-165.399994
 20
-119.000000
 11
-166.500000
 21
-119.000000
  0
LINE
  8
0
  6
CONTINUOUS
 62
7
 10
-166.500000
 20
-119.000000
 11
-166.500000
 21
-123.000000
  0
LINE
  8
0
  6
CONTINUOUS
 62
7
 10
-165.399994
 20
-119.000000
 11
-165.399994
 21
-123.000000
  0
LINE
  8
0
  6
CONTINUOUS
 62
7
 10
-165.399994
 20
-123.000000
 11
-166.500000
 21
-123.000000
  0
LINE
  8
0
  6
CONTINUOUS
 62
7
 10
-165.800003
 20
-128.000000
 11
-165.800003
 21
-123.000000
  0
LINE
  8
0
  6
CONTINUOUS
 62
7
 10
-166.000000
 20
-96.000000
 11
-166.000000
 21
-95.500000
  0
LINE
  8
0
  6
CENTER
 62
2
 10
-236.000000
 20
-92.500000
 11
-236.000000
 21
-97.000000
  0
LINE
  8
0
  6
CONTINUOUS
 62
7
 10
-236.000000
 20
-94.900002
 11
-236.000000
 21
-93.500000
  0
LINE
  8
0
  6
CONTINUOUS
 62
7
 10
-239.899994
 20
-94.900002
 11
-232.100006
 21
-94.900002
  0
LINE
  8
0
  6
CONTINUOUS
 62
7
 10
-232.100006
 20
-94.900002
 11
-232.100006
 21
-95.500000
  0
LINE
  8
0
  6
CONTINUOUS
 62
7
 10
-239.899994
 20
-94.900002
 11
-239.899994
 21
-95.500000
  0
LINE
  8
0
  6
CONTINUOUS
 62
7
 10
-232.500000
 20
-93.500000
 11
-232.500000
 21
-94.900002
  0
LINE
  8
0
  6
CONTINUOUS
 62
7
 10
-239.500000
 20
-93.500000
 11
-239.500000
 21
-94.900002
  0
LINE
  8
0
  6
CENTER
 62
2
 10
-172.000000
 20
-92.500000
 11
-172.000000
 21
-97.000000
  0
LINE
  8
0
  6
CENTER
 62
2
 10
144.000000
 20
-92.500000
 11
144.000000
 21
-97.000000
  0
LINE
  8
0
  6
CONTINUOUS
 62
7
 10
144.000000
 20
-94.900002
 11
144.000000
 21
-93.500000
  0
LINE
  8
0
  6
CONTINUOUS
 62
7
 10
140.100006
 20
-94.900002
 11
147.899994
 21
-94.900002
  0
LINE
  8
0
  6
CONTINUOUS
 62
7
 10
147.899994
 20
-94.900002
 11
147.899994
 21
-95.500000
  0
LINE
  8
0
  6
CONTINUOUS
 62
7
 10
140.100006
 20
-94.900002
 11
140.100006
 21
-95.500000
  0
LINE
  8
0
  6
CONTINUOUS
 62
7
 10
147.500000
 20
-93.500000
 11
147.500000
 21
-94.900002
  0
LINE
  8
0
  6
CONTINUOUS
 62
7
 10
140.500000
 20
-93.500000
 11
140.500000
 21
-94.900002
  0
LINE
  8
0
  6
CENTER
 62
2
 10
238.000000
 20
-92.500000
 11
238.000000
 21
-97.000000
  0
LINE
  8
0
  6
CONTINUOUS
 62
7
 10
244.600006
 20
-68.500000
 11
244.600006
 21
-66.500000
  0
LINE
  8
0
  6
CONTINUOUS
 62
7
 10
244.199997
 20
-68.500000
 11
244.600006
 21
-68.500000
  0
LINE
  8
0
  6
CONTINUOUS
 62
7
 10
-165.399994
 20
-155.500000
 11
-165.399994
 21
-159.500000
  0
LINE
  8
0
  6
CONTINUOUS
 62
7
 10
-165.800003
 20
-155.000000
 11
-165.800003
 21
-166.500000
  0
LINE
  8
0
  6
CONTINUOUS
 62
7
 10
244.199997
 20
-128.000000
 11
244.199997
 21
-123.000000
  0
LINE
  8
0
  6
CONTINUOUS
 62
7
 10
244.199997
 20
-101.000000
 11
244.199997
 21
-96.000000
  0
LINE
  8
0
  6
CONTINUOUS
 62
7
 10
244.600006
 20
-105.000000
 11
244.600006
 21
-101.000000
  0
LINE
  8
0
  6
CONTINUOUS
 62
7
 10
244.600006
 20
-101.000000
 11
243.500000
 21
-101.000000
  0
LINE
  8
0
  6
CONTINUOUS
 62
7
 10
243.500000
 20
-105.000000
 11
243.500000
 21
-101.000000
  0
LINE
  8
0
  6
CONTINUOUS
 62
7
 10
244.600006
 20
-105.000000
 11
243.500000
 21
-105.000000
  0
LINE
  8
0
  6
CONTINUOUS
 62
7
 10
244.199997
 20
-119.000000
 11
244.199997
 21
-105.000000
  0
LINE
  8
0
  6
CONTINUOUS
 62
7
 10
244.600006
 20
-119.000000
 11
243.500000
 21
-119.000000
  0
LINE
  8
0
  6
CONTINUOUS
 62
7
 10
243.500000
 20
-119.000000
 11
243.500000
 21
-123.000000
  0
LINE
  8
0
  6
CONTINUOUS
 62
7
 10
244.600006
 20
-119.000000
 11
244.600006
 21
-123.000000
  0
LINE
  8
0
  6
CONTINUOUS
 62
7
 10
244.600006
 20
-123.000000
 11
243.500000
 21
-123.000000
  0
LINE
  8
0
  6
CONTINUOUS
 62
7
 10
243.000000
 20
-155.000000
 11
244.199997
 21
-155.000000
  0
LINE
  8
0
  6
CONTINUOUS
 62
7
 10
244.600006
 20
-155.500000
 11
244.199997
 21
-155.500000
  0
LINE
  8
0
  6
CONTINUOUS
 62
7
 10
136.000000
 20
-166.500000
 11
244.199997
 21
-166.500000
  0
LINE
  8
0
  6
CONTINUOUS
 62
7
 10
244.600006
 20
-159.500000
 11
244.199997
 21
-159.500000
  0
LINE
  8
0
  6
CONTINUOUS
 62
7
 10
244.600006
 20
-155.500000
 11
244.600006
 21
-159.500000
  0
LINE
  8
0
  6
CONTINUOUS
 62
7
 10
244.199997
 20
-155.000000
 11
244.199997
 21
-166.500000
  0
LINE
  8
0
  6
CONTINUOUS
 62
7
 10
244.000000
 20
-96.000000
 11
244.000000
 21
-95.500000
  0
LINE
  8
0
  6
CENTER
 62
2
 10
230.199997
 20
143.000000
 11
127.000000
 21
143.000000
  0
LINE
  8
0
  6
CONTINUOUS
 62
7
 10
229.199997
 20
127.000000
 11
128.000000
 21
127.000000
  0
LINE
  8
0
  6
CONTINUOUS
 62
7
 10
228.000000
 20
134.000000
 11
136.000000
 21
134.000000
  0
LINE
  8
0
  6
CONTINUOUS
 62
7
 10
138.000000
 20
159.500000
 11
150.800003
 21
159.500000
  0
LINE
  8
0
  6
CONTINUOUS
 62
7
 10
138.000000
 20
126.500000
 11
150.800003
 21
126.500000
  0
LINE
  8
0
  6
CONTINUOUS
 62
7
 10
138.000000
 20
126.500000
 11
138.000000
 21
127.000000
  0
LINE
  8
0
  6
CONTINUOUS
 62
7
 10
229.000000
 20
126.500000
 11
229.000000
 21
127.000000
  0
LINE
  8
0
  6
CONTINUOUS
 62
7
 10
138.000000
 20
159.000000
 11
138.000000
 21
159.500000
  0
LINE
  8
0
  6
CONTINUOUS
 62
7
 10
136.000000
 20
127.000000
 11
136.000000
 21
159.000000
  0
LINE
  8
0
  6
CONTINUOUS
 62
7
 10
229.199997
 20
159.000000
 11
128.000000
 21
159.000000
  0
LINE
  8
0
  6
CONTINUOUS
 62
7
 10
228.000000
 20
127.000000
 11
228.000000
 21
159.000000
  0
LINE
  8
0
  6
CONTINUOUS
 62
7
 10
228.000000
 20
152.000000
 11
136.000000
 21
152.000000
  0
LINE
  8
0
  6
CONTINUOUS
 62
7
 10
155.199997
 20
126.500000
 11
229.000000
 21
126.500000
  0
LINE
  8
0
  6
CONTINUOUS
 62
7
 10
128.000000
 20
159.000000
 11
128.000000
 21
127.000000
  0
LINE
  8
0
  6
CONTINUOUS
 62
7
 10
155.199997
 20
159.500000
 11
212.199997
 21
159.500000
  0
LINE
  8
0
  6
DASHED
 62
2
 10
150.800003
 20
131.000000
 11
150.800003
 21
127.000000
  0
LINE
  8
0
  6
DASHED
 62
2
 10
155.199997
 20
131.000000
 11
155.199997
 21
127.000000
  0
LINE
  8
0
  6
DASHED
 62
2
 10
150.800003
 20
155.000000
 11
150.800003
 21
159.000000
  0
LINE
  8
0
  6
DASHED
 62
2
 10
155.199997
 20
155.000000
 11
155.199997
 21
159.000000
  0
LINE
  8
0
  6
CONTINUOUS
 62
7
 10
150.800003
 20
127.000000
 11
150.800003
 21
126.500000
  0
LINE
  8
0
  6
CONTINUOUS
 62
7
 10
155.199997
 20
127.000000
 11
155.199997
 21
126.500000
  0
LINE
  8
0
  6
CONTINUOUS
 62
7
 10
155.199997
 20
159.500000
 11
155.199997
 21
159.000000
  0
LINE
  8
0
  6
CONTINUOUS
 62
7
 10
150.800003
 20
159.500000
 11
150.800003
 21
159.000000
  0
LINE
  8
0
  6
CONTINUOUS
 62
7
 10
113.000000
 20
127.000000
 11
113.000000
 21
134.000000
  0
LINE
  8
0
  6
CONTINUOUS
 62
7
 10
112.699997
 20
134.300003
 11
112.699997
 21
151.699997
  0
LINE
  8
0
  6
CONTINUOUS
 62
7
 10
113.000000
 20
134.000000
 11
112.699997
 21
134.300003
  0
LINE
  8
0
  6
CONTINUOUS
 62
7
 10
113.000000
 20
127.000000
 11
92.000000
 21
127.000000
  0
LINE
  8
0
  6
CONTINUOUS
 62
7
 10
113.000000
 20
159.000000
 11
113.000000
 21
152.000000
  0
LINE
  8
0
  6
CONTINUOUS
 62
7
 10
113.000000
 20
152.000000
 11
112.699997
 21
151.699997
  0
LINE
  8
0
  6
CONTINUOUS
 62
7
 10
113.000000
 20
159.000000
 11
92.000000
 21
159.000000
  0
LINE
  8
0
  6
CONTINUOUS
 62
7
 10
100.500000
 20
159.500000
 11
100.500000
 21
159.000000
  0
LINE
  8
0
  6
CONTINUOUS
 62
7
 10
91.000000
 20
159.500000
 11
91.000000
 21
126.500000
  0
LINE
  8
0
  6
CONTINUOUS
 62
7
 10
100.500000
 20
126.500000
 11
91.000000
 21
126.500000
  0
LINE
  8
0
  6
CONTINUOUS
 62
7
 10
100.500000
 20
126.500000
 11
100.500000
 21
127.000000
  0
LINE
  8
0
  6
CENTER
 62
2
 10
113.699997
 20
143.000000
 11
90.000000
 21
143.000000
  0
LINE
  8
0
  6
CONTINUOUS
 62
7
 10
112.500000
 20
159.000000
 11
112.500000
 21
127.000000
  0
LINE
  8
0
  6
CONTINUOUS
 62
7
 10
92.000000
 20
159.000000
 11
92.000000
 21
127.000000
  0
LINE
  8
0
  6
CENTER
 62
2
 10
108.000000
 20
146.000000
 11
108.000000
 21
140.000000
  0
LINE
  8
0
  6
CONTINUOUS
 62
7
 10
91.000000
 20
159.500000
 11
112.500000
 21
159.500000
  0
LINE
  8
0
  6
CENTER
 62
2
 10
99.000000
 20
150.000000
 11
99.000000
 21
136.000000
  0
LINE
  8
0
  6
CONTINUOUS
 62
7
 10
136.000000
 20
100.500000
 11
228.000000
 21
100.500000
  0
LINE
  8
0
  6
CONTINUOUS
 62
7
 10
138.000000
 20
78.500000
 11
229.000000
 21
78.500000
  0
LINE
  8
0
  6
CONTINUOUS
 62
7
 10
138.000000
 20
88.500000
 11
138.000000
 21
78.500000
  0
LINE
  8
0
  6
CONTINUOUS
 62
7
 10
229.000000
 20
88.500000
 11
229.000000
 21
78.500000
  0
LINE
  8
0
  6
CONTINUOUS
 62
7
 10
136.000000
 20
100.500000
 11
136.000000
 21
79.500000
  0
LINE
  8
0
  6
CONTINUOUS
 62
7
 10
228.000000
 20
100.500000
 11
228.000000
 21
88.500000
  0
LINE
  8
0
  6
CONTINUOUS
 62
7
 10
138.000000
 20
88.000000
 11
229.000000
 21
88.000000
  0
LINE
  8
0
  6
CONTINUOUS
 62
7
 10
128.000000
 20
79.500000
 11
128.000000
 21
100.000000
  0
LINE
  8
0
  6
CONTINUOUS
 62
7
 10
136.000000
 20
79.500000
 11
128.000000
 21
79.500000
  0
LINE
  8
0
  6
CONTINUOUS
 62
7
 10
136.000000
 20
100.000000
 11
128.000000
 21
100.000000
  0
LINE
  8
0
  6
CONTINUOUS
 62
7
 10
138.000000
 20
81.500000
 11
136.000000
 21
81.500000
  0
LINE
  8
0
  6
CENTER
 62
2
 10
245.199997
 20
-218.500000
 11
127.000000
 21
-218.500000
  0
LINE
  8
0
  6
CONTINUOUS
 62
7
 10
138.000000
 20
-235.000000
 11
150.800003
 21
-235.000000
  0
LINE
  8
0
  6
CONTINUOUS
 62
7
 10
138.000000
 20
-202.000000
 11
150.800003
 21
-202.000000
  0
LINE
  8
0
  6
CONTINUOUS
 62
7
 10
138.000000
 20
-202.000000
 11
138.000000
 21
-235.000000
  0
LINE
  8
0
  6
CONTINUOUS
 62
7
 10
244.000000
 20
-202.000000
 11
244.000000
 21
-235.000000
  0
LINE
  8
0
  6
CONTINUOUS
 62
7
 10
128.000000
 20
-202.500000
 11
138.000000
 21
-202.500000
  0
LINE
  8
0
  6
CONTINUOUS
 62
7
 10
128.000000
 20
-234.500000
 11
138.000000
 21
-234.500000
  0
LINE
  8
0
  6
CONTINUOUS
 62
7
 10
136.000000
 20
-202.500000
 11
136.000000
 21
-234.500000
  0
LINE
  8
0
  6
CONTINUOUS
 62
7
 10
155.199997
 20
-202.000000
 11
244.000000
 21
-202.000000
  0
LINE
  8
0
  6
CONTINUOUS
 62
7
 10
155.199997
 20
-235.000000
 11
255.000000
 21
-235.000000
  0
LINE
  8
0
  6
CONTINUOUS
 62
7
 10
150.800003
 20
-202.500000
 11
155.199997
 21
-202.500000
  0
LINE
  8
0
  6
CONTINUOUS
 62
7
 10
150.800003
 20
-234.500000
 11
155.199997
 21
-234.500000
  0
LINE
  8
0
  6
CONTINUOUS
 62
7
 10
128.000000
 20
-202.500000
 11
128.000000
 21
-234.500000
  0
LINE
  8
0
  6
CONTINUOUS
 62
7
 10
150.800003
 20
-206.500000
 11
150.800003
 21
-202.000000
  0
LINE
  8
0
  6
CONTINUOUS
 62
7
 10
155.199997
 20
-206.500000
 11
155.199997
 21
-202.000000
  0
LINE
  8
0
  6
CONTINUOUS
 62
7
 10
150.800003
 20
-230.500000
 11
150.800003
 21
-235.000000
  0
LINE
  8
0
  6
CONTINUOUS
 62
7
 10
155.199997
 20
-230.500000
 11
155.199997
 21
-235.000000
  0
LINE
  8
0
  6
CENTER
 62
2
 10
213.000000
 20
102.500000
 11
213.000000
 21
98.500000
  0
LINE
  8
0
  6
CENTER
 62
2
 10
173.000000
 20
102.500000
 11
173.000000
 21
98.500000
  0
LINE
  8
0
  6
CENTER
 62
2
 10
148.000000
 20
102.500000
 11
148.000000
 21
98.500000
  0
LINE
  8
0
  6
CENTER
 62
2
 10
126.000000
 20
86.500000
 11
130.000000
 21
86.500000
  0
LINE
  8
0
  6
CENTER
 62
2
 10
126.000000
 20
95.500000
 11
130.000000
 21
95.500000
  0
LINE
  8
0
  6
DASHED
 62
2
 10
149.000000
 20
83.000000
 11
150.800003
 21
83.000000
  0
LINE
  8
0
  6
DASHED
 62
2
 10
149.000000
 20
83.800003
 11
149.000000
 21
83.000000
  0
LINE
  8
0
  6
DASHED
 62
2
 10
157.000000
 20
83.800003
 11
157.000000
 21
83.000000
  0
LINE
  8
0
  6
DASHED
 62
2
 10
155.199997
 20
83.000000
 11
157.000000
 21
83.000000
  0
LINE
  8
0
  6
CENTER
 62
2
 10
188.000000
 20
102.500000
 11
188.000000
 21
98.500000
  0
LINE
  8
0
  6
CENTER
 62
2
 10
144.000000
 20
162.500000
 11
144.000000
 21
158.000000
  0
LINE
  8
0
  6
CONTINUOUS
 62
7
 10
144.000000
 20
160.100006
 11
144.000000
 21
161.500000
  0
LINE
  8
0
  6
CONTINUOUS
 62
7
 10
140.100006
 20
160.100006
 11
147.899994
 21
160.100006
  0
LINE
  8
0
  6
CONTINUOUS
 62
7
 10
147.899994
 20
160.100006
 11
147.899994
 21
159.500000
  0
LINE
  8
0
  6
CONTINUOUS
 62
7
 10
140.100006
 20
160.100006
 11
140.100006
 21
159.500000
  0
LINE
  8
0
  6
CONTINUOUS
 62
7
 10
147.500000
 20
161.500000
 11
147.500000
 21
160.100006
  0
LINE
  8
0
  6
CONTINUOUS
 62
7
 10
140.500000
 20
161.500000
 11
140.500000
 21
160.100006
  0
LINE
  8
0
  6
CENTER
 62
2
 10
223.000000
 20
162.500000
 11
223.000000
 21
158.000000
  0
LINE
  8
0
  6
CONTINUOUS
 62
7
 10
92.458603
 20
163.000000
 11
92.458603
 21
160.100006
  0
LINE
  8
0
  6
CONTINUOUS
 62
7
 10
92.599998
 20
160.100006
 11
92.599998
 21
159.500000
  0
LINE
  8
0
  6
CONTINUOUS
 62
7
 10
100.541000
 20
160.100006
 11
92.458603
 21
160.100006
  0
LINE
  8
0
  6
CONTINUOUS
 62
7
 10
94.479301
 20
163.000000
 11
94.479301
 21
160.100006
  0
LINE
  8
0
  6
CENTER
 62
2
 10
96.500000
 20
164.000000
 11
96.500000
 21
158.500000
  0
LINE
  8
0
  6
CONTINUOUS
 62
7
 10
100.541000
 20
163.000000
 11
92.458603
 21
163.000000
  0
LINE
  8
0
  6
CONTINUOUS
 62
7
 10
100.541000
 20
163.000000
 11
100.541000
 21
160.100006
  0
LINE
  8
0
  6
CONTINUOUS
 62
7
 10
98.520699
 20
163.000000
 11
98.520699
 21
160.100006
  0
LINE
  8
0
  6
CONTINUOUS
 62
7
 10
100.400002
 20
160.100006
 11
100.400002
 21
159.500000
  0
LINE
  8
0
  6
CONTINUOUS
 62
7
 10
147.500000
 20
-238.500000
 11
140.500000
 21
-238.500000
  0
LINE
  8
0
  6
CENTER
 62
2
 10
144.000000
 20
-239.500000
 11
144.000000
 21
-233.500000
  0
LINE
  8
0
  6
CONTINUOUS
 62
7
 10
144.000000
 20
-235.600006
 11
144.000000
 21
-238.500000
  0
LINE
  8
0
  6
CONTINUOUS
 62
7
 10
147.899994
 20
-235.600006
 11
140.100006
 21
-235.600006
  0
LINE
  8
0
  6
CONTINUOUS
 62
7
 10
140.100006
 20
-235.600006
 11
140.100006
 21
-235.000000
  0
LINE
  8
0
  6
CONTINUOUS
 62
7
 10
147.899994
 20
-235.600006
 11
147.899994
 21
-235.000000
  0
LINE
  8
0
  6
CONTINUOUS
 62
7
 10
140.500000
 20
-238.500000
 11
140.500000
 21
-235.600006
  0
LINE
  8
0
  6
CONTINUOUS
 62
7
 10
147.500000
 20
-238.500000
 11
147.500000
 21
-235.600006
  0
LINE
  8
0
  6
CONTINUOUS
 62
7
 10
229.199997
 20
127.000000
 11
229.199997
 21
132.000000
  0
LINE
  8
0
  6
CONTINUOUS
 62
7
 10
229.199997
 20
154.000000
 11
229.199997
 21
159.000000
  0
LINE
  8
0
  6
CONTINUOUS
 62
7
 10
229.600006
 20
150.000000
 11
229.600006
 21
154.000000
  0
LINE
  8
0
  6
CONTINUOUS
 62
7
 10
229.600006
 20
154.000000
 11
228.500000
 21
154.000000
  0
LINE
  8
0
  6
CONTINUOUS
 62
7
 10
228.500000
 20
150.000000
 11
228.500000
 21
154.000000
  0
LINE
  8
0
  6
CONTINUOUS
 62
7
 10
229.600006
 20
150.000000
 11
228.500000
 21
150.000000
  0
LINE
  8
0
  6
CONTINUOUS
 62
7
 10
229.199997
 20
136.000000
 11
229.199997
 21
150.000000
  0
LINE
  8
0
  6
CONTINUOUS
 62
7
 10
229.600006
 20
136.000000
 11
228.500000
 21
136.000000
  0
LINE
  8
0
  6
CONTINUOUS
 62
7
 10
228.500000
 20
136.000000
 11
228.500000
 21
132.000000
  0
LINE
  8
0
  6
CONTINUOUS
 62
7
 10
229.600006
 20
136.000000
 11
229.600006
 21
132.000000
  0
LINE
  8
0
  6
CONTINUOUS
 62
7
 10
229.600006
 20
132.000000
 11
228.500000
 21
132.000000
  0
LINE
  8
0
  6
CONTINUOUS
 62
7
 10
228.000000
 20
100.000000
 11
229.199997
 21
100.000000
  0
LINE
  8
0
  6
CONTINUOUS
 62
7
 10
229.600006
 20
99.500000
 11
229.199997
 21
99.500000
  0
LINE
  8
0
  6
CONTINUOUS
 62
7
 10
136.000000
 20
88.500000
 11
229.199997
 21
88.500000
  0
LINE
  8
0
  6
CONTINUOUS
 62
7
 10
229.600006
 20
95.500000
 11
229.199997
 21
95.500000
  0
LINE
  8
0
  6
CONTINUOUS
 62
7
 10
229.600006
 20
99.500000
 11
229.600006
 21
95.500000
  0
LINE
  8
0
  6
CONTINUOUS
 62
7
 10
229.199997
 20
100.000000
 11
229.199997
 21
88.500000
  0
LINE
  8
0
  6
CONTINUOUS
 62
7
 10
244.600006
 20
-225.500000
 11
244.600006
 21
-229.500000
  0
LINE
  8
0
  6
CONTINUOUS
 62
7
 10
244.600006
 20
-211.500000
 11
244.199997
 21
-211.500000
  0
LINE
  8
0
  6
CONTINUOUS
 62
7
 10
244.600006
 20
-225.500000
 11
244.199997
 21
-225.500000
  0
LINE
  8
0
  6
CONTINUOUS
 62
7
 10
244.600006
 20
-229.500000
 11
244.199997
 21
-229.500000
  0
LINE
  8
0
  6
CONTINUOUS
 62
7
 10
244.600006
 20
-207.500000
 11
244.199997
 21
-207.500000
  0
LINE
  8
0
  6
CONTINUOUS
 62
7
 10
244.199997
 20
-202.500000
 11
244.199997
 21
-234.500000
  0
LINE
  8
0
  6
CONTINUOUS
 62
7
 10
244.000000
 20
-202.500000
 11
244.199997
 21
-202.500000
  0
LINE
  8
0
  6
CONTINUOUS
 62
7
 10
244.000000
 20
-234.500000
 11
244.199997
 21
-234.500000
  0
LINE
  8
0
  6
CONTINUOUS
 62
7
 10
244.600006
 20
-207.500000
 11
244.600006
 21
-211.500000
  0
LINE
  8
0
  6
CONTINUOUS
 62
7
 10
229.000000
 20
159.000000
 11
229.000000
 21
159.500000
  0
LINE
  8
0
  6
CENTER
 62
2
 10
-174.800003
 20
143.000000
 11
-253.000000
 21
143.000000
  0
LINE
  8
0
  6
CONTINUOUS
 62
7
 10
-175.800003
 20
127.000000
 11
-252.000000
 21
127.000000
  0
LINE
  8
0
  6
CONTINUOUS
 62
7
 10
-177.000000
 20
134.000000
 11
-244.000000
 21
134.000000
  0
LINE
  8
0
  6
CONTINUOUS
 62
7
 10
-242.000000
 20
159.500000
 11
-229.199997
 21
159.500000
  0
LINE
  8
0
  6
CONTINUOUS
 62
7
 10
-242.000000
 20
126.500000
 11
-229.199997
 21
126.500000
  0
LINE
  8
0
  6
CONTINUOUS
 62
7
 10
-242.000000
 20
126.500000
 11
-242.000000
 21
127.000000
  0
LINE
  8
0
  6
CONTINUOUS
 62
7
 10
-176.000000
 20
126.500000
 11
-176.000000
 21
127.000000
  0
LINE
  8
0
  6
CONTINUOUS
 62
7
 10
-242.000000
 20
159.000000
 11
-242.000000
 21
159.500000
  0
LINE
  8
0
  6
CONTINUOUS
 62
7
 10
-244.000000
 20
127.000000
 11
-244.000000
 21
159.000000
  0
LINE
  8
0
  6
CONTINUOUS
 62
7
 10
-175.800003
 20
159.000000
 11
-252.000000
 21
159.000000
  0
LINE
  8
0
  6
CONTINUOUS
 62
7
 10
-177.000000
 20
127.000000
 11
-177.000000
 21
159.000000
  0
LINE
  8
0
  6
CONTINUOUS
 62
7
 10
-177.000000
 20
152.000000
 11
-244.000000
 21
152.000000
  0
LINE
  8
0
  6
CONTINUOUS
 62
7
 10
-224.800003
 20
126.500000
 11
-176.000000
 21
126.500000
  0
LINE
  8
0
  6
CONTINUOUS
 62
7
 10
-252.000000
 20
159.000000
 11
-252.000000
 21
127.000000
  0
LINE
  8
0
  6
CONTINUOUS
 62
7
 10
-224.800003
 20
159.500000
 11
-192.800003
 21
159.500000
  0
LINE
  8
0
  6
DASHED
 62
2
 10
-229.199997
 20
131.000000
 11
-229.199997
 21
127.000000
  0
LINE
  8
0
  6
DASHED
 62
2
 10
-224.800003
 20
131.000000
 11
-224.800003
 21
127.000000
  0
LINE
  8
0
  6
DASHED
 62
2
 10
-229.199997
 20
155.000000
 11
-229.199997
 21
159.000000
  0
LINE
  8
0
  6
DASHED
 62
2
 10
-224.800003
 20
155.000000
 11
-224.800003
 21
159.000000
  0
LINE
  8
0
  6
CONTINUOUS
 62
7
 10
-229.199997
 20
127.000000
 11
-229.199997
 21
126.500000
  0
LINE
  8
0
  6
CONTINUOUS
 62
7
 10
-224.800003
 20
127.000000
 11
-224.800003
 21
126.500000
  0
LINE
  8
0
  6
CONTINUOUS
 62
7
 10
-224.800003
 20
159.500000
 11
-224.800003
 21
159.000000
  0
LINE
  8
0
  6
CONTINUOUS
 62
7
 10
-229.199997
 20
159.500000
 11
-229.199997
 21
159.000000
  0
LINE
  8
0
  6
CONTINUOUS
 62
7
 10
-267.000000
 20
127.000000
 11
-267.000000
 21
134.000000
  0
LINE
  8
0
  6
CONTINUOUS
 62
7
 10
-267.299988
 20
134.300003
 11
-267.299988
 21
151.699997
  0
LINE
  8
0
  6
CONTINUOUS
 62
7
 10
-267.000000
 20
134.000000
 11
-267.299988
 21
134.300003
  0
LINE
  8
0
  6
CONTINUOUS
 62
7
 10
-267.000000
 20
127.000000
 11
-288.000000
 21
127.000000
  0
LINE
  8
0
  6
CONTINUOUS
 62
7
 10
-267.000000
 20
159.000000
 11
-267.000000
 21
152.000000
  0
LINE
  8
0
  6
CONTINUOUS
 62
7
 10
-267.000000
 20
152.000000
 11
-267.299988
 21
151.699997
  0
LINE
  8
0
  6
CONTINUOUS
 62
7
 10
-267.000000
 20
159.000000
 11
-288.000000
 21
159.000000
  0
LINE
  8
0
  6
CONTINUOUS
 62
7
 10
-279.500000
 20
159.500000
 11
-279.500000
 21
159.000000
  0
LINE
  8
0
  6
CONTINUOUS
 62
7
 10
-289.000000
 20
159.500000
 11
-289.000000
 21
126.500000
  0
LINE
  8
0
  6
CONTINUOUS
 62
7
 10
-279.500000
 20
126.500000
 11
-289.000000
 21
126.500000
  0
LINE
  8
0
  6
CONTINUOUS
 62
7
 10
-279.500000
 20
126.500000
 11
-279.500000
 21
127.000000
  0
LINE
  8
0
  6
CENTER
 62
2
 10
-266.299988
 20
143.000000
 11
-290.000000
 21
143.000000
  0
LINE
  8
0
  6
CONTINUOUS
 62
7
 10
-267.500000
 20
159.000000
 11
-267.500000
 21
127.000000
  0
LINE
  8
0
  6
CONTINUOUS
 62
7
 10
-288.000000
 20
159.000000
 11
-288.000000
 21
127.000000
  0
LINE
  8
0
  6
CONTINUOUS
 62
7
 10
-289.000000
 20
159.500000
 11
-267.500000
 21
159.500000
  0
LINE
  8
0
  6
CENTER
 62
2
 10
-281.000000
 20
150.000000
 11
-281.000000
 21
136.000000
  0
LINE
  8
0
  6
CENTER
 62
2
 10
293.000000
 20
135.600006
 11
293.000000
 21
150.399994
  0
LINE
  8
0
  6
CONTINUOUS
 62
7
 10
287.885986
 20
150.500000
 11
291.500000
 21
150.500000
  0
LINE
  8
0
  6
CONTINUOUS
 62
7
 10
284.000000
 20
150.500000
 11
285.114014
 21
150.500000
  0
LINE
  8
0
  6
CONTINUOUS
 62
7
 10
279.000000
 20
159.000000
 11
279.000000
 21
152.000000
  0
LINE
  8
0
  6
CONTINUOUS
 62
7
 10
279.299988
 20
151.699997
 11
279.299988
 21
134.300003
  0
LINE
  8
0
  6
CONTINUOUS
 62
7
 10
279.000000
 20
152.000000
 11
279.299988
 21
151.699997
  0
LINE
  8
0
  6
CONTINUOUS
 62
7
 10
284.000000
 20
135.500000
 11
285.114014
 21
135.500000
  0
LINE
  8
0
  6
CONTINUOUS
 62
7
 10
279.000000
 20
127.000000
 11
291.500000
 21
127.000000
  0
LINE
  8
0
  6
CONTINUOUS
 62
7
 10
279.000000
 20
127.000000
 11
279.000000
 21
134.000000
  0
LINE
  8
0
  6
CONTINUOUS
 62
7
 10
279.000000
 20
134.000000
 11
279.299988
 21
134.300003
  0
LINE
  8
0
  6
CONTINUOUS
 62
7
 10
279.000000
 20
159.000000
 11
291.500000
 21
159.000000
  0
LINE
  8
0
  6
CONTINUOUS
 62
7
 10
301.000000
 20
126.500000
 11
301.000000
 21
159.500000
  0
LINE
  8
0
  6
CONTINUOUS
 62
7
 10
291.500000
 20
159.500000
 11
291.500000
 21
150.500000
  0
LINE
  8
0
  6
CONTINUOUS
 62
7
 10
291.500000
 20
126.500000
 11
301.000000
 21
126.500000
  0
LINE
  8
0
  6
CENTER
 62
2
 10
278.299988
 20
143.000000
 11
302.000000
 21
143.000000
  0
LINE
  8
0
  6
CONTINUOUS
 62
7
 10
291.000000
 20
127.000000
 11
291.000000
 21
135.500000
  0
LINE
  8
0
  6
CONTINUOUS
 62
7
 10
284.000000
 20
150.500000
 11
284.000000
 21
135.500000
  0
LINE
  8
0
  6
CONTINUOUS
 62
7
 10
291.500000
 20
126.500000
 11
291.500000
 21
135.500000
  0
LINE
  8
0
  6
CONTINUOUS
 62
7
 10
287.885986
 20
135.500000
 11
291.500000
 21
135.500000
  0
LINE
  8
0
  6
CONTINUOUS
 62
7
 10
291.000000
 20
159.000000
 11
291.000000
 21
150.500000
  0
LINE
  8
0
  6
CONTINUOUS
 62
7
 10
-244.000000
 20
100.500000
 11
-177.000000
 21
100.500000
  0
LINE
  8
0
  6
CONTINUOUS
 62
7
 10
-242.000000
 20
78.500000
 11
-176.000000
 21
78.500000
  0
LINE
  8
0
  6
CONTINUOUS
 62
7
 10
-242.000000
 20
88.500000
 11
-242.000000
 21
78.500000
  0
LINE
  8
0
  6
CONTINUOUS
 62
7
 10
-176.000000
 20
88.500000
 11
-176.000000
 21
78.500000
  0
LINE
  8
0
  6
CONTINUOUS
 62
7
 10
-244.000000
 20
100.500000
 11
-244.000000
 21
79.500000
  0
LINE
  8
0
  6
CONTINUOUS
 62
7
 10
-177.000000
 20
100.500000
 11
-177.000000
 21
88.500000
  0
LINE
  8
0
  6
CONTINUOUS
 62
7
 10
-177.000000
 20
100.000000
 11
-175.800003
 21
100.000000
  0
LINE
  8
0
  6
CONTINUOUS
 62
7
 10
-242.000000
 20
88.000000
 11
-176.000000
 21
88.000000
  0
LINE
  8
0
  6
CONTINUOUS
 62
7
 10
-175.399994
 20
99.500000
 11
-175.800003
 21
99.500000
  0
LINE
  8
0
  6
CONTINUOUS
 62
7
 10
-252.000000
 20
79.500000
 11
-252.000000
 21
100.000000
  0
LINE
  8
0
  6
CONTINUOUS
 62
7
 10
-244.000000
 20
79.500000
 11
-252.000000
 21
79.500000
  0
LINE
  8
0
  6
CONTINUOUS
 62
7
 10
-244.000000
 20
100.000000
 11
-252.000000
 21
100.000000
  0
LINE
  8
0
  6
CONTINUOUS
 62
7
 10
-244.000000
 20
88.500000
 11
-175.800003
 21
88.500000
  0
LINE
  8
0
  6
CONTINUOUS
 62
7
 10
-242.000000
 20
81.500000
 11
-244.000000
 21
81.500000
  0
LINE
  8
0
  6
CONTINUOUS
 62
7
 10
-175.399994
 20
95.500000
 11
-175.800003
 21
95.500000
  0
LINE
  8
0
  6
CENTER
 62
2
 10
-164.800003
 20
-218.500000
 11
-253.000000
 21
-218.500000
  0
LINE
  8
0
  6
CONTINUOUS
 62
7
 10
-242.000000
 20
-235.000000
 11
-229.199997
 21
-235.000000
  0
LINE
  8
0
  6
CONTINUOUS
 62
7
 10
-242.000000
 20
-202.000000
 11
-229.199997
 21
-202.000000
  0
LINE
  8
0
  6
CONTINUOUS
 62
7
 10
-242.000000
 20
-202.000000
 11
-242.000000
 21
-235.000000
  0
LINE
  8
0
  6
CONTINUOUS
 62
7
 10
-166.000000
 20
-202.000000
 11
-166.000000
 21
-235.000000
  0
LINE
  8
0
  6
CONTINUOUS
 62
7
 10
-252.000000
 20
-202.500000
 11
-242.000000
 21
-202.500000
  0
LINE
  8
0
  6
CONTINUOUS
 62
7
 10
-252.000000
 20
-234.500000
 11
-242.000000
 21
-234.500000
  0
LINE
  8
0
  6
CONTINUOUS
 62
7
 10
-244.000000
 20
-202.500000
 11
-244.000000
 21
-234.500000
  0
LINE
  8
0
  6
CONTINUOUS
 62
7
 10
-165.399994
 20
-211.500000
 11
-165.800003
 21
-211.500000
  0
LINE
  8
0
  6
CONTINUOUS
 62
7
 10
-165.399994
 20
-225.500000
 11
-165.800003
 21
-225.500000
  0
LINE
  8
0
  6
CONTINUOUS
 62
7
 10
-165.399994
 20
-229.500000
 11
-165.800003
 21
-229.500000
  0
LINE
  8
0
  6
CONTINUOUS
 62
7
 10
-165.399994
 20
-207.500000
 11
-165.800003
 21
-207.500000
  0
LINE
  8
0
  6
CONTINUOUS
 62
7
 10
-224.800003
 20
-202.000000
 11
-166.000000
 21
-202.000000
  0
LINE
  8
0
  6
CONTINUOUS
 62
7
 10
-224.800003
 20
-235.000000
 11
-155.000000
 21
-235.000000
  0
LINE
  8
0
  6
CONTINUOUS
 62
7
 10
-229.199997
 20
-202.500000
 11
-224.800003
 21
-202.500000
  0
LINE
  8
0
  6
CONTINUOUS
 62
7
 10
-229.199997
 20
-234.500000
 11
-224.800003
 21
-234.500000
  0
LINE
  8
0
  6
CONTINUOUS
 62
7
 10
-252.000000
 20
-202.500000
 11
-252.000000
 21
-234.500000
  0
LINE
  8
0
  6
CONTINUOUS
 62
7
 10
-229.199997
 20
-206.500000
 11
-229.199997
 21
-202.000000
  0
LINE
  8
0
  6
CONTINUOUS
 62
7
 10
-224.800003
 20
-206.500000
 11
-224.800003
 21
-202.000000
  0
LINE
  8
0
  6
CONTINUOUS
 62
7
 10
-229.199997
 20
-230.500000
 11
-229.199997
 21
-235.000000
  0
LINE
  8
0
  6
CONTINUOUS
 62
7
 10
-224.800003
 20
-230.500000
 11
-224.800003
 21
-235.000000
  0
LINE
  8
0
  6
CONTINUOUS
 62
7
 10
136.000000
 20
185.500000
 11
228.000000
 21
185.500000
  0
LINE
  8
0
  6
CONTINUOUS
 62
7
 10
138.000000
 20
207.500000
 11
229.000000
 21
207.500000
  0
LINE
  8
0
  6
CONTINUOUS
 62
7
 10
138.000000
 20
197.500000
 11
138.000000
 21
207.500000
  0
LINE
  8
0
  6
CONTINUOUS
 62
7
 10
229.000000
 20
207.000000
 11
229.000000
 21
207.500000
  0
LINE
  8
0
  6
CONTINUOUS
 62
7
 10
136.000000
 20
185.500000
 11
136.000000
 21
206.500000
  0
LINE
  8
0
  6
CONTINUOUS
 62
7
 10
228.000000
 20
186.000000
 11
229.199997
 21
186.000000
  0
LINE
  8
0
  6
CONTINUOUS
 62
7
 10
136.000000
 20
197.500000
 11
157.000000
 21
197.500000
  0
LINE
  8
0
  6
CONTINUOUS
 62
7
 10
138.000000
 20
198.000000
 11
157.000000
 21
198.000000
  0
LINE
  8
0
  6
CENTER
 62
2
 10
153.000000
 20
201.199997
 11
153.000000
 21
208.500000
  0
LINE
  8
0
  6
CONTINUOUS
 62
7
 10
128.000000
 20
206.500000
 11
128.000000
 21
186.000000
  0
LINE
  8
0
  6
CONTINUOUS
 62
7
 10
136.000000
 20
186.000000
 11
128.000000
 21
186.000000
  0
LINE
  8
0
  6
CONTINUOUS
 62
7
 10
136.000000
 20
206.500000
 11
128.000000
 21
206.500000
  0
LINE
  8
0
  6
CONTINUOUS
 62
7
 10
228.000000
 20
185.500000
 11
228.000000
 21
189.699997
  0
LINE
  8
0
  6
CONTINUOUS
 62
7
 10
138.000000
 20
204.500000
 11
136.000000
 21
204.500000
  0
LINE
  8
0
  6
CONTINUOUS
 62
7
 10
147.500000
 20
202.500000
 11
140.500000
 21
202.500000
  0
LINE
  8
0
  6
CONTINUOUS
 62
7
 10
147.500000
 20
201.500000
 11
140.500000
 21
201.500000
  0
LINE
  8
0
  6
CONTINUOUS
 62
7
 10
144.000000
 20
197.959000
 11
140.500000
 21
199.979004
  0
LINE
  8
0
  6
CONTINUOUS
 62
7
 10
140.500000
 20
199.979004
 11
140.500000
 21
204.020996
  0
LINE
  8
0
  6
CONTINUOUS
 62
7
 10
147.500000
 20
199.979004
 11
144.000000
 21
197.959000
  0
LINE
  8
0
  6
CONTINUOUS
 62
7
 10
147.500000
 20
199.979004
 11
147.500000
 21
204.020996
  0
LINE
  8
0
  6
CONTINUOUS
 62
7
 10
140.500000
 20
204.020996
 11
144.000000
 21
206.041000
  0
LINE
  8
0
  6
CONTINUOUS
 62
7
 10
147.500000
 20
204.020996
 11
144.000000
 21
206.041000
  0
LINE
  8
0
  6
DASHED
 62
2
 10
157.000000
 20
202.199997
 11
157.000000
 21
203.000000
  0
LINE
  8
0
  6
DASHED
 62
2
 10
149.000000
 20
202.199997
 11
149.000000
 21
203.000000
  0
LINE
  8
0
  6
DASHED
 62
2
 10
157.000000
 20
203.000000
 11
155.199997
 21
203.000000
  0
LINE
  8
0
  6
DASHED
 62
2
 10
150.800003
 20
203.000000
 11
149.000000
 21
203.000000
  0
LINE
  8
0
  6
CENTER
 62
2
 10
-192.000000
 20
102.500000
 11
-192.000000
 21
98.500000
  0
LINE
  8
0
  6
CENTER
 62
2
 10
-212.000000
 20
102.500000
 11
-212.000000
 21
98.500000
  0
LINE
  8
0
  6
CENTER
 62
2
 10
-232.000000
 20
102.500000
 11
-232.000000
 21
98.500000
  0
LINE
  8
0
  6
CENTER
 62
2
 10
-254.000000
 20
86.500000
 11
-250.000000
 21
86.500000
  0
LINE
  8
0
  6
CENTER
 62
2
 10
-254.000000
 20
95.500000
 11
-250.000000
 21
95.500000
  0
LINE
  8
0
  6
CENTER
 62
2
 10
126.000000
 20
190.500000
 11
130.000000
 21
190.500000
  0
LINE
  8
0
  6
CENTER
 62
2
 10
126.000000
 20
199.500000
 11
130.000000
 21
199.500000
  0
LINE
  8
0
  6
CENTER
 62
2
 10
148.000000
 20
187.500000
 11
148.000000
 21
183.500000
  0
LINE
  8
0
  6
CENTER
 62
2
 10
213.000000
 20
187.500000
 11
213.000000
 21
183.500000
  0
LINE
  8
0
  6
DASHED
 62
2
 10
-231.000000
 20
83.000000
 11
-229.199997
 21
83.000000
  0
LINE
  8
0
  6
DASHED
 62
2
 10
-231.000000
 20
83.800003
 11
-231.000000
 21
83.000000
  0
LINE
  8
0
  6
CONTINUOUS
 62
7
 10
-224.800003
 20
83.000000
 11
-229.199997
 21
83.000000
  0
LINE
  8
0
  6
DASHED
 62
2
 10
-223.000000
 20
83.800003
 11
-223.000000
 21
83.000000
  0
LINE
  8
0
  6
DASHED
 62
2
 10
-224.800003
 20
83.000000
 11
-223.000000
 21
83.000000
  0
LINE
  8
0
  6
CENTER
 62
2
 10
277.000000
 20
155.500000
 11
281.000000
 21
155.500000
  0
LINE
  8
0
  6
CENTER
 62
2
 10
299.000000
 20
155.000000
 11
303.000000
 21
155.000000
  0
LINE
  8
0
  6
CENTER
 62
2
 10
299.000000
 20
131.000000
 11
303.000000
 21
131.000000
  0
LINE
  8
0
  6
CENTER
 62
2
 10
277.000000
 20
130.500000
 11
281.000000
 21
130.500000
  0
LINE
  8
0
  6
CONTINUOUS
 62
7
 10
-175.800003
 20
154.000000
 11
-175.800003
 21
159.000000
  0
LINE
  8
0
  6
CONTINUOUS
 62
7
 10
-175.399994
 20
150.000000
 11
-175.399994
 21
154.000000
  0
LINE
  8
0
  6
CONTINUOUS
 62
7
 10
-175.399994
 20
154.000000
 11
-176.500000
 21
154.000000
  0
LINE
  8
0
  6
CONTINUOUS
 62
7
 10
-176.500000
 20
150.000000
 11
-176.500000
 21
154.000000
  0
LINE
  8
0
  6
CONTINUOUS
 62
7
 10
-175.399994
 20
150.000000
 11
-176.500000
 21
150.000000
  0
LINE
  8
0
  6
CONTINUOUS
 62
7
 10
-175.800003
 20
136.000000
 11
-175.800003
 21
150.000000
  0
LINE
  8
0
  6
CONTINUOUS
 62
7
 10
-175.399994
 20
136.000000
 11
-176.500000
 21
136.000000
  0
LINE
  8
0
  6
CONTINUOUS
 62
7
 10
-176.500000
 20
136.000000
 11
-176.500000
 21
132.000000
  0
LINE
  8
0
  6
CONTINUOUS
 62
7
 10
-175.399994
 20
136.000000
 11
-175.399994
 21
132.000000
  0
LINE
  8
0
  6
CONTINUOUS
 62
7
 10
-175.399994
 20
132.000000
 11
-176.500000
 21
132.000000
  0
LINE
  8
0
  6
CONTINUOUS
 62
7
 10
-175.800003
 20
127.000000
 11
-175.800003
 21
132.000000
  0
LINE
  8
0
  6
CONTINUOUS
 62
7
 10
-176.000000
 20
159.000000
 11
-176.000000
 21
159.500000
  0
LINE
  8
0
  6
CENTER
 62
2
 10
-236.000000
 20
162.500000
 11
-236.000000
 21
158.000000
  0
LINE
  8
0
  6
CONTINUOUS
 62
7
 10
-236.000000
 20
160.100006
 11
-236.000000
 21
161.500000
  0
LINE
  8
0
  6
CONTINUOUS
 62
7
 10
-239.899994
 20
160.100006
 11
-232.100006
 21
160.100006
  0
LINE
  8
0
  6
CONTINUOUS
 62
7
 10
-232.100006
 20
160.100006
 11
-232.100006
 21
159.500000
  0
LINE
  8
0
  6
CONTINUOUS
 62
7
 10
-239.899994
 20
160.100006
 11
-239.899994
 21
159.500000
  0
LINE
  8
0
  6
CONTINUOUS
 62
7
 10
-232.500000
 20
161.500000
 11
-232.500000
 21
160.100006
  0
LINE
  8
0
  6
CONTINUOUS
 62
7
 10
-239.500000
 20
161.500000
 11
-239.500000
 21
160.100006
  0
LINE
  8
0
  6
CONTINUOUS
 62
7
 10
-287.540985
 20
163.000000
 11
-287.540985
 21
160.100006
  0
LINE
  8
0
  6
CONTINUOUS
 62
7
 10
-287.399994
 20
160.100006
 11
-287.399994
 21
159.500000
  0
LINE
  8
0
  6
CONTINUOUS
 62
7
 10
-279.459015
 20
160.100006
 11
-287.540985
 21
160.100006
  0
LINE
  8
0
  6
CONTINUOUS
 62
7
 10
-285.520996
 20
163.000000
 11
-285.520996
 21
160.100006
  0
LINE
  8
0
  6
CENTER
 62
2
 10
-283.500000
 20
164.000000
 11
-283.500000
 21
158.500000
  0
LINE
  8
0
  6
CONTINUOUS
 62
7
 10
-279.459015
 20
163.000000
 11
-287.540985
 21
163.000000
  0
LINE
  8
0
  6
CONTINUOUS
 62
7
 10
-279.459015
 20
163.000000
 11
-279.459015
 21
160.100006
  0
LINE
  8
0
  6
CONTINUOUS
 62
7
 10
-281.479004
 20
163.000000
 11
-281.479004
 21
160.100006
  0
LINE
  8
0
  6
CONTINUOUS
 62
7
 10
-279.600006
 20
160.100006
 11
-279.600006
 21
159.500000
  0
LINE
  8
0
  6
CONTINUOUS
 62
7
 10
229.600006
 20
186.500000
 11
229.600006
 21
188.500000
  0
LINE
  8
0
  6
CONTINUOUS
 62
7
 10
229.199997
 20
186.500000
 11
229.600006
 21
186.500000
  0
LINE
  8
0
  6
CONTINUOUS
 62
7
 10
-175.399994
 20
99.500000
 11
-175.399994
 21
95.500000
  0
LINE
  8
0
  6
CONTINUOUS
 62
7
 10
-175.800003
 20
100.000000
 11
-175.800003
 21
88.500000
  0
LINE
  8
0
  6
CONTINUOUS
 62
7
 10
-165.800003
 20
-202.500000
 11
-165.800003
 21
-234.500000
  0
LINE
  8
0
  6
CONTINUOUS
 62
7
 10
-166.000000
 20
-202.500000
 11
-165.800003
 21
-202.500000
  0
LINE
  8
0
  6
CONTINUOUS
 62
7
 10
-166.000000
 20
-234.500000
 11
-165.800003
 21
-234.500000
  0
LINE
  8
0
  6
CONTINUOUS
 62
7
 10
-165.399994
 20
-207.500000
 11
-165.399994
 21
-211.500000
  0
LINE
  8
0
  6
CONTINUOUS
 62
7
 10
-165.399994
 20
-225.500000
 11
-165.399994
 21
-229.500000
  0
LINE
  8
0
  6
CONTINUOUS
 62
7
 10
-232.500000
 20
-238.500000
 11
-239.500000
 21
-238.500000
  0
LINE
  8
0
  6
CENTER
 62
2
 10
-236.000000
 20
-239.500000
 11
-236.000000
 21
-233.500000
  0
LINE
  8
0
  6
CONTINUOUS
 62
7
 10
-236.000000
 20
-235.600006
 11
-236.000000
 21
-238.500000
  0
LINE
  8
0
  6
CONTINUOUS
 62
7
 10
-232.100006
 20
-235.600006
 11
-239.899994
 21
-235.600006
  0
LINE
  8
0
  6
CONTINUOUS
 62
7
 10
-239.899994
 20
-235.600006
 11
-239.899994
 21
-235.000000
  0
LINE
  8
0
  6
CONTINUOUS
 62
7
 10
-232.100006
 20
-235.600006
 11
-232.100006
 21
-235.000000
  0
LINE
  8
0
  6
CONTINUOUS
 62
7
 10
-239.500000
 20
-238.500000
 11
-239.500000
 21
-235.600006
  0
LINE
  8
0
  6
CONTINUOUS
 62
7
 10
-232.500000
 20
-238.500000
 11
-232.500000
 21
-235.600006
  0
LINE
  8
0
  6
CENTER
 62
2
 10
-174.800003
 20
36.500000
 11
-253.000000
 21
36.500000
  0
LINE
  8
0
  6
CONTINUOUS
 62
7
 10
-242.000000
 20
20.000000
 11
-229.199997
 21
20.000000
  0
LINE
  8
0
  6
CONTINUOUS
 62
7
 10
-242.000000
 20
53.000000
 11
-229.199997
 21
53.000000
  0
LINE
  8
0
  6
CONTINUOUS
 62
7
 10
-242.000000
 20
53.000000
 11
-242.000000
 21
20.000000
  0
LINE
  8
0
  6
CONTINUOUS
 62
7
 10
-176.000000
 20
53.000000
 11
-176.000000
 21
20.000000
  0
LINE
  8
0
  6
CONTINUOUS
 62
7
 10
-252.000000
 20
52.500000
 11
-242.000000
 21
52.500000
  0
LINE
  8
0
  6
CONTINUOUS
 62
7
 10
-252.000000
 20
20.500000
 11
-242.000000
 21
20.500000
  0
LINE
  8
0
  6
CONTINUOUS
 62
7
 10
-244.000000
 20
52.500000
 11
-244.000000
 21
20.500000
  0
LINE
  8
0
  6
CONTINUOUS
 62
7
 10
-175.399994
 20
43.500000
 11
-175.800003
 21
43.500000
  0
LINE
  8
0
  6
CONTINUOUS
 62
7
 10
-175.399994
 20
29.500000
 11
-175.800003
 21
29.500000
  0
LINE
  8
0
  6
CONTINUOUS
 62
7
 10
-175.399994
 20
25.500000
 11
-175.800003
 21
25.500000
  0
LINE
  8
0
  6
CONTINUOUS
 62
7
 10
-175.399994
 20
47.500000
 11
-175.800003
 21
47.500000
  0
LINE
  8
0
  6
CONTINUOUS
 62
7
 10
-224.800003
 20
53.000000
 11
-176.000000
 21
53.000000
  0
LINE
  8
0
  6
CONTINUOUS
 62
7
 10
-224.800003
 20
20.000000
 11
-165.000000
 21
20.000000
  0
LINE
  8
0
  6
CONTINUOUS
 62
7
 10
-229.199997
 20
52.500000
 11
-224.800003
 21
52.500000
  0
LINE
  8
0
  6
CONTINUOUS
 62
7
 10
-229.199997
 20
20.500000
 11
-224.800003
 21
20.500000
  0
LINE
  8
0
  6
CONTINUOUS
 62
7
 10
-252.000000
 20
52.500000
 11
-252.000000
 21
20.500000
  0
LINE
  8
0
  6
CONTINUOUS
 62
7
 10
-229.199997
 20
48.500000
 11
-229.199997
 21
53.000000
  0
LINE
  8
0
  6
CONTINUOUS
 62
7
 10
-224.800003
 20
48.500000
 11
-224.800003
 21
53.000000
  0
LINE
  8
0
  6
CONTINUOUS
 62
7
 10
-229.199997
 20
24.500000
 11
-229.199997
 21
20.000000
  0
LINE
  8
0
  6
CONTINUOUS
 62
7
 10
-224.800003
 20
24.500000
 11
-224.800003
 21
20.000000
  0
LINE
  8
0
  6
CONTINUOUS
 62
7
 10
-175.800003
 20
52.500000
 11
-175.800003
 21
20.500000
  0
LINE
  8
0
  6
CONTINUOUS
 62
7
 10
-176.000000
 20
52.500000
 11
-175.800003
 21
52.500000
  0
LINE
  8
0
  6
CONTINUOUS
 62
7
 10
-176.000000
 20
20.500000
 11
-175.800003
 21
20.500000
  0
LINE
  8
0
  6
CONTINUOUS
 62
7
 10
-175.399994
 20
47.500000
 11
-175.399994
 21
43.500000
  0
LINE
  8
0
  6
CONTINUOUS
 62
7
 10
-175.399994
 20
29.500000
 11
-175.399994
 21
25.500000
  0
LINE
  8
0
  6
CONTINUOUS
 62
7
 10
-232.500000
 20
16.500000
 11
-239.500000
 21
16.500000
  0
LINE
  8
0
  6
CENTER
 62
2
 10
-236.000000
 20
15.500000
 11
-236.000000
 21
21.500000
  0
LINE
  8
0
  6
CONTINUOUS
 62
7
 10
-236.000000
 20
19.400000
 11
-236.000000
 21
16.500000
  0
LINE
  8
0
  6
CONTINUOUS
 62
7
 10
-232.100006
 20
19.400000
 11
-239.899994
 21
19.400000
  0
LINE
  8
0
  6
CONTINUOUS
 62
7
 10
-239.899994
 20
19.400000
 11
-239.899994
 21
20.000000
  0
LINE
  8
0
  6
CONTINUOUS
 62
7
 10
-232.100006
 20
19.400000
 11
-232.100006
 21
20.000000
  0
LINE
  8
0
  6
CONTINUOUS
 62
7
 10
-239.500000
 20
16.500000
 11
-239.500000
 21
19.400000
  0
LINE
  8
0
  6
CONTINUOUS
 62
7
 10
-232.500000
 20
16.500000
 11
-232.500000
 21
19.400000
  0
LINE
  8
0
  6
CENTER
 62
2
 10
230.199997
 20
36.500000
 11
127.000000
 21
36.500000
  0
LINE
  8
0
  6
CONTINUOUS
 62
7
 10
138.000000
 20
20.000000
 11
150.800003
 21
20.000000
  0
LINE
  8
0
  6
CONTINUOUS
 62
7
 10
138.000000
 20
53.000000
 11
150.800003
 21
53.000000
  0
LINE
  8
0
  6
CONTINUOUS
 62
7
 10
138.000000
 20
53.000000
 11
138.000000
 21
20.000000
  0
LINE
  8
0
  6
CONTINUOUS
 62
7
 10
229.000000
 20
53.000000
 11
229.000000
 21
20.000000
  0
LINE
  8
0
  6
CONTINUOUS
 62
7
 10
128.000000
 20
52.500000
 11
138.000000
 21
52.500000
  0
LINE
  8
0
  6
CONTINUOUS
 62
7
 10
128.000000
 20
20.500000
 11
138.000000
 21
20.500000
  0
LINE
  8
0
  6
CONTINUOUS
 62
7
 10
136.000000
 20
52.500000
 11
136.000000
 21
20.500000
  0
LINE
  8
0
  6
CONTINUOUS
 62
7
 10
155.199997
 20
53.000000
 11
229.000000
 21
53.000000
  0
LINE
  8
0
  6
CONTINUOUS
 62
7
 10
155.199997
 20
20.000000
 11
240.000000
 21
20.000000
  0
LINE
  8
0
  6
CONTINUOUS
 62
7
 10
150.800003
 20
52.500000
 11
155.199997
 21
52.500000
  0
LINE
  8
0
  6
CONTINUOUS
 62
7
 10
150.800003
 20
20.500000
 11
155.199997
 21
20.500000
  0
LINE
  8
0
  6
CONTINUOUS
 62
7
 10
128.000000
 20
52.500000
 11
128.000000
 21
20.500000
  0
LINE
  8
0
  6
CONTINUOUS
 62
7
 10
150.800003
 20
48.500000
 11
150.800003
 21
53.000000
  0
LINE
  8
0
  6
CONTINUOUS
 62
7
 10
155.199997
 20
48.500000
 11
155.199997
 21
53.000000
  0
LINE
  8
0
  6
CONTINUOUS
 62
7
 10
150.800003
 20
24.500000
 11
150.800003
 21
20.000000
  0
LINE
  8
0
  6
CONTINUOUS
 62
7
 10
155.199997
 20
24.500000
 11
155.199997
 21
20.000000
  0
LINE
  8
0
  6
CONTINUOUS
 62
7
 10
147.500000
 20
16.500000
 11
140.500000
 21
16.500000
  0
LINE
  8
0
  6
CENTER
 62
2
 10
144.000000
 20
15.500000
 11
144.000000
 21
21.500000
  0
LINE
  8
0
  6
CONTINUOUS
 62
7
 10
144.000000
 20
19.400000
 11
144.000000
 21
16.500000
  0
LINE
  8
0
  6
CONTINUOUS
 62
7
 10
147.899994
 20
19.400000
 11
140.100006
 21
19.400000
  0
LINE
  8
0
  6
CONTINUOUS
 62
7
 10
140.100006
 20
19.400000
 11
140.100006
 21
20.000000
  0
LINE
  8
0
  6
CONTINUOUS
 62
7
 10
147.899994
 20
19.400000
 11
147.899994
 21
20.000000
  0
LINE
  8
0
  6
CONTINUOUS
 62
7
 10
140.500000
 20
16.500000
 11
140.500000
 21
19.400000
  0
LINE
  8
0
  6
CONTINUOUS
 62
7
 10
147.500000
 20
16.500000
 11
147.500000
 21
19.400000
  0
LINE
  8
0
  6
CONTINUOUS
 62
7
 10
229.600006
 20
29.500000
 11
229.600006
 21
25.500000
  0
LINE
  8
0
  6
CONTINUOUS
 62
7
 10
229.600006
 20
43.500000
 11
229.199997
 21
43.500000
  0
LINE
  8
0
  6
CONTINUOUS
 62
7
 10
229.600006
 20
29.500000
 11
229.199997
 21
29.500000
  0
LINE
  8
0
  6
CONTINUOUS
 62
7
 10
229.600006
 20
25.500000
 11
229.199997
 21
25.500000
  0
LINE
  8
0
  6
CONTINUOUS
 62
7
 10
229.600006
 20
47.500000
 11
229.199997
 21
47.500000
  0
LINE
  8
0
  6
CONTINUOUS
 62
7
 10
229.199997
 20
52.500000
 11
229.199997
 21
20.500000
  0
LINE
  8
0
  6
CONTINUOUS
 62
7
 10
229.000000
 20
52.500000
 11
229.199997
 21
52.500000
  0
LINE
  8
0
  6
CONTINUOUS
 62
7
 10
229.000000
 20
20.500000
 11
229.199997
 21
20.500000
  0
LINE
  8
0
  6
CONTINUOUS
 62
7
 10
229.600006
 20
47.500000
 11
229.600006
 21
43.500000
  0
LINE
  8
0
  6
CONTINUOUS
 62
7
 10
-231.199997
 20
83.800003
 11
-222.000000
 21
83.800003
  0
LINE
  8
0
  6
CONTINUOUS
 62
7
 10
-224.850006
 20
83.000000
 11
-229.149994
 21
83.000000
  0
LINE
  8
0
  6
CONTINUOUS
 62
7
 10
-224.850006
 20
83.800003
 11
-224.850006
 21
78.500000
  0
LINE
  8
0
  6
CONTINUOUS
 62
7
 10
-229.149994
 20
83.800003
 11
-229.149994
 21
78.500000
  0
LINE
  8
0
  6
CONTINUOUS
 62
7
 10
-201.235992
 20
85.800003
 11
-216.764008
 21
85.800003
  0
LINE
  8
0
  6
DASHED
 62
2
 10
-195.000000
 20
83.800003
 11
-195.000000
 21
83.000000
  0
LINE
  8
0
  6
CONTINUOUS
 62
7
 10
-186.800003
 20
83.800003
 11
-196.000000
 21
83.800003
  0
LINE
  8
0
  6
DASHED
 62
2
 10
-187.000000
 20
83.000000
 11
-195.000000
 21
83.000000
  0
LINE
  8
0
  6
CENTER
 62
2
 10
-191.000000
 20
84.800003
 11
-191.000000
 21
77.500000
  0
LINE
  8
0
  6
DASHED
 62
2
 10
-188.899994
 20
83.000000
 11
-188.899994
 21
78.500000
  0
LINE
  8
0
  6
DASHED
 62
2
 10
-188.500000
 20
83.000000
 11
-188.500000
 21
78.500000
  0
LINE
  8
0
  6
DASHED
 62
2
 10
-187.000000
 20
83.800003
 11
-187.000000
 21
83.000000
  0
LINE
  8
0
  6
DASHED
 62
2
 10
-193.100006
 20
83.000000
 11
-193.100006
 21
78.500000
  0
LINE
  8
0
  6
DASHED
 62
2
 10
-193.500000
 20
83.000000
 11
-193.500000
 21
78.500000
  0
LINE
  8
0
  6
DASHED
 62
2
 10
-208.500000
 20
85.800003
 11
-208.500000
 21
78.500000
  0
LINE
  8
0
  6
DASHED
 62
2
 10
-208.899994
 20
85.800003
 11
-208.899994
 21
78.500000
  0
LINE
  8
0
  6
CENTER
 62
2
 10
-211.000000
 20
86.800003
 11
-211.000000
 21
77.500000
  0
LINE
  8
0
  6
DASHED
 62
2
 10
-213.100006
 20
85.800003
 11
-213.100006
 21
78.500000
  0
LINE
  8
0
  6
DASHED
 62
2
 10
-213.500000
 20
85.800003
 11
-213.500000
 21
78.500000
  0
LINE
  8
0
  6
CENTER
 62
2
 10
-227.000000
 20
84.800003
 11
-227.000000
 21
77.500000
  0
LINE
  8
0
  6
CONTINUOUS
 62
7
 10
148.800003
 20
202.199997
 11
157.000000
 21
202.199997
  0
LINE
  8
0
  6
CONTINUOUS
 62
7
 10
150.850006
 20
202.199997
 11
150.850006
 21
207.500000
  0
LINE
  8
0
  6
CONTINUOUS
 62
7
 10
155.149994
 20
203.000000
 11
150.850006
 21
203.000000
  0
LINE
  8
0
  6
CONTINUOUS
 62
7
 10
155.149994
 20
202.199997
 11
155.149994
 21
207.500000
  0
LINE
  8
0
  6
DASHED
 62
2
 10
165.000000
 20
200.199997
 11
173.000000
 21
200.199997
  0
LINE
  8
0
  6
CENTER
 62
2
 10
169.000000
 20
199.199997
 11
169.000000
 21
208.500000
  0
LINE
  8
0
  6
DASHED
 62
2
 10
166.500000
 20
200.199997
 11
166.500000
 21
207.500000
  0
LINE
  8
0
  6
DASHED
 62
2
 10
171.500000
 20
200.199997
 11
171.500000
 21
207.500000
  0
LINE
  8
0
  6
DASHED
 62
2
 10
171.100006
 20
200.199997
 11
171.100006
 21
207.500000
  0
LINE
  8
0
  6
DASHED
 62
2
 10
166.899994
 20
200.199997
 11
166.899994
 21
207.500000
  0
LINE
  8
0
  6
DASHED
 62
2
 10
218.000000
 20
202.199997
 11
210.000000
 21
202.199997
  0
LINE
  8
0
  6
CENTER
 62
2
 10
214.000000
 20
201.199997
 11
214.000000
 21
208.500000
  0
LINE
  8
0
  6
DASHED
 62
2
 10
218.000000
 20
203.000000
 11
210.000000
 21
203.000000
  0
LINE
  8
0
  6
DASHED
 62
2
 10
211.899994
 20
203.000000
 11
211.899994
 21
207.500000
  0
LINE
  8
0
  6
DASHED
 62
2
 10
216.100006
 20
203.000000
 11
216.100006
 21
207.500000
  0
LINE
  8
0
  6
DASHED
 62
2
 10
216.500000
 20
203.000000
 11
216.500000
 21
207.500000
  0
LINE
  8
0
  6
DASHED
 62
2
 10
211.500000
 20
203.000000
 11
211.500000
 21
207.500000
  0
LINE
  8
0
  6
DASHED
 62
2
 10
218.000000
 20
202.199997
 11
218.000000
 21
203.000000
  0
LINE
  8
0
  6
DASHED
 62
2
 10
210.000000
 20
202.199997
 11
210.000000
 21
203.000000
  0
LINE
  8
0
  6
CENTER
 62
2
 10
153.000000
 20
84.800003
 11
153.000000
 21
77.500000
  0
LINE
  8
0
  6
CONTINUOUS
 62
7
 10
148.800003
 20
83.800003
 11
158.000000
 21
83.800003
  0
LINE
  8
0
  6
CONTINUOUS
 62
7
 10
150.850006
 20
83.800003
 11
150.850006
 21
78.500000
  0
LINE
  8
0
  6
CONTINUOUS
 62
7
 10
155.149994
 20
83.000000
 11
150.850006
 21
83.000000
  0
LINE
  8
0
  6
CONTINUOUS
 62
7
 10
155.149994
 20
83.800003
 11
155.149994
 21
78.500000
  0
LINE
  8
0
  6
CONTINUOUS
 62
7
 10
163.235992
 20
85.800003
 11
203.764008
 21
85.800003
  0
LINE
  8
0
  6
CONTINUOUS
 62
7
 10
218.199997
 20
83.800003
 11
209.000000
 21
83.800003
  0
LINE
  8
0
  6
CENTER
 62
2
 10
169.000000
 20
86.800003
 11
169.000000
 21
77.500000
  0
LINE
  8
0
  6
CENTER
 62
2
 10
214.000000
 20
84.800003
 11
214.000000
 21
77.500000
  0
LINE
  8
0
  6
DASHED
 62
2
 10
166.500000
 20
85.800003
 11
166.500000
 21
78.500000
  0
LINE
  8
0
  6
DASHED
 62
2
 10
171.500000
 20
85.800003
 11
171.500000
 21
78.500000
  0
LINE
  8
0
  6
DASHED
 62
2
 10
171.100006
 20
85.800003
 11
171.100006
 21
78.500000
  0
LINE
  8
0
  6
DASHED
 62
2
 10
166.899994
 20
85.800003
 11
166.899994
 21
78.500000
  0
LINE
  8
0
  6
DASHED
 62
2
 10
218.000000
 20
83.000000
 11
210.000000
 21
83.000000
  0
LINE
  8
0
  6
DASHED
 62
2
 10
211.899994
 20
83.000000
 11
211.899994
 21
78.500000
  0
LINE
  8
0
  6
DASHED
 62
2
 10
216.100006
 20
83.000000
 11
216.100006
 21
78.500000
  0
LINE
  8
0
  6
DASHED
 62
2
 10
216.500000
 20
83.000000
 11
216.500000
 21
78.500000
  0
LINE
  8
0
  6
DASHED
 62
2
 10
211.500000
 20
83.000000
 11
211.500000
 21
78.500000
  0
LINE
  8
0
  6
DASHED
 62
2
 10
218.000000
 20
83.800003
 11
218.000000
 21
83.000000
  0
LINE
  8
0
  6
DASHED
 62
2
 10
210.000000
 20
83.800003
 11
210.000000
 21
83.000000
  0
LINE
  8
0
  6
CENTER
 62
2
 10
144.000000
 20
206.899994
 11
144.000000
 21
197.100006
  0
LINE
  8
0
  6
CENTER
 62
2
 10
139.100006
 20
202.000000
 11
148.899994
 21
202.000000
  0
LINE
  8
0
  6
CENTER
 62
2
 10
209.800003
 20
191.699997
 11
209.800003
 21
187.699997
  0
LINE
  8
0
  6
CENTER
 62
2
 10
207.800003
 20
189.699997
 11
211.800003
 21
189.699997
  0
LINE
  8
0
  6
CENTER
 62
2
 10
-232.000000
 20
158.000000
 11
-232.000000
 21
153.000000
  0
LINE
  8
0
  6
CENTER
 62
2
 10
-234.500000
 20
155.500000
 11
-229.500000
 21
155.500000
  0
LINE
  8
0
  6
CENTER
 62
2
 10
-227.000000
 20
160.000000
 11
-227.000000
 21
150.000000
  0
LINE
  8
0
  6
CENTER
 62
2
 10
-232.000000
 20
155.000000
 11
-222.000000
 21
155.000000
  0
LINE
  8
0
  6
CENTER
 62
2
 10
-212.000000
 20
158.000000
 11
-212.000000
 21
153.000000
  0
LINE
  8
0
  6
CENTER
 62
2
 10
-214.500000
 20
155.500000
 11
-209.500000
 21
155.500000
  0
LINE
  8
0
  6
CENTER
 62
2
 10
-207.000000
 20
158.500000
 11
-207.000000
 21
152.500000
  0
LINE
  8
0
  6
CENTER
 62
2
 10
-210.000000
 20
155.500000
 11
-204.000000
 21
155.500000
  0
LINE
  8
0
  6
CENTER
 62
2
 10
-191.000000
 20
160.000000
 11
-191.000000
 21
150.000000
  0
LINE
  8
0
  6
CENTER
 62
2
 10
-196.000000
 20
155.000000
 11
-186.000000
 21
155.000000
  0
LINE
  8
0
  6
CENTER
 62
2
 10
-192.000000
 20
158.000000
 11
-192.000000
 21
153.000000
  0
LINE
  8
0
  6
CENTER
 62
2
 10
-194.500000
 20
155.500000
 11
-189.500000
 21
155.500000
  0
LINE
  8
0
  6
CENTER
 62
2
 10
-192.000000
 20
133.000000
 11
-192.000000
 21
128.000000
  0
LINE
  8
0
  6
CENTER
 62
2
 10
-194.500000
 20
130.500000
 11
-189.500000
 21
130.500000
  0
LINE
  8
0
  6
CENTER
 62
2
 10
-191.000000
 20
136.000000
 11
-191.000000
 21
126.000000
  0
LINE
  8
0
  6
CENTER
 62
2
 10
-196.000000
 20
131.000000
 11
-186.000000
 21
131.000000
  0
LINE
  8
0
  6
CENTER
 62
2
 10
-207.000000
 20
133.500000
 11
-207.000000
 21
127.500000
  0
LINE
  8
0
  6
CENTER
 62
2
 10
-210.000000
 20
130.500000
 11
-204.000000
 21
130.500000
  0
LINE
  8
0
  6
CENTER
 62
2
 10
-212.000000
 20
133.000000
 11
-212.000000
 21
128.000000
  0
LINE
  8
0
  6
CENTER
 62
2
 10
-214.500000
 20
130.500000
 11
-209.500000
 21
130.500000
  0
LINE
  8
0
  6
CENTER
 62
2
 10
-227.000000
 20
136.000000
 11
-227.000000
 21
126.000000
  0
LINE
  8
0
  6
CENTER
 62
2
 10
-232.000000
 20
131.000000
 11
-222.000000
 21
131.000000
  0
LINE
  8
0
  6
CENTER
 62
2
 10
-232.000000
 20
133.000000
 11
-232.000000
 21
128.000000
  0
LINE
  8
0
  6
CENTER
 62
2
 10
-234.500000
 20
130.500000
 11
-229.500000
 21
130.500000
  0
LINE
  8
0
  6
CENTER
 62
2
 10
-281.000000
 20
134.000000
 11
-281.000000
 21
128.000000
  0
LINE
  8
0
  6
CENTER
 62
2
 10
-284.000000
 20
131.000000
 11
-278.000000
 21
131.000000
  0
LINE
  8
0
  6
CENTER
 62
2
 10
-272.000000
 20
136.500000
 11
-272.000000
 21
126.500000
  0
LINE
  8
0
  6
CENTER
 62
2
 10
-277.000000
 20
131.500000
 11
-267.000000
 21
131.500000
  0
LINE
  8
0
  6
CENTER
 62
2
 10
-272.000000
 20
159.500000
 11
-272.000000
 21
149.500000
  0
LINE
  8
0
  6
CENTER
 62
2
 10
-277.000000
 20
154.500000
 11
-267.000000
 21
154.500000
  0
LINE
  8
0
  6
CENTER
 62
2
 10
-281.000000
 20
158.000000
 11
-281.000000
 21
152.000000
  0
LINE
  8
0
  6
CENTER
 62
2
 10
-284.000000
 20
155.000000
 11
-278.000000
 21
155.000000
  0
LINE
  8
0
  6
CENTER
 62
2
 10
-272.000000
 20
146.000000
 11
-272.000000
 21
140.000000
  0
LINE
  8
0
  6
CENTER
 62
2
 10
-236.000000
 20
87.500000
 11
-236.000000
 21
80.500000
  0
LINE
  8
0
  6
CENTER
 62
2
 10
-239.500000
 20
84.000000
 11
-232.500000
 21
84.000000
  0
LINE
  8
0
  6
CENTER
 62
2
 10
-219.000000
 20
86.500000
 11
-219.000000
 21
81.500000
  0
LINE
  8
0
  6
CENTER
 62
2
 10
-221.500000
 20
84.000000
 11
-216.500000
 21
84.000000
  0
LINE
  8
0
  6
CENTER
 62
2
 10
-199.000000
 20
86.500000
 11
-199.000000
 21
81.500000
  0
LINE
  8
0
  6
CENTER
 62
2
 10
-201.500000
 20
84.000000
 11
-196.500000
 21
84.000000
  0
LINE
  8
0
  6
CENTER
 62
2
 10
-182.000000
 20
87.500000
 11
-182.000000
 21
80.500000
  0
LINE
  8
0
  6
CENTER
 62
2
 10
-185.500000
 20
84.000000
 11
-178.500000
 21
84.000000
  0
LINE
  8
0
  6
CENTER
 62
2
 10
-188.300003
 20
98.500000
 11
-188.300003
 21
93.500000
  0
LINE
  8
0
  6
CENTER
 62
2
 10
-190.800003
 20
96.000000
 11
-185.800003
 21
96.000000
  0
LINE
  8
0
  6
CENTER
 62
2
 10
-185.199997
 20
98.300003
 11
-185.199997
 21
94.300003
  0
LINE
  8
0
  6
CENTER
 62
2
 10
-187.199997
 20
96.300003
 11
-183.199997
 21
96.300003
  0
LINE
  8
0
  6
CENTER
 62
2
 10
-181.800003
 20
98.500000
 11
-181.800003
 21
93.500000
  0
LINE
  8
0
  6
CENTER
 62
2
 10
-184.300003
 20
96.000000
 11
-179.300003
 21
96.000000
  0
LINE
  8
0
  6
CENTER
 62
2
 10
-195.199997
 20
98.300003
 11
-195.199997
 21
94.300003
  0
LINE
  8
0
  6
CENTER
 62
2
 10
-197.199997
 20
96.300003
 11
-193.199997
 21
96.300003
  0
LINE
  8
0
  6
CENTER
 62
2
 10
-227.000000
 20
51.700001
 11
-227.000000
 21
45.299999
  0
LINE
  8
0
  6
CENTER
 62
2
 10
-230.199997
 20
48.500000
 11
-223.800003
 21
48.500000
  0
LINE
  8
0
  6
CENTER
 62
2
 10
-227.000000
 20
27.700001
 11
-227.000000
 21
21.299999
  0
LINE
  8
0
  6
CENTER
 62
2
 10
-230.199997
 20
24.500000
 11
-223.800003
 21
24.500000
  0
LINE
  8
0
  6
CENTER
 62
2
 10
-211.000000
 20
52.000000
 11
-211.000000
 21
45.000000
  0
LINE
  8
0
  6
CENTER
 62
2
 10
-214.500000
 20
48.500000
 11
-207.500000
 21
48.500000
  0
LINE
  8
0
  6
CENTER
 62
2
 10
-191.000000
 20
52.000000
 11
-191.000000
 21
45.000000
  0
LINE
  8
0
  6
CENTER
 62
2
 10
-194.500000
 20
48.500000
 11
-187.500000
 21
48.500000
  0
LINE
  8
0
  6
CENTER
 62
2
 10
-191.000000
 20
28.000000
 11
-191.000000
 21
21.000000
  0
LINE
  8
0
  6
CENTER
 62
2
 10
-194.500000
 20
24.500000
 11
-187.500000
 21
24.500000
  0
LINE
  8
0
  6
CENTER
 62
2
 10
-211.000000
 20
28.000000
 11
-211.000000
 21
21.000000
  0
LINE
  8
0
  6
CENTER
 62
2
 10
-214.500000
 20
24.500000
 11
-207.500000
 21
24.500000
  0
LINE
  8
0
  6
CENTER
 62
2
 10
144.000000
 20
-48.099998
 11
144.000000
 21
-57.900002
  0
LINE
  8
0
  6
CENTER
 62
2
 10
139.100006
 20
-53.000000
 11
148.800003
 21
-53.000000
  0
LINE
  8
0
  6
CENTER
 62
2
 10
-232.000000
 20
-97.000000
 11
-232.000000
 21
-102.000000
  0
LINE
  8
0
  6
CENTER
 62
2
 10
-234.500000
 20
-99.500000
 11
-229.500000
 21
-99.500000
  0
LINE
  8
0
  6
CENTER
 62
2
 10
-227.000000
 20
-95.000000
 11
-227.000000
 21
-105.000000
  0
LINE
  8
0
  6
CENTER
 62
2
 10
-232.000000
 20
-100.000000
 11
-222.000000
 21
-100.000000
  0
LINE
  8
0
  6
CENTER
 62
2
 10
-232.000000
 20
-122.000000
 11
-232.000000
 21
-127.000000
  0
LINE
  8
0
  6
CENTER
 62
2
 10
-234.500000
 20
-124.500000
 11
-229.500000
 21
-124.500000
  0
LINE
  8
0
  6
CENTER
 62
2
 10
-227.000000
 20
-119.000000
 11
-227.000000
 21
-129.000000
  0
LINE
  8
0
  6
CENTER
 62
2
 10
-232.000000
 20
-124.000000
 11
-222.000000
 21
-124.000000
  0
LINE
  8
0
  6
CENTER
 62
2
 10
-207.000000
 20
-97.000000
 11
-207.000000
 21
-102.000000
  0
LINE
  8
0
  6
CENTER
 62
2
 10
-209.500000
 20
-99.500000
 11
-204.500000
 21
-99.500000
  0
LINE
  8
0
  6
CENTER
 62
2
 10
-207.000000
 20
-122.000000
 11
-207.000000
 21
-127.000000
  0
LINE
  8
0
  6
CENTER
 62
2
 10
-209.500000
 20
-124.500000
 11
-204.500000
 21
-124.500000
  0
LINE
  8
0
  6
CENTER
 62
2
 10
-199.000000
 20
-121.500000
 11
-199.000000
 21
-127.500000
  0
LINE
  8
0
  6
CENTER
 62
2
 10
-202.000000
 20
-124.500000
 11
-196.000000
 21
-124.500000
  0
LINE
  8
0
  6
CENTER
 62
2
 10
-199.000000
 20
-96.500000
 11
-199.000000
 21
-102.500000
  0
LINE
  8
0
  6
CENTER
 62
2
 10
-202.000000
 20
-99.500000
 11
-196.000000
 21
-99.500000
  0
LINE
  8
0
  6
CENTER
 62
2
 10
-182.000000
 20
-97.000000
 11
-182.000000
 21
-102.000000
  0
LINE
  8
0
  6
CENTER
 62
2
 10
-184.500000
 20
-99.500000
 11
-179.500000
 21
-99.500000
  0
LINE
  8
0
  6
CENTER
 62
2
 10
-181.000000
 20
-95.000000
 11
-181.000000
 21
-105.000000
  0
LINE
  8
0
  6
CENTER
 62
2
 10
-186.000000
 20
-100.000000
 11
-176.000000
 21
-100.000000
  0
LINE
  8
0
  6
CENTER
 62
2
 10
-181.000000
 20
-119.000000
 11
-181.000000
 21
-129.000000
  0
LINE
  8
0
  6
CENTER
 62
2
 10
-186.000000
 20
-124.000000
 11
-176.000000
 21
-124.000000
  0
LINE
  8
0
  6
CENTER
 62
2
 10
-182.000000
 20
-122.000000
 11
-182.000000
 21
-127.000000
  0
LINE
  8
0
  6
CENTER
 62
2
 10
-184.500000
 20
-124.500000
 11
-179.500000
 21
-124.500000
  0
LINE
  8
0
  6
CENTER
 62
2
 10
-236.000000
 20
-167.500000
 11
-236.000000
 21
-174.500000
  0
LINE
  8
0
  6
CENTER
 62
2
 10
-239.500000
 20
-171.000000
 11
-232.500000
 21
-171.000000
  0
LINE
  8
0
  6
CENTER
 62
2
 10
-219.000000
 20
-168.500000
 11
-219.000000
 21
-173.500000
  0
LINE
  8
0
  6
CENTER
 62
2
 10
-221.500000
 20
-171.000000
 11
-216.500000
 21
-171.000000
  0
LINE
  8
0
  6
CENTER
 62
2
 10
-189.000000
 20
-168.500000
 11
-189.000000
 21
-173.500000
  0
LINE
  8
0
  6
CENTER
 62
2
 10
-191.500000
 20
-171.000000
 11
-186.500000
 21
-171.000000
  0
LINE
  8
0
  6
CENTER
 62
2
 10
-172.000000
 20
-167.500000
 11
-172.000000
 21
-174.500000
  0
LINE
  8
0
  6
CENTER
 62
2
 10
-175.500000
 20
-171.000000
 11
-168.500000
 21
-171.000000
  0
LINE
  8
0
  6
CENTER
 62
2
 10
-171.800003
 20
-156.500000
 11
-171.800003
 21
-161.500000
  0
LINE
  8
0
  6
CENTER
 62
2
 10
-174.300003
 20
-159.000000
 11
-169.300003
 21
-159.000000
  0
LINE
  8
0
  6
CENTER
 62
2
 10
-175.199997
 20
-156.699997
 11
-175.199997
 21
-160.699997
  0
LINE
  8
0
  6
CENTER
 62
2
 10
-177.199997
 20
-158.699997
 11
-173.199997
 21
-158.699997
  0
LINE
  8
0
  6
CENTER
 62
2
 10
-178.300003
 20
-156.500000
 11
-178.300003
 21
-161.500000
  0
LINE
  8
0
  6
CENTER
 62
2
 10
-180.800003
 20
-159.000000
 11
-175.800003
 21
-159.000000
  0
LINE
  8
0
  6
CENTER
 62
2
 10
-185.199997
 20
-156.699997
 11
-185.199997
 21
-160.699997
  0
LINE
  8
0
  6
CENTER
 62
2
 10
-187.199997
 20
-158.699997
 11
-183.199997
 21
-158.699997
  0
LINE
  8
0
  6
CENTER
 62
2
 10
-227.000000
 20
-203.300003
 11
-227.000000
 21
-209.699997
  0
LINE
  8
0
  6
CENTER
 62
2
 10
-230.199997
 20
-206.500000
 11
-223.800003
 21
-206.500000
  0
LINE
  8
0
  6
CENTER
 62
2
 10
-227.000000
 20
-227.300003
 11
-227.000000
 21
-233.699997
  0
LINE
  8
0
  6
CENTER
 62
2
 10
-230.199997
 20
-230.500000
 11
-223.800003
 21
-230.500000
  0
LINE
  8
0
  6
CENTER
 62
2
 10
-211.000000
 20
-226.500000
 11
-211.000000
 21
-234.500000
  0
LINE
  8
0
  6
CENTER
 62
2
 10
-215.000000
 20
-230.500000
 11
-207.000000
 21
-230.500000
  0
LINE
  8
0
  6
CENTER
 62
2
 10
-211.000000
 20
-202.500000
 11
-211.000000
 21
-210.500000
  0
LINE
  8
0
  6
CENTER
 62
2
 10
-215.000000
 20
-206.500000
 11
-207.000000
 21
-206.500000
  0
LINE
  8
0
  6
CENTER
 62
2
 10
-181.000000
 20
-203.000000
 11
-181.000000
 21
-210.000000
  0
LINE
  8
0
  6
CENTER
 62
2
 10
-184.500000
 20
-206.500000
 11
-177.500000
 21
-206.500000
  0
LINE
  8
0
  6
CENTER
 62
2
 10
-181.000000
 20
-227.000000
 11
-181.000000
 21
-234.000000
  0
LINE
  8
0
  6
CENTER
 62
2
 10
-184.500000
 20
-230.500000
 11
-177.500000
 21
-230.500000
  0
LINE
  8
0
  6
CENTER
 62
2
 10
148.000000
 20
158.000000
 11
148.000000
 21
153.000000
  0
LINE
  8
0
  6
CENTER
 62
2
 10
145.500000
 20
155.500000
 11
150.500000
 21
155.500000
  0
LINE
  8
0
  6
CENTER
 62
2
 10
148.000000
 20
133.000000
 11
148.000000
 21
128.000000
  0
LINE
  8
0
  6
CENTER
 62
2
 10
145.500000
 20
130.500000
 11
150.500000
 21
130.500000
  0
LINE
  8
0
  6
CENTER
 62
2
 10
153.000000
 20
136.000000
 11
153.000000
 21
126.000000
  0
LINE
  8
0
  6
CENTER
 62
2
 10
148.000000
 20
131.000000
 11
158.000000
 21
131.000000
  0
LINE
  8
0
  6
CENTER
 62
2
 10
153.000000
 20
160.000000
 11
153.000000
 21
150.000000
  0
LINE
  8
0
  6
CENTER
 62
2
 10
148.000000
 20
155.000000
 11
158.000000
 21
155.000000
  0
LINE
  8
0
  6
CENTER
 62
2
 10
173.000000
 20
158.000000
 11
173.000000
 21
153.000000
  0
LINE
  8
0
  6
CENTER
 62
2
 10
170.500000
 20
155.500000
 11
175.500000
 21
155.500000
  0
LINE
  8
0
  6
CENTER
 62
2
 10
181.000000
 20
158.500000
 11
181.000000
 21
152.500000
  0
LINE
  8
0
  6
CENTER
 62
2
 10
178.000000
 20
155.500000
 11
184.000000
 21
155.500000
  0
LINE
  8
0
  6
CENTER
 62
2
 10
173.000000
 20
133.000000
 11
173.000000
 21
128.000000
  0
LINE
  8
0
  6
CENTER
 62
2
 10
170.500000
 20
130.500000
 11
175.500000
 21
130.500000
  0
LINE
  8
0
  6
CENTER
 62
2
 10
181.000000
 20
133.500000
 11
181.000000
 21
127.500000
  0
LINE
  8
0
  6
CENTER
 62
2
 10
178.000000
 20
130.500000
 11
184.000000
 21
130.500000
  0
LINE
  8
0
  6
CENTER
 62
2
 10
188.000000
 20
133.000000
 11
188.000000
 21
128.000000
  0
LINE
  8
0
  6
CENTER
 62
2
 10
185.500000
 20
130.500000
 11
190.500000
 21
130.500000
  0
LINE
  8
0
  6
CENTER
 62
2
 10
188.000000
 20
158.000000
 11
188.000000
 21
153.000000
  0
LINE
  8
0
  6
CENTER
 62
2
 10
185.500000
 20
155.500000
 11
190.500000
 21
155.500000
  0
LINE
  8
0
  6
CENTER
 62
2
 10
214.000000
 20
160.000000
 11
214.000000
 21
150.000000
  0
LINE
  8
0
  6
CENTER
 62
2
 10
209.000000
 20
155.000000
 11
219.000000
 21
155.000000
  0
LINE
  8
0
  6
CENTER
 62
2
 10
213.000000
 20
158.000000
 11
213.000000
 21
153.000000
  0
LINE
  8
0
  6
CENTER
 62
2
 10
210.500000
 20
155.500000
 11
215.500000
 21
155.500000
  0
LINE
  8
0
  6
CENTER
 62
2
 10
213.000000
 20
133.000000
 11
213.000000
 21
128.000000
  0
LINE
  8
0
  6
CENTER
 62
2
 10
210.500000
 20
130.500000
 11
215.500000
 21
130.500000
  0
LINE
  8
0
  6
CENTER
 62
2
 10
214.000000
 20
136.000000
 11
214.000000
 21
126.000000
  0
LINE
  8
0
  6
CENTER
 62
2
 10
209.000000
 20
131.000000
 11
219.000000
 21
131.000000
  0
LINE
  8
0
  6
CENTER
 62
2
 10
99.000000
 20
158.000000
 11
99.000000
 21
152.000000
  0
LINE
  8
0
  6
CENTER
 62
2
 10
96.000000
 20
155.000000
 11
102.000000
 21
155.000000
  0
LINE
  8
0
  6
CENTER
 62
2
 10
99.000000
 20
134.000000
 11
99.000000
 21
128.000000
  0
LINE
  8
0
  6
CENTER
 62
2
 10
96.000000
 20
131.000000
 11
102.000000
 21
131.000000
  0
LINE
  8
0
  6
CENTER
 62
2
 10
108.000000
 20
136.500000
 11
108.000000
 21
126.500000
  0
LINE
  8
0
  6
CENTER
 62
2
 10
103.000000
 20
131.500000
 11
113.000000
 21
131.500000
  0
LINE
  8
0
  6
CENTER
 62
2
 10
108.000000
 20
159.500000
 11
108.000000
 21
149.500000
  0
LINE
  8
0
  6
CENTER
 62
2
 10
103.000000
 20
154.500000
 11
113.000000
 21
154.500000
  0
LINE
  8
0
  6
CENTER
 62
2
 10
144.000000
 20
87.500000
 11
144.000000
 21
80.500000
  0
LINE
  8
0
  6
CENTER
 62
2
 10
140.500000
 20
84.000000
 11
147.500000
 21
84.000000
  0
LINE
  8
0
  6
CENTER
 62
2
 10
161.000000
 20
86.500000
 11
161.000000
 21
81.500000
  0
LINE
  8
0
  6
CENTER
 62
2
 10
158.500000
 20
84.000000
 11
163.500000
 21
84.000000
  0
LINE
  8
0
  6
CENTER
 62
2
 10
209.800003
 20
98.300003
 11
209.800003
 21
94.300003
  0
LINE
  8
0
  6
CENTER
 62
2
 10
207.800003
 20
96.300003
 11
211.800003
 21
96.300003
  0
LINE
  8
0
  6
CENTER
 62
2
 10
216.699997
 20
98.500000
 11
216.699997
 21
93.500000
  0
LINE
  8
0
  6
CENTER
 62
2
 10
214.199997
 20
96.000000
 11
219.199997
 21
96.000000
  0
LINE
  8
0
  6
CENTER
 62
2
 10
219.800003
 20
98.300003
 11
219.800003
 21
94.300003
  0
LINE
  8
0
  6
CENTER
 62
2
 10
217.800003
 20
96.300003
 11
221.800003
 21
96.300003
  0
LINE
  8
0
  6
CENTER
 62
2
 10
223.199997
 20
98.500000
 11
223.199997
 21
93.500000
  0
LINE
  8
0
  6
CENTER
 62
2
 10
220.699997
 20
96.000000
 11
225.699997
 21
96.000000
  0
LINE
  8
0
  6
CENTER
 62
2
 10
206.000000
 20
86.500000
 11
206.000000
 21
81.500000
  0
LINE
  8
0
  6
CENTER
 62
2
 10
203.500000
 20
84.000000
 11
208.500000
 21
84.000000
  0
LINE
  8
0
  6
CENTER
 62
2
 10
223.000000
 20
87.500000
 11
223.000000
 21
80.500000
  0
LINE
  8
0
  6
CENTER
 62
2
 10
219.500000
 20
84.000000
 11
226.500000
 21
84.000000
  0
LINE
  8
0
  6
CENTER
 62
2
 10
153.000000
 20
27.700001
 11
153.000000
 21
21.299999
  0
LINE
  8
0
  6
CENTER
 62
2
 10
149.800003
 20
24.500000
 11
156.199997
 21
24.500000
  0
LINE
  8
0
  6
CENTER
 62
2
 10
153.000000
 20
51.700001
 11
153.000000
 21
45.299999
  0
LINE
  8
0
  6
CENTER
 62
2
 10
149.800003
 20
48.500000
 11
156.199997
 21
48.500000
  0
LINE
  8
0
  6
CENTER
 62
2
 10
169.000000
 20
52.000000
 11
169.000000
 21
45.000000
  0
LINE
  8
0
  6
CENTER
 62
2
 10
165.500000
 20
48.500000
 11
172.500000
 21
48.500000
  0
LINE
  8
0
  6
CENTER
 62
2
 10
169.000000
 20
28.000000
 11
169.000000
 21
21.000000
  0
LINE
  8
0
  6
CENTER
 62
2
 10
165.500000
 20
24.500000
 11
172.500000
 21
24.500000
  0
LINE
  8
0
  6
CENTER
 62
2
 10
214.000000
 20
28.000000
 11
214.000000
 21
21.000000
  0
LINE
  8
0
  6
CENTER
 62
2
 10
210.500000
 20
24.500000
 11
217.500000
 21
24.500000
  0
LINE
  8
0
  6
CENTER
 62
2
 10
214.000000
 20
52.000000
 11
214.000000
 21
45.000000
  0
LINE
  8
0
  6
CENTER
 62
2
 10
210.500000
 20
48.500000
 11
217.500000
 21
48.500000
  0
LINE
  8
0
  6
CENTER
 62
2
 10
153.000000
 20
-95.000000
 11
153.000000
 21
-105.000000
  0
LINE
  8
0
  6
CENTER
 62
2
 10
148.000000
 20
-100.000000
 11
158.000000
 21
-100.000000
  0
LINE
  8
0
  6
CENTER
 62
2
 10
148.000000
 20
-97.000000
 11
148.000000
 21
-102.000000
  0
LINE
  8
0
  6
CENTER
 62
2
 10
145.500000
 20
-99.500000
 11
150.500000
 21
-99.500000
  0
LINE
  8
0
  6
CENTER
 62
2
 10
148.000000
 20
-122.000000
 11
148.000000
 21
-127.000000
  0
LINE
  8
0
  6
CENTER
 62
2
 10
145.500000
 20
-124.500000
 11
150.500000
 21
-124.500000
  0
LINE
  8
0
  6
CENTER
 62
2
 10
153.000000
 20
-119.000000
 11
153.000000
 21
-129.000000
  0
LINE
  8
0
  6
CENTER
 62
2
 10
148.000000
 20
-124.000000
 11
158.000000
 21
-124.000000
  0
LINE
  8
0
  6
CENTER
 62
2
 10
173.000000
 20
-122.000000
 11
173.000000
 21
-127.000000
  0
LINE
  8
0
  6
CENTER
 62
2
 10
170.500000
 20
-124.500000
 11
175.500000
 21
-124.500000
  0
LINE
  8
0
  6
CENTER
 62
2
 10
181.000000
 20
-121.500000
 11
181.000000
 21
-127.500000
  0
LINE
  8
0
  6
CENTER
 62
2
 10
178.000000
 20
-124.500000
 11
184.000000
 21
-124.500000
  0
LINE
  8
0
  6
CENTER
 62
2
 10
181.000000
 20
-96.500000
 11
181.000000
 21
-102.500000
  0
LINE
  8
0
  6
CENTER
 62
2
 10
178.000000
 20
-99.500000
 11
184.000000
 21
-99.500000
  0
LINE
  8
0
  6
CENTER
 62
2
 10
173.000000
 20
-97.000000
 11
173.000000
 21
-102.000000
  0
LINE
  8
0
  6
CENTER
 62
2
 10
170.500000
 20
-99.500000
 11
175.500000
 21
-99.500000
  0
LINE
  8
0
  6
CENTER
 62
2
 10
229.000000
 20
-95.000000
 11
229.000000
 21
-105.000000
  0
LINE
  8
0
  6
CENTER
 62
2
 10
224.000000
 20
-100.000000
 11
234.000000
 21
-100.000000
  0
LINE
  8
0
  6
CENTER
 62
2
 10
228.000000
 20
-97.000000
 11
228.000000
 21
-102.000000
  0
LINE
  8
0
  6
CENTER
 62
2
 10
225.500000
 20
-99.500000
 11
230.500000
 21
-99.500000
  0
LINE
  8
0
  6
CENTER
 62
2
 10
228.000000
 20
-122.000000
 11
228.000000
 21
-127.000000
  0
LINE
  8
0
  6
CENTER
 62
2
 10
225.500000
 20
-124.500000
 11
230.500000
 21
-124.500000
  0
LINE
  8
0
  6
CENTER
 62
2
 10
229.000000
 20
-119.000000
 11
229.000000
 21
-129.000000
  0
LINE
  8
0
  6
CENTER
 62
2
 10
224.000000
 20
-124.000000
 11
234.000000
 21
-124.000000
  0
LINE
  8
0
  6
CENTER
 62
2
 10
203.000000
 20
-122.000000
 11
203.000000
 21
-127.000000
  0
LINE
  8
0
  6
CENTER
 62
2
 10
200.500000
 20
-124.500000
 11
205.500000
 21
-124.500000
  0
LINE
  8
0
  6
CENTER
 62
2
 10
203.000000
 20
-97.000000
 11
203.000000
 21
-102.000000
  0
LINE
  8
0
  6
CENTER
 62
2
 10
200.500000
 20
-99.500000
 11
205.500000
 21
-99.500000
  0
LINE
  8
0
  6
CENTER
 62
2
 10
144.000000
 20
-167.500000
 11
144.000000
 21
-174.500000
  0
LINE
  8
0
  6
CENTER
 62
2
 10
140.500000
 20
-171.000000
 11
147.500000
 21
-171.000000
  0
LINE
  8
0
  6
CENTER
 62
2
 10
161.000000
 20
-168.500000
 11
161.000000
 21
-173.500000
  0
LINE
  8
0
  6
CENTER
 62
2
 10
158.500000
 20
-171.000000
 11
163.500000
 21
-171.000000
  0
LINE
  8
0
  6
CENTER
 62
2
 10
221.000000
 20
-168.500000
 11
221.000000
 21
-173.500000
  0
LINE
  8
0
  6
CENTER
 62
2
 10
218.500000
 20
-171.000000
 11
223.500000
 21
-171.000000
  0
LINE
  8
0
  6
CENTER
 62
2
 10
238.000000
 20
-167.500000
 11
238.000000
 21
-174.500000
  0
LINE
  8
0
  6
CENTER
 62
2
 10
234.500000
 20
-171.000000
 11
241.500000
 21
-171.000000
  0
LINE
  8
0
  6
CENTER
 62
2
 10
238.199997
 20
-156.500000
 11
238.199997
 21
-161.500000
  0
LINE
  8
0
  6
CENTER
 62
2
 10
235.699997
 20
-159.000000
 11
240.699997
 21
-159.000000
  0
LINE
  8
0
  6
CENTER
 62
2
 10
234.800003
 20
-156.699997
 11
234.800003
 21
-160.699997
  0
LINE
  8
0
  6
CENTER
 62
2
 10
232.800003
 20
-158.699997
 11
236.800003
 21
-158.699997
  0
LINE
  8
0
  6
CENTER
 62
2
 10
231.699997
 20
-156.500000
 11
231.699997
 21
-161.500000
  0
LINE
  8
0
  6
CENTER
 62
2
 10
229.199997
 20
-159.000000
 11
234.199997
 21
-159.000000
  0
LINE
  8
0
  6
CENTER
 62
2
 10
224.800003
 20
-156.699997
 11
224.800003
 21
-160.699997
  0
LINE
  8
0
  6
CENTER
 62
2
 10
222.800003
 20
-158.699997
 11
226.800003
 21
-158.699997
  0
LINE
  8
0
  6
CENTER
 62
2
 10
153.000000
 20
-203.300003
 11
153.000000
 21
-209.699997
  0
LINE
  8
0
  6
CENTER
 62
2
 10
149.800003
 20
-206.500000
 11
156.199997
 21
-206.500000
  0
LINE
  8
0
  6
CENTER
 62
2
 10
153.000000
 20
-227.300003
 11
153.000000
 21
-233.699997
  0
LINE
  8
0
  6
CENTER
 62
2
 10
149.800003
 20
-230.500000
 11
156.199997
 21
-230.500000
  0
LINE
  8
0
  6
CENTER
 62
2
 10
169.000000
 20
-202.500000
 11
169.000000
 21
-210.500000
  0
LINE
  8
0
  6
CENTER
 62
2
 10
165.000000
 20
-206.500000
 11
173.000000
 21
-206.500000
  0
LINE
  8
0
  6
CENTER
 62
2
 10
169.000000
 20
-226.500000
 11
169.000000
 21
-234.500000
  0
LINE
  8
0
  6
CENTER
 62
2
 10
165.000000
 20
-230.500000
 11
173.000000
 21
-230.500000
  0
LINE
  8
0
  6
CENTER
 62
2
 10
229.000000
 20
-227.000000
 11
229.000000
 21
-234.000000
  0
LINE
  8
0
  6
CENTER
 62
2
 10
225.500000
 20
-230.500000
 11
232.500000
 21
-230.500000
  0
LINE
  8
0
  6
CENTER
 62
2
 10
229.000000
 20
-203.000000
 11
229.000000
 21
-210.000000
  0
LINE
  8
0
  6
CENTER
 62
2
 10
225.500000
 20
-206.500000
 11
232.500000
 21
-206.500000
  0
LINE
  8
0
  6
CENTER
 62
2
 10
-243.800003
 20
164.500000
 11
-211.800003
 21
164.500000
  0
LINE
  8
0
  6
CONTINUOUS
 62
7
 10
-242.800003
 20
161.500000
 11
-228.000000
 21
161.500000
  0
LINE
  8
0
  6
CONTINUOUS
 62
7
 10
-242.800003
 20
161.500000
 11
-242.800003
 21
167.500000
  0
LINE
  8
0
  6
CONTINUOUS
 62
7
 10
-242.800003
 20
167.500000
 11
-228.000000
 21
167.500000
  0
LINE
  8
0
  6
CONTINUOUS
 62
2
 10
-242.800003
 20
162.000000
 11
-228.000000
 21
162.000000
  0
LINE
  8
0
  6
CONTINUOUS
 62
2
 10
-242.800003
 20
167.000000
 11
-228.000000
 21
167.000000
  0
LINE
  8
0
  6
CONTINUOUS
 62
7
 10
-192.800003
 20
159.000000
 11
-192.800003
 21
168.000000
  0
LINE
  8
0
  6
CONTINUOUS
 62
7
 10
-177.300003
 20
168.000000
 11
-192.800003
 21
168.000000
  0
LINE
  8
0
  6
CONTINUOUS
 62
7
 10
-177.300003
 20
159.000000
 11
-177.300003
 21
168.000000
  0
LINE
  8
0
  6
CONTINUOUS
 62
7
 10
182.000000
 20
169.500000
 11
240.000000
 21
169.500000
  0
LINE
  8
0
  6
CONTINUOUS
 62
7
 10
-223.000000
 20
159.500000
 11
-223.000000
 21
169.500000
  0
LINE
  8
0
  6
CONTINUOUS
 62
7
 10
-215.500000
 20
159.500000
 11
-215.500000
 21
169.500000
  0
LINE
  8
0
  6
CONTINUOUS
 62
7
 10
-223.000000
 20
160.500000
 11
-228.000000
 21
160.500000
  0
LINE
  8
0
  6
CONTINUOUS
 62
7
 10
-228.000000
 20
168.500000
 11
-228.000000
 21
160.500000
  0
LINE
  8
0
  6
CONTINUOUS
 62
7
 10
-223.000000
 20
168.500000
 11
-228.000000
 21
168.500000
  0
LINE
  8
0
  6
CONTINUOUS
 62
7
 10
-223.000000
 20
167.744003
 11
-228.000000
 21
167.744003
  0
LINE
  8
0
  6
CONTINUOUS
 62
7
 10
-223.000000
 20
165.255997
 11
-228.000000
 21
165.255997
  0
LINE
  8
0
  6
CONTINUOUS
 62
7
 10
-223.000000
 20
163.744003
 11
-228.000000
 21
163.744003
  0
LINE
  8
0
  6
CONTINUOUS
 62
7
 10
-223.000000
 20
161.255997
 11
-228.000000
 21
161.255997
  0
LINE
  8
0
  6
CONTINUOUS
 62
7
 10
227.699997
 20
159.500000
 11
240.000000
 21
159.500000
  0
LINE
  8
0
  6
CENTER
 62
2
 10
136.199997
 20
164.500000
 11
168.199997
 21
164.500000
  0
LINE
  8
0
  6
CONTINUOUS
 62
7
 10
137.199997
 20
161.500000
 11
152.000000
 21
161.500000
  0
LINE
  8
0
  6
CONTINUOUS
 62
7
 10
137.199997
 20
161.500000
 11
137.199997
 21
167.500000
  0
LINE
  8
0
  6
CONTINUOUS
 62
7
 10
137.199997
 20
167.500000
 11
152.000000
 21
167.500000
  0
LINE
  8
0
  6
CONTINUOUS
 62
2
 10
137.199997
 20
162.000000
 11
152.000000
 21
162.000000
  0
LINE
  8
0
  6
CONTINUOUS
 62
2
 10
137.199997
 20
167.000000
 11
152.000000
 21
167.000000
  0
LINE
  8
0
  6
CONTINUOUS
 62
7
 10
212.199997
 20
159.000000
 11
212.199997
 21
168.000000
  0
LINE
  8
0
  6
CONTINUOUS
 62
7
 10
227.699997
 20
168.000000
 11
212.199997
 21
168.000000
  0
LINE
  8
0
  6
CONTINUOUS
 62
7
 10
227.699997
 20
159.000000
 11
227.699997
 21
168.000000
  0
LINE
  8
0
  6
CONTINUOUS
 62
7
 10
157.000000
 20
169.500000
 11
210.000000
 21
169.500000
  0
LINE
  8
0
  6
CONTINUOUS
 62
7
 10
157.000000
 20
159.500000
 11
157.000000
 21
169.500000
  0
LINE
  8
0
  6
CONTINUOUS
 62
7
 10
164.500000
 20
159.500000
 11
164.500000
 21
169.500000
  0
LINE
  8
0
  6
CONTINUOUS
 62
7
 10
157.000000
 20
160.500000
 11
152.000000
 21
160.500000
  0
LINE
  8
0
  6
CONTINUOUS
 62
7
 10
152.000000
 20
168.500000
 11
152.000000
 21
160.500000
  0
LINE
  8
0
  6
CONTINUOUS
 62
7
 10
157.000000
 20
168.500000
 11
152.000000
 21
168.500000
  0
LINE
  8
0
  6
CONTINUOUS
 62
7
 10
157.000000
 20
167.744003
 11
152.000000
 21
167.744003
  0
LINE
  8
0
  6
CONTINUOUS
 62
7
 10
157.000000
 20
165.255997
 11
152.000000
 21
165.255997
  0
LINE
  8
0
  6
CONTINUOUS
 62
7
 10
157.000000
 20
163.744003
 11
152.000000
 21
163.744003
  0
LINE
  8
0
  6
CONTINUOUS
 62
7
 10
157.000000
 20
161.255997
 11
152.000000
 21
161.255997
  0
LINE
  8
0
  6
CENTER
 62
2
 10
-243.800003
 20
-90.500000
 11
-211.800003
 21
-90.500000
  0
LINE
  8
0
  6
CONTINUOUS
 62
7
 10
-242.800003
 20
-93.500000
 11
-228.000000
 21
-93.500000
  0
LINE
  8
0
  6
CONTINUOUS
 62
7
 10
-242.800003
 20
-93.500000
 11
-242.800003
 21
-87.500000
  0
LINE
  8
0
  6
CONTINUOUS
 62
7
 10
-242.800003
 20
-87.500000
 11
-228.000000
 21
-87.500000
  0
LINE
  8
0
  6
CONTINUOUS
 62
2
 10
-242.800003
 20
-93.000000
 11
-228.000000
 21
-93.000000
  0
LINE
  8
0
  6
CONTINUOUS
 62
2
 10
-242.800003
 20
-88.000000
 11
-228.000000
 21
-88.000000
  0
LINE
  8
0
  6
CONTINUOUS
 62
7
 10
-182.800003
 20
-96.000000
 11
-182.800003
 21
-87.000000
  0
LINE
  8
0
  6
CONTINUOUS
 62
7
 10
-167.300003
 20
-87.000000
 11
-182.800003
 21
-87.000000
  0
LINE
  8
0
  6
CONTINUOUS
 62
7
 10
-167.300003
 20
-96.000000
 11
-167.300003
 21
-87.000000
  0
LINE
  8
0
  6
CONTINUOUS
 62
7
 10
-223.000000
 20
-85.500000
 11
-155.000000
 21
-85.500000
  0
LINE
  8
0
  6
CONTINUOUS
 62
7
 10
-223.000000
 20
-95.500000
 11
-223.000000
 21
-85.500000
  0
LINE
  8
0
  6
CONTINUOUS
 62
7
 10
-215.500000
 20
-95.500000
 11
-215.500000
 21
-85.500000
  0
LINE
  8
0
  6
CONTINUOUS
 62
7
 10
-223.000000
 20
-94.500000
 11
-228.000000
 21
-94.500000
  0
LINE
  8
0
  6
CONTINUOUS
 62
7
 10
-228.000000
 20
-86.500000
 11
-228.000000
 21
-94.500000
  0
LINE
  8
0
  6
CONTINUOUS
 62
7
 10
-223.000000
 20
-86.500000
 11
-228.000000
 21
-86.500000
  0
LINE
  8
0
  6
CONTINUOUS
 62
7
 10
-223.000000
 20
-87.256203
 11
-228.000000
 21
-87.256203
  0
LINE
  8
0
  6
CONTINUOUS
 62
7
 10
-223.000000
 20
-89.743698
 11
-228.000000
 21
-89.743698
  0
LINE
  8
0
  6
CONTINUOUS
 62
7
 10
-223.000000
 20
-91.256203
 11
-228.000000
 21
-91.256203
  0
LINE
  8
0
  6
CONTINUOUS
 62
7
 10
-223.000000
 20
-93.743698
 11
-228.000000
 21
-93.743698
  0
LINE
  8
0
  6
CONTINUOUS
 62
7
 10
-167.300003
 20
-95.500000
 11
-155.000000
 21
-95.500000
  0
LINE
  8
0
  6
CENTER
 62
2
 10
136.199997
 20
-90.500000
 11
168.199997
 21
-90.500000
  0
LINE
  8
0
  6
CONTINUOUS
 62
7
 10
137.199997
 20
-93.500000
 11
152.000000
 21
-93.500000
  0
LINE
  8
0
  6
CONTINUOUS
 62
7
 10
137.199997
 20
-93.500000
 11
137.199997
 21
-87.500000
  0
LINE
  8
0
  6
CONTINUOUS
 62
7
 10
137.199997
 20
-87.500000
 11
152.000000
 21
-87.500000
  0
LINE
  8
0
  6
CONTINUOUS
 62
2
 10
137.199997
 20
-93.000000
 11
152.000000
 21
-93.000000
  0
LINE
  8
0
  6
CONTINUOUS
 62
2
 10
137.199997
 20
-88.000000
 11
152.000000
 21
-88.000000
  0
LINE
  8
0
  6
CONTINUOUS
 62
7
 10
227.199997
 20
-96.000000
 11
227.199997
 21
-87.000000
  0
LINE
  8
0
  6
CONTINUOUS
 62
7
 10
242.699997
 20
-87.000000
 11
227.199997
 21
-87.000000
  0
LINE
  8
0
  6
CONTINUOUS
 62
7
 10
242.699997
 20
-96.000000
 11
242.699997
 21
-87.000000
  0
LINE
  8
0
  6
CONTINUOUS
 62
7
 10
157.000000
 20
-85.500000
 11
255.000000
 21
-85.500000
  0
LINE
  8
0
  6
CONTINUOUS
 62
7
 10
157.000000
 20
-95.500000
 11
157.000000
 21
-85.500000
  0
LINE
  8
0
  6
CONTINUOUS
 62
7
 10
164.500000
 20
-95.500000
 11
164.500000
 21
-85.500000
  0
LINE
  8
0
  6
CONTINUOUS
 62
7
 10
157.000000
 20
-94.500000
 11
152.000000
 21
-94.500000
  0
LINE
  8
0
  6
CONTINUOUS
 62
7
 10
152.000000
 20
-86.500000
 11
152.000000
 21
-94.500000
  0
LINE
  8
0
  6
CONTINUOUS
 62
7
 10
157.000000
 20
-86.500000
 11
152.000000
 21
-86.500000
  0
LINE
  8
0
  6
CONTINUOUS
 62
7
 10
157.000000
 20
-87.256203
 11
152.000000
 21
-87.256203
  0
LINE
  8
0
  6
CONTINUOUS
 62
7
 10
157.000000
 20
-89.743698
 11
152.000000
 21
-89.743698
  0
LINE
  8
0
  6
CONTINUOUS
 62
7
 10
157.000000
 20
-91.256203
 11
152.000000
 21
-91.256203
  0
LINE
  8
0
  6
CONTINUOUS
 62
7
 10
157.000000
 20
-93.743698
 11
152.000000
 21
-93.743698
  0
LINE
  8
0
  6
CONTINUOUS
 62
7
 10
242.699997
 20
-95.500000
 11
255.000000
 21
-95.500000
  0
LINE
  8
0
  6
CONTINUOUS
 62
7
 10
-267.500000
 20
169.500000
 11
-288.500000
 21
169.500000
  0
LINE
  8
0
  6
CONTINUOUS
 62
7
 10
-271.563995
 20
168.500000
 11
-274.436005
 21
168.500000
  0
LINE
  8
0
  6
CONTINUOUS
 62
7
 10
-270.253998
 20
167.744003
 11
-268.817993
 21
165.255997
  0
LINE
  8
0
  6
CONTINUOUS
 62
7
 10
-268.817993
 20
163.744003
 11
-270.253998
 21
161.255997
  0
LINE
  8
0
  6
CONTINUOUS
 62
7
 10
-274.436005
 20
160.500000
 11
-271.563995
 21
160.500000
  0
LINE
  8
0
  6
CONTINUOUS
 62
7
 10
-277.182007
 20
163.744003
 11
-275.746002
 21
161.255997
  0
LINE
  8
0
  6
CONTINUOUS
 62
7
 10
-275.746002
 20
167.744003
 11
-277.182007
 21
165.255997
  0
LINE
  8
0
  6
CENTER
 62
2
 10
-267.750000
 20
164.500000
 11
-278.250000
 21
164.500000
  0
LINE
  8
0
  6
CENTER
 62
2
 10
-273.000000
 20
159.250000
 11
-273.000000
 21
169.750000
  0
LINE
  8
0
  6
CONTINUOUS
 62
7
 10
-272.134003
 20
166.000000
 11
-271.268005
 21
164.500000
  0
LINE
  8
0
  6
CONTINUOUS
 62
7
 10
-271.268005
 20
164.500000
 11
-272.134003
 21
163.000000
  0
LINE
  8
0
  6
CONTINUOUS
 62
7
 10
-273.865997
 20
163.000000
 11
-272.134003
 21
163.000000
  0
LINE
  8
0
  6
CONTINUOUS
 62
7
 10
-274.731995
 20
164.500000
 11
-273.865997
 21
163.000000
  0
LINE
  8
0
  6
CONTINUOUS
 62
7
 10
-273.865997
 20
166.000000
 11
-274.731995
 21
164.500000
  0
LINE
  8
0
  6
CONTINUOUS
 62
7
 10
-272.134003
 20
166.000000
 11
-273.865997
 21
166.000000
  0
LINE
  8
0
  6
CONTINUOUS
 62
7
 10
-267.500000
 20
159.500000
 11
-267.500000
 21
169.500000
  0
LINE
  8
0
  6
CONTINUOUS
 62
7
 10
-288.500000
 20
159.500000
 11
-288.500000
 21
169.500000
  0
LINE
  8
0
  6
CONTINUOUS
 62
7
 10
112.500000
 20
169.500000
 11
91.500000
 21
169.500000
  0
LINE
  8
0
  6
CONTINUOUS
 62
7
 10
108.435997
 20
168.500000
 11
105.564003
 21
168.500000
  0
LINE
  8
0
  6
CONTINUOUS
 62
7
 10
109.746002
 20
167.744003
 11
111.181999
 21
165.255997
  0
LINE
  8
0
  6
CONTINUOUS
 62
7
 10
111.181999
 20
163.744003
 11
109.746002
 21
161.255997
  0
LINE
  8
0
  6
CONTINUOUS
 62
7
 10
105.564003
 20
160.500000
 11
108.435997
 21
160.500000
  0
LINE
  8
0
  6
CONTINUOUS
 62
7
 10
102.818001
 20
163.744003
 11
104.253998
 21
161.255997
  0
LINE
  8
0
  6
CONTINUOUS
 62
7
 10
104.253998
 20
167.744003
 11
102.818001
 21
165.255997
  0
LINE
  8
0
  6
CENTER
 62
2
 10
112.250000
 20
164.500000
 11
101.750000
 21
164.500000
  0
LINE
  8
0
  6
CENTER
 62
2
 10
107.000000
 20
159.250000
 11
107.000000
 21
169.750000
  0
LINE
  8
0
  6
CONTINUOUS
 62
7
 10
107.865997
 20
166.000000
 11
108.732002
 21
164.500000
  0
LINE
  8
0
  6
CONTINUOUS
 62
7
 10
108.732002
 20
164.500000
 11
107.865997
 21
163.000000
  0
LINE
  8
0
  6
CONTINUOUS
 62
7
 10
106.134003
 20
163.000000
 11
107.865997
 21
163.000000
  0
LINE
  8
0
  6
CONTINUOUS
 62
7
 10
105.267998
 20
164.500000
 11
106.134003
 21
163.000000
  0
LINE
  8
0
  6
CONTINUOUS
 62
7
 10
106.134003
 20
166.000000
 11
105.267998
 21
164.500000
  0
LINE
  8
0
  6
CONTINUOUS
 62
7
 10
107.865997
 20
166.000000
 11
106.134003
 21
166.000000
  0
LINE
  8
0
  6
CONTINUOUS
 62
7
 10
112.500000
 20
159.500000
 11
112.500000
 21
169.500000
  0
LINE
  8
0
  6
CONTINUOUS
 62
7
 10
91.500000
 20
159.500000
 11
91.500000
 21
169.500000
  0
LINE
  8
0
  6
CONTINUOUS
 62
7
 10
157.000000
 20
186.000000
 11
157.000000
 21
207.000000
  0
LINE
  8
0
  6
CENTER
 62
2
 10
136.199997
 20
191.500000
 11
168.199997
 21
191.500000
  0
LINE
  8
0
  6
CONTINUOUS
 62
7
 10
152.000000
 20
187.250000
 11
157.000000
 21
187.250000
  0
LINE
  8
0
  6
CONTINUOUS
 62
7
 10
152.000000
 20
187.250000
 11
152.000000
 21
195.750000
  0
LINE
  8
0
  6
CONTINUOUS
 62
7
 10
152.000000
 20
195.750000
 11
157.000000
 21
195.750000
  0
LINE
  8
0
  6
CONTINUOUS
 62
7
 10
152.000000
 20
194.246002
 11
157.000000
 21
194.246002
  0
LINE
  8
0
  6
CONTINUOUS
 62
7
 10
152.000000
 20
192.936005
 11
157.000000
 21
192.936005
  0
LINE
  8
0
  6
CONTINUOUS
 62
7
 10
152.000000
 20
190.063995
 11
157.000000
 21
190.063995
  0
LINE
  8
0
  6
CONTINUOUS
 62
7
 10
152.000000
 20
188.753998
 11
157.000000
 21
188.753998
  0
LINE
  8
0
  6
CONTINUOUS
 62
7
 10
137.199997
 20
188.500000
 11
152.000000
 21
188.500000
  0
LINE
  8
0
  6
CONTINUOUS
 62
7
 10
137.199997
 20
188.500000
 11
137.199997
 21
194.500000
  0
LINE
  8
0
  6
CONTINUOUS
 62
7
 10
137.199997
 20
194.500000
 11
152.000000
 21
194.500000
  0
LINE
  8
0
  6
CONTINUOUS
 62
2
 10
137.199997
 20
189.000000
 11
152.000000
 21
189.000000
  0
LINE
  8
0
  6
CONTINUOUS
 62
2
 10
137.199997
 20
194.000000
 11
152.000000
 21
194.000000
  0
LINE
  8
0
  6
CONTINUOUS
 62
7
 10
164.500000
 20
186.000000
 11
164.500000
 21
193.500000
  0
LINE
  8
0
  6
CONTINUOUS
 62
7
 10
136.000000
 20
193.029007
 11
137.199997
 21
193.029007
  0
LINE
  8
0
  6
CONTINUOUS
 62
7
 10
136.000000
 20
191.970993
 11
137.199997
 21
191.970993
  0
LINE
  8
0
  6
CONTINUOUS
 62
7
 10
212.199997
 20
187.500000
 11
212.199997
 21
195.500000
  0
LINE
  8
0
  6
CONTINUOUS
 62
7
 10
212.199997
 20
195.500000
 11
227.699997
 21
195.500000
  0
LINE
  8
0
  6
CONTINUOUS
 62
7
 10
227.699997
 20
187.500000
 11
227.699997
 21
195.500000
  0
LINE
  8
0
  6
CONTINUOUS
 62
7
 10
212.199997
 20
187.500000
 11
227.699997
 21
187.500000
  0
LINE
  8
0
  6
CONTINUOUS
 62
7
 10
167.500000
 20
196.500000
 11
229.500000
 21
196.500000
  0
LINE
  8
0
  6
CONTINUOUS
 62
7
 10
157.000000
 20
207.000000
 11
240.000000
 21
207.000000
  0
LINE
  8
0
  6
CONTINUOUS
 62
7
 10
157.000000
 20
186.000000
 11
164.500000
 21
186.000000
  0
LINE
  8
0
  6
CONTINUOUS
 62
7
 10
242.699997
 20
-67.500000
 11
242.699997
 21
-59.500000
  0
LINE
  8
0
  6
CENTER
 62
2
 10
224.800003
 20
-63.299999
 11
224.800003
 21
-67.300003
  0
LINE
  8
0
  6
CENTER
 62
2
 10
222.800003
 20
-65.300003
 11
226.800003
 21
-65.300003
  0
LINE
  8
0
  6
CONTINUOUS
 62
7
 10
157.000000
 20
-69.000000
 11
157.000000
 21
-48.000000
  0
LINE
  8
0
  6
CENTER
 62
2
 10
136.199997
 20
-63.500000
 11
168.199997
 21
-63.500000
  0
LINE
  8
0
  6
CONTINUOUS
 62
7
 10
152.000000
 20
-67.750000
 11
157.000000
 21
-67.750000
  0
LINE
  8
0
  6
CONTINUOUS
 62
7
 10
152.000000
 20
-67.750000
 11
152.000000
 21
-59.250000
  0
LINE
  8
0
  6
CONTINUOUS
 62
7
 10
152.000000
 20
-59.250000
 11
157.000000
 21
-59.250000
  0
LINE
  8
0
  6
CONTINUOUS
 62
7
 10
152.000000
 20
-60.753899
 11
157.000000
 21
-60.753899
  0
LINE
  8
0
  6
CONTINUOUS
 62
7
 10
152.000000
 20
-62.063801
 11
157.000000
 21
-62.063801
  0
LINE
  8
0
  6
CONTINUOUS
 62
7
 10
152.000000
 20
-64.936096
 11
157.000000
 21
-64.936096
  0
LINE
  8
0
  6
CONTINUOUS
 62
7
 10
152.000000
 20
-66.246002
 11
157.000000
 21
-66.246002
  0
LINE
  8
0
  6
CONTINUOUS
 62
7
 10
137.199997
 20
-66.500000
 11
152.000000
 21
-66.500000
  0
LINE
  8
0
  6
CONTINUOUS
 62
7
 10
137.199997
 20
-66.500000
 11
137.199997
 21
-60.500000
  0
LINE
  8
0
  6
CONTINUOUS
 62
7
 10
137.199997
 20
-60.500000
 11
152.000000
 21
-60.500000
  0
LINE
  8
0
  6
CONTINUOUS
 62
2
 10
137.199997
 20
-66.000000
 11
152.000000
 21
-66.000000
  0
LINE
  8
0
  6
CONTINUOUS
 62
2
 10
137.199997
 20
-61.000000
 11
152.000000
 21
-61.000000
  0
LINE
  8
0
  6
CONTINUOUS
 62
7
 10
164.500000
 20
-69.000000
 11
164.500000
 21
-61.500000
  0
LINE
  8
0
  6
CONTINUOUS
 62
7
 10
136.000000
 20
-61.970901
 11
137.199997
 21
-61.970901
  0
LINE
  8
0
  6
CONTINUOUS
 62
7
 10
136.000000
 20
-63.029099
 11
137.199997
 21
-63.029099
  0
LINE
  8
0
  6
CONTINUOUS
 62
7
 10
227.199997
 20
-67.500000
 11
227.199997
 21
-59.500000
  0
LINE
  8
0
  6
CONTINUOUS
 62
7
 10
227.199997
 20
-59.500000
 11
242.699997
 21
-59.500000
  0
LINE
  8
0
  6
CONTINUOUS
 62
7
 10
227.199997
 20
-67.500000
 11
242.699997
 21
-67.500000
  0
LINE
  8
0
  6
CONTINUOUS
 62
7
 10
157.000000
 20
-69.000000
 11
164.500000
 21
-69.000000
  0
LINE
  8
0
  6
DASHED
 62
2
 10
166.500000
 20
-53.000000
 11
166.500000
 21
-49.099998
  0
LINE
  8
0
  6
DASHED
 62
2
 10
166.899994
 20
-53.000000
 11
166.899994
 21
-49.099998
  0
LINE
  8
0
  6
CENTER
 62
2
 10
169.000000
 20
-54.000000
 11
169.000000
 21
-46.500000
  0
LINE
  8
0
  6
DASHED
 62
2
 10
171.100006
 20
-53.000000
 11
171.100006
 21
-49.099998
  0
LINE
  8
0
  6
DASHED
 62
2
 10
171.500000
 20
-53.000000
 11
171.500000
 21
-49.099998
  0
LINE
  8
0
  6
DASHED
 62
2
 10
165.000000
 20
-53.000000
 11
173.000000
 21
-53.000000
  0
LINE
  8
0
  6
CONTINUOUS
 62
7
 10
157.000000
 20
-48.000000
 11
255.000000
 21
-48.000000
  0
LINE
  8
0
  6
CONTINUOUS
 62
7
 10
167.500000
 20
-58.500000
 11
244.500000
 21
-58.500000
  0
LINE
  8
0
  6
CONTINUOUS
 62
7
 10
-269.000000
 20
159.500000
 11
-269.000000
 21
159.000000
  0
LINE
  8
0
  6
CONTINUOUS
 62
7
 10
-277.000000
 20
159.500000
 11
-277.000000
 21
159.000000
  0
LINE
  8
0
  6
CONTINUOUS
 62
7
 10
301.000000
 20
159.500000
 11
279.500000
 21
159.500000
  0
LINE
  8
0
  6
CONTINUOUS
 62
7
 10
300.500000
 20
159.500000
 11
300.500000
 21
169.500000
  0
LINE
  8
0
  6
CONTINUOUS
 62
7
 10
279.500000
 20
169.500000
 11
300.500000
 21
169.500000
  0
LINE
  8
0
  6
CONTINUOUS
 62
7
 10
279.500000
 20
159.500000
 11
279.500000
 21
169.500000
  0
LINE
  8
0
  6
CONTINUOUS
 62
7
 10
281.000000
 20
159.500000
 11
281.000000
 21
159.000000
  0
LINE
  8
0
  6
CONTINUOUS
 62
7
 10
289.000000
 20
159.500000
 11
289.000000
 21
159.000000
  0
LINE
  8
0
  6
CONTINUOUS
 62
7
 10
-242.000000
 20
31.500000
 11
-244.000000
 21
31.500000
  0
LINE
  8
0
  6
CONTINUOUS
 62
7
 10
-242.000000
 20
41.500000
 11
-244.000000
 21
41.500000
  0
LINE
  8
0
  6
CONTINUOUS
 62
7
 10
-223.000000
 20
18.243799
 11
-228.000000
 21
18.243799
  0
LINE
  8
0
  6
CENTER
 62
2
 10
-243.800003
 20
15.000000
 11
-222.000000
 21
15.000000
  0
LINE
  8
0
  6
CONTINUOUS
 62
7
 10
-242.800003
 20
18.000000
 11
-239.500000
 21
18.000000
  0
LINE
  8
0
  6
CONTINUOUS
 62
7
 10
-242.800003
 20
12.000000
 11
-228.000000
 21
12.000000
  0
LINE
  8
0
  6
CONTINUOUS
 62
2
 10
-242.800003
 20
17.500000
 11
-239.500000
 21
17.500000
  0
LINE
  8
0
  6
CONTINUOUS
 62
2
 10
-242.800003
 20
12.500000
 11
-228.000000
 21
12.500000
  0
LINE
  8
0
  6
CONTINUOUS
 62
7
 10
-223.000000
 20
10.000000
 11
-165.000000
 21
10.000000
  0
LINE
  8
0
  6
CONTINUOUS
 62
7
 10
-223.000000
 20
20.000000
 11
-223.000000
 21
10.000000
  0
LINE
  8
0
  6
CONTINUOUS
 62
7
 10
-223.000000
 20
19.000000
 11
-228.000000
 21
19.000000
  0
LINE
  8
0
  6
CONTINUOUS
 62
7
 10
-228.000000
 20
11.000000
 11
-228.000000
 21
19.000000
  0
LINE
  8
0
  6
CONTINUOUS
 62
7
 10
-223.000000
 20
11.000000
 11
-228.000000
 21
11.000000
  0
LINE
  8
0
  6
CONTINUOUS
 62
7
 10
-223.000000
 20
11.756300
 11
-228.000000
 21
11.756300
  0
LINE
  8
0
  6
CONTINUOUS
 62
7
 10
-223.000000
 20
14.243800
 11
-228.000000
 21
14.243800
  0
LINE
  8
0
  6
CONTINUOUS
 62
7
 10
-223.000000
 20
15.756300
 11
-228.000000
 21
15.756300
  0
LINE
  8
0
  6
CONTINUOUS
 62
7
 10
-242.800003
 20
18.000000
 11
-242.800003
 21
12.000000
  0
LINE
  8
0
  6
CONTINUOUS
 62
7
 10
-232.500000
 20
18.000000
 11
-228.000000
 21
18.000000
  0
LINE
  8
0
  6
CONTINUOUS
 62
2
 10
-232.500000
 20
17.500000
 11
-228.000000
 21
17.500000
  0
LINE
  8
0
  6
CONTINUOUS
 62
7
 10
111.000000
 20
159.500000
 11
111.000000
 21
159.000000
  0
LINE
  8
0
  6
CONTINUOUS
 62
7
 10
103.000000
 20
159.500000
 11
103.000000
 21
159.000000
  0
LINE
  8
0
  6
CONTINUOUS
 62
7
 10
-267.000000
 20
-128.000000
 11
-267.000000
 21
-121.000000
  0
LINE
  8
0
  6
CONTINUOUS
 62
7
 10
-267.299988
 20
-120.699997
 11
-267.299988
 21
-103.300003
  0
LINE
  8
0
  6
CONTINUOUS
 62
7
 10
-267.000000
 20
-121.000000
 11
-267.299988
 21
-120.699997
  0
LINE
  8
0
  6
CONTINUOUS
 62
7
 10
-267.000000
 20
-128.000000
 11
-288.000000
 21
-128.000000
  0
LINE
  8
0
  6
CONTINUOUS
 62
7
 10
-267.000000
 20
-96.000000
 11
-267.000000
 21
-103.000000
  0
LINE
  8
0
  6
CONTINUOUS
 62
7
 10
-267.000000
 20
-103.000000
 11
-267.299988
 21
-103.300003
  0
LINE
  8
0
  6
CONTINUOUS
 62
7
 10
-267.000000
 20
-96.000000
 11
-288.000000
 21
-96.000000
  0
LINE
  8
0
  6
CONTINUOUS
 62
7
 10
-279.500000
 20
-95.500000
 11
-279.500000
 21
-96.000000
  0
LINE
  8
0
  6
CONTINUOUS
 62
7
 10
-289.000000
 20
-95.500000
 11
-289.000000
 21
-128.500000
  0
LINE
  8
0
  6
CONTINUOUS
 62
7
 10
-279.500000
 20
-128.500000
 11
-289.000000
 21
-128.500000
  0
LINE
  8
0
  6
CONTINUOUS
 62
7
 10
-279.500000
 20
-128.500000
 11
-279.500000
 21
-128.000000
  0
LINE
  8
0
  6
CENTER
 62
2
 10
-266.299988
 20
-112.000000
 11
-290.000000
 21
-112.000000
  0
LINE
  8
0
  6
CONTINUOUS
 62
7
 10
-267.500000
 20
-96.000000
 11
-267.500000
 21
-128.000000
  0
LINE
  8
0
  6
CONTINUOUS
 62
7
 10
-288.000000
 20
-96.000000
 11
-288.000000
 21
-128.000000
  0
LINE
  8
0
  6
CONTINUOUS
 62
7
 10
-289.000000
 20
-95.500000
 11
-267.500000
 21
-95.500000
  0
LINE
  8
0
  6
CENTER
 62
2
 10
-281.000000
 20
-105.000000
 11
-281.000000
 21
-119.000000
  0
LINE
  8
0
  6
CONTINUOUS
 62
7
 10
-287.540985
 20
-92.000000
 11
-287.540985
 21
-94.900002
  0
LINE
  8
0
  6
CONTINUOUS
 62
7
 10
-287.399994
 20
-94.900002
 11
-287.399994
 21
-95.500000
  0
LINE
  8
0
  6
CONTINUOUS
 62
7
 10
-279.459015
 20
-94.900002
 11
-287.540985
 21
-94.900002
  0
LINE
  8
0
  6
CONTINUOUS
 62
7
 10
-285.520996
 20
-92.000000
 11
-285.520996
 21
-94.900002
  0
LINE
  8
0
  6
CENTER
 62
2
 10
-283.500000
 20
-91.000000
 11
-283.500000
 21
-96.500000
  0
LINE
  8
0
  6
CONTINUOUS
 62
7
 10
-279.459015
 20
-92.000000
 11
-287.540985
 21
-92.000000
  0
LINE
  8
0
  6
CONTINUOUS
 62
7
 10
-279.459015
 20
-92.000000
 11
-279.459015
 21
-94.900002
  0
LINE
  8
0
  6
CONTINUOUS
 62
7
 10
-281.479004
 20
-92.000000
 11
-281.479004
 21
-94.900002
  0
LINE
  8
0
  6
CONTINUOUS
 62
7
 10
-279.600006
 20
-94.900002
 11
-279.600006
 21
-95.500000
  0
LINE
  8
0
  6
CENTER
 62
2
 10
-281.000000
 20
-121.000000
 11
-281.000000
 21
-127.000000
  0
LINE
  8
0
  6
CENTER
 62
2
 10
-284.000000
 20
-124.000000
 11
-278.000000
 21
-124.000000
  0
LINE
  8
0
  6
CENTER
 62
2
 10
-272.000000
 20
-118.500000
 11
-272.000000
 21
-128.500000
  0
LINE
  8
0
  6
CENTER
 62
2
 10
-277.000000
 20
-123.500000
 11
-267.000000
 21
-123.500000
  0
LINE
  8
0
  6
CENTER
 62
2
 10
-272.000000
 20
-95.500000
 11
-272.000000
 21
-105.500000
  0
LINE
  8
0
  6
CENTER
 62
2
 10
-277.000000
 20
-100.500000
 11
-267.000000
 21
-100.500000
  0
LINE
  8
0
  6
CENTER
 62
2
 10
-281.000000
 20
-97.000000
 11
-281.000000
 21
-103.000000
  0
LINE
  8
0
  6
CENTER
 62
2
 10
-284.000000
 20
-100.000000
 11
-278.000000
 21
-100.000000
  0
LINE
  8
0
  6
CENTER
 62
2
 10
-272.000000
 20
-109.000000
 11
-272.000000
 21
-115.000000
  0
LINE
  8
0
  6
CONTINUOUS
 62
7
 10
-267.500000
 20
-85.500000
 11
-288.500000
 21
-85.500000
  0
LINE
  8
0
  6
CONTINUOUS
 62
7
 10
-271.563995
 20
-86.500000
 11
-274.436005
 21
-86.500000
  0
LINE
  8
0
  6
CONTINUOUS
 62
7
 10
-270.253998
 20
-87.256203
 11
-268.817993
 21
-89.743698
  0
LINE
  8
0
  6
CONTINUOUS
 62
7
 10
-268.817993
 20
-91.256203
 11
-270.253998
 21
-93.743698
  0
LINE
  8
0
  6
CONTINUOUS
 62
7
 10
-274.436005
 20
-94.500000
 11
-271.563995
 21
-94.500000
  0
LINE
  8
0
  6
CONTINUOUS
 62
7
 10
-277.182007
 20
-91.256203
 11
-275.746002
 21
-93.743698
  0
LINE
  8
0
  6
CONTINUOUS
 62
7
 10
-275.746002
 20
-87.256203
 11
-277.182007
 21
-89.743698
  0
LINE
  8
0
  6
CENTER
 62
2
 10
-267.750000
 20
-90.500000
 11
-278.250000
 21
-90.500000
  0
LINE
  8
0
  6
CENTER
 62
2
 10
-273.000000
 20
-95.750000
 11
-273.000000
 21
-85.250000
  0
LINE
  8
0
  6
CONTINUOUS
 62
7
 10
-272.134003
 20
-88.999901
 11
-271.268005
 21
-90.499901
  0
LINE
  8
0
  6
CONTINUOUS
 62
7
 10
-271.268005
 20
-90.500000
 11
-272.134003
 21
-92.000000
  0
LINE
  8
0
  6
CONTINUOUS
 62
7
 10
-273.865997
 20
-92.000000
 11
-272.134003
 21
-92.000000
  0
LINE
  8
0
  6
CONTINUOUS
 62
7
 10
-274.731995
 20
-90.499901
 11
-273.865997
 21
-92.000000
  0
LINE
  8
0
  6
CONTINUOUS
 62
7
 10
-273.865997
 20
-89.000000
 11
-274.731995
 21
-90.500000
  0
LINE
  8
0
  6
CONTINUOUS
 62
7
 10
-272.134003
 20
-89.000000
 11
-273.865997
 21
-89.000000
  0
LINE
  8
0
  6
CONTINUOUS
 62
7
 10
-267.500000
 20
-95.500000
 11
-267.500000
 21
-85.500000
  0
LINE
  8
0
  6
CONTINUOUS
 62
7
 10
-288.500000
 20
-95.500000
 11
-288.500000
 21
-85.500000
  0
LINE
  8
0
  6
CONTINUOUS
 62
7
 10
-269.000000
 20
-95.500000
 11
-269.000000
 21
-96.000000
  0
LINE
  8
0
  6
CONTINUOUS
 62
7
 10
-277.000000
 20
-95.500000
 11
-277.000000
 21
-96.000000
  0
LINE
  8
0
  6
CONTINUOUS
 62
7
 10
113.000000
 20
-128.000000
 11
113.000000
 21
-121.000000
  0
LINE
  8
0
  6
CONTINUOUS
 62
7
 10
112.699997
 20
-120.699997
 11
112.699997
 21
-103.300003
  0
LINE
  8
0
  6
CONTINUOUS
 62
7
 10
113.000000
 20
-121.000000
 11
112.699997
 21
-120.699997
  0
LINE
  8
0
  6
CONTINUOUS
 62
7
 10
113.000000
 20
-128.000000
 11
92.000000
 21
-128.000000
  0
LINE
  8
0
  6
CONTINUOUS
 62
7
 10
113.000000
 20
-96.000000
 11
113.000000
 21
-103.000000
  0
LINE
  8
0
  6
CONTINUOUS
 62
7
 10
113.000000
 20
-103.000000
 11
112.699997
 21
-103.300003
  0
LINE
  8
0
  6
CONTINUOUS
 62
7
 10
113.000000
 20
-96.000000
 11
92.000000
 21
-96.000000
  0
LINE
  8
0
  6
CONTINUOUS
 62
7
 10
100.500000
 20
-95.500000
 11
100.500000
 21
-96.000000
  0
LINE
  8
0
  6
CONTINUOUS
 62
7
 10
91.000000
 20
-95.500000
 11
91.000000
 21
-128.500000
  0
LINE
  8
0
  6
CONTINUOUS
 62
7
 10
100.500000
 20
-128.500000
 11
91.000000
 21
-128.500000
  0
LINE
  8
0
  6
CONTINUOUS
 62
7
 10
100.500000
 20
-128.500000
 11
100.500000
 21
-128.000000
  0
LINE
  8
0
  6
CENTER
 62
2
 10
113.699997
 20
-112.000000
 11
90.000000
 21
-112.000000
  0
LINE
  8
0
  6
CONTINUOUS
 62
7
 10
112.500000
 20
-96.000000
 11
112.500000
 21
-128.000000
  0
LINE
  8
0
  6
CONTINUOUS
 62
7
 10
92.000000
 20
-96.000000
 11
92.000000
 21
-128.000000
  0
LINE
  8
0
  6
CONTINUOUS
 62
7
 10
91.000000
 20
-95.500000
 11
112.500000
 21
-95.500000
  0
LINE
  8
0
  6
CENTER
 62
2
 10
99.000000
 20
-105.000000
 11
99.000000
 21
-119.000000
  0
LINE
  8
0
  6
CONTINUOUS
 62
7
 10
92.458603
 20
-92.000000
 11
92.458603
 21
-94.900002
  0
LINE
  8
0
  6
CONTINUOUS
 62
7
 10
92.599998
 20
-94.900002
 11
92.599998
 21
-95.500000
  0
LINE
  8
0
  6
CONTINUOUS
 62
7
 10
100.541000
 20
-94.900002
 11
92.458603
 21
-94.900002
  0
LINE
  8
0
  6
CONTINUOUS
 62
7
 10
94.479301
 20
-92.000000
 11
94.479301
 21
-94.900002
  0
LINE
  8
0
  6
CENTER
 62
2
 10
96.500000
 20
-91.000000
 11
96.500000
 21
-96.500000
  0
LINE
  8
0
  6
CONTINUOUS
 62
7
 10
100.541000
 20
-92.000000
 11
92.458603
 21
-92.000000
  0
LINE
  8
0
  6
CONTINUOUS
 62
7
 10
100.541000
 20
-92.000000
 11
100.541000
 21
-94.900002
  0
LINE
  8
0
  6
CONTINUOUS
 62
7
 10
98.520798
 20
-92.000000
 11
98.520798
 21
-94.900002
  0
LINE
  8
0
  6
CONTINUOUS
 62
7
 10
100.400002
 20
-94.900002
 11
100.400002
 21
-95.500000
  0
LINE
  8
0
  6
CENTER
 62
2
 10
99.000000
 20
-121.000000
 11
99.000000
 21
-127.000000
  0
LINE
  8
0
  6
CENTER
 62
2
 10
96.000000
 20
-124.000000
 11
102.000000
 21
-124.000000
  0
LINE
  8
0
  6
CENTER
 62
2
 10
108.000000
 20
-118.500000
 11
108.000000
 21
-128.500000
  0
LINE
  8
0
  6
CENTER
 62
2
 10
103.000000
 20
-123.500000
 11
113.000000
 21
-123.500000
  0
LINE
  8
0
  6
CENTER
 62
2
 10
108.000000
 20
-95.500000
 11
108.000000
 21
-105.500000
  0
LINE
  8
0
  6
CENTER
 62
2
 10
103.000000
 20
-100.500000
 11
113.000000
 21
-100.500000
  0
LINE
  8
0
  6
CENTER
 62
2
 10
99.000000
 20
-97.000000
 11
99.000000
 21
-103.000000
  0
LINE
  8
0
  6
CENTER
 62
2
 10
96.000000
 20
-100.000000
 11
102.000000
 21
-100.000000
  0
LINE
  8
0
  6
CENTER
 62
2
 10
108.000000
 20
-109.000000
 11
108.000000
 21
-115.000000
  0
LINE
  8
0
  6
CONTINUOUS
 62
7
 10
112.500000
 20
-85.500000
 11
91.500000
 21
-85.500000
  0
LINE
  8
0
  6
CONTINUOUS
 62
7
 10
108.435997
 20
-86.500000
 11
105.564003
 21
-86.500000
  0
LINE
  8
0
  6
CONTINUOUS
 62
7
 10
109.746002
 20
-87.256203
 11
111.181999
 21
-89.743698
  0
LINE
  8
0
  6
CONTINUOUS
 62
7
 10
111.181999
 20
-91.256203
 11
109.746002
 21
-93.743698
  0
LINE
  8
0
  6
CONTINUOUS
 62
7
 10
105.564003
 20
-94.500000
 11
108.435997
 21
-94.500000
  0
LINE
  8
0
  6
CONTINUOUS
 62
7
 10
102.818001
 20
-91.256203
 11
104.253998
 21
-93.743698
  0
LINE
  8
0
  6
CONTINUOUS
 62
7
 10
104.253998
 20
-87.256203
 11
102.818001
 21
-89.743698
  0
LINE
  8
0
  6
CENTER
 62
2
 10
112.250000
 20
-90.500000
 11
101.750000
 21
-90.500000
  0
LINE
  8
0
  6
CENTER
 62
2
 10
107.000000
 20
-95.750000
 11
107.000000
 21
-85.250000
  0
LINE
  8
0
  6
CONTINUOUS
 62
7
 10
107.865997
 20
-89.000000
 11
108.732002
 21
-90.500000
  0
LINE
  8
0
  6
CONTINUOUS
 62
7
 10
108.732002
 20
-90.500000
 11
107.865997
 21
-92.000000
  0
LINE
  8
0
  6
CONTINUOUS
 62
7
 10
106.134003
 20
-92.000000
 11
107.865997
 21
-92.000000
  0
LINE
  8
0
  6
CONTINUOUS
 62
7
 10
105.267998
 20
-90.500000
 11
106.134003
 21
-92.000000
  0
LINE
  8
0
  6
CONTINUOUS
 62
7
 10
106.134003
 20
-89.000000
 11
105.267998
 21
-90.500000
  0
LINE
  8
0
  6
CONTINUOUS
 62
7
 10
107.865997
 20
-89.000000
 11
106.134003
 21
-89.000000
  0
LINE
  8
0
  6
CONTINUOUS
 62
7
 10
112.500000
 20
-95.500000
 11
112.500000
 21
-85.500000
  0
LINE
  8
0
  6
CONTINUOUS
 62
7
 10
91.500000
 20
-95.500000
 11
91.500000
 21
-85.500000
  0
LINE
  8
0
  6
CONTINUOUS
 62
7
 10
111.000000
 20
-95.500000
 11
111.000000
 21
-96.000000
  0
LINE
  8
0
  6
CONTINUOUS
 62
7
 10
103.000000
 20
-95.500000
 11
103.000000
 21
-96.000000
  0
LINE
  8
0
  6
CONTINUOUS
 62
7
 10
157.000000
 20
18.243799
 11
152.000000
 21
18.243799
  0
LINE
  8
0
  6
CENTER
 62
2
 10
136.199997
 20
15.000000
 11
158.000000
 21
15.000000
  0
LINE
  8
0
  6
CONTINUOUS
 62
7
 10
137.199997
 20
12.000000
 11
152.000000
 21
12.000000
  0
LINE
  8
0
  6
CONTINUOUS
 62
2
 10
137.199997
 20
12.500000
 11
152.000000
 21
12.500000
  0
LINE
  8
0
  6
CONTINUOUS
 62
7
 10
157.000000
 20
10.000000
 11
240.000000
 21
10.000000
  0
LINE
  8
0
  6
CONTINUOUS
 62
7
 10
157.000000
 20
20.000000
 11
157.000000
 21
10.000000
  0
LINE
  8
0
  6
CONTINUOUS
 62
7
 10
157.000000
 20
19.000000
 11
152.000000
 21
19.000000
  0
LINE
  8
0
  6
CONTINUOUS
 62
7
 10
152.000000
 20
11.000000
 11
152.000000
 21
19.000000
  0
LINE
  8
0
  6
CONTINUOUS
 62
7
 10
157.000000
 20
11.000000
 11
152.000000
 21
11.000000
  0
LINE
  8
0
  6
CONTINUOUS
 62
7
 10
157.000000
 20
11.756300
 11
152.000000
 21
11.756300
  0
LINE
  8
0
  6
CONTINUOUS
 62
7
 10
157.000000
 20
14.243800
 11
152.000000
 21
14.243800
  0
LINE
  8
0
  6
CONTINUOUS
 62
7
 10
157.000000
 20
15.756300
 11
152.000000
 21
15.756300
  0
LINE
  8
0
  6
CONTINUOUS
 62
7
 10
147.500000
 20
18.000000
 11
152.000000
 21
18.000000
  0
LINE
  8
0
  6
CONTINUOUS
 62
2
 10
147.500000
 20
17.500000
 11
152.000000
 21
17.500000
  0
LINE
  8
0
  6
CONTINUOUS
 62
7
 10
137.199997
 20
18.000000
 11
140.500000
 21
18.000000
  0
LINE
  8
0
  6
CONTINUOUS
 62
2
 10
137.199997
 20
17.500000
 11
140.500000
 21
17.500000
  0
LINE
  8
0
  6
CONTINUOUS
 62
7
 10
137.199997
 20
18.000000
 11
137.199997
 21
12.000000
  0
LINE
  8
0
  6
CONTINUOUS
 62
7
 10
138.000000
 20
31.500000
 11
136.000000
 21
31.500000
  0
LINE
  8
0
  6
CONTINUOUS
 62
7
 10
138.000000
 20
41.500000
 11
136.000000
 21
41.500000
  0
LINE
  8
0
  6
CONTINUOUS
 62
7
 10
-223.000000
 20
-236.755997
 11
-228.000000
 21
-236.755997
  0
LINE
  8
0
  6
CENTER
 62
2
 10
-243.800003
 20
-240.000000
 11
-222.000000
 21
-240.000000
  0
LINE
  8
0
  6
CONTINUOUS
 62
7
 10
-242.800003
 20
-243.000000
 11
-228.000000
 21
-243.000000
  0
LINE
  8
0
  6
CONTINUOUS
 62
2
 10
-242.800003
 20
-242.500000
 11
-228.000000
 21
-242.500000
  0
LINE
  8
0
  6
CONTINUOUS
 62
7
 10
-223.000000
 20
-245.000000
 11
-155.000000
 21
-245.000000
  0
LINE
  8
0
  6
CONTINUOUS
 62
7
 10
-223.000000
 20
-235.000000
 11
-223.000000
 21
-245.000000
  0
LINE
  8
0
  6
CONTINUOUS
 62
7
 10
-223.000000
 20
-236.000000
 11
-228.000000
 21
-236.000000
  0
LINE
  8
0
  6
CONTINUOUS
 62
7
 10
-228.000000
 20
-244.000000
 11
-228.000000
 21
-236.000000
  0
LINE
  8
0
  6
CONTINUOUS
 62
7
 10
-223.000000
 20
-244.000000
 11
-228.000000
 21
-244.000000
  0
LINE
  8
0
  6
CONTINUOUS
 62
7
 10
-223.000000
 20
-243.244003
 11
-228.000000
 21
-243.244003
  0
LINE
  8
0
  6
CONTINUOUS
 62
7
 10
-223.000000
 20
-240.755997
 11
-228.000000
 21
-240.755997
  0
LINE
  8
0
  6
CONTINUOUS
 62
7
 10
-223.000000
 20
-239.244003
 11
-228.000000
 21
-239.244003
  0
LINE
  8
0
  6
CONTINUOUS
 62
7
 10
-232.500000
 20
-237.000000
 11
-228.000000
 21
-237.000000
  0
LINE
  8
0
  6
CONTINUOUS
 62
2
 10
-232.500000
 20
-237.500000
 11
-228.000000
 21
-237.500000
  0
LINE
  8
0
  6
CONTINUOUS
 62
7
 10
-242.800003
 20
-237.000000
 11
-239.500000
 21
-237.000000
  0
LINE
  8
0
  6
CONTINUOUS
 62
2
 10
-242.800003
 20
-237.500000
 11
-239.500000
 21
-237.500000
  0
LINE
  8
0
  6
CONTINUOUS
 62
7
 10
-242.800003
 20
-237.000000
 11
-242.800003
 21
-243.000000
  0
LINE
  8
0
  6
CONTINUOUS
 62
7
 10
-242.000000
 20
-223.500000
 11
-244.000000
 21
-223.500000
  0
LINE
  8
0
  6
CONTINUOUS
 62
7
 10
-242.000000
 20
-213.500000
 11
-244.000000
 21
-213.500000
  0
LINE
  8
0
  6
CONTINUOUS
 62
7
 10
157.000000
 20
-236.755997
 11
152.000000
 21
-236.755997
  0
LINE
  8
0
  6
CENTER
 62
2
 10
136.199997
 20
-240.000000
 11
158.000000
 21
-240.000000
  0
LINE
  8
0
  6
CONTINUOUS
 62
7
 10
137.199997
 20
-243.000000
 11
152.000000
 21
-243.000000
  0
LINE
  8
0
  6
CONTINUOUS
 62
2
 10
137.199997
 20
-242.500000
 11
152.000000
 21
-242.500000
  0
LINE
  8
0
  6
CONTINUOUS
 62
7
 10
157.000000
 20
-245.000000
 11
255.000000
 21
-245.000000
  0
LINE
  8
0
  6
CONTINUOUS
 62
7
 10
157.000000
 20
-235.000000
 11
157.000000
 21
-245.000000
  0
LINE
  8
0
  6
CONTINUOUS
 62
7
 10
157.000000
 20
-236.000000
 11
152.000000
 21
-236.000000
  0
LINE
  8
0
  6
CONTINUOUS
 62
7
 10
152.000000
 20
-244.000000
 11
152.000000
 21
-236.000000
  0
LINE
  8
0
  6
CONTINUOUS
 62
7
 10
157.000000
 20
-244.000000
 11
152.000000
 21
-244.000000
  0
LINE
  8
0
  6
CONTINUOUS
 62
7
 10
157.000000
 20
-243.244003
 11
152.000000
 21
-243.244003
  0
LINE
  8
0
  6
CONTINUOUS
 62
7
 10
157.000000
 20
-240.755997
 11
152.000000
 21
-240.755997
  0
LINE
  8
0
  6
CONTINUOUS
 62
7
 10
157.000000
 20
-239.244003
 11
152.000000
 21
-239.244003
  0
LINE
  8
0
  6
CONTINUOUS
 62
7
 10
147.500000
 20
-237.000000
 11
152.000000
 21
-237.000000
  0
LINE
  8
0
  6
CONTINUOUS
 62
2
 10
147.500000
 20
-237.500000
 11
152.000000
 21
-237.500000
  0
LINE
  8
0
  6
CONTINUOUS
 62
7
 10
137.199997
 20
-237.000000
 11
140.500000
 21
-237.000000
  0
LINE
  8
0
  6
CONTINUOUS
 62
2
 10
137.199997
 20
-237.500000
 11
140.500000
 21
-237.500000
  0
LINE
  8
0
  6
CONTINUOUS
 62
7
 10
137.199997
 20
-237.000000
 11
137.199997
 21
-243.000000
  0
LINE
  8
0
  6
CONTINUOUS
 62
7
 10
138.000000
 20
-223.500000
 11
136.000000
 21
-223.500000
  0
LINE
  8
0
  6
CONTINUOUS
 62
7
 10
138.000000
 20
-213.500000
 11
136.000000
 21
-213.500000
  0
LINE
  8
0
  6
CONTINUOUS
 62
7
 10
232.500000
 20
186.000000
 11
232.500000
 21
193.500000
  0
LINE
  8
0
  6
CONTINUOUS
 62
7
 10
240.000000
 20
186.000000
 11
240.000000
 21
207.000000
  0
LINE
  8
0
  6
CONTINUOUS
 62
7
 10
245.000000
 20
187.250000
 11
245.000000
 21
195.750000
  0
LINE
  8
0
  6
CONTINUOUS
 62
7
 10
240.000000
 20
187.250000
 11
245.000000
 21
187.250000
  0
LINE
  8
0
  6
CONTINUOUS
 62
7
 10
240.000000
 20
195.750000
 11
245.000000
 21
195.750000
  0
LINE
  8
0
  6
CONTINUOUS
 62
7
 10
240.000000
 20
194.246002
 11
245.000000
 21
194.246002
  0
LINE
  8
0
  6
CONTINUOUS
 62
7
 10
240.000000
 20
192.936005
 11
245.000000
 21
192.936005
  0
LINE
  8
0
  6
CONTINUOUS
 62
7
 10
240.000000
 20
190.063995
 11
245.000000
 21
190.063995
  0
LINE
  8
0
  6
CONTINUOUS
 62
7
 10
240.000000
 20
188.753998
 11
245.000000
 21
188.753998
  0
LINE
  8
0
  6
CONTINUOUS
 62
7
 10
245.000000
 20
188.500000
 11
249.699997
 21
188.500000
  0
LINE
  8
0
  6
CONTINUOUS
 62
2
 10
245.000000
 20
189.000000
 11
249.699997
 21
189.000000
  0
LINE
  8
0
  6
CONTINUOUS
 62
2
 10
245.000000
 20
194.000000
 11
249.699997
 21
194.000000
  0
LINE
  8
0
  6
CONTINUOUS
 62
7
 10
245.000000
 20
194.500000
 11
249.699997
 21
194.500000
  0
LINE
  8
0
  6
CENTER
 62
2
 10
226.699997
 20
191.500000
 11
250.699997
 21
191.500000
  0
LINE
  8
0
  6
CONTINUOUS
 62
7
 10
249.699997
 20
188.500000
 11
249.699997
 21
194.500000
  0
LINE
  8
0
  6
CONTINUOUS
 62
7
 10
232.500000
 20
186.000000
 11
240.000000
 21
186.000000
  0
LINE
  8
0
  6
CONTINUOUS
 62
7
 10
247.500000
 20
-69.000000
 11
247.500000
 21
-61.500000
  0
LINE
  8
0
  6
CONTINUOUS
 62
7
 10
255.000000
 20
-69.000000
 11
255.000000
 21
-48.000000
  0
LINE
  8
0
  6
CONTINUOUS
 62
7
 10
260.000000
 20
-67.750000
 11
260.000000
 21
-59.250000
  0
LINE
  8
0
  6
CONTINUOUS
 62
7
 10
255.000000
 20
-67.750000
 11
260.000000
 21
-67.750000
  0
LINE
  8
0
  6
CONTINUOUS
 62
7
 10
255.000000
 20
-59.250000
 11
260.000000
 21
-59.250000
  0
LINE
  8
0
  6
CONTINUOUS
 62
7
 10
255.000000
 20
-60.753899
 11
260.000000
 21
-60.753899
  0
LINE
  8
0
  6
CONTINUOUS
 62
7
 10
255.000000
 20
-62.063801
 11
260.000000
 21
-62.063801
  0
LINE
  8
0
  6
CONTINUOUS
 62
7
 10
255.000000
 20
-64.936096
 11
260.000000
 21
-64.936096
  0
LINE
  8
0
  6
CONTINUOUS
 62
7
 10
255.000000
 20
-66.246002
 11
260.000000
 21
-66.246002
  0
LINE
  8
0
  6
CONTINUOUS
 62
7
 10
260.000000
 20
-66.500000
 11
264.700012
 21
-66.500000
  0
LINE
  8
0
  6
CONTINUOUS
 62
2
 10
260.000000
 20
-66.000000
 11
264.700012
 21
-66.000000
  0
LINE
  8
0
  6
CONTINUOUS
 62
2
 10
260.000000
 20
-61.000000
 11
264.700012
 21
-61.000000
  0
LINE
  8
0
  6
CONTINUOUS
 62
7
 10
260.000000
 20
-60.500000
 11
264.700012
 21
-60.500000
  0
LINE
  8
0
  6
CENTER
 62
2
 10
241.699997
 20
-63.500000
 11
265.700012
 21
-63.500000
  0
LINE
  8
0
  6
CONTINUOUS
 62
7
 10
264.700012
 20
-66.500000
 11
264.700012
 21
-60.500000
  0
LINE
  8
0
  6
CONTINUOUS
 62
7
 10
247.500000
 20
-69.000000
 11
255.000000
 21
-69.000000
  0
LINE
  8
0
  6
CONTINUOUS
 62
7
 10
228.000000
 20
193.300003
 11
228.000000
 21
196.500000
  0
LINE
  8
0
  6
CONTINUOUS
 62
7
 10
-244.000000
 20
185.500000
 11
-177.000000
 21
185.500000
  0
LINE
  8
0
  6
CONTINUOUS
 62
7
 10
-242.000000
 20
207.500000
 11
-176.000000
 21
207.500000
  0
LINE
  8
0
  6
CONTINUOUS
 62
7
 10
-242.000000
 20
197.500000
 11
-242.000000
 21
207.500000
  0
LINE
  8
0
  6
CONTINUOUS
 62
7
 10
-176.000000
 20
207.000000
 11
-176.000000
 21
207.500000
  0
LINE
  8
0
  6
CONTINUOUS
 62
7
 10
-244.000000
 20
185.500000
 11
-244.000000
 21
206.500000
  0
LINE
  8
0
  6
CONTINUOUS
 62
7
 10
-177.000000
 20
186.000000
 11
-175.800003
 21
186.000000
  0
LINE
  8
0
  6
CONTINUOUS
 62
7
 10
-244.000000
 20
197.500000
 11
-223.000000
 21
197.500000
  0
LINE
  8
0
  6
CONTINUOUS
 62
7
 10
-242.000000
 20
198.000000
 11
-223.000000
 21
198.000000
  0
LINE
  8
0
  6
CENTER
 62
2
 10
-227.000000
 20
201.199997
 11
-227.000000
 21
208.500000
  0
LINE
  8
0
  6
CONTINUOUS
 62
7
 10
-252.000000
 20
206.500000
 11
-252.000000
 21
186.000000
  0
LINE
  8
0
  6
CONTINUOUS
 62
7
 10
-244.000000
 20
186.000000
 11
-252.000000
 21
186.000000
  0
LINE
  8
0
  6
CONTINUOUS
 62
7
 10
-244.000000
 20
206.500000
 11
-252.000000
 21
206.500000
  0
LINE
  8
0
  6
CONTINUOUS
 62
7
 10
-177.000000
 20
185.500000
 11
-177.000000
 21
189.699997
  0
LINE
  8
0
  6
CONTINUOUS
 62
7
 10
-242.000000
 20
204.500000
 11
-244.000000
 21
204.500000
  0
LINE
  8
0
  6
CONTINUOUS
 62
7
 10
-232.500000
 20
202.500000
 11
-239.500000
 21
202.500000
  0
LINE
  8
0
  6
CONTINUOUS
 62
7
 10
-232.500000
 20
201.500000
 11
-239.500000
 21
201.500000
  0
LINE
  8
0
  6
CONTINUOUS
 62
7
 10
-236.000000
 20
197.959000
 11
-239.500000
 21
199.979004
  0
LINE
  8
0
  6
CONTINUOUS
 62
7
 10
-239.500000
 20
199.979004
 11
-239.500000
 21
204.020996
  0
LINE
  8
0
  6
CONTINUOUS
 62
7
 10
-232.500000
 20
199.979004
 11
-236.000000
 21
197.959000
  0
LINE
  8
0
  6
CONTINUOUS
 62
7
 10
-232.500000
 20
199.979004
 11
-232.500000
 21
204.020996
  0
LINE
  8
0
  6
CONTINUOUS
 62
7
 10
-239.500000
 20
204.020996
 11
-236.000000
 21
206.041000
  0
LINE
  8
0
  6
CONTINUOUS
 62
7
 10
-232.500000
 20
204.020996
 11
-236.000000
 21
206.041000
  0
LINE
  8
0
  6
DASHED
 62
2
 10
-223.000000
 20
202.199997
 11
-223.000000
 21
203.000000
  0
LINE
  8
0
  6
DASHED
 62
2
 10
-231.000000
 20
202.199997
 11
-231.000000
 21
203.000000
  0
LINE
  8
0
  6
DASHED
 62
2
 10
-223.000000
 20
203.000000
 11
-224.800003
 21
203.000000
  0
LINE
  8
0
  6
DASHED
 62
2
 10
-229.199997
 20
203.000000
 11
-231.000000
 21
203.000000
  0
LINE
  8
0
  6
CENTER
 62
2
 10
-254.000000
 20
190.500000
 11
-250.000000
 21
190.500000
  0
LINE
  8
0
  6
CENTER
 62
2
 10
-254.000000
 20
199.500000
 11
-250.000000
 21
199.500000
  0
LINE
  8
0
  6
CENTER
 62
2
 10
-232.000000
 20
187.500000
 11
-232.000000
 21
183.500000
  0
LINE
  8
0
  6
CENTER
 62
2
 10
-212.000000
 20
187.500000
 11
-212.000000
 21
183.500000
  0
LINE
  8
0
  6
CENTER
 62
2
 10
-192.000000
 20
187.500000
 11
-192.000000
 21
183.500000
  0
LINE
  8
0
  6
CONTINUOUS
 62
7
 10
-175.399994
 20
186.500000
 11
-175.399994
 21
188.500000
  0
LINE
  8
0
  6
CONTINUOUS
 62
7
 10
-175.800003
 20
186.500000
 11
-175.399994
 21
186.500000
  0
LINE
  8
0
  6
CONTINUOUS
 62
7
 10
-231.199997
 20
202.199997
 11
-223.000000
 21
202.199997
  0
LINE
  8
0
  6
CONTINUOUS
 62
7
 10
-229.149994
 20
202.199997
 11
-229.149994
 21
207.500000
  0
LINE
  8
0
  6
CONTINUOUS
 62
7
 10
-224.850006
 20
203.000000
 11
-229.149994
 21
203.000000
  0
LINE
  8
0
  6
CONTINUOUS
 62
7
 10
-224.850006
 20
202.199997
 11
-224.850006
 21
207.500000
  0
LINE
  8
0
  6
DASHED
 62
2
 10
-215.000000
 20
200.199997
 11
-207.000000
 21
200.199997
  0
LINE
  8
0
  6
CENTER
 62
2
 10
-211.000000
 20
199.199997
 11
-211.000000
 21
208.500000
  0
LINE
  8
0
  6
DASHED
 62
2
 10
-213.500000
 20
200.199997
 11
-213.500000
 21
207.500000
  0
LINE
  8
0
  6
DASHED
 62
2
 10
-208.500000
 20
200.199997
 11
-208.500000
 21
207.500000
  0
LINE
  8
0
  6
DASHED
 62
2
 10
-208.899994
 20
200.199997
 11
-208.899994
 21
207.500000
  0
LINE
  8
0
  6
DASHED
 62
2
 10
-213.100006
 20
200.199997
 11
-213.100006
 21
207.500000
  0
LINE
  8
0
  6
DASHED
 62
2
 10
-187.000000
 20
202.199997
 11
-195.000000
 21
202.199997
  0
LINE
  8
0
  6
CENTER
 62
2
 10
-191.000000
 20
201.199997
 11
-191.000000
 21
208.500000
  0
LINE
  8
0
  6
DASHED
 62
2
 10
-187.000000
 20
203.000000
 11
-195.000000
 21
203.000000
  0
LINE
  8
0
  6
DASHED
 62
2
 10
-193.100006
 20
203.000000
 11
-193.100006
 21
207.500000
  0
LINE
  8
0
  6
DASHED
 62
2
 10
-188.899994
 20
203.000000
 11
-188.899994
 21
207.500000
  0
LINE
  8
0
  6
DASHED
 62
2
 10
-188.500000
 20
203.000000
 11
-188.500000
 21
207.500000
  0
LINE
  8
0
  6
DASHED
 62
2
 10
-193.500000
 20
203.000000
 11
-193.500000
 21
207.500000
  0
LINE
  8
0
  6
DASHED
 62
2
 10
-187.000000
 20
202.199997
 11
-187.000000
 21
203.000000
  0
LINE
  8
0
  6
DASHED
 62
2
 10
-195.000000
 20
202.199997
 11
-195.000000
 21
203.000000
  0
LINE
  8
0
  6
CENTER
 62
2
 10
-236.000000
 20
206.899994
 11
-236.000000
 21
197.100006
  0
LINE
  8
0
  6
CENTER
 62
2
 10
-240.899994
 20
202.000000
 11
-231.100006
 21
202.000000
  0
LINE
  8
0
  6
CENTER
 62
2
 10
-195.199997
 20
191.699997
 11
-195.199997
 21
187.699997
  0
LINE
  8
0
  6
CENTER
 62
2
 10
-197.199997
 20
189.699997
 11
-193.199997
 21
189.699997
  0
LINE
  8
0
  6
CONTINUOUS
 62
7
 10
-223.000000
 20
186.000000
 11
-223.000000
 21
207.000000
  0
LINE
  8
0
  6
CENTER
 62
2
 10
-243.800003
 20
191.500000
 11
-211.800003
 21
191.500000
  0
LINE
  8
0
  6
CONTINUOUS
 62
7
 10
-228.000000
 20
187.250000
 11
-223.000000
 21
187.250000
  0
LINE
  8
0
  6
CONTINUOUS
 62
7
 10
-228.000000
 20
187.250000
 11
-228.000000
 21
195.750000
  0
LINE
  8
0
  6
CONTINUOUS
 62
7
 10
-228.000000
 20
195.750000
 11
-223.000000
 21
195.750000
  0
LINE
  8
0
  6
CONTINUOUS
 62
7
 10
-228.000000
 20
194.246002
 11
-223.000000
 21
194.246002
  0
LINE
  8
0
  6
CONTINUOUS
 62
7
 10
-228.000000
 20
192.936005
 11
-223.000000
 21
192.936005
  0
LINE
  8
0
  6
CONTINUOUS
 62
7
 10
-228.000000
 20
190.063995
 11
-223.000000
 21
190.063995
  0
LINE
  8
0
  6
CONTINUOUS
 62
7
 10
-228.000000
 20
188.753998
 11
-223.000000
 21
188.753998
  0
LINE
  8
0
  6
CONTINUOUS
 62
7
 10
-242.800003
 20
188.500000
 11
-228.000000
 21
188.500000
  0
LINE
  8
0
  6
CONTINUOUS
 62
7
 10
-242.800003
 20
188.500000
 11
-242.800003
 21
194.500000
  0
LINE
  8
0
  6
CONTINUOUS
 62
7
 10
-242.800003
 20
194.500000
 11
-228.000000
 21
194.500000
  0
LINE
  8
0
  6
CONTINUOUS
 62
2
 10
-242.800003
 20
189.000000
 11
-228.000000
 21
189.000000
  0
LINE
  8
0
  6
CONTINUOUS
 62
2
 10
-242.800003
 20
194.000000
 11
-228.000000
 21
194.000000
  0
LINE
  8
0
  6
CONTINUOUS
 62
7
 10
-215.500000
 20
186.000000
 11
-215.500000
 21
193.500000
  0
LINE
  8
0
  6
CONTINUOUS
 62
7
 10
-244.000000
 20
193.029007
 11
-242.800003
 21
193.029007
  0
LINE
  8
0
  6
CONTINUOUS
 62
7
 10
-244.000000
 20
191.970993
 11
-242.800003
 21
191.970993
  0
LINE
  8
0
  6
CONTINUOUS
 62
7
 10
-192.800003
 20
187.500000
 11
-192.800003
 21
195.500000
  0
LINE
  8
0
  6
CONTINUOUS
 62
7
 10
-192.800003
 20
195.500000
 11
-177.300003
 21
195.500000
  0
LINE
  8
0
  6
CONTINUOUS
 62
7
 10
-177.300003
 20
187.500000
 11
-177.300003
 21
195.500000
  0
LINE
  8
0
  6
CONTINUOUS
 62
7
 10
-192.800003
 20
187.500000
 11
-177.300003
 21
187.500000
  0
LINE
  8
0
  6
CONTINUOUS
 62
7
 10
-212.500000
 20
196.500000
 11
-175.500000
 21
196.500000
  0
LINE
  8
0
  6
CONTINUOUS
 62
7
 10
-223.000000
 20
207.000000
 11
-165.000000
 21
207.000000
  0
LINE
  8
0
  6
CONTINUOUS
 62
7
 10
-223.000000
 20
186.000000
 11
-215.500000
 21
186.000000
  0
LINE
  8
0
  6
CONTINUOUS
 62
7
 10
232.500000
 20
159.500000
 11
232.500000
 21
169.500000
  0
LINE
  8
0
  6
CONTINUOUS
 62
7
 10
240.000000
 20
159.500000
 11
240.000000
 21
169.500000
  0
LINE
  8
0
  6
CONTINUOUS
 62
7
 10
-160.000000
 20
187.250000
 11
-160.000000
 21
195.750000
  0
LINE
  8
0
  6
CONTINUOUS
 62
7
 10
-165.000000
 20
187.250000
 11
-160.000000
 21
187.250000
  0
LINE
  8
0
  6
CONTINUOUS
 62
7
 10
-165.000000
 20
195.750000
 11
-160.000000
 21
195.750000
  0
LINE
  8
0
  6
CONTINUOUS
 62
7
 10
-165.000000
 20
194.246002
 11
-160.000000
 21
194.246002
  0
LINE
  8
0
  6
CONTINUOUS
 62
7
 10
-165.000000
 20
192.936005
 11
-160.000000
 21
192.936005
  0
LINE
  8
0
  6
CONTINUOUS
 62
7
 10
-165.000000
 20
190.063995
 11
-160.000000
 21
190.063995
  0
LINE
  8
0
  6
CONTINUOUS
 62
7
 10
-165.000000
 20
188.753998
 11
-160.000000
 21
188.753998
  0
LINE
  8
0
  6
CONTINUOUS
 62
7
 10
245.000000
 20
161.500000
 11
249.699997
 21
161.500000
  0
LINE
  8
0
  6
CONTINUOUS
 62
2
 10
245.000000
 20
162.000000
 11
249.699997
 21
162.000000
  0
LINE
  8
0
  6
CONTINUOUS
 62
2
 10
245.000000
 20
167.000000
 11
249.699997
 21
167.000000
  0
LINE
  8
0
  6
CONTINUOUS
 62
7
 10
245.000000
 20
167.500000
 11
249.699997
 21
167.500000
  0
LINE
  8
0
  6
CENTER
 62
2
 10
226.699997
 20
164.500000
 11
250.699997
 21
164.500000
  0
LINE
  8
0
  6
CONTINUOUS
 62
7
 10
249.699997
 20
161.500000
 11
249.699997
 21
167.500000
  0
LINE
  8
0
  6
CONTINUOUS
 62
7
 10
-172.500000
 20
186.000000
 11
-165.000000
 21
186.000000
  0
LINE
  8
0
  6
CONTINUOUS
 62
7
 10
-175.800003
 20
186.000000
 11
-175.800003
 21
196.500000
  0
LINE
  8
0
  6
CONTINUOUS
 62
7
 10
-177.000000
 20
193.300003
 11
-177.000000
 21
196.500000
  0
LINE
  8
0
  6
CONTINUOUS
 62
7
 10
243.000000
 20
-61.700001
 11
243.000000
 21
-58.500000
  0
LINE
  8
0
  6
DASHED
 62
2
 10
225.000000
 20
-53.000000
 11
225.000000
 21
-52.000000
  0
LINE
  8
0
  6
CONTINUOUS
 62
7
 10
-229.199997
 20
-52.000000
 11
-224.800003
 21
-52.000000
  0
LINE
  8
0
  6
CONTINUOUS
 62
7
 10
-244.000000
 20
-69.500000
 11
-167.000000
 21
-69.500000
  0
LINE
  8
0
  6
CONTINUOUS
 62
7
 10
-242.000000
 20
-47.500000
 11
-166.000000
 21
-47.500000
  0
LINE
  8
0
  6
CONTINUOUS
 62
7
 10
-242.000000
 20
-57.500000
 11
-242.000000
 21
-47.500000
  0
LINE
  8
0
  6
CONTINUOUS
 62
7
 10
-166.000000
 20
-48.000000
 11
-166.000000
 21
-47.500000
  0
LINE
  8
0
  6
CONTINUOUS
 62
7
 10
-244.000000
 20
-69.500000
 11
-244.000000
 21
-48.500000
  0
LINE
  8
0
  6
CONTINUOUS
 62
7
 10
-167.000000
 20
-69.000000
 11
-165.800003
 21
-69.000000
  0
LINE
  8
0
  6
CONTINUOUS
 62
7
 10
-244.000000
 20
-57.500000
 11
-223.000000
 21
-57.500000
  0
LINE
  8
0
  6
CONTINUOUS
 62
7
 10
-242.000000
 20
-57.000000
 11
-223.000000
 21
-57.000000
  0
LINE
  8
0
  6
CENTER
 62
2
 10
-227.000000
 20
-54.000000
 11
-227.000000
 21
-46.500000
  0
LINE
  8
0
  6
CONTINUOUS
 62
7
 10
-229.199997
 20
-53.000000
 11
-229.199997
 21
-47.500000
  0
LINE
  8
0
  6
CONTINUOUS
 62
7
 10
-224.800003
 20
-53.000000
 11
-224.800003
 21
-47.500000
  0
LINE
  8
0
  6
CONTINUOUS
 62
7
 10
-252.000000
 20
-48.500000
 11
-252.000000
 21
-69.000000
  0
LINE
  8
0
  6
CONTINUOUS
 62
7
 10
-244.000000
 20
-69.000000
 11
-252.000000
 21
-69.000000
  0
LINE
  8
0
  6
CONTINUOUS
 62
7
 10
-244.000000
 20
-48.500000
 11
-252.000000
 21
-48.500000
  0
LINE
  8
0
  6
CONTINUOUS
 62
7
 10
-167.000000
 20
-69.500000
 11
-167.000000
 21
-65.300003
  0
LINE
  8
0
  6
CONTINUOUS
 62
7
 10
-242.000000
 20
-50.500000
 11
-244.000000
 21
-50.500000
  0
LINE
  8
0
  6
DASHED
 62
2
 10
-177.000000
 20
-53.000000
 11
-185.000000
 21
-53.000000
  0
LINE
  8
0
  6
CONTINUOUS
 62
7
 10
-231.199997
 20
-53.000000
 11
-223.000000
 21
-53.000000
  0
LINE
  8
0
  6
CONTINUOUS
 62
7
 10
-232.500000
 20
-52.500000
 11
-239.500000
 21
-52.500000
  0
LINE
  8
0
  6
CONTINUOUS
 62
7
 10
-232.500000
 20
-53.500000
 11
-239.500000
 21
-53.500000
  0
LINE
  8
0
  6
CONTINUOUS
 62
7
 10
-236.000000
 20
-57.041401
 11
-239.500000
 21
-55.020699
  0
LINE
  8
0
  6
CONTINUOUS
 62
7
 10
-239.500000
 20
-55.020699
 11
-239.500000
 21
-50.979198
  0
LINE
  8
0
  6
CONTINUOUS
 62
7
 10
-232.500000
 20
-55.020699
 11
-236.000000
 21
-57.041401
  0
LINE
  8
0
  6
CONTINUOUS
 62
7
 10
-232.500000
 20
-55.020699
 11
-232.500000
 21
-50.979198
  0
LINE
  8
0
  6
CONTINUOUS
 62
7
 10
-239.500000
 20
-50.979198
 11
-236.000000
 21
-48.958500
  0
LINE
  8
0
  6
CONTINUOUS
 62
7
 10
-232.500000
 20
-50.979198
 11
-236.000000
 21
-48.958500
  0
LINE
  8
0
  6
CENTER
 62
2
 10
-181.000000
 20
-54.000000
 11
-181.000000
 21
-46.500000
  0
LINE
  8
0
  6
DASHED
 62
2
 10
-178.899994
 20
-52.000000
 11
-178.899994
 21
-47.500000
  0
LINE
  8
0
  6
DASHED
 62
2
 10
-183.100006
 20
-52.000000
 11
-183.100006
 21
-47.500000
  0
LINE
  8
0
  6
DASHED
 62
2
 10
-178.500000
 20
-52.000000
 11
-178.500000
 21
-47.500000
  0
LINE
  8
0
  6
DASHED
 62
2
 10
-183.500000
 20
-52.000000
 11
-183.500000
 21
-47.500000
  0
LINE
  8
0
  6
DASHED
 62
2
 10
-177.000000
 20
-52.000000
 11
-185.000000
 21
-52.000000
  0
LINE
  8
0
  6
DASHED
 62
2
 10
-208.000000
 20
-49.099998
 11
-214.000000
 21
-49.099998
  0
LINE
  8
0
  6
DASHED
 62
2
 10
-208.000000
 20
-49.099998
 11
-208.000000
 21
-47.500000
  0
LINE
  8
0
  6
DASHED
 62
2
 10
-214.000000
 20
-49.099998
 11
-214.000000
 21
-47.500000
  0
LINE
  8
0
  6
DASHED
 62
2
 10
-231.000000
 20
-53.000000
 11
-231.000000
 21
-52.000000
  0
LINE
  8
0
  6
DASHED
 62
2
 10
-177.000000
 20
-53.000000
 11
-177.000000
 21
-52.000000
  0
LINE
  8
0
  6
DASHED
 62
2
 10
-223.000000
 20
-52.000000
 11
-224.800003
 21
-52.000000
  0
LINE
  8
0
  6
DASHED
 62
2
 10
-229.199997
 20
-52.000000
 11
-231.000000
 21
-52.000000
  0
LINE
  8
0
  6
CENTER
 62
2
 10
-254.000000
 20
-64.500000
 11
-250.000000
 21
-64.500000
  0
LINE
  8
0
  6
CENTER
 62
2
 10
-254.000000
 20
-55.500000
 11
-250.000000
 21
-55.500000
  0
LINE
  8
0
  6
CENTER
 62
2
 10
-232.000000
 20
-67.500000
 11
-232.000000
 21
-71.500000
  0
LINE
  8
0
  6
CENTER
 62
2
 10
-207.000000
 20
-67.500000
 11
-207.000000
 21
-71.500000
  0
LINE
  8
0
  6
CENTER
 62
2
 10
-182.000000
 20
-67.500000
 11
-182.000000
 21
-71.500000
  0
LINE
  8
0
  6
CONTINUOUS
 62
7
 10
-165.399994
 20
-68.500000
 11
-165.399994
 21
-66.500000
  0
LINE
  8
0
  6
CONTINUOUS
 62
7
 10
-165.800003
 20
-68.500000
 11
-165.399994
 21
-68.500000
  0
LINE
  8
0
  6
CENTER
 62
2
 10
-236.000000
 20
-48.099998
 11
-236.000000
 21
-57.900002
  0
LINE
  8
0
  6
CENTER
 62
2
 10
-240.899994
 20
-53.000000
 11
-231.199997
 21
-53.000000
  0
LINE
  8
0
  6
CONTINUOUS
 62
7
 10
-167.300003
 20
-67.500000
 11
-167.300003
 21
-59.500000
  0
LINE
  8
0
  6
CENTER
 62
2
 10
-185.199997
 20
-63.299999
 11
-185.199997
 21
-67.300003
  0
LINE
  8
0
  6
CENTER
 62
2
 10
-187.199997
 20
-65.300003
 11
-183.199997
 21
-65.300003
  0
LINE
  8
0
  6
CONTINUOUS
 62
7
 10
-223.000000
 20
-69.000000
 11
-223.000000
 21
-48.000000
  0
LINE
  8
0
  6
CENTER
 62
2
 10
-243.800003
 20
-63.500000
 11
-211.800003
 21
-63.500000
  0
LINE
  8
0
  6
CONTINUOUS
 62
7
 10
-228.000000
 20
-67.750000
 11
-223.000000
 21
-67.750000
  0
LINE
  8
0
  6
CONTINUOUS
 62
7
 10
-228.000000
 20
-67.750000
 11
-228.000000
 21
-59.250000
  0
LINE
  8
0
  6
CONTINUOUS
 62
7
 10
-228.000000
 20
-59.250000
 11
-223.000000
 21
-59.250000
  0
LINE
  8
0
  6
CONTINUOUS
 62
7
 10
-228.000000
 20
-60.753899
 11
-223.000000
 21
-60.753899
  0
LINE
  8
0
  6
CONTINUOUS
 62
7
 10
-228.000000
 20
-62.063801
 11
-223.000000
 21
-62.063801
  0
LINE
  8
0
  6
CONTINUOUS
 62
7
 10
-228.000000
 20
-64.936096
 11
-223.000000
 21
-64.936096
  0
LINE
  8
0
  6
CONTINUOUS
 62
7
 10
-228.000000
 20
-66.246002
 11
-223.000000
 21
-66.246002
  0
LINE
  8
0
  6
CONTINUOUS
 62
7
 10
-242.800003
 20
-66.500000
 11
-228.000000
 21
-66.500000
  0
LINE
  8
0
  6
CONTINUOUS
 62
7
 10
-242.800003
 20
-66.500000
 11
-242.800003
 21
-60.500000
  0
LINE
  8
0
  6
CONTINUOUS
 62
7
 10
-242.800003
 20
-60.500000
 11
-228.000000
 21
-60.500000
  0
LINE
  8
0
  6
CONTINUOUS
 62
2
 10
-242.800003
 20
-66.000000
 11
-228.000000
 21
-66.000000
  0
LINE
  8
0
  6
CONTINUOUS
 62
2
 10
-242.800003
 20
-61.000000
 11
-228.000000
 21
-61.000000
  0
LINE
  8
0
  6
CONTINUOUS
 62
7
 10
-215.500000
 20
-69.000000
 11
-215.500000
 21
-61.500000
  0
LINE
  8
0
  6
CONTINUOUS
 62
7
 10
-244.000000
 20
-61.970901
 11
-242.800003
 21
-61.970901
  0
LINE
  8
0
  6
CONTINUOUS
 62
7
 10
-244.000000
 20
-63.029099
 11
-242.800003
 21
-63.029099
  0
LINE
  8
0
  6
CONTINUOUS
 62
7
 10
-182.800003
 20
-67.500000
 11
-182.800003
 21
-59.500000
  0
LINE
  8
0
  6
CONTINUOUS
 62
7
 10
-182.800003
 20
-59.500000
 11
-167.300003
 21
-59.500000
  0
LINE
  8
0
  6
CONTINUOUS
 62
7
 10
-182.800003
 20
-67.500000
 11
-167.300003
 21
-67.500000
  0
LINE
  8
0
  6
CONTINUOUS
 62
7
 10
-223.000000
 20
-69.000000
 11
-215.500000
 21
-69.000000
  0
LINE
  8
0
  6
DASHED
 62
2
 10
-213.500000
 20
-53.000000
 11
-213.500000
 21
-49.099998
  0
LINE
  8
0
  6
DASHED
 62
2
 10
-213.100006
 20
-53.000000
 11
-213.100006
 21
-49.099998
  0
LINE
  8
0
  6
CENTER
 62
2
 10
-211.000000
 20
-54.000000
 11
-211.000000
 21
-46.500000
  0
LINE
  8
0
  6
DASHED
 62
2
 10
-208.899994
 20
-53.000000
 11
-208.899994
 21
-49.099998
  0
LINE
  8
0
  6
DASHED
 62
2
 10
-208.500000
 20
-53.000000
 11
-208.500000
 21
-49.099998
  0
LINE
  8
0
  6
DASHED
 62
2
 10
-215.000000
 20
-53.000000
 11
-207.000000
 21
-53.000000
  0
LINE
  8
0
  6
CONTINUOUS
 62
7
 10
-223.000000
 20
-48.000000
 11
-155.000000
 21
-48.000000
  0
LINE
  8
0
  6
CONTINUOUS
 62
7
 10
-212.500000
 20
-58.500000
 11
-165.500000
 21
-58.500000
  0
LINE
  8
0
  6
CONTINUOUS
 62
7
 10
-162.500000
 20
-69.000000
 11
-162.500000
 21
-61.500000
  0
LINE
  8
0
  6
CONTINUOUS
 62
7
 10
-155.000000
 20
-69.000000
 11
-155.000000
 21
-48.000000
  0
LINE
  8
0
  6
CONTINUOUS
 62
7
 10
-150.000000
 20
-67.750000
 11
-150.000000
 21
-59.250000
  0
LINE
  8
0
  6
CONTINUOUS
 62
7
 10
-155.000000
 20
-67.750000
 11
-150.000000
 21
-67.750000
  0
LINE
  8
0
  6
CONTINUOUS
 62
7
 10
-155.000000
 20
-59.250000
 11
-150.000000
 21
-59.250000
  0
LINE
  8
0
  6
CONTINUOUS
 62
7
 10
-155.000000
 20
-60.753899
 11
-150.000000
 21
-60.753899
  0
LINE
  8
0
  6
CONTINUOUS
 62
7
 10
-155.000000
 20
-62.063801
 11
-150.000000
 21
-62.063801
  0
LINE
  8
0
  6
CONTINUOUS
 62
7
 10
-155.000000
 20
-64.936096
 11
-150.000000
 21
-64.936096
  0
LINE
  8
0
  6
CONTINUOUS
 62
7
 10
-155.000000
 20
-66.246002
 11
-150.000000
 21
-66.246002
  0
LINE
  8
0
  6
CONTINUOUS
 62
7
 10
-150.000000
 20
-66.500000
 11
-145.300003
 21
-66.500000
  0
LINE
  8
0
  6
CONTINUOUS
 62
2
 10
-150.000000
 20
-66.000000
 11
-145.300003
 21
-66.000000
  0
LINE
  8
0
  6
CONTINUOUS
 62
2
 10
-150.000000
 20
-61.000000
 11
-145.300003
 21
-61.000000
  0
LINE
  8
0
  6
CONTINUOUS
 62
7
 10
-150.000000
 20
-60.500000
 11
-145.300003
 21
-60.500000
  0
LINE
  8
0
  6
CENTER
 62
2
 10
-168.300003
 20
-63.500000
 11
-144.300003
 21
-63.500000
  0
LINE
  8
0
  6
CONTINUOUS
 62
7
 10
-145.300003
 20
-66.500000
 11
-145.300003
 21
-60.500000
  0
LINE
  8
0
  6
CONTINUOUS
 62
7
 10
-162.500000
 20
-69.000000
 11
-155.000000
 21
-69.000000
  0
LINE
  8
0
  6
CONTINUOUS
 62
7
 10
-167.000000
 20
-61.700001
 11
-167.000000
 21
-58.500000
  0
LINE
  8
0
  6
DASHED
 62
2
 10
-185.000000
 20
-53.000000
 11
-185.000000
 21
-52.000000
  0
LINE
  8
0
  6
CENTER
 62
2
 10
203.000000
 20
-67.500000
 11
203.000000
 21
-71.500000
  0
LINE
  8
0
  6
CENTER
 62
2
 10
173.000000
 20
187.500000
 11
173.000000
 21
183.500000
  0
LINE
  8
0
  6
CENTER
 62
2
 10
188.000000
 20
187.500000
 11
188.000000
 21
183.500000
  0
LINE
  8
0
  6
CONTINUOUS
 62
7
 10
-165.000000
 20
186.000000
 11
-165.000000
 21
207.000000
  0
LINE
  8
0
  6
CONTINUOUS
 62
7
 10
-172.500000
 20
186.000000
 11
-172.500000
 21
193.500000
  0
LINE
  8
0
  6
CONTINUOUS
 62
2
 10
-160.000000
 20
189.000000
 11
-155.300003
 21
189.000000
  0
LINE
  8
0
  6
CONTINUOUS
 62
7
 10
-160.000000
 20
188.500000
 11
-155.300003
 21
188.500000
  0
LINE
  8
0
  6
CONTINUOUS
 62
7
 10
-155.300003
 20
188.500000
 11
-155.300003
 21
194.500000
  0
LINE
  8
0
  6
CONTINUOUS
 62
2
 10
-160.000000
 20
194.000000
 11
-155.300003
 21
194.000000
  0
LINE
  8
0
  6
CONTINUOUS
 62
7
 10
-160.000000
 20
194.500000
 11
-155.300003
 21
194.500000
  0
LINE
  8
0
  6
CENTER
 62
2
 10
-178.300003
 20
191.500000
 11
-154.300003
 21
191.500000
  0
LINE
  8
0
  6
CONTINUOUS
 62
7
 10
240.000000
 20
168.500000
 11
245.000000
 21
168.500000
  0
LINE
  8
0
  6
CONTINUOUS
 62
7
 10
240.000000
 20
167.744003
 11
245.000000
 21
167.744003
  0
LINE
  8
0
  6
CONTINUOUS
 62
7
 10
240.000000
 20
165.255997
 11
245.000000
 21
165.255997
  0
LINE
  8
0
  6
CONTINUOUS
 62
7
 10
240.000000
 20
163.744003
 11
245.000000
 21
163.744003
  0
LINE
  8
0
  6
CONTINUOUS
 62
7
 10
240.000000
 20
161.255997
 11
245.000000
 21
161.255997
  0
LINE
  8
0
  6
CONTINUOUS
 62
7
 10
240.000000
 20
160.500000
 11
245.000000
 21
160.500000
  0
LINE
  8
0
  6
CONTINUOUS
 62
7
 10
245.000000
 20
168.500000
 11
245.000000
 21
160.500000
  0
LINE
  8
0
  6
CONTINUOUS
 62
7
 10
283.563995
 20
168.500000
 11
286.436005
 21
168.500000
  0
LINE
  8
0
  6
CONTINUOUS
 62
7
 10
282.253998
 20
167.744003
 11
280.817993
 21
165.255997
  0
LINE
  8
0
  6
CONTINUOUS
 62
7
 10
280.817993
 20
163.744003
 11
282.253998
 21
161.255997
  0
LINE
  8
0
  6
CONTINUOUS
 62
7
 10
286.436005
 20
160.500000
 11
283.563995
 21
160.500000
  0
LINE
  8
0
  6
CONTINUOUS
 62
7
 10
289.182007
 20
163.744003
 11
287.746002
 21
161.255997
  0
LINE
  8
0
  6
CONTINUOUS
 62
7
 10
287.746002
 20
167.744003
 11
289.182007
 21
165.255997
  0
LINE
  8
0
  6
CENTER
 62
2
 10
279.750000
 20
164.500000
 11
290.250000
 21
164.500000
  0
LINE
  8
0
  6
CENTER
 62
2
 10
285.000000
 20
159.250000
 11
285.000000
 21
169.750000
  0
LINE
  8
0
  6
CONTINUOUS
 62
7
 10
284.134003
 20
166.000000
 11
283.268005
 21
164.500000
  0
LINE
  8
0
  6
CONTINUOUS
 62
7
 10
283.268005
 20
164.500000
 11
284.134003
 21
163.000000
  0
LINE
  8
0
  6
CONTINUOUS
 62
7
 10
285.865997
 20
163.000000
 11
284.134003
 21
163.000000
  0
LINE
  8
0
  6
CONTINUOUS
 62
7
 10
286.731995
 20
164.500000
 11
285.865997
 21
163.000000
  0
LINE
  8
0
  6
CONTINUOUS
 62
7
 10
285.865997
 20
166.000000
 11
286.731995
 21
164.500000
  0
LINE
  8
0
  6
CONTINUOUS
 62
7
 10
284.134003
 20
166.000000
 11
285.865997
 21
166.000000
  0
LINE
  8
0
  6
CONTINUOUS
 62
7
 10
229.000000
 20
79.000000
 11
240.000000
 21
79.000000
  0
LINE
  8
0
  6
CONTINUOUS
 62
7
 10
245.000000
 20
98.750000
 11
245.000000
 21
90.250000
  0
LINE
  8
0
  6
CONTINUOUS
 62
7
 10
240.000000
 20
98.750000
 11
245.000000
 21
98.750000
  0
LINE
  8
0
  6
CONTINUOUS
 62
7
 10
240.000000
 20
90.250000
 11
245.000000
 21
90.250000
  0
LINE
  8
0
  6
CONTINUOUS
 62
7
 10
240.000000
 20
91.753998
 11
245.000000
 21
91.753998
  0
LINE
  8
0
  6
CONTINUOUS
 62
7
 10
240.000000
 20
93.063904
 11
245.000000
 21
93.063904
  0
LINE
  8
0
  6
CONTINUOUS
 62
7
 10
240.000000
 20
95.936203
 11
245.000000
 21
95.936203
  0
LINE
  8
0
  6
CONTINUOUS
 62
7
 10
240.000000
 20
97.246101
 11
245.000000
 21
97.246101
  0
LINE
  8
0
  6
CONTINUOUS
 62
7
 10
232.500000
 20
100.000000
 11
240.000000
 21
100.000000
  0
LINE
  8
0
  6
CONTINUOUS
 62
7
 10
240.000000
 20
100.000000
 11
240.000000
 21
79.000000
  0
LINE
  8
0
  6
CONTINUOUS
 62
7
 10
232.500000
 20
100.000000
 11
232.500000
 21
92.500000
  0
LINE
  8
0
  6
CONTINUOUS
 62
2
 10
229.199997
 20
92.000000
 11
232.500000
 21
92.000000
  0
LINE
  8
0
  6
CONTINUOUS
 62
7
 10
229.199997
 20
91.500000
 11
232.328003
 21
91.500000
  0
LINE
  8
0
  6
CONTINUOUS
 62
2
 10
229.600006
 20
97.000000
 11
232.500000
 21
97.000000
  0
LINE
  8
0
  6
CONTINUOUS
 62
7
 10
229.600006
 20
97.500000
 11
232.500000
 21
97.500000
  0
LINE
  8
0
  6
CONTINUOUS
 62
2
 10
245.000000
 20
97.000000
 11
249.699997
 21
97.000000
  0
LINE
  8
0
  6
CONTINUOUS
 62
7
 10
245.000000
 20
97.500000
 11
249.699997
 21
97.500000
  0
LINE
  8
0
  6
CONTINUOUS
 62
7
 10
249.699997
 20
97.500000
 11
249.699997
 21
91.500000
  0
LINE
  8
0
  6
CONTINUOUS
 62
2
 10
245.000000
 20
92.000000
 11
249.699997
 21
92.000000
  0
LINE
  8
0
  6
CONTINUOUS
 62
7
 10
245.000000
 20
91.500000
 11
249.699997
 21
91.500000
  0
LINE
  8
0
  6
CENTER
 62
2
 10
226.699997
 20
94.500000
 11
250.699997
 21
94.500000
  0
LINE
  8
0
  6
CONTINUOUS
 62
7
 10
244.199997
 20
-165.500000
 11
244.500000
 21
-165.500000
  0
LINE
  8
0
  6
CONTINUOUS
 62
7
 10
240.000000
 20
19.000000
 11
245.000000
 21
19.000000
  0
LINE
  8
0
  6
CONTINUOUS
 62
7
 10
245.000000
 20
11.000000
 11
245.000000
 21
19.000000
  0
LINE
  8
0
  6
CONTINUOUS
 62
7
 10
240.000000
 20
20.000000
 11
240.000000
 21
10.000000
  0
LINE
  8
0
  6
CONTINUOUS
 62
7
 10
245.000000
 20
18.000000
 11
249.699997
 21
18.000000
  0
LINE
  8
0
  6
CONTINUOUS
 62
2
 10
245.000000
 20
17.500000
 11
249.699997
 21
17.500000
  0
LINE
  8
0
  6
CONTINUOUS
 62
2
 10
245.000000
 20
12.500000
 11
249.699997
 21
12.500000
  0
LINE
  8
0
  6
CONTINUOUS
 62
7
 10
245.000000
 20
12.000000
 11
249.699997
 21
12.000000
  0
LINE
  8
0
  6
CENTER
 62
2
 10
239.000000
 20
15.000000
 11
250.699997
 21
15.000000
  0
LINE
  8
0
  6
CONTINUOUS
 62
7
 10
249.699997
 20
18.000000
 11
249.699997
 21
12.000000
  0
LINE
  8
0
  6
CONTINUOUS
 62
7
 10
240.000000
 20
11.000000
 11
245.000000
 21
11.000000
  0
LINE
  8
0
  6
CONTINUOUS
 62
7
 10
240.000000
 20
11.756300
 11
245.000000
 21
11.756300
  0
LINE
  8
0
  6
CONTINUOUS
 62
7
 10
240.000000
 20
14.243800
 11
245.000000
 21
14.243800
  0
LINE
  8
0
  6
CONTINUOUS
 62
7
 10
240.000000
 20
15.756300
 11
245.000000
 21
15.756300
  0
LINE
  8
0
  6
CONTINUOUS
 62
7
 10
240.000000
 20
18.243799
 11
245.000000
 21
18.243799
  0
LINE
  8
0
  6
CENTER
 62
2
 10
293.000000
 20
-119.400002
 11
293.000000
 21
-104.599998
  0
LINE
  8
0
  6
CONTINUOUS
 62
7
 10
287.885986
 20
-104.500000
 11
291.500000
 21
-104.500000
  0
LINE
  8
0
  6
CONTINUOUS
 62
7
 10
284.000000
 20
-104.500000
 11
285.114014
 21
-104.500000
  0
LINE
  8
0
  6
CONTINUOUS
 62
7
 10
279.000000
 20
-96.000000
 11
279.000000
 21
-103.000000
  0
LINE
  8
0
  6
CONTINUOUS
 62
7
 10
279.299988
 20
-103.300003
 11
279.299988
 21
-120.699997
  0
LINE
  8
0
  6
CONTINUOUS
 62
7
 10
279.000000
 20
-103.000000
 11
279.299988
 21
-103.300003
  0
LINE
  8
0
  6
CONTINUOUS
 62
7
 10
284.000000
 20
-119.500000
 11
285.114014
 21
-119.500000
  0
LINE
  8
0
  6
CONTINUOUS
 62
7
 10
279.000000
 20
-128.000000
 11
291.500000
 21
-128.000000
  0
LINE
  8
0
  6
CONTINUOUS
 62
7
 10
279.000000
 20
-128.000000
 11
279.000000
 21
-121.000000
  0
LINE
  8
0
  6
CONTINUOUS
 62
7
 10
279.000000
 20
-121.000000
 11
279.299988
 21
-120.699997
  0
LINE
  8
0
  6
CONTINUOUS
 62
7
 10
279.000000
 20
-96.000000
 11
291.500000
 21
-96.000000
  0
LINE
  8
0
  6
CONTINUOUS
 62
7
 10
301.000000
 20
-128.500000
 11
301.000000
 21
-95.500000
  0
LINE
  8
0
  6
CONTINUOUS
 62
7
 10
291.500000
 20
-95.500000
 11
291.500000
 21
-104.500000
  0
LINE
  8
0
  6
CONTINUOUS
 62
7
 10
291.500000
 20
-128.500000
 11
301.000000
 21
-128.500000
  0
LINE
  8
0
  6
CENTER
 62
2
 10
278.299988
 20
-112.000000
 11
302.000000
 21
-112.000000
  0
LINE
  8
0
  6
CONTINUOUS
 62
7
 10
291.000000
 20
-128.000000
 11
291.000000
 21
-119.500000
  0
LINE
  8
0
  6
CONTINUOUS
 62
7
 10
284.000000
 20
-104.500000
 11
284.000000
 21
-119.500000
  0
LINE
  8
0
  6
CONTINUOUS
 62
7
 10
291.500000
 20
-128.500000
 11
291.500000
 21
-119.500000
  0
LINE
  8
0
  6
CONTINUOUS
 62
7
 10
287.885986
 20
-119.500000
 11
291.500000
 21
-119.500000
  0
LINE
  8
0
  6
CONTINUOUS
 62
7
 10
291.000000
 20
-96.000000
 11
291.000000
 21
-104.500000
  0
LINE
  8
0
  6
CENTER
 62
2
 10
277.000000
 20
-99.500000
 11
281.000000
 21
-99.500000
  0
LINE
  8
0
  6
CENTER
 62
2
 10
299.000000
 20
-100.000000
 11
303.000000
 21
-100.000000
  0
LINE
  8
0
  6
CENTER
 62
2
 10
299.000000
 20
-124.000000
 11
303.000000
 21
-124.000000
  0
LINE
  8
0
  6
CENTER
 62
2
 10
277.000000
 20
-124.500000
 11
281.000000
 21
-124.500000
  0
LINE
  8
0
  6
CONTINUOUS
 62
7
 10
301.000000
 20
-95.500000
 11
279.500000
 21
-95.500000
  0
LINE
  8
0
  6
CONTINUOUS
 62
7
 10
300.500000
 20
-95.500000
 11
300.500000
 21
-85.500000
  0
LINE
  8
0
  6
CONTINUOUS
 62
7
 10
279.500000
 20
-85.500000
 11
300.500000
 21
-85.500000
  0
LINE
  8
0
  6
CONTINUOUS
 62
7
 10
279.500000
 20
-95.500000
 11
279.500000
 21
-85.500000
  0
LINE
  8
0
  6
CONTINUOUS
 62
7
 10
281.000000
 20
-95.500000
 11
281.000000
 21
-96.000000
  0
LINE
  8
0
  6
CONTINUOUS
 62
7
 10
289.000000
 20
-95.500000
 11
289.000000
 21
-96.000000
  0
LINE
  8
0
  6
CONTINUOUS
 62
7
 10
283.563995
 20
-86.500000
 11
286.436005
 21
-86.500000
  0
LINE
  8
0
  6
CONTINUOUS
 62
7
 10
282.253998
 20
-87.256203
 11
280.817993
 21
-89.743698
  0
LINE
  8
0
  6
CONTINUOUS
 62
7
 10
280.817993
 20
-91.256203
 11
282.253998
 21
-93.743698
  0
LINE
  8
0
  6
CONTINUOUS
 62
7
 10
286.436005
 20
-94.500000
 11
283.563995
 21
-94.500000
  0
LINE
  8
0
  6
CONTINUOUS
 62
7
 10
289.182007
 20
-91.256203
 11
287.746002
 21
-93.743698
  0
LINE
  8
0
  6
CONTINUOUS
 62
7
 10
287.746002
 20
-87.256203
 11
289.182007
 21
-89.743698
  0
LINE
  8
0
  6
CENTER
 62
2
 10
279.750000
 20
-90.500000
 11
290.250000
 21
-90.500000
  0
LINE
  8
0
  6
CENTER
 62
2
 10
285.000000
 20
-95.750000
 11
285.000000
 21
-85.250000
  0
LINE
  8
0
  6
CONTINUOUS
 62
7
 10
284.134003
 20
-89.000000
 11
283.268005
 21
-90.500000
  0
LINE
  8
0
  6
CONTINUOUS
 62
7
 10
283.268005
 20
-90.500000
 11
284.134003
 21
-92.000000
  0
LINE
  8
0
  6
CONTINUOUS
 62
7
 10
285.865997
 20
-92.000000
 11
284.134003
 21
-92.000000
  0
LINE
  8
0
  6
CONTINUOUS
 62
7
 10
286.731995
 20
-90.499901
 11
285.865997
 21
-91.999901
  0
LINE
  8
0
  6
CONTINUOUS
 62
7
 10
285.865997
 20
-89.000000
 11
286.731995
 21
-90.500000
  0
LINE
  8
0
  6
CONTINUOUS
 62
7
 10
284.134003
 20
-89.000000
 11
285.865997
 21
-89.000000
  0
LINE
  8
0
  6
CONTINUOUS
 62
7
 10
-223.000000
 20
169.500000
 11
-165.000000
 21
169.500000
  0
LINE
  8
0
  6
CONTINUOUS
 62
7
 10
-177.300003
 20
159.500000
 11
-165.000000
 21
159.500000
  0
LINE
  8
0
  6
CONTINUOUS
 62
7
 10
247.500000
 20
-95.500000
 11
247.500000
 21
-85.500000
  0
LINE
  8
0
  6
CONTINUOUS
 62
7
 10
255.000000
 20
-95.500000
 11
255.000000
 21
-85.500000
  0
LINE
  8
0
  6
CONTINUOUS
 62
7
 10
260.000000
 20
-93.500000
 11
264.700012
 21
-93.500000
  0
LINE
  8
0
  6
CONTINUOUS
 62
2
 10
260.000000
 20
-93.000000
 11
264.700012
 21
-93.000000
  0
LINE
  8
0
  6
CONTINUOUS
 62
2
 10
260.000000
 20
-88.000000
 11
264.700012
 21
-88.000000
  0
LINE
  8
0
  6
CONTINUOUS
 62
7
 10
260.000000
 20
-87.500000
 11
264.700012
 21
-87.500000
  0
LINE
  8
0
  6
CENTER
 62
2
 10
241.699997
 20
-90.500000
 11
265.700012
 21
-90.500000
  0
LINE
  8
0
  6
CONTINUOUS
 62
7
 10
264.700012
 20
-93.500000
 11
264.700012
 21
-87.500000
  0
LINE
  8
0
  6
CONTINUOUS
 62
7
 10
255.000000
 20
-86.500000
 11
260.000000
 21
-86.500000
  0
LINE
  8
0
  6
CONTINUOUS
 62
7
 10
255.000000
 20
-87.256203
 11
260.000000
 21
-87.256203
  0
LINE
  8
0
  6
CONTINUOUS
 62
7
 10
255.000000
 20
-89.743698
 11
260.000000
 21
-89.743698
  0
LINE
  8
0
  6
CONTINUOUS
 62
7
 10
255.000000
 20
-91.256203
 11
260.000000
 21
-91.256203
  0
LINE
  8
0
  6
CONTINUOUS
 62
7
 10
255.000000
 20
-93.743698
 11
260.000000
 21
-93.743698
  0
LINE
  8
0
  6
CONTINUOUS
 62
7
 10
255.000000
 20
-94.500000
 11
260.000000
 21
-94.500000
  0
LINE
  8
0
  6
CONTINUOUS
 62
7
 10
260.000000
 20
-86.500000
 11
260.000000
 21
-94.500000
  0
LINE
  8
0
  6
CONTINUOUS
 62
7
 10
244.000000
 20
-176.000000
 11
255.000000
 21
-176.000000
  0
LINE
  8
0
  6
CONTINUOUS
 62
7
 10
260.000000
 20
-156.250000
 11
260.000000
 21
-164.750000
  0
LINE
  8
0
  6
CONTINUOUS
 62
7
 10
255.000000
 20
-156.250000
 11
260.000000
 21
-156.250000
  0
LINE
  8
0
  6
CONTINUOUS
 62
7
 10
255.000000
 20
-164.750000
 11
260.000000
 21
-164.750000
  0
LINE
  8
0
  6
CONTINUOUS
 62
7
 10
255.000000
 20
-163.246002
 11
260.000000
 21
-163.246002
  0
LINE
  8
0
  6
CONTINUOUS
 62
7
 10
255.000000
 20
-161.936005
 11
260.000000
 21
-161.936005
  0
LINE
  8
0
  6
CONTINUOUS
 62
7
 10
255.000000
 20
-159.063995
 11
260.000000
 21
-159.063995
  0
LINE
  8
0
  6
CONTINUOUS
 62
7
 10
255.000000
 20
-157.753998
 11
260.000000
 21
-157.753998
  0
LINE
  8
0
  6
CONTINUOUS
 62
7
 10
247.500000
 20
-155.000000
 11
255.000000
 21
-155.000000
  0
LINE
  8
0
  6
CONTINUOUS
 62
7
 10
255.000000
 20
-155.000000
 11
255.000000
 21
-176.000000
  0
LINE
  8
0
  6
CONTINUOUS
 62
7
 10
247.500000
 20
-155.000000
 11
247.500000
 21
-162.500000
  0
LINE
  8
0
  6
CONTINUOUS
 62
2
 10
244.199997
 20
-163.000000
 11
247.500000
 21
-163.000000
  0
LINE
  8
0
  6
CONTINUOUS
 62
7
 10
244.199997
 20
-163.500000
 11
247.328003
 21
-163.500000
  0
LINE
  8
0
  6
CONTINUOUS
 62
2
 10
244.600006
 20
-158.000000
 11
247.500000
 21
-158.000000
  0
LINE
  8
0
  6
CONTINUOUS
 62
7
 10
244.600006
 20
-157.500000
 11
247.500000
 21
-157.500000
  0
LINE
  8
0
  6
CONTINUOUS
 62
2
 10
260.000000
 20
-158.000000
 11
264.700012
 21
-158.000000
  0
LINE
  8
0
  6
CONTINUOUS
 62
7
 10
260.000000
 20
-157.500000
 11
264.700012
 21
-157.500000
  0
LINE
  8
0
  6
CONTINUOUS
 62
7
 10
264.700012
 20
-157.500000
 11
264.700012
 21
-163.500000
  0
LINE
  8
0
  6
CONTINUOUS
 62
2
 10
260.000000
 20
-163.000000
 11
264.700012
 21
-163.000000
  0
LINE
  8
0
  6
CONTINUOUS
 62
7
 10
260.000000
 20
-163.500000
 11
264.700012
 21
-163.500000
  0
LINE
  8
0
  6
CENTER
 62
2
 10
241.699997
 20
-160.500000
 11
265.700012
 21
-160.500000
  0
LINE
  8
0
  6
CONTINUOUS
 62
7
 10
255.000000
 20
-236.755997
 11
260.000000
 21
-236.755997
  0
LINE
  8
0
  6
CONTINUOUS
 62
7
 10
255.000000
 20
-239.244003
 11
260.000000
 21
-239.244003
  0
LINE
  8
0
  6
CONTINUOUS
 62
7
 10
255.000000
 20
-236.000000
 11
260.000000
 21
-236.000000
  0
LINE
  8
0
  6
CONTINUOUS
 62
7
 10
260.000000
 20
-244.000000
 11
260.000000
 21
-236.000000
  0
LINE
  8
0
  6
CONTINUOUS
 62
7
 10
255.000000
 20
-235.000000
 11
255.000000
 21
-245.000000
  0
LINE
  8
0
  6
CONTINUOUS
 62
7
 10
260.000000
 20
-237.000000
 11
264.700012
 21
-237.000000
  0
LINE
  8
0
  6
CONTINUOUS
 62
2
 10
260.000000
 20
-237.500000
 11
264.700012
 21
-237.500000
  0
LINE
  8
0
  6
CONTINUOUS
 62
2
 10
260.000000
 20
-242.500000
 11
264.700012
 21
-242.500000
  0
LINE
  8
0
  6
CONTINUOUS
 62
7
 10
260.000000
 20
-243.000000
 11
264.700012
 21
-243.000000
  0
LINE
  8
0
  6
CENTER
 62
2
 10
254.000000
 20
-240.000000
 11
265.700012
 21
-240.000000
  0
LINE
  8
0
  6
CONTINUOUS
 62
7
 10
264.700012
 20
-237.000000
 11
264.700012
 21
-243.000000
  0
LINE
  8
0
  6
CONTINUOUS
 62
7
 10
255.000000
 20
-244.000000
 11
260.000000
 21
-244.000000
  0
LINE
  8
0
  6
CONTINUOUS
 62
7
 10
255.000000
 20
-243.244003
 11
260.000000
 21
-243.244003
  0
LINE
  8
0
  6
CONTINUOUS
 62
7
 10
255.000000
 20
-240.755997
 11
260.000000
 21
-240.755997
  0
LINE
  8
0
  6
CONTINUOUS
 62
7
 10
229.199997
 20
89.500000
 11
229.500000
 21
89.500000
  0
LINE
  8
0
  6
CENTER
 62
2
 10
-117.000000
 20
135.600006
 11
-117.000000
 21
150.399994
  0
LINE
  8
0
  6
CONTINUOUS
 62
7
 10
-122.113998
 20
150.500000
 11
-118.500000
 21
150.500000
  0
LINE
  8
0
  6
CONTINUOUS
 62
7
 10
-126.000000
 20
150.500000
 11
-124.886002
 21
150.500000
  0
LINE
  8
0
  6
CONTINUOUS
 62
7
 10
-131.000000
 20
159.000000
 11
-131.000000
 21
152.000000
  0
LINE
  8
0
  6
CONTINUOUS
 62
7
 10
-130.699997
 20
151.699997
 11
-130.699997
 21
134.300003
  0
LINE
  8
0
  6
CONTINUOUS
 62
7
 10
-131.000000
 20
152.000000
 11
-130.699997
 21
151.699997
  0
LINE
  8
0
  6
CONTINUOUS
 62
7
 10
-126.000000
 20
135.500000
 11
-124.886002
 21
135.500000
  0
LINE
  8
0
  6
CONTINUOUS
 62
7
 10
-131.000000
 20
127.000000
 11
-118.500000
 21
127.000000
  0
LINE
  8
0
  6
CONTINUOUS
 62
7
 10
-131.000000
 20
127.000000
 11
-131.000000
 21
134.000000
  0
LINE
  8
0
  6
CONTINUOUS
 62
7
 10
-131.000000
 20
134.000000
 11
-130.699997
 21
134.300003
  0
LINE
  8
0
  6
CONTINUOUS
 62
7
 10
-131.000000
 20
159.000000
 11
-118.500000
 21
159.000000
  0
LINE
  8
0
  6
CONTINUOUS
 62
7
 10
-109.000000
 20
126.500000
 11
-109.000000
 21
159.500000
  0
LINE
  8
0
  6
CONTINUOUS
 62
7
 10
-118.500000
 20
159.500000
 11
-118.500000
 21
150.500000
  0
LINE
  8
0
  6
CONTINUOUS
 62
7
 10
-118.500000
 20
126.500000
 11
-109.000000
 21
126.500000
  0
LINE
  8
0
  6
CENTER
 62
2
 10
-131.699997
 20
143.000000
 11
-108.000000
 21
143.000000
  0
LINE
  8
0
  6
CONTINUOUS
 62
7
 10
-119.000000
 20
127.000000
 11
-119.000000
 21
135.500000
  0
LINE
  8
0
  6
CONTINUOUS
 62
7
 10
-126.000000
 20
150.500000
 11
-126.000000
 21
135.500000
  0
LINE
  8
0
  6
CONTINUOUS
 62
7
 10
-118.500000
 20
126.500000
 11
-118.500000
 21
135.500000
  0
LINE
  8
0
  6
CONTINUOUS
 62
7
 10
-122.113998
 20
135.500000
 11
-118.500000
 21
135.500000
  0
LINE
  8
0
  6
CONTINUOUS
 62
7
 10
-119.000000
 20
159.000000
 11
-119.000000
 21
150.500000
  0
LINE
  8
0
  6
CENTER
 62
2
 10
-133.000000
 20
155.500000
 11
-129.000000
 21
155.500000
  0
LINE
  8
0
  6
CENTER
 62
2
 10
-111.000000
 20
155.000000
 11
-107.000000
 21
155.000000
  0
LINE
  8
0
  6
CENTER
 62
2
 10
-111.000000
 20
131.000000
 11
-107.000000
 21
131.000000
  0
LINE
  8
0
  6
CENTER
 62
2
 10
-133.000000
 20
130.500000
 11
-129.000000
 21
130.500000
  0
LINE
  8
0
  6
CONTINUOUS
 62
7
 10
-109.000000
 20
159.500000
 11
-130.500000
 21
159.500000
  0
LINE
  8
0
  6
CONTINUOUS
 62
7
 10
-109.500000
 20
159.500000
 11
-109.500000
 21
169.500000
  0
LINE
  8
0
  6
CONTINUOUS
 62
7
 10
-130.500000
 20
169.500000
 11
-109.500000
 21
169.500000
  0
LINE
  8
0
  6
CONTINUOUS
 62
7
 10
-130.500000
 20
159.500000
 11
-130.500000
 21
169.500000
  0
LINE
  8
0
  6
CONTINUOUS
 62
7
 10
-129.000000
 20
159.500000
 11
-129.000000
 21
159.000000
  0
LINE
  8
0
  6
CONTINUOUS
 62
7
 10
-121.000000
 20
159.500000
 11
-121.000000
 21
159.000000
  0
LINE
  8
0
  6
CONTINUOUS
 62
7
 10
-126.435997
 20
168.500000
 11
-123.564003
 21
168.500000
  0
LINE
  8
0
  6
CONTINUOUS
 62
7
 10
-127.746002
 20
167.744003
 11
-129.182007
 21
165.255997
  0
LINE
  8
0
  6
CONTINUOUS
 62
7
 10
-129.182007
 20
163.744003
 11
-127.746002
 21
161.255997
  0
LINE
  8
0
  6
CONTINUOUS
 62
7
 10
-123.564003
 20
160.500000
 11
-126.435997
 21
160.500000
  0
LINE
  8
0
  6
CONTINUOUS
 62
7
 10
-120.818001
 20
163.744003
 11
-122.253998
 21
161.255997
  0
LINE
  8
0
  6
CONTINUOUS
 62
7
 10
-122.253998
 20
167.744003
 11
-120.818001
 21
165.255997
  0
LINE
  8
0
  6
CENTER
 62
2
 10
-130.250000
 20
164.500000
 11
-119.750000
 21
164.500000
  0
LINE
  8
0
  6
CENTER
 62
2
 10
-125.000000
 20
159.250000
 11
-125.000000
 21
169.750000
  0
LINE
  8
0
  6
CONTINUOUS
 62
7
 10
-125.865997
 20
166.000000
 11
-126.732002
 21
164.500000
  0
LINE
  8
0
  6
CONTINUOUS
 62
7
 10
-126.732002
 20
164.500000
 11
-125.865997
 21
163.000000
  0
LINE
  8
0
  6
CONTINUOUS
 62
7
 10
-124.134003
 20
163.000000
 11
-125.865997
 21
163.000000
  0
LINE
  8
0
  6
CONTINUOUS
 62
7
 10
-123.267998
 20
164.500000
 11
-124.134003
 21
163.000000
  0
LINE
  8
0
  6
CONTINUOUS
 62
7
 10
-124.134003
 20
166.000000
 11
-123.267998
 21
164.500000
  0
LINE
  8
0
  6
CONTINUOUS
 62
7
 10
-125.865997
 20
166.000000
 11
-124.134003
 21
166.000000
  0
LINE
  8
0
  6
CONTINUOUS
 62
7
 10
-172.500000
 20
159.500000
 11
-172.500000
 21
169.500000
  0
LINE
  8
0
  6
CONTINUOUS
 62
7
 10
-165.000000
 20
159.500000
 11
-165.000000
 21
169.500000
  0
LINE
  8
0
  6
CONTINUOUS
 62
7
 10
-160.000000
 20
161.500000
 11
-155.300003
 21
161.500000
  0
LINE
  8
0
  6
CONTINUOUS
 62
2
 10
-160.000000
 20
162.000000
 11
-155.300003
 21
162.000000
  0
LINE
  8
0
  6
CONTINUOUS
 62
2
 10
-160.000000
 20
167.000000
 11
-155.300003
 21
167.000000
  0
LINE
  8
0
  6
CONTINUOUS
 62
7
 10
-160.000000
 20
167.500000
 11
-155.300003
 21
167.500000
  0
LINE
  8
0
  6
CENTER
 62
2
 10
-178.300003
 20
164.500000
 11
-154.300003
 21
164.500000
  0
LINE
  8
0
  6
CONTINUOUS
 62
7
 10
-155.300003
 20
161.500000
 11
-155.300003
 21
167.500000
  0
LINE
  8
0
  6
CONTINUOUS
 62
7
 10
-165.000000
 20
168.500000
 11
-160.000000
 21
168.500000
  0
LINE
  8
0
  6
CONTINUOUS
 62
7
 10
-165.000000
 20
167.744003
 11
-160.000000
 21
167.744003
  0
LINE
  8
0
  6
CONTINUOUS
 62
7
 10
-165.000000
 20
165.255997
 11
-160.000000
 21
165.255997
  0
LINE
  8
0
  6
CONTINUOUS
 62
7
 10
-165.000000
 20
163.744003
 11
-160.000000
 21
163.744003
  0
LINE
  8
0
  6
CONTINUOUS
 62
7
 10
-165.000000
 20
161.255997
 11
-160.000000
 21
161.255997
  0
LINE
  8
0
  6
CONTINUOUS
 62
7
 10
-165.000000
 20
160.500000
 11
-160.000000
 21
160.500000
  0
LINE
  8
0
  6
CONTINUOUS
 62
7
 10
-160.000000
 20
168.500000
 11
-160.000000
 21
160.500000
  0
LINE
  8
0
  6
CONTINUOUS
 62
7
 10
-176.000000
 20
79.000000
 11
-165.000000
 21
79.000000
  0
LINE
  8
0
  6
CONTINUOUS
 62
7
 10
-160.000000
 20
98.750000
 11
-160.000000
 21
90.250000
  0
LINE
  8
0
  6
CONTINUOUS
 62
7
 10
-165.000000
 20
98.750000
 11
-160.000000
 21
98.750000
  0
LINE
  8
0
  6
CONTINUOUS
 62
7
 10
-165.000000
 20
90.250000
 11
-160.000000
 21
90.250000
  0
LINE
  8
0
  6
CONTINUOUS
 62
7
 10
-165.000000
 20
91.753998
 11
-160.000000
 21
91.753998
  0
LINE
  8
0
  6
CONTINUOUS
 62
7
 10
-165.000000
 20
93.063904
 11
-160.000000
 21
93.063904
  0
LINE
  8
0
  6
CONTINUOUS
 62
7
 10
-165.000000
 20
95.936203
 11
-160.000000
 21
95.936203
  0
LINE
  8
0
  6
CONTINUOUS
 62
7
 10
-165.000000
 20
97.246101
 11
-160.000000
 21
97.246101
  0
LINE
  8
0
  6
CONTINUOUS
 62
7
 10
-172.500000
 20
100.000000
 11
-165.000000
 21
100.000000
  0
LINE
  8
0
  6
CONTINUOUS
 62
7
 10
-165.000000
 20
100.000000
 11
-165.000000
 21
79.000000
  0
LINE
  8
0
  6
CONTINUOUS
 62
7
 10
-172.500000
 20
100.000000
 11
-172.500000
 21
92.500000
  0
LINE
  8
0
  6
CONTINUOUS
 62
2
 10
-175.800003
 20
92.000000
 11
-172.500000
 21
92.000000
  0
LINE
  8
0
  6
CONTINUOUS
 62
7
 10
-175.800003
 20
91.500000
 11
-172.671997
 21
91.500000
  0
LINE
  8
0
  6
CONTINUOUS
 62
2
 10
-175.399994
 20
97.000000
 11
-172.500000
 21
97.000000
  0
LINE
  8
0
  6
CONTINUOUS
 62
7
 10
-175.399994
 20
97.500000
 11
-172.500000
 21
97.500000
  0
LINE
  8
0
  6
CONTINUOUS
 62
2
 10
-160.000000
 20
97.000000
 11
-155.300003
 21
97.000000
  0
LINE
  8
0
  6
CONTINUOUS
 62
7
 10
-160.000000
 20
97.500000
 11
-155.300003
 21
97.500000
  0
LINE
  8
0
  6
CONTINUOUS
 62
7
 10
-155.300003
 20
97.500000
 11
-155.300003
 21
91.500000
  0
LINE
  8
0
  6
CONTINUOUS
 62
2
 10
-160.000000
 20
92.000000
 11
-155.300003
 21
92.000000
  0
LINE
  8
0
  6
CONTINUOUS
 62
7
 10
-160.000000
 20
91.500000
 11
-155.300003
 21
91.500000
  0
LINE
  8
0
  6
CENTER
 62
2
 10
-178.300003
 20
94.500000
 11
-154.300003
 21
94.500000
  0
LINE
  8
0
  6
CONTINUOUS
 62
7
 10
-175.800003
 20
89.500000
 11
-175.500000
 21
89.500000
  0
LINE
  8
0
  6
CONTINUOUS
 62
7
 10
-165.000000
 20
18.243799
 11
-160.000000
 21
18.243799
  0
LINE
  8
0
  6
CONTINUOUS
 62
7
 10
-165.000000
 20
15.756300
 11
-160.000000
 21
15.756300
  0
LINE
  8
0
  6
CONTINUOUS
 62
7
 10
-165.000000
 20
19.000000
 11
-160.000000
 21
19.000000
  0
LINE
  8
0
  6
CONTINUOUS
 62
7
 10
-160.000000
 20
11.000000
 11
-160.000000
 21
19.000000
  0
LINE
  8
0
  6
CONTINUOUS
 62
7
 10
-165.000000
 20
20.000000
 11
-165.000000
 21
10.000000
  0
LINE
  8
0
  6
CONTINUOUS
 62
7
 10
-160.000000
 20
18.000000
 11
-155.300003
 21
18.000000
  0
LINE
  8
0
  6
CONTINUOUS
 62
2
 10
-160.000000
 20
17.500000
 11
-155.300003
 21
17.500000
  0
LINE
  8
0
  6
CONTINUOUS
 62
2
 10
-160.000000
 20
12.500000
 11
-155.300003
 21
12.500000
  0
LINE
  8
0
  6
CONTINUOUS
 62
7
 10
-160.000000
 20
12.000000
 11
-155.300003
 21
12.000000
  0
LINE
  8
0
  6
CENTER
 62
2
 10
-166.000000
 20
15.000000
 11
-154.300003
 21
15.000000
  0
LINE
  8
0
  6
CONTINUOUS
 62
7
 10
-155.300003
 20
18.000000
 11
-155.300003
 21
12.000000
  0
LINE
  8
0
  6
CONTINUOUS
 62
7
 10
-165.000000
 20
11.000000
 11
-160.000000
 21
11.000000
  0
LINE
  8
0
  6
CONTINUOUS
 62
7
 10
-165.000000
 20
11.756300
 11
-160.000000
 21
11.756300
  0
LINE
  8
0
  6
CONTINUOUS
 62
7
 10
-165.000000
 20
14.243800
 11
-160.000000
 21
14.243800
  0
LINE
  8
0
  6
CENTER
 62
2
 10
-117.000000
 20
-119.400002
 11
-117.000000
 21
-104.599998
  0
LINE
  8
0
  6
CONTINUOUS
 62
7
 10
-122.113998
 20
-104.500000
 11
-118.500000
 21
-104.500000
  0
LINE
  8
0
  6
CONTINUOUS
 62
7
 10
-126.000000
 20
-104.500000
 11
-124.886002
 21
-104.500000
  0
LINE
  8
0
  6
CONTINUOUS
 62
7
 10
-131.000000
 20
-96.000000
 11
-131.000000
 21
-103.000000
  0
LINE
  8
0
  6
CONTINUOUS
 62
7
 10
-130.699997
 20
-103.300003
 11
-130.699997
 21
-120.699997
  0
LINE
  8
0
  6
CONTINUOUS
 62
7
 10
-131.000000
 20
-103.000000
 11
-130.699997
 21
-103.300003
  0
LINE
  8
0
  6
CONTINUOUS
 62
7
 10
-126.000000
 20
-119.500000
 11
-124.886002
 21
-119.500000
  0
LINE
  8
0
  6
CONTINUOUS
 62
7
 10
-131.000000
 20
-128.000000
 11
-118.500000
 21
-128.000000
  0
LINE
  8
0
  6
CONTINUOUS
 62
7
 10
-131.000000
 20
-128.000000
 11
-131.000000
 21
-121.000000
  0
LINE
  8
0
  6
CONTINUOUS
 62
7
 10
-131.000000
 20
-121.000000
 11
-130.699997
 21
-120.699997
  0
LINE
  8
0
  6
CONTINUOUS
 62
7
 10
-131.000000
 20
-96.000000
 11
-118.500000
 21
-96.000000
  0
LINE
  8
0
  6
CONTINUOUS
 62
7
 10
-109.000000
 20
-128.500000
 11
-109.000000
 21
-95.500000
  0
LINE
  8
0
  6
CONTINUOUS
 62
7
 10
-118.500000
 20
-95.500000
 11
-118.500000
 21
-104.500000
  0
LINE
  8
0
  6
CONTINUOUS
 62
7
 10
-118.500000
 20
-128.500000
 11
-109.000000
 21
-128.500000
  0
LINE
  8
0
  6
CENTER
 62
2
 10
-131.699997
 20
-112.000000
 11
-108.000000
 21
-112.000000
  0
LINE
  8
0
  6
CONTINUOUS
 62
7
 10
-119.000000
 20
-128.000000
 11
-119.000000
 21
-119.500000
  0
LINE
  8
0
  6
CONTINUOUS
 62
7
 10
-126.000000
 20
-104.500000
 11
-126.000000
 21
-119.500000
  0
LINE
  8
0
  6
CONTINUOUS
 62
7
 10
-118.500000
 20
-128.500000
 11
-118.500000
 21
-119.500000
  0
LINE
  8
0
  6
CONTINUOUS
 62
7
 10
-122.113998
 20
-119.500000
 11
-118.500000
 21
-119.500000
  0
LINE
  8
0
  6
CONTINUOUS
 62
7
 10
-119.000000
 20
-96.000000
 11
-119.000000
 21
-104.500000
  0
LINE
  8
0
  6
CENTER
 62
2
 10
-133.000000
 20
-99.500000
 11
-129.000000
 21
-99.500000
  0
LINE
  8
0
  6
CENTER
 62
2
 10
-111.000000
 20
-100.000000
 11
-107.000000
 21
-100.000000
  0
LINE
  8
0
  6
CENTER
 62
2
 10
-111.000000
 20
-124.000000
 11
-107.000000
 21
-124.000000
  0
LINE
  8
0
  6
CENTER
 62
2
 10
-133.000000
 20
-124.500000
 11
-129.000000
 21
-124.500000
  0
LINE
  8
0
  6
CONTINUOUS
 62
7
 10
-109.000000
 20
-95.500000
 11
-130.500000
 21
-95.500000
  0
LINE
  8
0
  6
CONTINUOUS
 62
7
 10
-109.500000
 20
-95.500000
 11
-109.500000
 21
-85.500000
  0
LINE
  8
0
  6
CONTINUOUS
 62
7
 10
-130.500000
 20
-85.500000
 11
-109.500000
 21
-85.500000
  0
LINE
  8
0
  6
CONTINUOUS
 62
7
 10
-130.500000
 20
-95.500000
 11
-130.500000
 21
-85.500000
  0
LINE
  8
0
  6
CONTINUOUS
 62
7
 10
-129.000000
 20
-95.500000
 11
-129.000000
 21
-96.000000
  0
LINE
  8
0
  6
CONTINUOUS
 62
7
 10
-121.000000
 20
-95.500000
 11
-121.000000
 21
-96.000000
  0
LINE
  8
0
  6
CONTINUOUS
 62
7
 10
-126.435997
 20
-86.500000
 11
-123.564003
 21
-86.500000
  0
LINE
  8
0
  6
CONTINUOUS
 62
7
 10
-127.746002
 20
-87.256203
 11
-129.182007
 21
-89.743698
  0
LINE
  8
0
  6
CONTINUOUS
 62
7
 10
-129.182007
 20
-91.256203
 11
-127.746002
 21
-93.743698
  0
LINE
  8
0
  6
CONTINUOUS
 62
7
 10
-123.564003
 20
-94.500000
 11
-126.435997
 21
-94.500000
  0
LINE
  8
0
  6
CONTINUOUS
 62
7
 10
-120.818001
 20
-91.256203
 11
-122.253998
 21
-93.743698
  0
LINE
  8
0
  6
CONTINUOUS
 62
7
 10
-122.253998
 20
-87.256203
 11
-120.818001
 21
-89.743698
  0
LINE
  8
0
  6
CENTER
 62
2
 10
-130.250000
 20
-90.500000
 11
-119.750000
 21
-90.500000
  0
LINE
  8
0
  6
CENTER
 62
2
 10
-125.000000
 20
-95.750000
 11
-125.000000
 21
-85.250000
  0
LINE
  8
0
  6
CONTINUOUS
 62
7
 10
-125.865997
 20
-89.000000
 11
-126.732002
 21
-90.500000
  0
LINE
  8
0
  6
CONTINUOUS
 62
7
 10
-126.732002
 20
-90.499901
 11
-125.865997
 21
-91.999901
  0
LINE
  8
0
  6
CONTINUOUS
 62
7
 10
-124.134003
 20
-92.000000
 11
-125.865997
 21
-92.000000
  0
LINE
  8
0
  6
CONTINUOUS
 62
7
 10
-123.267998
 20
-90.500000
 11
-124.134003
 21
-92.000000
  0
LINE
  8
0
  6
CONTINUOUS
 62
7
 10
-124.134003
 20
-88.999901
 11
-123.267998
 21
-90.499901
  0
LINE
  8
0
  6
CONTINUOUS
 62
7
 10
-125.865997
 20
-89.000000
 11
-124.134003
 21
-89.000000
  0
LINE
  8
0
  6
CONTINUOUS
 62
7
 10
-162.500000
 20
-95.500000
 11
-162.500000
 21
-85.500000
  0
LINE
  8
0
  6
CONTINUOUS
 62
7
 10
-155.000000
 20
-95.500000
 11
-155.000000
 21
-85.500000
  0
LINE
  8
0
  6
CONTINUOUS
 62
7
 10
-150.000000
 20
-93.500000
 11
-145.300003
 21
-93.500000
  0
LINE
  8
0
  6
CONTINUOUS
 62
2
 10
-150.000000
 20
-93.000000
 11
-145.300003
 21
-93.000000
  0
LINE
  8
0
  6
CONTINUOUS
 62
2
 10
-150.000000
 20
-88.000000
 11
-145.300003
 21
-88.000000
  0
LINE
  8
0
  6
CONTINUOUS
 62
7
 10
-150.000000
 20
-87.500000
 11
-145.300003
 21
-87.500000
  0
LINE
  8
0
  6
CENTER
 62
2
 10
-168.300003
 20
-90.500000
 11
-144.300003
 21
-90.500000
  0
LINE
  8
0
  6
CONTINUOUS
 62
7
 10
-145.300003
 20
-93.500000
 11
-145.300003
 21
-87.500000
  0
LINE
  8
0
  6
CONTINUOUS
 62
7
 10
-155.000000
 20
-86.500000
 11
-150.000000
 21
-86.500000
  0
LINE
  8
0
  6
CONTINUOUS
 62
7
 10
-155.000000
 20
-87.256203
 11
-150.000000
 21
-87.256203
  0
LINE
  8
0
  6
CONTINUOUS
 62
7
 10
-155.000000
 20
-89.743698
 11
-150.000000
 21
-89.743698
  0
LINE
  8
0
  6
CONTINUOUS
 62
7
 10
-155.000000
 20
-91.256203
 11
-150.000000
 21
-91.256203
  0
LINE
  8
0
  6
CONTINUOUS
 62
7
 10
-155.000000
 20
-93.743698
 11
-150.000000
 21
-93.743698
  0
LINE
  8
0
  6
CONTINUOUS
 62
7
 10
-155.000000
 20
-94.500000
 11
-150.000000
 21
-94.500000
  0
LINE
  8
0
  6
CONTINUOUS
 62
7
 10
-150.000000
 20
-86.500000
 11
-150.000000
 21
-94.500000
  0
LINE
  8
0
  6
CONTINUOUS
 62
7
 10
-166.000000
 20
-176.000000
 11
-155.000000
 21
-176.000000
  0
LINE
  8
0
  6
CONTINUOUS
 62
7
 10
-150.000000
 20
-156.250000
 11
-150.000000
 21
-164.750000
  0
LINE
  8
0
  6
CONTINUOUS
 62
7
 10
-155.000000
 20
-156.250000
 11
-150.000000
 21
-156.250000
  0
LINE
  8
0
  6
CONTINUOUS
 62
7
 10
-155.000000
 20
-164.750000
 11
-150.000000
 21
-164.750000
  0
LINE
  8
0
  6
CONTINUOUS
 62
7
 10
-155.000000
 20
-163.246002
 11
-150.000000
 21
-163.246002
  0
LINE
  8
0
  6
CONTINUOUS
 62
7
 10
-155.000000
 20
-161.936005
 11
-150.000000
 21
-161.936005
  0
LINE
  8
0
  6
CONTINUOUS
 62
7
 10
-155.000000
 20
-159.063995
 11
-150.000000
 21
-159.063995
  0
LINE
  8
0
  6
CONTINUOUS
 62
7
 10
-155.000000
 20
-157.753998
 11
-150.000000
 21
-157.753998
  0
LINE
  8
0
  6
CONTINUOUS
 62
7
 10
-162.500000
 20
-155.000000
 11
-155.000000
 21
-155.000000
  0
LINE
  8
0
  6
CONTINUOUS
 62
7
 10
-155.000000
 20
-155.000000
 11
-155.000000
 21
-176.000000
  0
LINE
  8
0
  6
CONTINUOUS
 62
7
 10
-162.500000
 20
-155.000000
 11
-162.500000
 21
-162.500000
  0
LINE
  8
0
  6
CONTINUOUS
 62
2
 10
-165.800003
 20
-163.000000
 11
-162.500000
 21
-163.000000
  0
LINE
  8
0
  6
CONTINUOUS
 62
7
 10
-165.800003
 20
-163.500000
 11
-162.671997
 21
-163.500000
  0
LINE
  8
0
  6
CONTINUOUS
 62
2
 10
-165.399994
 20
-158.000000
 11
-162.500000
 21
-158.000000
  0
LINE
  8
0
  6
CONTINUOUS
 62
7
 10
-165.399994
 20
-157.500000
 11
-162.500000
 21
-157.500000
  0
LINE
  8
0
  6
CONTINUOUS
 62
2
 10
-150.000000
 20
-158.000000
 11
-145.300003
 21
-158.000000
  0
LINE
  8
0
  6
CONTINUOUS
 62
7
 10
-150.000000
 20
-157.500000
 11
-145.300003
 21
-157.500000
  0
LINE
  8
0
  6
CONTINUOUS
 62
7
 10
-145.300003
 20
-157.500000
 11
-145.300003
 21
-163.500000
  0
LINE
  8
0
  6
CONTINUOUS
 62
2
 10
-150.000000
 20
-163.000000
 11
-145.300003
 21
-163.000000
  0
LINE
  8
0
  6
CONTINUOUS
 62
7
 10
-150.000000
 20
-163.500000
 11
-145.300003
 21
-163.500000
  0
LINE
  8
0
  6
CENTER
 62
2
 10
-168.300003
 20
-160.500000
 11
-144.300003
 21
-160.500000
  0
LINE
  8
0
  6
CONTINUOUS
 62
7
 10
-165.800003
 20
-165.500000
 11
-165.500000
 21
-165.500000
  0
LINE
  8
0
  6
CONTINUOUS
 62
7
 10
-155.000000
 20
-236.755997
 11
-150.000000
 21
-236.755997
  0
LINE
  8
0
  6
CONTINUOUS
 62
7
 10
-155.000000
 20
-239.244003
 11
-150.000000
 21
-239.244003
  0
LINE
  8
0
  6
CONTINUOUS
 62
7
 10
-155.000000
 20
-236.000000
 11
-150.000000
 21
-236.000000
  0
LINE
  8
0
  6
CONTINUOUS
 62
7
 10
-150.000000
 20
-244.000000
 11
-150.000000
 21
-236.000000
  0
LINE
  8
0
  6
CONTINUOUS
 62
7
 10
-155.000000
 20
-235.000000
 11
-155.000000
 21
-245.000000
  0
LINE
  8
0
  6
CONTINUOUS
 62
7
 10
-150.000000
 20
-237.000000
 11
-145.300003
 21
-237.000000
  0
LINE
  8
0
  6
CONTINUOUS
 62
2
 10
-150.000000
 20
-237.500000
 11
-145.300003
 21
-237.500000
  0
LINE
  8
0
  6
CONTINUOUS
 62
2
 10
-150.000000
 20
-242.500000
 11
-145.300003
 21
-242.500000
  0
LINE
  8
0
  6
CONTINUOUS
 62
7
 10
-150.000000
 20
-243.000000
 11
-145.300003
 21
-243.000000
  0
LINE
  8
0
  6
CENTER
 62
2
 10
-156.000000
 20
-240.000000
 11
-144.300003
 21
-240.000000
  0
LINE
  8
0
  6
CONTINUOUS
 62
7
 10
-145.300003
 20
-237.000000
 11
-145.300003
 21
-243.000000
  0
LINE
  8
0
  6
CONTINUOUS
 62
7
 10
-155.000000
 20
-244.000000
 11
-150.000000
 21
-244.000000
  0
LINE
  8
0
  6
CONTINUOUS
 62
7
 10
-155.000000
 20
-243.244003
 11
-150.000000
 21
-243.244003
  0
LINE
  8
0
  6
CONTINUOUS
 62
7
 10
-155.000000
 20
-240.755997
 11
-150.000000
 21
-240.755997
  0
LINE
  8
0
  6
CONTINUOUS
 62
7
 10
-215.500000
 20
188.500000
 11
-214.300003
 21
188.500000
  0
LINE
  8
0
  6
CONTINUOUS
 62
7
 10
-214.300003
 20
188.500000
 11
-214.300003
 21
194.500000
  0
LINE
  8
0
  6
CONTINUOUS
 62
2
 10
-215.500000
 20
189.000000
 11
-214.300003
 21
189.000000
  0
LINE
  8
0
  6
CONTINUOUS
 62
7
 10
-214.300003
 20
189.699997
 11
-212.800003
 21
189.699997
  0
LINE
  8
0
  6
CONTINUOUS
 62
7
 10
-212.800003
 20
189.699997
 11
-212.800003
 21
193.300003
  0
LINE
  8
0
  6
CONTINUOUS
 62
7
 10
-214.300003
 20
193.300003
 11
-212.800003
 21
193.300003
  0
LINE
  8
0
  6
CONTINUOUS
 62
2
 10
-215.457993
 20
194.000000
 11
-214.300003
 21
194.000000
  0
LINE
  8
0
  6
CONTINUOUS
 62
7
 10
-215.328003
 20
194.500000
 11
-214.300003
 21
194.500000
  0
LINE
  8
0
  6
CONTINUOUS
 62
7
 10
-172.671997
 20
194.500000
 11
-175.800003
 21
194.500000
  0
LINE
  8
0
  6
CONTINUOUS
 62
2
 10
-172.542007
 20
194.000000
 11
-175.800003
 21
194.000000
  0
LINE
  8
0
  6
CONTINUOUS
 62
7
 10
-175.800003
 20
193.300003
 11
-177.300003
 21
193.300003
  0
LINE
  8
0
  6
CONTINUOUS
 62
7
 10
-175.800003
 20
189.699997
 11
-177.300003
 21
189.699997
  0
LINE
  8
0
  6
CONTINUOUS
 62
2
 10
-172.500000
 20
189.000000
 11
-175.800003
 21
189.000000
  0
LINE
  8
0
  6
CONTINUOUS
 62
7
 10
-172.500000
 20
188.500000
 11
-175.800003
 21
188.500000
  0
LINE
  8
0
  6
CONTINUOUS
 62
7
 10
-215.500000
 20
161.500000
 11
-214.300003
 21
161.500000
  0
LINE
  8
0
  6
CONTINUOUS
 62
7
 10
-214.300003
 20
161.500000
 11
-214.300003
 21
167.500000
  0
LINE
  8
0
  6
CONTINUOUS
 62
2
 10
-215.500000
 20
162.000000
 11
-214.300003
 21
162.000000
  0
LINE
  8
0
  6
CONTINUOUS
 62
7
 10
-214.300003
 20
162.699997
 11
-212.800003
 21
162.699997
  0
LINE
  8
0
  6
CONTINUOUS
 62
7
 10
-212.800003
 20
162.699997
 11
-212.800003
 21
166.300003
  0
LINE
  8
0
  6
CONTINUOUS
 62
7
 10
-214.300003
 20
166.300003
 11
-212.800003
 21
166.300003
  0
LINE
  8
0
  6
CONTINUOUS
 62
2
 10
-215.500000
 20
167.000000
 11
-214.300003
 21
167.000000
  0
LINE
  8
0
  6
CONTINUOUS
 62
7
 10
-215.500000
 20
167.500000
 11
-214.300003
 21
167.500000
  0
LINE
  8
0
  6
CONTINUOUS
 62
7
 10
-172.500000
 20
167.500000
 11
-175.800003
 21
167.500000
  0
LINE
  8
0
  6
CONTINUOUS
 62
7
 10
-175.800003
 20
167.500000
 11
-175.800003
 21
161.500000
  0
LINE
  8
0
  6
CONTINUOUS
 62
2
 10
-172.500000
 20
167.000000
 11
-175.800003
 21
167.000000
  0
LINE
  8
0
  6
CONTINUOUS
 62
7
 10
-175.800003
 20
166.300003
 11
-177.300003
 21
166.300003
  0
LINE
  8
0
  6
CONTINUOUS
 62
7
 10
-175.800003
 20
162.699997
 11
-177.300003
 21
162.699997
  0
LINE
  8
0
  6
CONTINUOUS
 62
2
 10
-172.500000
 20
162.000000
 11
-175.800003
 21
162.000000
  0
LINE
  8
0
  6
CONTINUOUS
 62
7
 10
-172.500000
 20
161.500000
 11
-175.800003
 21
161.500000
  0
LINE
  8
0
  6
CONTINUOUS
 62
7
 10
164.500000
 20
188.500000
 11
165.699997
 21
188.500000
  0
LINE
  8
0
  6
CONTINUOUS
 62
7
 10
165.699997
 20
188.500000
 11
165.699997
 21
194.500000
  0
LINE
  8
0
  6
CONTINUOUS
 62
2
 10
164.500000
 20
189.000000
 11
165.699997
 21
189.000000
  0
LINE
  8
0
  6
CONTINUOUS
 62
7
 10
165.699997
 20
189.699997
 11
167.199997
 21
189.699997
  0
LINE
  8
0
  6
CONTINUOUS
 62
7
 10
167.199997
 20
189.699997
 11
167.199997
 21
193.300003
  0
LINE
  8
0
  6
CONTINUOUS
 62
7
 10
165.699997
 20
193.300003
 11
167.199997
 21
193.300003
  0
LINE
  8
0
  6
CONTINUOUS
 62
2
 10
164.542007
 20
194.000000
 11
165.699997
 21
194.000000
  0
LINE
  8
0
  6
CONTINUOUS
 62
7
 10
164.671997
 20
194.500000
 11
165.699997
 21
194.500000
  0
LINE
  8
0
  6
CONTINUOUS
 62
7
 10
232.328003
 20
194.500000
 11
229.199997
 21
194.500000
  0
LINE
  8
0
  6
CONTINUOUS
 62
7
 10
229.199997
 20
196.500000
 11
229.199997
 21
186.000000
  0
LINE
  8
0
  6
CONTINUOUS
 62
2
 10
232.457993
 20
194.000000
 11
229.199997
 21
194.000000
  0
LINE
  8
0
  6
CONTINUOUS
 62
7
 10
229.199997
 20
193.300003
 11
227.699997
 21
193.300003
  0
LINE
  8
0
  6
CONTINUOUS
 62
7
 10
229.199997
 20
189.699997
 11
227.699997
 21
189.699997
  0
LINE
  8
0
  6
CONTINUOUS
 62
2
 10
232.500000
 20
189.000000
 11
229.199997
 21
189.000000
  0
LINE
  8
0
  6
CONTINUOUS
 62
7
 10
232.500000
 20
188.500000
 11
229.199997
 21
188.500000
  0
LINE
  8
0
  6
CONTINUOUS
 62
7
 10
164.500000
 20
161.500000
 11
165.699997
 21
161.500000
  0
LINE
  8
0
  6
CONTINUOUS
 62
7
 10
165.699997
 20
161.500000
 11
165.699997
 21
167.500000
  0
LINE
  8
0
  6
CONTINUOUS
 62
2
 10
164.500000
 20
162.000000
 11
165.699997
 21
162.000000
  0
LINE
  8
0
  6
CONTINUOUS
 62
7
 10
165.699997
 20
162.699997
 11
167.199997
 21
162.699997
  0
LINE
  8
0
  6
CONTINUOUS
 62
7
 10
167.199997
 20
162.699997
 11
167.199997
 21
166.300003
  0
LINE
  8
0
  6
CONTINUOUS
 62
7
 10
165.699997
 20
166.300003
 11
167.199997
 21
166.300003
  0
LINE
  8
0
  6
CONTINUOUS
 62
2
 10
164.500000
 20
167.000000
 11
165.699997
 21
167.000000
  0
LINE
  8
0
  6
CONTINUOUS
 62
7
 10
164.500000
 20
167.500000
 11
165.699997
 21
167.500000
  0
LINE
  8
0
  6
CONTINUOUS
 62
7
 10
232.500000
 20
167.500000
 11
229.199997
 21
167.500000
  0
LINE
  8
0
  6
CONTINUOUS
 62
7
 10
229.199997
 20
167.500000
 11
229.199997
 21
161.500000
  0
LINE
  8
0
  6
CONTINUOUS
 62
2
 10
232.500000
 20
167.000000
 11
229.199997
 21
167.000000
  0
LINE
  8
0
  6
CONTINUOUS
 62
7
 10
229.199997
 20
166.300003
 11
227.699997
 21
166.300003
  0
LINE
  8
0
  6
CONTINUOUS
 62
7
 10
229.199997
 20
162.699997
 11
227.699997
 21
162.699997
  0
LINE
  8
0
  6
CONTINUOUS
 62
2
 10
232.500000
 20
162.000000
 11
229.199997
 21
162.000000
  0
LINE
  8
0
  6
CONTINUOUS
 62
7
 10
232.500000
 20
161.500000
 11
229.199997
 21
161.500000
  0
LINE
  8
0
  6
CONTINUOUS
 62
7
 10
-215.500000
 20
-66.500000
 11
-214.300003
 21
-66.500000
  0
LINE
  8
0
  6
CONTINUOUS
 62
7
 10
-214.300003
 20
-66.500000
 11
-214.300003
 21
-60.500000
  0
LINE
  8
0
  6
CONTINUOUS
 62
2
 10
-215.500000
 20
-66.000000
 11
-214.300003
 21
-66.000000
  0
LINE
  8
0
  6
CONTINUOUS
 62
7
 10
-214.300003
 20
-65.300003
 11
-212.800003
 21
-65.300003
  0
LINE
  8
0
  6
CONTINUOUS
 62
7
 10
-212.800003
 20
-65.300003
 11
-212.800003
 21
-61.700001
  0
LINE
  8
0
  6
CONTINUOUS
 62
7
 10
-214.300003
 20
-61.700001
 11
-212.800003
 21
-61.700001
  0
LINE
  8
0
  6
CONTINUOUS
 62
2
 10
-215.457993
 20
-61.000000
 11
-214.300003
 21
-61.000000
  0
LINE
  8
0
  6
CONTINUOUS
 62
7
 10
-215.328003
 20
-60.500000
 11
-214.300003
 21
-60.500000
  0
LINE
  8
0
  6
CONTINUOUS
 62
7
 10
-162.671997
 20
-60.500000
 11
-165.800003
 21
-60.500000
  0
LINE
  8
0
  6
CONTINUOUS
 62
7
 10
-165.800003
 20
-58.500000
 11
-165.800003
 21
-69.000000
  0
LINE
  8
0
  6
CONTINUOUS
 62
2
 10
-162.542007
 20
-61.000000
 11
-165.800003
 21
-61.000000
  0
LINE
  8
0
  6
CONTINUOUS
 62
7
 10
-165.800003
 20
-61.700001
 11
-167.300003
 21
-61.700001
  0
LINE
  8
0
  6
CONTINUOUS
 62
7
 10
-165.800003
 20
-65.300003
 11
-167.300003
 21
-65.300003
  0
LINE
  8
0
  6
CONTINUOUS
 62
2
 10
-162.500000
 20
-66.000000
 11
-165.800003
 21
-66.000000
  0
LINE
  8
0
  6
CONTINUOUS
 62
7
 10
-162.500000
 20
-66.500000
 11
-165.800003
 21
-66.500000
  0
LINE
  8
0
  6
CONTINUOUS
 62
7
 10
-215.500000
 20
-93.500000
 11
-214.300003
 21
-93.500000
  0
LINE
  8
0
  6
CONTINUOUS
 62
7
 10
-214.300003
 20
-93.500000
 11
-214.300003
 21
-87.500000
  0
LINE
  8
0
  6
CONTINUOUS
 62
2
 10
-215.500000
 20
-93.000000
 11
-214.300003
 21
-93.000000
  0
LINE
  8
0
  6
CONTINUOUS
 62
7
 10
-214.300003
 20
-92.300003
 11
-212.800003
 21
-92.300003
  0
LINE
  8
0
  6
CONTINUOUS
 62
7
 10
-212.800003
 20
-92.300003
 11
-212.800003
 21
-88.699997
  0
LINE
  8
0
  6
CONTINUOUS
 62
7
 10
-214.300003
 20
-88.699997
 11
-212.800003
 21
-88.699997
  0
LINE
  8
0
  6
CONTINUOUS
 62
2
 10
-215.500000
 20
-88.000000
 11
-214.300003
 21
-88.000000
  0
LINE
  8
0
  6
CONTINUOUS
 62
7
 10
-215.500000
 20
-87.500000
 11
-214.300003
 21
-87.500000
  0
LINE
  8
0
  6
CONTINUOUS
 62
7
 10
-162.500000
 20
-87.500000
 11
-165.800003
 21
-87.500000
  0
LINE
  8
0
  6
CONTINUOUS
 62
7
 10
-165.800003
 20
-87.500000
 11
-165.800003
 21
-93.500000
  0
LINE
  8
0
  6
CONTINUOUS
 62
2
 10
-162.500000
 20
-88.000000
 11
-165.800003
 21
-88.000000
  0
LINE
  8
0
  6
CONTINUOUS
 62
7
 10
-165.800003
 20
-88.699997
 11
-167.300003
 21
-88.699997
  0
LINE
  8
0
  6
CONTINUOUS
 62
7
 10
-165.800003
 20
-92.300003
 11
-167.300003
 21
-92.300003
  0
LINE
  8
0
  6
CONTINUOUS
 62
2
 10
-162.500000
 20
-93.000000
 11
-165.800003
 21
-93.000000
  0
LINE
  8
0
  6
CONTINUOUS
 62
7
 10
-162.500000
 20
-93.500000
 11
-165.800003
 21
-93.500000
  0
LINE
  8
0
  6
CONTINUOUS
 62
7
 10
164.500000
 20
-66.500000
 11
165.699997
 21
-66.500000
  0
LINE
  8
0
  6
CONTINUOUS
 62
7
 10
165.699997
 20
-66.500000
 11
165.699997
 21
-60.500000
  0
LINE
  8
0
  6
CONTINUOUS
 62
2
 10
164.500000
 20
-66.000000
 11
165.699997
 21
-66.000000
  0
LINE
  8
0
  6
CONTINUOUS
 62
7
 10
165.699997
 20
-65.300003
 11
167.199997
 21
-65.300003
  0
LINE
  8
0
  6
CONTINUOUS
 62
7
 10
167.199997
 20
-65.300003
 11
167.199997
 21
-61.700001
  0
LINE
  8
0
  6
CONTINUOUS
 62
7
 10
165.699997
 20
-61.700001
 11
167.199997
 21
-61.700001
  0
LINE
  8
0
  6
CONTINUOUS
 62
2
 10
164.542007
 20
-61.000000
 11
165.699997
 21
-61.000000
  0
LINE
  8
0
  6
CONTINUOUS
 62
7
 10
164.671997
 20
-60.500000
 11
165.699997
 21
-60.500000
  0
LINE
  8
0
  6
CONTINUOUS
 62
7
 10
247.328003
 20
-60.500000
 11
244.199997
 21
-60.500000
  0
LINE
  8
0
  6
CONTINUOUS
 62
7
 10
244.199997
 20
-58.500000
 11
244.199997
 21
-69.000000
  0
LINE
  8
0
  6
CONTINUOUS
 62
2
 10
247.457993
 20
-61.000000
 11
244.199997
 21
-61.000000
  0
LINE
  8
0
  6
CONTINUOUS
 62
7
 10
244.199997
 20
-61.700001
 11
242.699997
 21
-61.700001
  0
LINE
  8
0
  6
CONTINUOUS
 62
7
 10
244.199997
 20
-65.300003
 11
242.699997
 21
-65.300003
  0
LINE
  8
0
  6
CONTINUOUS
 62
2
 10
247.500000
 20
-66.000000
 11
244.199997
 21
-66.000000
  0
LINE
  8
0
  6
CONTINUOUS
 62
7
 10
247.500000
 20
-66.500000
 11
244.199997
 21
-66.500000
  0
LINE
  8
0
  6
CONTINUOUS
 62
7
 10
164.500000
 20
-93.500000
 11
165.699997
 21
-93.500000
  0
LINE
  8
0
  6
CONTINUOUS
 62
7
 10
165.699997
 20
-93.500000
 11
165.699997
 21
-87.500000
  0
LINE
  8
0
  6
CONTINUOUS
 62
2
 10
164.500000
 20
-93.000000
 11
165.699997
 21
-93.000000
  0
LINE
  8
0
  6
CONTINUOUS
 62
7
 10
165.699997
 20
-92.300003
 11
167.199997
 21
-92.300003
  0
LINE
  8
0
  6
CONTINUOUS
 62
7
 10
167.199997
 20
-92.300003
 11
167.199997
 21
-88.699997
  0
LINE
  8
0
  6
CONTINUOUS
 62
7
 10
165.699997
 20
-88.699997
 11
167.199997
 21
-88.699997
  0
LINE
  8
0
  6
CONTINUOUS
 62
2
 10
164.500000
 20
-88.000000
 11
165.699997
 21
-88.000000
  0
LINE
  8
0
  6
CONTINUOUS
 62
7
 10
164.500000
 20
-87.500000
 11
165.699997
 21
-87.500000
  0
LINE
  8
0
  6
CONTINUOUS
 62
7
 10
247.500000
 20
-87.500000
 11
244.199997
 21
-87.500000
  0
LINE
  8
0
  6
CONTINUOUS
 62
7
 10
244.199997
 20
-87.500000
 11
244.199997
 21
-93.500000
  0
LINE
  8
0
  6
CONTINUOUS
 62
2
 10
247.500000
 20
-88.000000
 11
244.199997
 21
-88.000000
  0
LINE
  8
0
  6
CONTINUOUS
 62
7
 10
244.199997
 20
-88.699997
 11
242.699997
 21
-88.699997
  0
LINE
  8
0
  6
CONTINUOUS
 62
7
 10
244.199997
 20
-92.300003
 11
242.699997
 21
-92.300003
  0
LINE
  8
0
  6
CONTINUOUS
 62
2
 10
247.500000
 20
-93.000000
 11
244.199997
 21
-93.000000
  0
LINE
  8
0
  6
CONTINUOUS
 62
7
 10
247.500000
 20
-93.500000
 11
244.199997
 21
-93.500000
  0
LINE
  8
0
  6
CENTER
 62
2
 10
-254.000000
 20
131.000000
 11
-250.000000
 21
131.000000
  0
LINE
  8
0
  6
CENTER
 62
2
 10
-254.000000
 20
155.000000
 11
-250.000000
 21
155.000000
  0
LINE
  8
0
  6
CENTER
 62
2
 10
126.000000
 20
131.000000
 11
130.000000
 21
131.000000
  0
LINE
  8
0
  6
CENTER
 62
2
 10
126.000000
 20
155.000000
 11
130.000000
 21
155.000000
  0
LINE
  8
0
  6
CENTER
 62
2
 10
-254.000000
 20
-124.000000
 11
-250.000000
 21
-124.000000
  0
LINE
  8
0
  6
CENTER
 62
2
 10
-254.000000
 20
-100.000000
 11
-250.000000
 21
-100.000000
  0
LINE
  8
0
  6
CENTER
 62
2
 10
126.000000
 20
-124.000000
 11
130.000000
 21
-124.000000
  0
LINE
  8
0
  6
CENTER
 62
2
 10
126.000000
 20
-100.000000
 11
130.000000
 21
-100.000000
  0
LINE
  8
0
  6
CONTINUOUS
 62
7
 10
0.274994
 20
276.250000
 11
0.274994
 21
-276.750000
  0
LINE
  8
0
  6
CONTINUOUS
 62
7
 10
-399.250000
 20
-0.250000
 11
399.799988
 21
-0.250000
  0
CIRCLE
  8
0
  6
CONTINUOUS
 62
7
 10
181.000000
 20
-99.500000
 40
2.000000
  0
CIRCLE
  8
0
  6
CONTINUOUS
 62
2
 10
203.000000
 20
-124.500000
 40
1.500000
  0
CIRCLE
  8
0
  6
CONTINUOUS
 62
7
 10
203.000000
 20
-124.500000
 40
1.200000
  0
CIRCLE
  8
0
  6
CONTINUOUS
 62
7
 10
148.000000
 20
-124.500000
 40
1.200000
  0
CIRCLE
  8
0
  6
CONTINUOUS
 62
2
 10
148.000000
 20
-124.500000
 40
1.500000
  0
CIRCLE
  8
0
  6
CONTINUOUS
 62
7
 10
181.000000
 20
-124.500000
 40
2.000000
  0
CIRCLE
  8
0
  6
CONTINUOUS
 62
2
 10
228.000000
 20
-124.500000
 40
1.500000
  0
CIRCLE
  8
0
  6
CONTINUOUS
 62
7
 10
228.000000
 20
-124.500000
 40
1.200000
  0
CIRCLE
  8
0
  6
CONTINUOUS
 62
7
 10
148.000000
 20
-99.500000
 40
1.200000
  0
CIRCLE
  8
0
  6
CONTINUOUS
 62
2
 10
148.000000
 20
-99.500000
 40
1.500000
  0
CIRCLE
  8
0
  6
CONTINUOUS
 62
7
 10
228.000000
 20
-99.500000
 40
1.200000
  0
CIRCLE
  8
0
  6
CONTINUOUS
 62
2
 10
228.000000
 20
-99.500000
 40
1.500000
  0
CIRCLE
  8
0
  6
CONTINUOUS
 62
7
 10
203.000000
 20
-99.500000
 40
1.200000
  0
CIRCLE
  8
0
  6
CONTINUOUS
 62
2
 10
203.000000
 20
-99.500000
 40
1.500000
  0
ARC
  8
0
  6
DASHED
 62
2
 10
153.000000
 20
-100.000000
 40
2.200000
 50
180.000000
 51
0.000000
  0
ARC
  8
0
  6
DASHED
 62
2
 10
153.000000
 20
-124.000000
 40
2.200000
 50
0.000000
 51
180.000000
  0
CIRCLE
  8
0
  6
DASHED
 62
2
 10
229.000000
 20
-100.000000
 40
4.000000
  0
ARC
  8
0
  6
DASHED
 62
2
 10
153.000000
 20
-100.000000
 40
4.000000
 50
123.366997
 51
416.632996
  0
CIRCLE
  8
0
  6
DASHED
 62
2
 10
229.000000
 20
-124.000000
 40
4.000000
  0
ARC
  8
0
  6
DASHED
 62
2
 10
153.000000
 20
-124.000000
 40
4.000000
 50
303.367004
 51
236.632996
  0
CIRCLE
  8
0
  6
DASHED
 62
2
 10
229.000000
 20
-100.000000
 40
2.500000
  0
CIRCLE
  8
0
  6
DASHED
 62
2
 10
229.000000
 20
-124.000000
 40
2.500000
  0
CIRCLE
  8
0
  6
DASHED
 62
2
 10
229.000000
 20
-124.000000
 40
2.100000
  0
CIRCLE
  8
0
  6
DASHED
 62
2
 10
229.000000
 20
-100.000000
 40
2.100000
  0
CIRCLE
  8
0
  6
CONTINUOUS
 62
2
 10
144.000000
 20
-171.000000
 40
2.500000
  0
CIRCLE
  8
0
  6
CONTINUOUS
 62
7
 10
144.000000
 20
-171.000000
 40
2.100000
  0
CIRCLE
  8
0
  6
CONTINUOUS
 62
2
 10
238.000000
 20
-171.000000
 40
2.500000
  0
CIRCLE
  8
0
  6
CONTINUOUS
 62
7
 10
238.000000
 20
-171.000000
 40
2.100000
  0
ARC
  8
0
  6
CONTINUOUS
 62
7
 10
144.000000
 20
-171.000000
 40
4.800000
 50
0.000000
 51
56.442600
  0
ARC
  8
0
  6
CONTINUOUS
 62
7
 10
238.000000
 20
-171.000000
 40
4.800000
 50
123.556999
 51
180.000000
  0
CIRCLE
  8
0
  6
CONTINUOUS
 62
2
 10
161.000000
 20
-171.000000
 40
1.500000
  0
CIRCLE
  8
0
  6
CONTINUOUS
 62
2
 10
221.000000
 20
-171.000000
 40
1.500000
  0
ARC
  8
0
  6
CONTINUOUS
 62
7
 10
161.000000
 20
-171.000000
 40
3.000000
 50
0.000000
 51
180.000000
  0
ARC
  8
0
  6
CONTINUOUS
 62
7
 10
221.000000
 20
-171.000000
 40
3.000000
 50
0.000000
 51
180.000000
  0
CIRCLE
  8
0
  6
CONTINUOUS
 62
2
 10
234.800003
 20
-158.699997
 40
1.000000
  0
CIRCLE
  8
0
  6
CONTINUOUS
 62
2
 10
224.800003
 20
-158.699997
 40
1.000000
  0
CIRCLE
  8
0
  6
CONTINUOUS
 62
2
 10
231.699997
 20
-159.000000
 40
1.500000
  0
CIRCLE
  8
0
  6
CONTINUOUS
 62
2
 10
238.199997
 20
-159.000000
 40
1.500000
  0
CIRCLE
  8
0
  6
CONTINUOUS
 62
7
 10
-199.000000
 20
-99.500000
 40
2.000000
  0
CIRCLE
  8
0
  6
CONTINUOUS
 62
2
 10
-207.000000
 20
-124.500000
 40
1.500000
  0
CIRCLE
  8
0
  6
CONTINUOUS
 62
7
 10
-207.000000
 20
-124.500000
 40
1.200000
  0
CIRCLE
  8
0
  6
CONTINUOUS
 62
7
 10
-232.000000
 20
-124.500000
 40
1.200000
  0
CIRCLE
  8
0
  6
CONTINUOUS
 62
2
 10
-232.000000
 20
-124.500000
 40
1.500000
  0
CIRCLE
  8
0
  6
CONTINUOUS
 62
7
 10
-199.000000
 20
-124.500000
 40
2.000000
  0
CIRCLE
  8
0
  6
CONTINUOUS
 62
2
 10
-182.000000
 20
-124.500000
 40
1.500000
  0
CIRCLE
  8
0
  6
CONTINUOUS
 62
7
 10
-182.000000
 20
-124.500000
 40
1.200000
  0
CIRCLE
  8
0
  6
CONTINUOUS
 62
7
 10
-232.000000
 20
-99.500000
 40
1.200000
  0
CIRCLE
  8
0
  6
CONTINUOUS
 62
2
 10
-232.000000
 20
-99.500000
 40
1.500000
  0
CIRCLE
  8
0
  6
CONTINUOUS
 62
7
 10
-182.000000
 20
-99.500000
 40
1.200000
  0
CIRCLE
  8
0
  6
CONTINUOUS
 62
2
 10
-182.000000
 20
-99.500000
 40
1.500000
  0
CIRCLE
  8
0
  6
CONTINUOUS
 62
7
 10
-207.000000
 20
-99.500000
 40
1.200000
  0
CIRCLE
  8
0
  6
CONTINUOUS
 62
2
 10
-207.000000
 20
-99.500000
 40
1.500000
  0
ARC
  8
0
  6
DASHED
 62
2
 10
-227.000000
 20
-100.000000
 40
2.200000
 50
180.000000
 51
0.000000
  0
ARC
  8
0
  6
DASHED
 62
2
 10
-227.000000
 20
-124.000000
 40
2.200000
 50
0.000000
 51
180.000000
  0
CIRCLE
  8
0
  6
DASHED
 62
2
 10
-181.000000
 20
-100.000000
 40
4.000000
  0
ARC
  8
0
  6
DASHED
 62
2
 10
-227.000000
 20
-100.000000
 40
4.000000
 50
123.366997
 51
416.632996
  0
CIRCLE
  8
0
  6
DASHED
 62
2
 10
-181.000000
 20
-124.000000
 40
4.000000
  0
ARC
  8
0
  6
DASHED
 62
2
 10
-227.000000
 20
-124.000000
 40
4.000000
 50
303.367004
 51
236.632996
  0
CIRCLE
  8
0
  6
DASHED
 62
2
 10
-181.000000
 20
-100.000000
 40
2.500000
  0
CIRCLE
  8
0
  6
DASHED
 62
2
 10
-181.000000
 20
-124.000000
 40
2.500000
  0
CIRCLE
  8
0
  6
DASHED
 62
2
 10
-181.000000
 20
-124.000000
 40
2.100000
  0
CIRCLE
  8
0
  6
DASHED
 62
2
 10
-181.000000
 20
-100.000000
 40
2.100000
  0
CIRCLE
  8
0
  6
CONTINUOUS
 62
2
 10
-236.000000
 20
-171.000000
 40
2.500000
  0
CIRCLE
  8
0
  6
CONTINUOUS
 62
7
 10
-236.000000
 20
-171.000000
 40
2.100000
  0
CIRCLE
  8
0
  6
CONTINUOUS
 62
2
 10
-172.000000
 20
-171.000000
 40
2.500000
  0
CIRCLE
  8
0
  6
CONTINUOUS
 62
7
 10
-172.000000
 20
-171.000000
 40
2.100000
  0
ARC
  8
0
  6
CONTINUOUS
 62
7
 10
-236.000000
 20
-171.000000
 40
4.800000
 50
0.000000
 51
56.442600
  0
ARC
  8
0
  6
CONTINUOUS
 62
7
 10
-172.000000
 20
-171.000000
 40
4.800000
 50
123.556999
 51
180.000000
  0
CIRCLE
  8
0
  6
CONTINUOUS
 62
2
 10
-219.000000
 20
-171.000000
 40
1.500000
  0
CIRCLE
  8
0
  6
CONTINUOUS
 62
2
 10
-189.000000
 20
-171.000000
 40
1.500000
  0
ARC
  8
0
  6
CONTINUOUS
 62
7
 10
-219.000000
 20
-171.000000
 40
3.000000
 50
0.000000
 51
180.000000
  0
ARC
  8
0
  6
CONTINUOUS
 62
7
 10
-189.000000
 20
-171.000000
 40
3.000000
 50
0.000000
 51
180.000000
  0
CIRCLE
  8
0
  6
CONTINUOUS
 62
2
 10
-175.199997
 20
-158.699997
 40
1.000000
  0
CIRCLE
  8
0
  6
CONTINUOUS
 62
2
 10
-185.199997
 20
-158.699997
 40
1.000000
  0
CIRCLE
  8
0
  6
CONTINUOUS
 62
2
 10
-178.300003
 20
-159.000000
 40
1.500000
  0
CIRCLE
  8
0
  6
CONTINUOUS
 62
2
 10
-171.800003
 20
-159.000000
 40
1.500000
  0
ARC
  8
0
  6
CONTINUOUS
 62
7
 10
144.000000
 20
-53.000000
 40
4.800000
 50
303.557007
 51
0.000000
  0
CIRCLE
  8
0
  6
CONTINUOUS
 62
7
 10
173.000000
 20
-99.500000
 40
1.200000
  0
CIRCLE
  8
0
  6
CONTINUOUS
 62
2
 10
173.000000
 20
-99.500000
 40
1.500000
  0
CIRCLE
  8
0
  6
CONTINUOUS
 62
2
 10
173.000000
 20
-124.500000
 40
1.500000
  0
CIRCLE
  8
0
  6
CONTINUOUS
 62
7
 10
173.000000
 20
-124.500000
 40
1.200000
  0
CIRCLE
  8
0
  6
CONTINUOUS
 62
7
 10
181.000000
 20
155.500000
 40
2.000000
  0
CIRCLE
  8
0
  6
CONTINUOUS
 62
2
 10
188.000000
 20
130.500000
 40
1.500000
  0
CIRCLE
  8
0
  6
CONTINUOUS
 62
7
 10
188.000000
 20
130.500000
 40
1.200000
  0
CIRCLE
  8
0
  6
CONTINUOUS
 62
7
 10
148.000000
 20
130.500000
 40
1.200000
  0
CIRCLE
  8
0
  6
CONTINUOUS
 62
2
 10
148.000000
 20
130.500000
 40
1.500000
  0
CIRCLE
  8
0
  6
CONTINUOUS
 62
7
 10
181.000000
 20
130.500000
 40
2.000000
  0
CIRCLE
  8
0
  6
CONTINUOUS
 62
2
 10
213.000000
 20
130.500000
 40
1.500000
  0
CIRCLE
  8
0
  6
CONTINUOUS
 62
7
 10
213.000000
 20
130.500000
 40
1.200000
  0
CIRCLE
  8
0
  6
CONTINUOUS
 62
7
 10
148.000000
 20
155.500000
 40
1.200000
  0
CIRCLE
  8
0
  6
CONTINUOUS
 62
2
 10
148.000000
 20
155.500000
 40
1.500000
  0
CIRCLE
  8
0
  6
CONTINUOUS
 62
7
 10
213.000000
 20
155.500000
 40
1.200000
  0
CIRCLE
  8
0
  6
CONTINUOUS
 62
2
 10
213.000000
 20
155.500000
 40
1.500000
  0
CIRCLE
  8
0
  6
CONTINUOUS
 62
7
 10
188.000000
 20
155.500000
 40
1.200000
  0
CIRCLE
  8
0
  6
CONTINUOUS
 62
2
 10
188.000000
 20
155.500000
 40
1.500000
  0
ARC
  8
0
  6
DASHED
 62
2
 10
153.000000
 20
155.000000
 40
2.200000
 50
180.000000
 51
0.000000
  0
ARC
  8
0
  6
DASHED
 62
2
 10
153.000000
 20
131.000000
 40
2.200000
 50
0.000000
 51
180.000000
  0
CIRCLE
  8
0
  6
DASHED
 62
2
 10
214.000000
 20
155.000000
 40
4.000000
  0
ARC
  8
0
  6
DASHED
 62
2
 10
153.000000
 20
155.000000
 40
3.999990
 50
123.366997
 51
416.632996
  0
CIRCLE
  8
0
  6
DASHED
 62
2
 10
214.000000
 20
131.000000
 40
4.000000
  0
ARC
  8
0
  6
DASHED
 62
2
 10
153.000000
 20
131.000000
 40
4.000000
 50
303.367004
 51
236.632996
  0
CIRCLE
  8
0
  6
DASHED
 62
2
 10
214.000000
 20
155.000000
 40
2.500000
  0
CIRCLE
  8
0
  6
DASHED
 62
2
 10
214.000000
 20
131.000000
 40
2.500000
  0
CIRCLE
  8
0
  6
DASHED
 62
2
 10
214.000000
 20
131.000000
 40
2.100000
  0
CIRCLE
  8
0
  6
DASHED
 62
2
 10
214.000000
 20
155.000000
 40
2.100000
  0
CIRCLE
  8
0
  6
CONTINUOUS
 62
7
 10
99.000000
 20
143.000000
 40
6.000000
  0
CIRCLE
  8
0
  6
CONTINUOUS
 62
7
 10
108.000000
 20
131.500000
 40
4.000000
  0
CIRCLE
  8
0
  6
CONTINUOUS
 62
7
 10
108.000000
 20
154.500000
 40
4.000000
  0
CIRCLE
  8
0
  6
CONTINUOUS
 62
2
 10
99.000000
 20
155.000000
 40
2.000000
  0
CIRCLE
  8
0
  6
CONTINUOUS
 62
7
 10
99.000000
 20
155.000000
 40
1.650000
  0
CIRCLE
  8
0
  6
CONTINUOUS
 62
2
 10
108.000000
 20
143.000000
 40
2.000000
  0
CIRCLE
  8
0
  6
CONTINUOUS
 62
7
 10
108.000000
 20
143.000000
 40
1.650000
  0
CIRCLE
  8
0
  6
CONTINUOUS
 62
2
 10
99.000000
 20
131.000000
 40
2.000000
  0
CIRCLE
  8
0
  6
CONTINUOUS
 62
7
 10
99.000000
 20
131.000000
 40
1.650000
  0
CIRCLE
  8
0
  6
CONTINUOUS
 62
2
 10
144.000000
 20
84.000000
 40
2.500000
  0
CIRCLE
  8
0
  6
CONTINUOUS
 62
7
 10
144.000000
 20
84.000000
 40
2.100000
  0
CIRCLE
  8
0
  6
CONTINUOUS
 62
2
 10
223.000000
 20
84.000000
 40
2.500000
  0
CIRCLE
  8
0
  6
CONTINUOUS
 62
7
 10
223.000000
 20
84.000000
 40
2.100000
  0
CIRCLE
  8
0
  6
CONTINUOUS
 62
2
 10
161.000000
 20
84.000000
 40
1.500000
  0
CIRCLE
  8
0
  6
CONTINUOUS
 62
2
 10
206.000000
 20
84.000000
 40
1.500000
  0
CIRCLE
  8
0
  6
CONTINUOUS
 62
2
 10
219.800003
 20
96.300003
 40
1.000000
  0
CIRCLE
  8
0
  6
CONTINUOUS
 62
2
 10
209.800003
 20
96.300003
 40
1.000000
  0
CIRCLE
  8
0
  6
CONTINUOUS
 62
2
 10
216.699997
 20
96.000000
 40
1.500000
  0
CIRCLE
  8
0
  6
CONTINUOUS
 62
2
 10
223.199997
 20
96.000000
 40
1.500000
  0
ARC
  8
0
  6
CONTINUOUS
 62
7
 10
153.000000
 20
-206.500000
 40
2.200000
 50
180.000000
 51
0.000000
  0
ARC
  8
0
  6
CONTINUOUS
 62
7
 10
153.000000
 20
-230.500000
 40
2.200000
 50
0.000000
 51
180.000000
  0
CIRCLE
  8
0
  6
CONTINUOUS
 62
2
 10
169.000000
 20
-230.500000
 40
2.500000
  0
CIRCLE
  8
0
  6
CONTINUOUS
 62
7
 10
169.000000
 20
-230.500000
 40
2.100000
  0
CIRCLE
  8
0
  6
CONTINUOUS
 62
7
 10
169.000000
 20
-230.500000
 40
3.000000
  0
CIRCLE
  8
0
  6
CONTINUOUS
 62
2
 10
169.000000
 20
-206.500000
 40
2.500000
  0
CIRCLE
  8
0
  6
CONTINUOUS
 62
7
 10
169.000000
 20
-206.500000
 40
2.100000
  0
CIRCLE
  8
0
  6
CONTINUOUS
 62
7
 10
169.000000
 20
-206.500000
 40
3.000000
  0
CIRCLE
  8
0
  6
CONTINUOUS
 62
2
 10
229.000000
 20
-206.500000
 40
2.500000
  0
CIRCLE
  8
0
  6
CONTINUOUS
 62
7
 10
229.000000
 20
-206.500000
 40
2.100000
  0
CIRCLE
  8
0
  6
CONTINUOUS
 62
7
 10
229.000000
 20
-230.500000
 40
2.100000
  0
CIRCLE
  8
0
  6
CONTINUOUS
 62
2
 10
229.000000
 20
-230.500000
 40
2.500000
  0
CIRCLE
  8
0
  6
CONTINUOUS
 62
7
 10
173.000000
 20
155.500000
 40
1.200000
  0
CIRCLE
  8
0
  6
CONTINUOUS
 62
2
 10
173.000000
 20
155.500000
 40
1.500000
  0
CIRCLE
  8
0
  6
CONTINUOUS
 62
2
 10
173.000000
 20
130.500000
 40
1.500000
  0
CIRCLE
  8
0
  6
CONTINUOUS
 62
7
 10
173.000000
 20
130.500000
 40
1.200000
  0
CIRCLE
  8
0
  6
CONTINUOUS
 62
7
 10
-207.000000
 20
155.500000
 40
2.000000
  0
CIRCLE
  8
0
  6
CONTINUOUS
 62
2
 10
-212.000000
 20
130.500000
 40
1.500000
  0
CIRCLE
  8
0
  6
CONTINUOUS
 62
7
 10
-212.000000
 20
130.500000
 40
1.200000
  0
CIRCLE
  8
0
  6
CONTINUOUS
 62
7
 10
-232.000000
 20
130.500000
 40
1.200000
  0
CIRCLE
  8
0
  6
CONTINUOUS
 62
2
 10
-232.000000
 20
130.500000
 40
1.500000
  0
CIRCLE
  8
0
  6
CONTINUOUS
 62
7
 10
-207.000000
 20
130.500000
 40
2.000000
  0
CIRCLE
  8
0
  6
CONTINUOUS
 62
2
 10
-192.000000
 20
130.500000
 40
1.500000
  0
CIRCLE
  8
0
  6
CONTINUOUS
 62
7
 10
-192.000000
 20
130.500000
 40
1.200000
  0
CIRCLE
  8
0
  6
CONTINUOUS
 62
7
 10
-232.000000
 20
155.500000
 40
1.200000
  0
CIRCLE
  8
0
  6
CONTINUOUS
 62
2
 10
-232.000000
 20
155.500000
 40
1.500000
  0
CIRCLE
  8
0
  6
CONTINUOUS
 62
7
 10
-192.000000
 20
155.500000
 40
1.200000
  0
CIRCLE
  8
0
  6
CONTINUOUS
 62
2
 10
-192.000000
 20
155.500000
 40
1.500000
  0
CIRCLE
  8
0
  6
CONTINUOUS
 62
7
 10
-212.000000
 20
155.500000
 40
1.200000
  0
CIRCLE
  8
0
  6
CONTINUOUS
 62
2
 10
-212.000000
 20
155.500000
 40
1.500000
  0
ARC
  8
0
  6
DASHED
 62
2
 10
-227.000000
 20
155.000000
 40
2.200000
 50
180.000000
 51
0.000000
  0
ARC
  8
0
  6
DASHED
 62
2
 10
-227.000000
 20
131.000000
 40
2.200000
 50
0.000000
 51
180.000000
  0
CIRCLE
  8
0
  6
DASHED
 62
2
 10
-191.000000
 20
155.000000
 40
4.000000
  0
ARC
  8
0
  6
DASHED
 62
2
 10
-227.000000
 20
155.000000
 40
3.999990
 50
123.366997
 51
416.632996
  0
CIRCLE
  8
0
  6
DASHED
 62
2
 10
-191.000000
 20
131.000000
 40
4.000000
  0
ARC
  8
0
  6
DASHED
 62
2
 10
-227.000000
 20
131.000000
 40
4.000000
 50
303.367004
 51
236.632996
  0
CIRCLE
  8
0
  6
DASHED
 62
2
 10
-191.000000
 20
155.000000
 40
2.500000
  0
CIRCLE
  8
0
  6
DASHED
 62
2
 10
-191.000000
 20
131.000000
 40
2.500000
  0
CIRCLE
  8
0
  6
DASHED
 62
2
 10
-191.000000
 20
131.000000
 40
2.100000
  0
CIRCLE
  8
0
  6
DASHED
 62
2
 10
-191.000000
 20
155.000000
 40
2.100000
  0
CIRCLE
  8
0
  6
CONTINUOUS
 62
7
 10
-281.000000
 20
143.000000
 40
6.000000
  0
CIRCLE
  8
0
  6
CONTINUOUS
 62
7
 10
-272.000000
 20
131.500000
 40
4.000000
  0
CIRCLE
  8
0
  6
CONTINUOUS
 62
7
 10
-272.000000
 20
154.500000
 40
4.000000
  0
CIRCLE
  8
0
  6
CONTINUOUS
 62
2
 10
-281.000000
 20
155.000000
 40
2.000000
  0
CIRCLE
  8
0
  6
CONTINUOUS
 62
7
 10
-281.000000
 20
155.000000
 40
1.650000
  0
CIRCLE
  8
0
  6
CONTINUOUS
 62
2
 10
-272.000000
 20
143.000000
 40
2.000000
  0
CIRCLE
  8
0
  6
CONTINUOUS
 62
7
 10
-272.000000
 20
143.000000
 40
1.650000
  0
CIRCLE
  8
0
  6
CONTINUOUS
 62
2
 10
-281.000000
 20
131.000000
 40
2.000000
  0
CIRCLE
  8
0
  6
CONTINUOUS
 62
7
 10
-281.000000
 20
131.000000
 40
1.650000
  0
ARC
  8
0
  6
CONTINUOUS
 62
7
 10
284.500000
 20
136.000000
 40
2.300020
 50
180.000000
 51
183.186996
  0
ARC
  8
0
  6
CONTINUOUS
 62
7
 10
284.500000
 20
150.000000
 40
2.300000
 50
176.815002
 51
180.000000
  0
ARC
  8
0
  6
CONTINUOUS
 62
7
 10
286.500000
 20
151.300003
 40
1.600000
 50
209.998993
 51
330.001007
  0
ARC
  8
0
  6
CONTINUOUS
 62
7
 10
286.500000
 20
134.699997
 40
1.600000
 50
29.999399
 51
150.001007
  0
CIRCLE
  8
0
  6
CONTINUOUS
 62
7
 10
293.000000
 20
143.000000
 40
6.400000
  0
CIRCLE
  8
0
  6
CONTINUOUS
 62
2
 10
-236.000000
 20
84.000000
 40
2.500000
  0
CIRCLE
  8
0
  6
CONTINUOUS
 62
7
 10
-236.000000
 20
84.000000
 40
2.100000
  0
CIRCLE
  8
0
  6
CONTINUOUS
 62
2
 10
-182.000000
 20
84.000000
 40
2.500000
  0
CIRCLE
  8
0
  6
CONTINUOUS
 62
7
 10
-182.000000
 20
84.000000
 40
2.100000
  0
CIRCLE
  8
0
  6
CONTINUOUS
 62
2
 10
-219.000000
 20
84.000000
 40
1.500000
  0
CIRCLE
  8
0
  6
CONTINUOUS
 62
2
 10
-199.000000
 20
84.000000
 40
1.500000
  0
CIRCLE
  8
0
  6
CONTINUOUS
 62
2
 10
-185.199997
 20
96.300003
 40
1.000000
  0
CIRCLE
  8
0
  6
CONTINUOUS
 62
2
 10
-195.199997
 20
96.300003
 40
1.000000
  0
CIRCLE
  8
0
  6
CONTINUOUS
 62
2
 10
-188.300003
 20
96.000000
 40
1.500000
  0
CIRCLE
  8
0
  6
CONTINUOUS
 62
2
 10
-181.800003
 20
96.000000
 40
1.500000
  0
ARC
  8
0
  6
CONTINUOUS
 62
7
 10
-227.000000
 20
-206.500000
 40
2.200000
 50
180.000000
 51
0.000000
  0
ARC
  8
0
  6
CONTINUOUS
 62
7
 10
-227.000000
 20
-230.500000
 40
2.200000
 50
0.000000
 51
180.000000
  0
CIRCLE
  8
0
  6
CONTINUOUS
 62
2
 10
-211.000000
 20
-230.500000
 40
2.500000
  0
CIRCLE
  8
0
  6
CONTINUOUS
 62
7
 10
-211.000000
 20
-230.500000
 40
2.100000
  0
CIRCLE
  8
0
  6
CONTINUOUS
 62
7
 10
-211.000000
 20
-230.500000
 40
3.000000
  0
CIRCLE
  8
0
  6
CONTINUOUS
 62
2
 10
-211.000000
 20
-206.500000
 40
2.500000
  0
CIRCLE
  8
0
  6
CONTINUOUS
 62
7
 10
-211.000000
 20
-206.500000
 40
2.100000
  0
CIRCLE
  8
0
  6
CONTINUOUS
 62
7
 10
-211.000000
 20
-206.500000
 40
3.000000
  0
CIRCLE
  8
0
  6
CONTINUOUS
 62
2
 10
-181.000000
 20
-206.500000
 40
2.500000
  0
CIRCLE
  8
0
  6
CONTINUOUS
 62
7
 10
-181.000000
 20
-206.500000
 40
2.100000
  0
CIRCLE
  8
0
  6
CONTINUOUS
 62
7
 10
-181.000000
 20
-230.500000
 40
2.100000
  0
CIRCLE
  8
0
  6
CONTINUOUS
 62
2
 10
-181.000000
 20
-230.500000
 40
2.500000
  0
CIRCLE
  8
0
  6
CONTINUOUS
 62
2
 10
209.800003
 20
189.699997
 40
1.000000
  0
ARC
  8
0
  6
CONTINUOUS
 62
7
 10
-227.000000
 20
48.500000
 40
2.200000
 50
180.000000
 51
0.000000
  0
ARC
  8
0
  6
CONTINUOUS
 62
7
 10
-227.000000
 20
24.500000
 40
2.200000
 50
0.000000
 51
180.000000
  0
CIRCLE
  8
0
  6
CONTINUOUS
 62
2
 10
-211.000000
 20
24.500000
 40
2.500000
  0
CIRCLE
  8
0
  6
CONTINUOUS
 62
7
 10
-211.000000
 20
24.500000
 40
2.100000
  0
CIRCLE
  8
0
  6
CONTINUOUS
 62
2
 10
-211.000000
 20
48.500000
 40
2.500000
  0
CIRCLE
  8
0
  6
CONTINUOUS
 62
7
 10
-211.000000
 20
48.500000
 40
2.100000
  0
CIRCLE
  8
0
  6
CONTINUOUS
 62
2
 10
-191.000000
 20
48.500000
 40
2.500000
  0
CIRCLE
  8
0
  6
CONTINUOUS
 62
7
 10
-191.000000
 20
48.500000
 40
2.100000
  0
CIRCLE
  8
0
  6
CONTINUOUS
 62
7
 10
-191.000000
 20
24.500000
 40
2.100000
  0
CIRCLE
  8
0
  6
CONTINUOUS
 62
2
 10
-191.000000
 20
24.500000
 40
2.500000
  0
ARC
  8
0
  6
CONTINUOUS
 62
7
 10
153.000000
 20
48.500000
 40
2.200000
 50
180.000000
 51
0.000000
  0
ARC
  8
0
  6
CONTINUOUS
 62
7
 10
153.000000
 20
24.500000
 40
2.200000
 50
0.000000
 51
180.000000
  0
CIRCLE
  8
0
  6
CONTINUOUS
 62
2
 10
169.000000
 20
24.500000
 40
2.500000
  0
CIRCLE
  8
0
  6
CONTINUOUS
 62
7
 10
169.000000
 20
24.500000
 40
2.100000
  0
CIRCLE
  8
0
  6
CONTINUOUS
 62
2
 10
169.000000
 20
48.500000
 40
2.500000
  0
CIRCLE
  8
0
  6
CONTINUOUS
 62
7
 10
169.000000
 20
48.500000
 40
2.100000
  0
CIRCLE
  8
0
  6
CONTINUOUS
 62
2
 10
214.000000
 20
48.500000
 40
2.500000
  0
CIRCLE
  8
0
  6
CONTINUOUS
 62
7
 10
214.000000
 20
48.500000
 40
2.100000
  0
CIRCLE
  8
0
  6
CONTINUOUS
 62
7
 10
214.000000
 20
24.500000
 40
2.100000
  0
CIRCLE
  8
0
  6
CONTINUOUS
 62
2
 10
214.000000
 20
24.500000
 40
2.500000
  0
ARC
  8
0
  6
CONTINUOUS
 62
7
 10
-236.000000
 20
83.800003
 40
4.800000
 50
0.000000
 51
61.044498
  0
ARC
  8
0
  6
CONTINUOUS
 62
7
 10
-219.000000
 20
83.800003
 40
3.000000
 50
41.809898
 51
180.000000
  0
ARC
  8
0
  6
CONTINUOUS
 62
7
 10
-199.000000
 20
83.800003
 40
3.000000
 50
0.000000
 51
138.190002
  0
ARC
  8
0
  6
CONTINUOUS
 62
7
 10
-182.000000
 20
83.800003
 40
4.800000
 50
118.955002
 51
180.000000
  0
ARC
  8
0
  6
CONTINUOUS
 62
7
 10
144.000000
 20
202.199997
 40
4.800000
 50
298.954987
 51
0.000000
  0
ARC
  8
0
  6
CONTINUOUS
 62
7
 10
144.000000
 20
83.800003
 40
4.800000
 50
0.000000
 51
61.044899
  0
ARC
  8
0
  6
CONTINUOUS
 62
7
 10
161.000000
 20
83.800003
 40
3.000000
 50
41.810299
 51
180.000000
  0
ARC
  8
0
  6
CONTINUOUS
 62
7
 10
206.000000
 20
83.800003
 40
3.000000
 50
0.000000
 51
138.190002
  0
ARC
  8
0
  6
CONTINUOUS
 62
7
 10
223.000000
 20
83.800003
 40
4.800000
 50
118.955002
 51
180.000000
  0
CIRCLE
  8
0
  6
CONTINUOUS
 62
7
 10
-188.300003
 20
96.000000
 40
1.200000
  0
CIRCLE
  8
0
  6
CONTINUOUS
 62
7
 10
-181.800003
 20
96.000000
 40
1.200000
  0
CIRCLE
  8
0
  6
CONTINUOUS
 62
7
 10
-219.000000
 20
84.000000
 40
1.200000
  0
CIRCLE
  8
0
  6
CONTINUOUS
 62
7
 10
-199.000000
 20
84.000000
 40
1.200000
  0
CIRCLE
  8
0
  6
CONTINUOUS
 62
7
 10
-219.000000
 20
-171.000000
 40
1.200000
  0
CIRCLE
  8
0
  6
CONTINUOUS
 62
7
 10
-189.000000
 20
-171.000000
 40
1.200000
  0
CIRCLE
  8
0
  6
CONTINUOUS
 62
7
 10
-178.300003
 20
-159.000000
 40
1.200000
  0
CIRCLE
  8
0
  6
CONTINUOUS
 62
7
 10
-171.800003
 20
-159.000000
 40
1.200000
  0
CIRCLE
  8
0
  6
CONTINUOUS
 62
7
 10
223.199997
 20
96.000000
 40
1.200000
  0
CIRCLE
  8
0
  6
CONTINUOUS
 62
7
 10
216.699997
 20
96.000000
 40
1.200000
  0
CIRCLE
  8
0
  6
CONTINUOUS
 62
7
 10
206.000000
 20
84.000000
 40
1.200000
  0
CIRCLE
  8
0
  6
CONTINUOUS
 62
7
 10
161.000000
 20
84.000000
 40
1.200000
  0
CIRCLE
  8
0
  6
CONTINUOUS
 62
7
 10
221.000000
 20
-171.000000
 40
1.200000
  0
CIRCLE
  8
0
  6
CONTINUOUS
 62
7
 10
231.699997
 20
-159.000000
 40
1.200000
  0
CIRCLE
  8
0
  6
CONTINUOUS
 62
7
 10
238.199997
 20
-159.000000
 40
1.200000
  0
CIRCLE
  8
0
  6
CONTINUOUS
 62
7
 10
161.000000
 20
-171.000000
 40
1.200000
  0
CIRCLE
  8
0
  6
CONTINUOUS
 62
7
 10
224.800003
 20
-158.699997
 40
0.800000
  0
CIRCLE
  8
0
  6
CONTINUOUS
 62
7
 10
234.800003
 20
-158.699997
 40
0.800000
  0
CIRCLE
  8
0
  6
CONTINUOUS
 62
7
 10
209.800003
 20
189.699997
 40
0.800000
  0
CIRCLE
  8
0
  6
CONTINUOUS
 62
7
 10
-195.199997
 20
96.300003
 40
0.800000
  0
CIRCLE
  8
0
  6
CONTINUOUS
 62
7
 10
-185.199997
 20
96.300003
 40
0.800000
  0
CIRCLE
  8
0
  6
CONTINUOUS
 62
7
 10
-185.199997
 20
-158.699997
 40
0.800000
  0
CIRCLE
  8
0
  6
CONTINUOUS
 62
7
 10
-175.199997
 20
-158.699997
 40
0.800000
  0
CIRCLE
  8
0
  6
CONTINUOUS
 62
7
 10
209.800003
 20
96.300003
 40
0.800000
  0
CIRCLE
  8
0
  6
CONTINUOUS
 62
7
 10
219.800003
 20
96.300003
 40
0.800000
  0
ARC
  8
0
  6
CONTINUOUS
 62
7
 10
-273.000000
 20
164.500000
 40
4.250000
 50
49.749901
 51
70.250298
  0
ARC
  8
0
  6
CONTINUOUS
 62
7
 10
-273.000000
 20
164.500000
 40
4.249990
 50
349.750000
 51
10.250200
  0
ARC
  8
0
  6
CONTINUOUS
 62
7
 10
-273.000000
 20
164.500000
 40
4.250000
 50
289.750000
 51
310.250000
  0
ARC
  8
0
  6
CONTINUOUS
 62
7
 10
-273.000000
 20
164.500000
 40
4.250000
 50
229.750000
 51
250.250000
  0
ARC
  8
0
  6
CONTINUOUS
 62
7
 10
-273.000000
 20
164.500000
 40
4.249990
 50
169.750000
 51
190.250000
  0
ARC
  8
0
  6
CONTINUOUS
 62
7
 10
-273.000000
 20
164.500000
 40
4.250000
 50
109.750000
 51
130.250000
  0
CIRCLE
  8
0
  6
CONTINUOUS
 62
7
 10
-273.000000
 20
164.500000
 40
3.000000
  0
ARC
  8
0
  6
CONTINUOUS
 62
7
 10
107.000000
 20
164.500000
 40
4.250000
 50
49.749901
 51
70.250099
  0
ARC
  8
0
  6
CONTINUOUS
 62
7
 10
107.000000
 20
164.500000
 40
4.250000
 50
349.750000
 51
10.250100
  0
ARC
  8
0
  6
CONTINUOUS
 62
7
 10
107.000000
 20
164.500000
 40
4.250000
 50
289.750000
 51
310.250000
  0
ARC
  8
0
  6
CONTINUOUS
 62
7
 10
107.000000
 20
164.500000
 40
4.250000
 50
229.750000
 51
250.250000
  0
ARC
  8
0
  6
CONTINUOUS
 62
7
 10
107.000000
 20
164.500000
 40
4.250000
 50
169.750000
 51
190.250000
  0
ARC
  8
0
  6
CONTINUOUS
 62
7
 10
107.000000
 20
164.500000
 40
4.250000
 50
109.750000
 51
130.250000
  0
CIRCLE
  8
0
  6
CONTINUOUS
 62
7
 10
107.000000
 20
164.500000
 40
3.000000
  0
ARC
  8
0
  6
CONTINUOUS
 62
7
 10
167.500000
 20
193.500000
 40
3.000000
 50
90.000000
 51
180.000000
  0
CIRCLE
  8
0
  6
CONTINUOUS
 62
7
 10
224.800003
 20
-65.300003
 40
0.800000
  0
ARC
  8
0
  6
CONTINUOUS
 62
7
 10
167.500000
 20
-61.500000
 40
3.000000
 50
90.000000
 51
180.000000
  0
CIRCLE
  8
0
  6
CONTINUOUS
 62
2
 10
224.800003
 20
-65.300003
 40
1.000000
  0
CIRCLE
  8
0
  6
CONTINUOUS
 62
7
 10
-281.000000
 20
-112.000000
 40
6.000000
  0
CIRCLE
  8
0
  6
CONTINUOUS
 62
7
 10
-272.000000
 20
-123.500000
 40
4.000000
  0
CIRCLE
  8
0
  6
CONTINUOUS
 62
7
 10
-272.000000
 20
-100.500000
 40
4.000000
  0
CIRCLE
  8
0
  6
CONTINUOUS
 62
2
 10
-281.000000
 20
-100.000000
 40
2.000000
  0
CIRCLE
  8
0
  6
CONTINUOUS
 62
7
 10
-281.000000
 20
-100.000000
 40
1.650000
  0
CIRCLE
  8
0
  6
CONTINUOUS
 62
2
 10
-272.000000
 20
-112.000000
 40
2.000000
  0
CIRCLE
  8
0
  6
CONTINUOUS
 62
7
 10
-272.000000
 20
-112.000000
 40
1.650000
  0
CIRCLE
  8
0
  6
CONTINUOUS
 62
2
 10
-281.000000
 20
-124.000000
 40
2.000000
  0
CIRCLE
  8
0
  6
CONTINUOUS
 62
7
 10
-281.000000
 20
-124.000000
 40
1.650000
  0
ARC
  8
0
  6
CONTINUOUS
 62
7
 10
-273.000000
 20
-90.500000
 40
4.250000
 50
49.749901
 51
70.250298
  0
ARC
  8
0
  6
CONTINUOUS
 62
7
 10
-273.000000
 20
-90.500000
 40
4.249990
 50
349.750000
 51
10.250100
  0
ARC
  8
0
  6
CONTINUOUS
 62
7
 10
-273.000000
 20
-90.500000
 40
4.250000
 50
289.750000
 51
310.250000
  0
ARC
  8
0
  6
CONTINUOUS
 62
7
 10
-273.000000
 20
-90.500000
 40
4.250000
 50
229.750000
 51
250.250000
  0
ARC
  8
0
  6
CONTINUOUS
 62
7
 10
-273.000000
 20
-90.500000
 40
4.249990
 50
169.750000
 51
190.250000
  0
ARC
  8
0
  6
CONTINUOUS
 62
7
 10
-273.000000
 20
-90.500000
 40
4.250000
 50
109.750000
 51
130.250000
  0
CIRCLE
  8
0
  6
CONTINUOUS
 62
7
 10
-273.000000
 20
-90.500000
 40
3.000000
  0
CIRCLE
  8
0
  6
CONTINUOUS
 62
7
 10
99.000000
 20
-112.000000
 40
6.000000
  0
CIRCLE
  8
0
  6
CONTINUOUS
 62
7
 10
108.000000
 20
-123.500000
 40
4.000000
  0
CIRCLE
  8
0
  6
CONTINUOUS
 62
7
 10
108.000000
 20
-100.500000
 40
4.000000
  0
CIRCLE
  8
0
  6
CONTINUOUS
 62
2
 10
99.000000
 20
-100.000000
 40
2.000000
  0
CIRCLE
  8
0
  6
CONTINUOUS
 62
7
 10
99.000000
 20
-100.000000
 40
1.650000
  0
CIRCLE
  8
0
  6
CONTINUOUS
 62
2
 10
108.000000
 20
-112.000000
 40
2.000000
  0
CIRCLE
  8
0
  6
CONTINUOUS
 62
7
 10
108.000000
 20
-112.000000
 40
1.650000
  0
CIRCLE
  8
0
  6
CONTINUOUS
 62
2
 10
99.000000
 20
-124.000000
 40
2.000000
  0
CIRCLE
  8
0
  6
CONTINUOUS
 62
7
 10
99.000000
 20
-124.000000
 40
1.650000
  0
ARC
  8
0
  6
CONTINUOUS
 62
7
 10
107.000000
 20
-90.500000
 40
4.250000
 50
49.749901
 51
70.250099
  0
ARC
  8
0
  6
CONTINUOUS
 62
7
 10
107.000000
 20
-90.500000
 40
4.250000
 50
349.750000
 51
10.250000
  0
ARC
  8
0
  6
CONTINUOUS
 62
7
 10
107.000000
 20
-90.500000
 40
4.250000
 50
289.750000
 51
310.250000
  0
ARC
  8
0
  6
CONTINUOUS
 62
7
 10
107.000000
 20
-90.500000
 40
4.250000
 50
229.750000
 51
250.250000
  0
ARC
  8
0
  6
CONTINUOUS
 62
7
 10
107.000000
 20
-90.500000
 40
4.250000
 50
169.750000
 51
190.250000
  0
ARC
  8
0
  6
CONTINUOUS
 62
7
 10
107.000000
 20
-90.500000
 40
4.250000
 50
109.750000
 51
130.250000
  0
CIRCLE
  8
0
  6
CONTINUOUS
 62
7
 10
107.000000
 20
-90.500000
 40
3.000000
  0
ARC
  8
0
  6
CONTINUOUS
 62
7
 10
229.500000
 20
193.500000
 40
3.000000
 50
0.000000
 51
90.000000
  0
ARC
  8
0
  6
CONTINUOUS
 62
7
 10
244.500000
 20
-61.500000
 40
3.000000
 50
0.000000
 51
90.000000
  0
CIRCLE
  8
0
  6
CONTINUOUS
 62
2
 10
-195.199997
 20
189.699997
 40
1.000000
  0
ARC
  8
0
  6
CONTINUOUS
 62
7
 10
-236.000000
 20
202.199997
 40
4.800000
 50
298.954987
 51
0.000000
  0
CIRCLE
  8
0
  6
CONTINUOUS
 62
7
 10
-195.199997
 20
189.699997
 40
0.800000
  0
ARC
  8
0
  6
CONTINUOUS
 62
7
 10
-212.500000
 20
193.500000
 40
3.000000
 50
90.000000
 51
180.000000
  0
ARC
  8
0
  6
CONTINUOUS
 62
7
 10
-175.500000
 20
193.500000
 40
3.000000
 50
0.000000
 51
90.000000
  0
ARC
  8
0
  6
CONTINUOUS
 62
7
 10
-236.000000
 20
-53.000000
 40
4.800000
 50
303.557007
 51
0.000000
  0
CIRCLE
  8
0
  6
CONTINUOUS
 62
7
 10
-185.199997
 20
-65.300003
 40
0.800000
  0
ARC
  8
0
  6
CONTINUOUS
 62
7
 10
-212.500000
 20
-61.500000
 40
3.000000
 50
90.000000
 51
180.000000
  0
CIRCLE
  8
0
  6
CONTINUOUS
 62
2
 10
-185.199997
 20
-65.300003
 40
1.000000
  0
ARC
  8
0
  6
CONTINUOUS
 62
7
 10
-165.500000
 20
-61.500000
 40
3.000000
 50
0.000000
 51
90.000000
  0
ARC
  8
0
  6
CONTINUOUS
 62
7
 10
285.000000
 20
164.500000
 40
4.250000
 50
109.750000
 51
130.250000
  0
ARC
  8
0
  6
CONTINUOUS
 62
7
 10
285.000000
 20
164.500000
 40
4.249990
 50
169.750000
 51
190.250000
  0
ARC
  8
0
  6
CONTINUOUS
 62
7
 10
285.000000
 20
164.500000
 40
4.250000
 50
229.750000
 51
250.250000
  0
ARC
  8
0
  6
CONTINUOUS
 62
7
 10
285.000000
 20
164.500000
 40
4.250000
 50
289.750000
 51
310.250000
  0
ARC
  8
0
  6
CONTINUOUS
 62
7
 10
285.000000
 20
164.500000
 40
4.249990
 50
349.750000
 51
10.250200
  0
ARC
  8
0
  6
CONTINUOUS
 62
7
 10
285.000000
 20
164.500000
 40
4.250000
 50
49.749901
 51
70.250298
  0
CIRCLE
  8
0
  6
CONTINUOUS
 62
7
 10
285.000000
 20
164.500000
 40
3.000000
  0
ARC
  8
0
  6
CONTINUOUS
 62
7
 10
229.500000
 20
92.500000
 40
3.000000
 50
270.000000
 51
0.000000
  0
ARC
  8
0
  6
CONTINUOUS
 62
7
 10
284.500000
 20
-119.000000
 40
2.300020
 50
180.000000
 51
183.186996
  0
ARC
  8
0
  6
CONTINUOUS
 62
7
 10
284.500000
 20
-105.000000
 40
2.300000
 50
176.815002
 51
180.000000
  0
ARC
  8
0
  6
CONTINUOUS
 62
7
 10
286.500000
 20
-103.699997
 40
1.600000
 50
209.998993
 51
330.001007
  0
ARC
  8
0
  6
CONTINUOUS
 62
7
 10
286.500000
 20
-120.300003
 40
1.600000
 50
29.999399
 51
150.001007
  0
CIRCLE
  8
0
  6
CONTINUOUS
 62
7
 10
293.000000
 20
-112.000000
 40
6.400000
  0
ARC
  8
0
  6
CONTINUOUS
 62
7
 10
285.000000
 20
-90.500000
 40
4.250000
 50
109.750000
 51
130.250000
  0
ARC
  8
0
  6
CONTINUOUS
 62
7
 10
285.000000
 20
-90.500000
 40
4.249990
 50
169.750000
 51
190.250000
  0
ARC
  8
0
  6
CONTINUOUS
 62
7
 10
285.000000
 20
-90.500000
 40
4.250000
 50
229.750000
 51
250.250000
  0
ARC
  8
0
  6
CONTINUOUS
 62
7
 10
285.000000
 20
-90.500000
 40
4.250000
 50
289.750000
 51
310.250000
  0
ARC
  8
0
  6
CONTINUOUS
 62
7
 10
285.000000
 20
-90.500000
 40
4.249990
 50
349.750000
 51
10.250100
  0
ARC
  8
0
  6
CONTINUOUS
 62
7
 10
285.000000
 20
-90.500000
 40
4.250000
 50
49.749901
 51
70.250298
  0
CIRCLE
  8
0
  6
CONTINUOUS
 62
7
 10
285.000000
 20
-90.500000
 40
3.000000
  0
ARC
  8
0
  6
CONTINUOUS
 62
7
 10
244.500000
 20
-162.500000
 40
3.000000
 50
270.000000
 51
0.000000
  0
ARC
  8
0
  6
CONTINUOUS
 62
7
 10
-125.500000
 20
136.000000
 40
2.300000
 50
180.000000
 51
183.186996
  0
ARC
  8
0
  6
CONTINUOUS
 62
7
 10
-125.500000
 20
150.000000
 40
2.300000
 50
176.815002
 51
180.000000
  0
ARC
  8
0
  6
CONTINUOUS
 62
7
 10
-123.500000
 20
151.300003
 40
1.600000
 50
209.998993
 51
330.001007
  0
ARC
  8
0
  6
CONTINUOUS
 62
7
 10
-123.500000
 20
134.699997
 40
1.600000
 50
29.999399
 51
150.001007
  0
CIRCLE
  8
0
  6
CONTINUOUS
 62
7
 10
-117.000000
 20
143.000000
 40
6.400000
  0
ARC
  8
0
  6
CONTINUOUS
 62
7
 10
-125.000000
 20
164.500000
 40
4.250000
 50
109.750000
 51
130.250000
  0
ARC
  8
0
  6
CONTINUOUS
 62
7
 10
-125.000000
 20
164.500000
 40
4.250000
 50
169.750000
 51
190.250000
  0
ARC
  8
0
  6
CONTINUOUS
 62
7
 10
-125.000000
 20
164.500000
 40
4.250000
 50
229.750000
 51
250.250000
  0
ARC
  8
0
  6
CONTINUOUS
 62
7
 10
-125.000000
 20
164.500000
 40
4.250000
 50
289.750000
 51
310.250000
  0
ARC
  8
0
  6
CONTINUOUS
 62
7
 10
-125.000000
 20
164.500000
 40
4.250000
 50
349.750000
 51
10.250100
  0
ARC
  8
0
  6
CONTINUOUS
 62
7
 10
-125.000000
 20
164.500000
 40
4.250000
 50
49.749901
 51
70.250099
  0
CIRCLE
  8
0
  6
CONTINUOUS
 62
7
 10
-125.000000
 20
164.500000
 40
3.000000
  0
ARC
  8
0
  6
CONTINUOUS
 62
7
 10
-175.500000
 20
92.500000
 40
3.000000
 50
270.000000
 51
0.000000
  0
ARC
  8
0
  6
CONTINUOUS
 62
7
 10
-125.500000
 20
-119.000000
 40
2.300000
 50
180.000000
 51
183.186996
  0
ARC
  8
0
  6
CONTINUOUS
 62
7
 10
-125.500000
 20
-105.000000
 40
2.300000
 50
176.815002
 51
180.000000
  0
ARC
  8
0
  6
CONTINUOUS
 62
7
 10
-123.500000
 20
-103.699997
 40
1.600000
 50
209.998993
 51
330.001007
  0
ARC
  8
0
  6
CONTINUOUS
 62
7
 10
-123.500000
 20
-120.300003
 40
1.600000
 50
29.999399
 51
150.001007
  0
CIRCLE
  8
0
  6
CONTINUOUS
 62
7
 10
-117.000000
 20
-112.000000
 40
6.400000
  0
ARC
  8
0
  6
CONTINUOUS
 62
7
 10
-125.000000
 20
-90.500000
 40
4.250000
 50
109.750000
 51
130.250000
  0
ARC
  8
0
  6
CONTINUOUS
 62
7
 10
-125.000000
 20
-90.500000
 40
4.250000
 50
169.750000
 51
190.250000
  0
ARC
  8
0
  6
CONTINUOUS
 62
7
 10
-125.000000
 20
-90.500000
 40
4.250000
 50
229.750000
 51
250.250000
  0
ARC
  8
0
  6
CONTINUOUS
 62
7
 10
-125.000000
 20
-90.500000
 40
4.250000
 50
289.750000
 51
310.250000
  0
ARC
  8
0
  6
CONTINUOUS
 62
7
 10
-125.000000
 20
-90.500000
 40
4.250000
 50
349.750000
 51
10.250000
  0
ARC
  8
0
  6
CONTINUOUS
 62
7
 10
-125.000000
 20
-90.500000
 40
4.250000
 50
49.749901
 51
70.250099
  0
CIRCLE
  8
0
  6
CONTINUOUS
 62
7
 10
-125.000000
 20
-90.500000
 40
3.000000
  0
ARC
  8
0
  6
CONTINUOUS
 62
7
 10
-165.500000
 20
-162.500000
 40
3.000000
 50
270.000000
 51
0.000000
  0
TEXT
  8
0
 62
7
 10
249.264832
 20
-267.375000
 40
12.500000
  1
KOGANEI CORP.
 50
0.000000
 41
0.771525
 51
0.000000
  7
STANDARD
  0
TEXT
  8
0
 62
7
 10
292.414673
 20
261.500000
 40
9.000000
  1
Ver.1.0
 50
0.000000
 41
1.010331
 51
0.000000
  7
STANDARD
  0
TEXT
  8
0
 62
7
 10
15.774433
 20
-22.500000
 40
9.000000
  1
MODEL:APU-SD12-60-TP-QT
 50
0.000000
 41
0.774955
 51
0.000000
  7
STANDARD
  0
TEXT
  8
0
 62
7
 10
-346.635315
 20
261.500000
 40
9.000000
  1
AP UNIT
 50
0.000000
 41
0.832036
 51
0.000000
  7
STANDARD
  0
TEXT
  8
0
 62
7
 10
-383.750580
 20
-22.500000
 40
9.000000
  1
MODEL:APU-SD12-30-TP-QT
 50
0.000000
 41
0.774955
 51
0.000000
  7
STANDARD
  0
TEXT
  8
0
 62
7
 10
15.774433
 20
229.000000
 40
9.000000
  1
MODEL:APU-SD12-45-TP-QT
 50
0.000000
 41
0.768804
 51
0.000000
  7
STANDARD
  0
TEXT
  8
0
 62
7
 10
-383.750580
 20
229.000000
 40
9.000000
  1
MODEL:APU-SD12-20-TP-QT
 50
0.000000
 41
0.774955
 51
0.000000
  7
STANDARD
  0
ENDSEC
  0
EOF
