  0
SECTION
  2
HEADER
  0
ENDSEC
  0
SECTION
  2
TABLES
  0
TABLE
  2
LTYPE
 70
     4
  0
LTYPE
  2
CONTINUOUS
 70
    64
  3
Solid line
 72
    65
 73
     0
 40
0.000000
  0
LTYPE
  2
DASHED
 70
    64
  3
__ __ __ __ __ __ __ __ __ __ __ __ __ __ __
 72
    65
 73
     2
 40
3.500000
 49
2.000000
 49
-1.500000
  0
LTYPE
  2
CENTER
 70
    64
  3
____ _ ____ _ ____ _ ____ _ ____ _ ____ _ ____
 72
    65
 73
     4
 40
17.500000
 49
13.000000
 49
-1.500000
 49
1.500000
 49
-1.500000
  0
LTYPE
  2
PHANTOM
 70
    64
  3
_____ _ _ _____ _ _ _____ _ _ _____ _ _ ____  
 72
    65
 73
     6
 40
15.500000
 49
8.000000
 49
-1.500000
 49
1.500000
 49
-1.500000
 49
1.500000
 49
-1.500000
  0
ENDTAB
  0
TABLE
  2
LAYER
 70
     1
  0
LAYER
  2
0
 70
     0
 62
     7
  6
CONTINUOUS
  0
ENDTAB
  0
TABLE
  2
STYLE
 70
     1
  0
STYLE
  2
STANDARD
 70
     0
 40
0.000000
 41
1.000000
 50
0.000000
 71
     0
 42
0.200000
  3
txt
  4
BIGFONT
  0
ENDTAB
  0
TABLE
  2
VIEW
 70
     0
  0
ENDTAB
  0
ENDSEC
  0
SECTION
  2
BLOCKS
  0
ENDSEC
  0
SECTION
  2
ENTITIES
  0
LINE
  8
0
  6
CONTINUOUS
 62
7
 10
-281.250000
 20
195.500000
 11
282.100006
 21
195.500000
  0
LINE
  8
0
  6
CONTINUOUS
 62
7
 10
-281.250000
 20
195.500000
 11
-281.250000
 21
-195.000000
  0
LINE
  8
0
  6
CONTINUOUS
 62
7
 10
282.100006
 20
195.500000
 11
282.100006
 21
-195.000000
  0
LINE
  8
0
  6
CONTINUOUS
 62
7
 10
-281.250000
 20
-195.000000
 11
282.100006
 21
-195.000000
  0
LINE
  8
0
  6
CONTINUOUS
 62
7
 10
162.100006
 20
-175.000000
 11
162.100006
 21
-195.000000
  0
LINE
  8
0
  6
CONTINUOUS
 62
7
 10
162.100006
 20
-175.000000
 11
282.100006
 21
-175.000000
  0
LINE
  8
0
  6
CONTINUOUS
 62
7
 10
162.100006
 20
175.500000
 11
282.100006
 21
175.500000
  0
LINE
  8
0
  6
CONTINUOUS
 62
7
 10
-281.250000
 20
175.500000
 11
-161.250000
 21
175.500000
  0
LINE
  8
0
  6
CONTINUOUS
 62
7
 10
162.100006
 20
195.500000
 11
162.100006
 21
175.500000
  0
LINE
  8
0
  6
CONTINUOUS
 62
7
 10
-161.250000
 20
195.500000
 11
-161.250000
 21
175.500000
  0
LINE
  8
0
  6
CENTER
 62
2
 10
229.783005
 20
28.000000
 11
127.782997
 21
28.000000
  0
LINE
  8
0
  6
CONTINUOUS
 62
7
 10
226.483002
 20
41.500000
 11
128.783005
 21
41.500000
  0
LINE
  8
0
  6
CONTINUOUS
 62
7
 10
225.783005
 20
14.500000
 11
128.783005
 21
14.500000
  0
LINE
  8
0
  6
CONTINUOUS
 62
7
 10
225.783005
 20
21.000000
 11
136.783005
 21
21.000000
  0
LINE
  8
0
  6
CONTINUOUS
 62
7
 10
225.783005
 20
35.000000
 11
136.783005
 21
35.000000
  0
LINE
  8
0
  6
CONTINUOUS
 62
7
 10
228.783005
 20
14.000000
 11
154.432999
 21
14.000000
  0
LINE
  8
0
  6
CONTINUOUS
 62
7
 10
228.783005
 20
42.000000
 11
228.783005
 21
14.000000
  0
LINE
  8
0
  6
CONTINUOUS
 62
7
 10
136.783005
 20
41.500000
 11
136.783005
 21
14.500000
  0
LINE
  8
0
  6
CONTINUOUS
 62
7
 10
225.783005
 20
41.500000
 11
225.783005
 21
14.500000
  0
LINE
  8
0
  6
CONTINUOUS
 62
7
 10
138.783005
 20
14.500000
 11
138.783005
 21
14.000000
  0
LINE
  8
0
  6
CONTINUOUS
 62
7
 10
138.783005
 20
42.000000
 11
138.783005
 21
41.500000
  0
LINE
  8
0
  6
CONTINUOUS
 62
7
 10
151.132996
 20
14.000000
 11
151.132996
 21
14.500000
  0
LINE
  8
0
  6
CONTINUOUS
 62
7
 10
154.432999
 20
14.000000
 11
154.432999
 21
14.500000
  0
LINE
  8
0
  6
CONTINUOUS
 62
7
 10
154.432999
 20
41.500000
 11
154.432999
 21
42.000000
  0
LINE
  8
0
  6
CONTINUOUS
 62
7
 10
151.132996
 20
41.500000
 11
151.132996
 21
42.000000
  0
LINE
  8
0
  6
CONTINUOUS
 62
7
 10
151.132996
 20
14.000000
 11
138.783005
 21
14.000000
  0
LINE
  8
0
  6
CONTINUOUS
 62
7
 10
151.132996
 20
42.000000
 11
138.783005
 21
42.000000
  0
LINE
  8
0
  6
CONTINUOUS
 62
7
 10
128.783005
 20
41.500000
 11
128.783005
 21
14.500000
  0
LINE
  8
0
  6
CENTER
 62
2
 10
145.783005
 20
40.500000
 11
145.783005
 21
35.500000
  0
LINE
  8
0
  6
CENTER
 62
2
 10
143.283005
 20
38.000000
 11
148.283005
 21
38.000000
  0
LINE
  8
0
  6
CENTER
 62
2
 10
145.783005
 20
20.500000
 11
145.783005
 21
15.500000
  0
LINE
  8
0
  6
CENTER
 62
2
 10
143.283005
 20
18.000000
 11
148.283005
 21
18.000000
  0
LINE
  8
0
  6
CENTER
 62
2
 10
211.783005
 20
40.500000
 11
211.783005
 21
35.500000
  0
LINE
  8
0
  6
CENTER
 62
2
 10
209.283005
 20
38.000000
 11
214.283005
 21
38.000000
  0
LINE
  8
0
  6
CENTER
 62
2
 10
177.783005
 20
41.099998
 11
177.783005
 21
35.900002
  0
LINE
  8
0
  6
CENTER
 62
2
 10
175.182999
 20
38.500000
 11
180.382996
 21
38.500000
  0
LINE
  8
0
  6
CENTER
 62
2
 10
211.783005
 20
20.500000
 11
211.783005
 21
15.500000
  0
LINE
  8
0
  6
CENTER
 62
2
 10
209.283005
 20
18.000000
 11
214.283005
 21
18.000000
  0
LINE
  8
0
  6
CENTER
 62
2
 10
193.783005
 20
40.500000
 11
193.783005
 21
35.500000
  0
LINE
  8
0
  6
CENTER
 62
2
 10
191.283005
 20
38.000000
 11
196.283005
 21
38.000000
  0
LINE
  8
0
  6
CENTER
 62
2
 10
193.783005
 20
20.500000
 11
193.783005
 21
15.500000
  0
LINE
  8
0
  6
CENTER
 62
2
 10
191.283005
 20
18.000000
 11
196.283005
 21
18.000000
  0
LINE
  8
0
  6
CONTINUOUS
 62
7
 10
226.983002
 20
14.700000
 11
225.783005
 21
14.700000
  0
LINE
  8
0
  6
CONTINUOUS
 62
7
 10
226.983002
 20
19.250000
 11
226.983002
 21
14.700000
  0
LINE
  8
0
  6
CONTINUOUS
 62
7
 10
226.983002
 20
33.250000
 11
226.983002
 21
22.750000
  0
LINE
  8
0
  6
CONTINUOUS
 62
7
 10
226.382996
 20
33.250000
 11
226.382996
 21
36.750000
  0
LINE
  8
0
  6
CONTINUOUS
 62
7
 10
226.382996
 20
33.250000
 11
227.382996
 21
33.250000
  0
LINE
  8
0
  6
CONTINUOUS
 62
7
 10
227.382996
 20
33.250000
 11
227.382996
 21
36.750000
  0
LINE
  8
0
  6
CONTINUOUS
 62
7
 10
226.382996
 20
36.750000
 11
227.382996
 21
36.750000
  0
LINE
  8
0
  6
CONTINUOUS
 62
7
 10
226.983002
 20
36.750000
 11
226.983002
 21
41.299999
  0
LINE
  8
0
  6
CONTINUOUS
 62
7
 10
226.983002
 20
41.299999
 11
225.783005
 21
41.299999
  0
LINE
  8
0
  6
CONTINUOUS
 62
7
 10
140.882996
 20
42.599998
 11
140.882996
 21
42.000000
  0
LINE
  8
0
  6
CONTINUOUS
 62
7
 10
226.382996
 20
22.750000
 11
226.382996
 21
19.250000
  0
LINE
  8
0
  6
CONTINUOUS
 62
7
 10
226.382996
 20
22.750000
 11
227.382996
 21
22.750000
  0
LINE
  8
0
  6
CONTINUOUS
 62
7
 10
227.382996
 20
19.250000
 11
227.382996
 21
22.750000
  0
LINE
  8
0
  6
CONTINUOUS
 62
7
 10
226.382996
 20
19.250000
 11
227.382996
 21
19.250000
  0
LINE
  8
0
  6
DASHED
 62
2
 10
154.432999
 20
17.500000
 11
154.432999
 21
14.500000
  0
LINE
  8
0
  6
DASHED
 62
2
 10
151.132996
 20
17.500000
 11
151.132996
 21
14.500000
  0
LINE
  8
0
  6
DASHED
 62
2
 10
154.432999
 20
38.500000
 11
154.432999
 21
41.500000
  0
LINE
  8
0
  6
DASHED
 62
2
 10
151.132996
 20
38.500000
 11
151.132996
 21
41.500000
  0
LINE
  8
0
  6
CENTER
 62
2
 10
214.783005
 20
42.500000
 11
214.783005
 21
34.500000
  0
LINE
  8
0
  6
CENTER
 62
2
 10
210.783005
 20
38.500000
 11
218.783005
 21
38.500000
  0
LINE
  8
0
  6
CENTER
 62
2
 10
214.783005
 20
21.500000
 11
214.783005
 21
13.500000
  0
LINE
  8
0
  6
CENTER
 62
2
 10
210.783005
 20
17.500000
 11
218.783005
 21
17.500000
  0
LINE
  8
0
  6
CENTER
 62
2
 10
152.783005
 20
21.500000
 11
152.783005
 21
13.500000
  0
LINE
  8
0
  6
CENTER
 62
2
 10
148.783005
 20
17.500000
 11
156.783005
 21
17.500000
  0
LINE
  8
0
  6
CENTER
 62
2
 10
152.783005
 20
42.500000
 11
152.783005
 21
34.500000
  0
LINE
  8
0
  6
CENTER
 62
2
 10
148.783005
 20
38.500000
 11
156.783005
 21
38.500000
  0
LINE
  8
0
  6
CENTER
 62
2
 10
144.783005
 20
44.500000
 11
144.783005
 21
41.000000
  0
LINE
  8
0
  6
CONTINUOUS
 62
7
 10
148.783005
 20
42.599998
 11
148.783005
 21
42.000000
  0
LINE
  8
0
  6
CONTINUOUS
 62
7
 10
141.283005
 20
43.500000
 11
141.283005
 21
42.599998
  0
LINE
  8
0
  6
CONTINUOUS
 62
7
 10
148.283005
 20
43.500000
 11
148.283005
 21
42.599998
  0
LINE
  8
0
  6
CONTINUOUS
 62
7
 10
148.783005
 20
42.599998
 11
140.882996
 21
42.599998
  0
LINE
  8
0
  6
CENTER
 62
2
 10
126.782997
 20
38.000000
 11
130.783005
 21
38.000000
  0
LINE
  8
0
  6
CENTER
 62
2
 10
126.782997
 20
18.000000
 11
130.783005
 21
18.000000
  0
LINE
  8
0
  6
CONTINUOUS
 62
7
 10
122.782997
 20
41.500000
 11
122.782997
 21
35.000000
  0
LINE
  8
0
  6
CONTINUOUS
 62
7
 10
122.483002
 20
34.700001
 11
122.483002
 21
21.299999
  0
LINE
  8
0
  6
CONTINUOUS
 62
7
 10
122.782997
 20
14.500000
 11
122.782997
 21
21.000000
  0
LINE
  8
0
  6
CONTINUOUS
 62
7
 10
122.782997
 20
14.500000
 11
103.782997
 21
14.500000
  0
LINE
  8
0
  6
CONTINUOUS
 62
7
 10
122.782997
 20
41.500000
 11
103.782997
 21
41.500000
  0
LINE
  8
0
  6
CONTINUOUS
 62
7
 10
122.782997
 20
35.000000
 11
122.483002
 21
34.700001
  0
LINE
  8
0
  6
CONTINUOUS
 62
7
 10
122.782997
 20
21.000000
 11
122.483002
 21
21.299999
  0
LINE
  8
0
  6
CONTINUOUS
 62
7
 10
112.282997
 20
14.000000
 11
112.282997
 21
14.500000
  0
LINE
  8
0
  6
CONTINUOUS
 62
7
 10
102.782997
 20
14.000000
 11
102.782997
 21
42.000000
  0
LINE
  8
0
  6
CONTINUOUS
 62
7
 10
112.282997
 20
14.000000
 11
102.782997
 21
14.000000
  0
LINE
  8
0
  6
CONTINUOUS
 62
7
 10
103.782997
 20
14.500000
 11
103.782997
 21
41.500000
  0
LINE
  8
0
  6
CONTINUOUS
 62
7
 10
122.282997
 20
41.500000
 11
122.282997
 21
14.500000
  0
LINE
  8
0
  6
CONTINUOUS
 62
7
 10
122.282997
 20
42.000000
 11
102.782997
 21
42.000000
  0
LINE
  8
0
  6
CONTINUOUS
 62
7
 10
112.282997
 20
42.000000
 11
112.282997
 21
41.500000
  0
LINE
  8
0
  6
CONTINUOUS
 62
7
 10
104.241997
 20
45.500000
 11
104.241997
 21
42.599998
  0
LINE
  8
0
  6
CONTINUOUS
 62
7
 10
106.263000
 20
45.500000
 11
106.263000
 21
42.599998
  0
LINE
  8
0
  6
CONTINUOUS
 62
7
 10
110.304001
 20
45.500000
 11
110.304001
 21
42.599998
  0
LINE
  8
0
  6
CONTINUOUS
 62
7
 10
112.324997
 20
45.500000
 11
104.241997
 21
45.500000
  0
LINE
  8
0
  6
CONTINUOUS
 62
7
 10
112.324997
 20
45.500000
 11
112.324997
 21
42.599998
  0
LINE
  8
0
  6
CONTINUOUS
 62
7
 10
112.324997
 20
42.599998
 11
104.241997
 21
42.599998
  0
LINE
  8
0
  6
CONTINUOUS
 62
7
 10
112.182999
 20
42.599998
 11
112.182999
 21
42.000000
  0
LINE
  8
0
  6
CONTINUOUS
 62
7
 10
104.383003
 20
42.599998
 11
104.383003
 21
42.000000
  0
LINE
  8
0
  6
CENTER
 62
2
 10
109.782997
 20
41.000000
 11
109.782997
 21
15.000000
  0
LINE
  8
0
  6
CENTER
 62
2
 10
101.782997
 20
28.000000
 11
123.782997
 21
28.000000
  0
LINE
  8
0
  6
CENTER
 62
2
 10
118.782997
 20
31.000000
 11
118.782997
 21
25.000000
  0
LINE
  8
0
  6
CENTER
 62
2
 10
106.782997
 20
38.000000
 11
122.782997
 21
38.000000
  0
LINE
  8
0
  6
CENTER
 62
2
 10
118.782997
 20
42.000000
 11
118.782997
 21
34.000000
  0
LINE
  8
0
  6
CENTER
 62
2
 10
106.782997
 20
18.000000
 11
122.782997
 21
18.000000
  0
LINE
  8
0
  6
CENTER
 62
2
 10
118.782997
 20
22.000000
 11
118.782997
 21
14.000000
  0
LINE
  8
0
  6
CENTER
 62
2
 10
108.282997
 20
46.500000
 11
108.282997
 21
41.000000
  0
LINE
  8
0
  6
CONTINUOUS
 62
7
 10
136.783005
 20
91.500000
 11
136.783005
 21
81.000000
  0
LINE
  8
0
  6
CONTINUOUS
 62
7
 10
128.783005
 20
91.500000
 11
128.783005
 21
73.000000
  0
LINE
  8
0
  6
CONTINUOUS
 62
7
 10
136.783005
 20
89.500000
 11
138.783005
 21
89.500000
  0
LINE
  8
0
  6
CONTINUOUS
 62
7
 10
128.783005
 20
91.500000
 11
136.783005
 21
91.500000
  0
LINE
  8
0
  6
CONTINUOUS
 62
7
 10
128.783005
 20
73.000000
 11
136.783005
 21
73.000000
  0
LINE
  8
0
  6
CONTINUOUS
 62
7
 10
136.783005
 20
72.500000
 11
225.783005
 21
72.500000
  0
LINE
  8
0
  6
CONTINUOUS
 62
7
 10
138.783005
 20
92.500000
 11
138.783005
 21
82.500000
  0
LINE
  8
0
  6
CONTINUOUS
 62
7
 10
228.783005
 20
92.500000
 11
228.783005
 21
92.000000
  0
LINE
  8
0
  6
CONTINUOUS
 62
7
 10
138.783005
 20
92.500000
 11
228.783005
 21
92.500000
  0
LINE
  8
0
  6
DASHED
 62
2
 10
217.783005
 20
87.000000
 11
211.783005
 21
87.000000
  0
LINE
  8
0
  6
CONTINUOUS
 62
7
 10
138.783005
 20
83.000000
 11
155.283005
 21
83.000000
  0
LINE
  8
0
  6
DASHED
 62
2
 10
167.783005
 20
88.500000
 11
161.783005
 21
88.500000
  0
LINE
  8
0
  6
CONTINUOUS
 62
7
 10
136.783005
 20
82.500000
 11
155.283005
 21
82.500000
  0
LINE
  8
0
  6
CONTINUOUS
 62
7
 10
149.582993
 20
87.000000
 11
155.283005
 21
87.000000
  0
LINE
  8
0
  6
CONTINUOUS
 62
7
 10
225.783005
 20
82.500000
 11
225.783005
 21
82.000000
  0
LINE
  8
0
  6
CONTINUOUS
 62
7
 10
151.132996
 20
92.500000
 11
151.132996
 21
87.000000
  0
LINE
  8
0
  6
DASHED
 62
2
 10
149.783005
 20
87.500000
 11
151.132996
 21
87.500000
  0
LINE
  8
0
  6
CENTER
 62
2
 10
152.783005
 20
93.500000
 11
152.783005
 21
86.000000
  0
LINE
  8
0
  6
CONTINUOUS
 62
7
 10
154.432999
 20
92.500000
 11
154.432999
 21
87.000000
  0
LINE
  8
0
  6
CONTINUOUS
 62
7
 10
144.783005
 20
82.958504
 11
148.283005
 21
84.979301
  0
LINE
  8
0
  6
CONTINUOUS
 62
7
 10
148.283005
 20
89.020798
 11
148.283005
 21
84.979301
  0
LINE
  8
0
  6
CONTINUOUS
 62
7
 10
144.783005
 20
91.041397
 11
148.283005
 21
89.020699
  0
LINE
  8
0
  6
CONTINUOUS
 62
7
 10
141.283005
 20
89.020699
 11
144.783005
 21
91.041496
  0
LINE
  8
0
  6
CONTINUOUS
 62
7
 10
141.283005
 20
84.979301
 11
141.283005
 21
89.020798
  0
LINE
  8
0
  6
CONTINUOUS
 62
7
 10
148.283005
 20
87.500000
 11
141.283005
 21
87.500000
  0
LINE
  8
0
  6
CONTINUOUS
 62
7
 10
148.283005
 20
86.500000
 11
141.283005
 21
86.500000
  0
LINE
  8
0
  6
CONTINUOUS
 62
7
 10
141.283005
 20
84.979202
 11
144.783005
 21
82.958504
  0
LINE
  8
0
  6
CONTINUOUS
 62
7
 10
225.783005
 20
73.000000
 11
226.983002
 21
73.000000
  0
LINE
  8
0
  6
CONTINUOUS
 62
7
 10
226.983002
 20
82.500000
 11
226.983002
 21
79.949997
  0
LINE
  8
0
  6
CONTINUOUS
 62
7
 10
227.382996
 20
77.050003
 11
227.382996
 21
73.750000
  0
LINE
  8
0
  6
CONTINUOUS
 62
7
 10
226.983002
 20
73.750000
 11
227.382996
 21
73.750000
  0
LINE
  8
0
  6
CENTER
 62
2
 10
144.783005
 20
92.041496
 11
144.783005
 21
81.958603
  0
LINE
  8
0
  6
CENTER
 62
2
 10
139.742004
 20
87.000000
 11
149.582993
 21
87.000000
  0
LINE
  8
0
  6
CENTER
 62
2
 10
208.632996
 20
78.199997
 11
208.632996
 21
74.199997
  0
LINE
  8
0
  6
CENTER
 62
2
 10
206.632996
 20
76.199997
 11
210.632996
 21
76.199997
  0
LINE
  8
0
  6
CENTER
 62
2
 10
164.783005
 20
93.500000
 11
164.783005
 21
87.500000
  0
LINE
  8
0
  6
DASHED
 62
2
 10
162.283005
 20
92.500000
 11
162.283005
 21
90.900002
  0
LINE
  8
0
  6
DASHED
 62
2
 10
167.283005
 20
92.500000
 11
167.283005
 21
90.900002
  0
LINE
  8
0
  6
DASHED
 62
2
 10
162.283005
 20
90.900002
 11
167.283005
 21
90.900002
  0
LINE
  8
0
  6
DASHED
 62
2
 10
212.783005
 20
92.500000
 11
212.783005
 21
87.500000
  0
LINE
  8
0
  6
CENTER
 62
2
 10
214.783005
 20
93.500000
 11
214.783005
 21
86.000000
  0
LINE
  8
0
  6
DASHED
 62
2
 10
211.783005
 20
87.500000
 11
211.783005
 21
86.992500
  0
LINE
  8
0
  6
DASHED
 62
2
 10
211.783005
 20
87.500000
 11
217.783005
 21
87.500000
  0
LINE
  8
0
  6
DASHED
 62
2
 10
217.783005
 20
87.500000
 11
217.783005
 21
87.000000
  0
LINE
  8
0
  6
DASHED
 62
2
 10
216.783005
 20
92.500000
 11
216.783005
 21
87.500000
  0
LINE
  8
0
  6
CENTER
 62
2
 10
145.783005
 20
74.500000
 11
145.783005
 21
70.500000
  0
LINE
  8
0
  6
CENTER
 62
2
 10
163.783005
 20
74.500000
 11
163.783005
 21
70.500000
  0
LINE
  8
0
  6
CENTER
 62
2
 10
211.783005
 20
74.500000
 11
211.783005
 21
70.500000
  0
LINE
  8
0
  6
CENTER
 62
2
 10
126.782997
 20
85.500000
 11
130.783005
 21
85.500000
  0
LINE
  8
0
  6
CENTER
 62
2
 10
126.782997
 20
76.500000
 11
130.783005
 21
76.500000
  0
LINE
  8
0
  6
DASHED
 62
2
 10
149.783005
 20
87.500000
 11
149.783005
 21
87.000000
  0
LINE
  8
0
  6
DASHED
 62
2
 10
155.783005
 20
87.500000
 11
155.783005
 21
87.000000
  0
LINE
  8
0
  6
CONTINUOUS
 62
7
 10
151.132996
 20
87.500000
 11
154.432999
 21
87.500000
  0
LINE
  8
0
  6
DASHED
 62
2
 10
154.432999
 20
87.500000
 11
155.783005
 21
87.500000
  0
LINE
  8
0
  6
CONTINUOUS
 62
7
 10
136.783005
 20
-92.000000
 11
136.783005
 21
-65.000000
  0
LINE
  8
0
  6
CONTINUOUS
 62
7
 10
154.432999
 20
-92.000000
 11
151.132996
 21
-92.000000
  0
LINE
  8
0
  6
CONTINUOUS
 62
7
 10
154.432999
 20
-65.000000
 11
151.132996
 21
-65.000000
  0
LINE
  8
0
  6
CONTINUOUS
 62
7
 10
138.783005
 20
-92.500000
 11
138.783005
 21
-64.500000
  0
LINE
  8
0
  6
CONTINUOUS
 62
7
 10
228.783005
 20
-64.500000
 11
154.432999
 21
-64.500000
  0
LINE
  8
0
  6
CONTINUOUS
 62
7
 10
228.783005
 20
-92.500000
 11
228.783005
 21
-64.500000
  0
LINE
  8
0
  6
CENTER
 62
2
 10
229.783005
 20
-78.500000
 11
127.782997
 21
-78.500000
  0
LINE
  8
0
  6
CONTINUOUS
 62
7
 10
239.283005
 20
-92.500000
 11
154.432999
 21
-92.500000
  0
LINE
  8
0
  6
CONTINUOUS
 62
7
 10
151.132996
 20
-64.500000
 11
138.783005
 21
-64.500000
  0
LINE
  8
0
  6
CONTINUOUS
 62
7
 10
151.132996
 20
-92.500000
 11
138.783005
 21
-92.500000
  0
LINE
  8
0
  6
CONTINUOUS
 62
7
 10
138.783005
 20
-65.000000
 11
128.783005
 21
-65.000000
  0
LINE
  8
0
  6
CONTINUOUS
 62
7
 10
138.783005
 20
-92.000000
 11
128.783005
 21
-92.000000
  0
LINE
  8
0
  6
CONTINUOUS
 62
7
 10
128.783005
 20
-92.000000
 11
128.783005
 21
-65.000000
  0
LINE
  8
0
  6
CONTINUOUS
 62
7
 10
138.783005
 20
-82.500000
 11
136.783005
 21
-82.500000
  0
LINE
  8
0
  6
CONTINUOUS
 62
7
 10
138.783005
 20
-74.500000
 11
136.783005
 21
-74.500000
  0
LINE
  8
0
  6
CONTINUOUS
 62
7
 10
148.283005
 20
-96.000000
 11
141.283005
 21
-96.000000
  0
LINE
  8
0
  6
CENTER
 62
2
 10
152.783005
 20
-65.349998
 11
152.783005
 21
-70.650002
  0
LINE
  8
0
  6
CENTER
 62
2
 10
150.132996
 20
-68.000000
 11
155.432999
 21
-68.000000
  0
LINE
  8
0
  6
CENTER
 62
2
 10
152.783005
 20
-86.349998
 11
152.783005
 21
-91.650002
  0
LINE
  8
0
  6
CENTER
 62
2
 10
150.132996
 20
-89.000000
 11
155.432999
 21
-89.000000
  0
LINE
  8
0
  6
CENTER
 62
2
 10
164.783005
 20
-85.500000
 11
164.783005
 21
-92.500000
  0
LINE
  8
0
  6
CENTER
 62
2
 10
161.283005
 20
-89.000000
 11
168.283005
 21
-89.000000
  0
LINE
  8
0
  6
CENTER
 62
2
 10
164.783005
 20
-64.500000
 11
164.783005
 21
-71.500000
  0
LINE
  8
0
  6
CENTER
 62
2
 10
161.283005
 20
-68.000000
 11
168.283005
 21
-68.000000
  0
LINE
  8
0
  6
CENTER
 62
2
 10
214.783005
 20
-65.000000
 11
214.783005
 21
-71.000000
  0
LINE
  8
0
  6
CENTER
 62
2
 10
211.783005
 20
-68.000000
 11
217.783005
 21
-68.000000
  0
LINE
  8
0
  6
CENTER
 62
2
 10
214.783005
 20
-86.000000
 11
214.783005
 21
-92.000000
  0
LINE
  8
0
  6
CENTER
 62
2
 10
211.783005
 20
-89.000000
 11
217.783005
 21
-89.000000
  0
LINE
  8
0
  6
CONTINUOUS
 62
7
 10
151.132996
 20
-64.500000
 11
151.132996
 21
-68.000000
  0
LINE
  8
0
  6
CONTINUOUS
 62
7
 10
154.432999
 20
-64.500000
 11
154.432999
 21
-68.000000
  0
LINE
  8
0
  6
CONTINUOUS
 62
7
 10
151.132996
 20
-89.000000
 11
151.132996
 21
-92.500000
  0
LINE
  8
0
  6
CONTINUOUS
 62
7
 10
154.432999
 20
-89.000000
 11
154.432999
 21
-92.500000
  0
LINE
  8
0
  6
CENTER
 62
2
 10
144.783005
 20
-91.500000
 11
144.783005
 21
-97.000000
  0
LINE
  8
0
  6
CONTINUOUS
 62
7
 10
148.682999
 20
-93.099998
 11
140.882996
 21
-93.099998
  0
LINE
  8
0
  6
CONTINUOUS
 62
7
 10
140.882996
 20
-92.500000
 11
140.882996
 21
-93.099998
  0
LINE
  8
0
  6
CONTINUOUS
 62
7
 10
148.682999
 20
-92.500000
 11
148.682999
 21
-93.099998
  0
LINE
  8
0
  6
CONTINUOUS
 62
7
 10
148.283005
 20
-93.099998
 11
148.283005
 21
-96.000000
  0
LINE
  8
0
  6
CONTINUOUS
 62
7
 10
141.283005
 20
-93.099998
 11
141.283005
 21
-96.000000
  0
LINE
  8
0
  6
CONTINUOUS
 62
7
 10
-39.783298
 20
-92.000000
 11
-39.783298
 21
-65.000000
  0
LINE
  8
0
  6
CONTINUOUS
 62
7
 10
-22.133301
 20
-92.000000
 11
-25.433300
 21
-92.000000
  0
LINE
  8
0
  6
CONTINUOUS
 62
7
 10
-22.133301
 20
-65.000000
 11
-25.433300
 21
-65.000000
  0
LINE
  8
0
  6
CONTINUOUS
 62
7
 10
-37.783298
 20
-92.500000
 11
-37.783298
 21
-64.500000
  0
LINE
  8
0
  6
CONTINUOUS
 62
7
 10
37.216702
 20
-64.500000
 11
-22.133301
 21
-64.500000
  0
LINE
  8
0
  6
CONTINUOUS
 62
7
 10
37.216702
 20
-92.500000
 11
37.216702
 21
-64.500000
  0
LINE
  8
0
  6
CENTER
 62
2
 10
38.216702
 20
-78.500000
 11
-48.783298
 21
-78.500000
  0
LINE
  8
0
  6
CONTINUOUS
 62
7
 10
47.716702
 20
-92.500000
 11
-22.133301
 21
-92.500000
  0
LINE
  8
0
  6
CONTINUOUS
 62
7
 10
-25.433300
 20
-64.500000
 11
-37.783298
 21
-64.500000
  0
LINE
  8
0
  6
CONTINUOUS
 62
7
 10
-25.433300
 20
-92.500000
 11
-37.783298
 21
-92.500000
  0
LINE
  8
0
  6
CONTINUOUS
 62
7
 10
-37.783298
 20
-65.000000
 11
-47.783298
 21
-65.000000
  0
LINE
  8
0
  6
CONTINUOUS
 62
7
 10
-37.783298
 20
-92.000000
 11
-47.783298
 21
-92.000000
  0
LINE
  8
0
  6
CONTINUOUS
 62
7
 10
-47.783298
 20
-92.000000
 11
-47.783298
 21
-65.000000
  0
LINE
  8
0
  6
CONTINUOUS
 62
7
 10
-37.783298
 20
-82.500000
 11
-39.783298
 21
-82.500000
  0
LINE
  8
0
  6
CONTINUOUS
 62
7
 10
-37.783298
 20
-74.500000
 11
-39.783298
 21
-74.500000
  0
LINE
  8
0
  6
CONTINUOUS
 62
7
 10
-28.283300
 20
-96.000000
 11
-35.283298
 21
-96.000000
  0
LINE
  8
0
  6
CENTER
 62
2
 10
-23.783300
 20
-65.349998
 11
-23.783300
 21
-70.650002
  0
LINE
  8
0
  6
CENTER
 62
2
 10
-26.433300
 20
-68.000000
 11
-21.133301
 21
-68.000000
  0
LINE
  8
0
  6
CENTER
 62
2
 10
-23.783300
 20
-86.349998
 11
-23.783300
 21
-91.650002
  0
LINE
  8
0
  6
CENTER
 62
2
 10
-26.433300
 20
-89.000000
 11
-21.133301
 21
-89.000000
  0
LINE
  8
0
  6
CENTER
 62
2
 10
-11.783300
 20
-85.500000
 11
-11.783300
 21
-92.500000
  0
LINE
  8
0
  6
CENTER
 62
2
 10
-15.283300
 20
-89.000000
 11
-8.283330
 21
-89.000000
  0
LINE
  8
0
  6
CENTER
 62
2
 10
-11.783300
 20
-64.500000
 11
-11.783300
 21
-71.500000
  0
LINE
  8
0
  6
CENTER
 62
2
 10
-15.283300
 20
-68.000000
 11
-8.283330
 21
-68.000000
  0
LINE
  8
0
  6
CENTER
 62
2
 10
23.216700
 20
-65.000000
 11
23.216700
 21
-71.000000
  0
LINE
  8
0
  6
CENTER
 62
2
 10
20.216700
 20
-68.000000
 11
26.216700
 21
-68.000000
  0
LINE
  8
0
  6
CENTER
 62
2
 10
23.216700
 20
-86.000000
 11
23.216700
 21
-92.000000
  0
LINE
  8
0
  6
CENTER
 62
2
 10
20.216700
 20
-89.000000
 11
26.216700
 21
-89.000000
  0
LINE
  8
0
  6
CONTINUOUS
 62
7
 10
-25.433300
 20
-64.500000
 11
-25.433300
 21
-68.000000
  0
LINE
  8
0
  6
CONTINUOUS
 62
7
 10
-22.133301
 20
-64.500000
 11
-22.133301
 21
-68.000000
  0
LINE
  8
0
  6
CONTINUOUS
 62
7
 10
-25.433300
 20
-89.000000
 11
-25.433300
 21
-92.500000
  0
LINE
  8
0
  6
CONTINUOUS
 62
7
 10
-22.133301
 20
-89.000000
 11
-22.133301
 21
-92.500000
  0
LINE
  8
0
  6
CENTER
 62
2
 10
-31.783300
 20
-91.500000
 11
-31.783300
 21
-97.000000
  0
LINE
  8
0
  6
CONTINUOUS
 62
7
 10
-27.883301
 20
-93.099998
 11
-35.683300
 21
-93.099998
  0
LINE
  8
0
  6
CONTINUOUS
 62
7
 10
-35.683300
 20
-92.500000
 11
-35.683300
 21
-93.099998
  0
LINE
  8
0
  6
CONTINUOUS
 62
7
 10
-27.883301
 20
-92.500000
 11
-27.883301
 21
-93.099998
  0
LINE
  8
0
  6
CONTINUOUS
 62
7
 10
-28.283300
 20
-93.099998
 11
-28.283300
 21
-96.000000
  0
LINE
  8
0
  6
CONTINUOUS
 62
7
 10
-35.283298
 20
-93.099998
 11
-35.283298
 21
-96.000000
  0
LINE
  8
0
  6
CENTER
 62
2
 10
38.216702
 20
28.000000
 11
-48.783298
 21
28.000000
  0
LINE
  8
0
  6
CONTINUOUS
 62
7
 10
34.916698
 20
41.500000
 11
-47.783298
 21
41.500000
  0
LINE
  8
0
  6
CONTINUOUS
 62
7
 10
34.216702
 20
14.500000
 11
-47.783298
 21
14.500000
  0
LINE
  8
0
  6
CONTINUOUS
 62
7
 10
34.216702
 20
21.000000
 11
-39.783298
 21
21.000000
  0
LINE
  8
0
  6
CONTINUOUS
 62
7
 10
34.216702
 20
35.000000
 11
-39.783298
 21
35.000000
  0
LINE
  8
0
  6
CONTINUOUS
 62
7
 10
37.216702
 20
14.000000
 11
-22.133301
 21
14.000000
  0
LINE
  8
0
  6
CONTINUOUS
 62
7
 10
37.216702
 20
42.000000
 11
37.216702
 21
14.000000
  0
LINE
  8
0
  6
CONTINUOUS
 62
7
 10
-39.783298
 20
41.500000
 11
-39.783298
 21
14.500000
  0
LINE
  8
0
  6
CONTINUOUS
 62
7
 10
34.216702
 20
41.500000
 11
34.216702
 21
14.500000
  0
LINE
  8
0
  6
CONTINUOUS
 62
7
 10
-37.783298
 20
14.500000
 11
-37.783298
 21
14.000000
  0
LINE
  8
0
  6
CONTINUOUS
 62
7
 10
-37.783298
 20
42.000000
 11
-37.783298
 21
41.500000
  0
LINE
  8
0
  6
CONTINUOUS
 62
7
 10
-25.433300
 20
14.000000
 11
-25.433300
 21
14.500000
  0
LINE
  8
0
  6
CONTINUOUS
 62
7
 10
-22.133301
 20
14.000000
 11
-22.133301
 21
14.500000
  0
LINE
  8
0
  6
CONTINUOUS
 62
7
 10
-22.133301
 20
41.500000
 11
-22.133301
 21
42.000000
  0
LINE
  8
0
  6
CONTINUOUS
 62
7
 10
-25.433300
 20
41.500000
 11
-25.433300
 21
42.000000
  0
LINE
  8
0
  6
CONTINUOUS
 62
7
 10
-25.433300
 20
14.000000
 11
-37.783298
 21
14.000000
  0
LINE
  8
0
  6
CONTINUOUS
 62
7
 10
-25.433300
 20
42.000000
 11
-37.783298
 21
42.000000
  0
LINE
  8
0
  6
CONTINUOUS
 62
7
 10
-47.783298
 20
41.500000
 11
-47.783298
 21
14.500000
  0
LINE
  8
0
  6
CENTER
 62
2
 10
-30.783300
 20
40.500000
 11
-30.783300
 21
35.500000
  0
LINE
  8
0
  6
CENTER
 62
2
 10
-33.283298
 20
38.000000
 11
-28.283300
 21
38.000000
  0
LINE
  8
0
  6
CENTER
 62
2
 10
-30.783300
 20
20.500000
 11
-30.783300
 21
15.500000
  0
LINE
  8
0
  6
CENTER
 62
2
 10
-33.283298
 20
18.000000
 11
-28.283300
 21
18.000000
  0
LINE
  8
0
  6
CENTER
 62
2
 10
20.216700
 20
40.500000
 11
20.216700
 21
35.500000
  0
LINE
  8
0
  6
CENTER
 62
2
 10
17.716700
 20
38.000000
 11
22.716700
 21
38.000000
  0
LINE
  8
0
  6
CENTER
 62
2
 10
-8.783330
 20
41.099998
 11
-8.783330
 21
35.900002
  0
LINE
  8
0
  6
CENTER
 62
2
 10
-11.383400
 20
38.500000
 11
-6.183350
 21
38.500000
  0
LINE
  8
0
  6
CENTER
 62
2
 10
20.216700
 20
20.500000
 11
20.216700
 21
15.500000
  0
LINE
  8
0
  6
CENTER
 62
2
 10
17.716700
 20
18.000000
 11
22.716700
 21
18.000000
  0
LINE
  8
0
  6
CENTER
 62
2
 10
-12.783300
 20
40.500000
 11
-12.783300
 21
35.500000
  0
LINE
  8
0
  6
CENTER
 62
2
 10
-15.283300
 20
38.000000
 11
-10.283300
 21
38.000000
  0
LINE
  8
0
  6
CENTER
 62
2
 10
-12.783300
 20
20.500000
 11
-12.783300
 21
15.500000
  0
LINE
  8
0
  6
CENTER
 62
2
 10
-15.283300
 20
18.000000
 11
-10.283300
 21
18.000000
  0
LINE
  8
0
  6
CONTINUOUS
 62
7
 10
35.416698
 20
14.700000
 11
34.216702
 21
14.700000
  0
LINE
  8
0
  6
CONTINUOUS
 62
7
 10
35.416698
 20
19.250000
 11
35.416698
 21
14.700000
  0
LINE
  8
0
  6
CONTINUOUS
 62
7
 10
35.416698
 20
33.250000
 11
35.416698
 21
22.750000
  0
LINE
  8
0
  6
CONTINUOUS
 62
7
 10
34.816700
 20
33.250000
 11
34.816700
 21
36.750000
  0
LINE
  8
0
  6
CONTINUOUS
 62
7
 10
34.816700
 20
33.250000
 11
35.816700
 21
33.250000
  0
LINE
  8
0
  6
CONTINUOUS
 62
7
 10
35.816700
 20
33.250000
 11
35.816700
 21
36.750000
  0
LINE
  8
0
  6
CONTINUOUS
 62
7
 10
34.816700
 20
36.750000
 11
35.816700
 21
36.750000
  0
LINE
  8
0
  6
CONTINUOUS
 62
7
 10
35.416698
 20
36.750000
 11
35.416698
 21
41.299999
  0
LINE
  8
0
  6
CONTINUOUS
 62
7
 10
35.416698
 20
41.299999
 11
34.216702
 21
41.299999
  0
LINE
  8
0
  6
CONTINUOUS
 62
7
 10
-35.683300
 20
42.599998
 11
-35.683300
 21
42.000000
  0
LINE
  8
0
  6
CONTINUOUS
 62
7
 10
34.816700
 20
22.750000
 11
34.816700
 21
19.250000
  0
LINE
  8
0
  6
CONTINUOUS
 62
7
 10
34.816700
 20
22.750000
 11
35.816700
 21
22.750000
  0
LINE
  8
0
  6
CONTINUOUS
 62
7
 10
35.816700
 20
19.250000
 11
35.816700
 21
22.750000
  0
LINE
  8
0
  6
CONTINUOUS
 62
7
 10
34.816700
 20
19.250000
 11
35.816700
 21
19.250000
  0
LINE
  8
0
  6
DASHED
 62
2
 10
-22.133301
 20
17.500000
 11
-22.133301
 21
14.500000
  0
LINE
  8
0
  6
DASHED
 62
2
 10
-25.433300
 20
17.500000
 11
-25.433300
 21
14.500000
  0
LINE
  8
0
  6
DASHED
 62
2
 10
-22.133301
 20
38.500000
 11
-22.133301
 21
41.500000
  0
LINE
  8
0
  6
DASHED
 62
2
 10
-25.433300
 20
38.500000
 11
-25.433300
 21
41.500000
  0
LINE
  8
0
  6
CENTER
 62
2
 10
23.216700
 20
42.500000
 11
23.216700
 21
34.500000
  0
LINE
  8
0
  6
CENTER
 62
2
 10
19.216700
 20
38.500000
 11
27.216700
 21
38.500000
  0
LINE
  8
0
  6
CENTER
 62
2
 10
23.216700
 20
21.500000
 11
23.216700
 21
13.500000
  0
LINE
  8
0
  6
CENTER
 62
2
 10
19.216700
 20
17.500000
 11
27.216700
 21
17.500000
  0
LINE
  8
0
  6
CENTER
 62
2
 10
-23.783300
 20
21.500000
 11
-23.783300
 21
13.500000
  0
LINE
  8
0
  6
CENTER
 62
2
 10
-27.783300
 20
17.500000
 11
-19.783300
 21
17.500000
  0
LINE
  8
0
  6
CENTER
 62
2
 10
-23.783300
 20
42.500000
 11
-23.783300
 21
34.500000
  0
LINE
  8
0
  6
CENTER
 62
2
 10
-27.783300
 20
38.500000
 11
-19.783300
 21
38.500000
  0
LINE
  8
0
  6
CENTER
 62
2
 10
-31.783300
 20
44.500000
 11
-31.783300
 21
41.000000
  0
LINE
  8
0
  6
CONTINUOUS
 62
7
 10
-27.783300
 20
42.599998
 11
-27.783300
 21
42.000000
  0
LINE
  8
0
  6
CONTINUOUS
 62
7
 10
-35.283298
 20
43.500000
 11
-35.283298
 21
42.599998
  0
LINE
  8
0
  6
CONTINUOUS
 62
7
 10
-28.283300
 20
43.500000
 11
-28.283300
 21
42.599998
  0
LINE
  8
0
  6
CONTINUOUS
 62
7
 10
-27.783300
 20
42.599998
 11
-35.683300
 21
42.599998
  0
LINE
  8
0
  6
CENTER
 62
2
 10
-49.783298
 20
38.000000
 11
-45.783298
 21
38.000000
  0
LINE
  8
0
  6
CENTER
 62
2
 10
-49.783298
 20
18.000000
 11
-45.783298
 21
18.000000
  0
LINE
  8
0
  6
CENTER
 62
2
 10
2.216670
 20
20.500000
 11
2.216670
 21
15.500000
  0
LINE
  8
0
  6
CENTER
 62
2
 10
-0.283325
 20
18.000000
 11
4.716670
 21
18.000000
  0
LINE
  8
0
  6
CENTER
 62
2
 10
2.216670
 20
40.500000
 11
2.216670
 21
35.500000
  0
LINE
  8
0
  6
CENTER
 62
2
 10
-0.283325
 20
38.000000
 11
4.716670
 21
38.000000
  0
LINE
  8
0
  6
CONTINUOUS
 62
7
 10
-39.783298
 20
91.500000
 11
-39.783298
 21
81.000000
  0
LINE
  8
0
  6
CONTINUOUS
 62
7
 10
-47.783298
 20
91.500000
 11
-47.783298
 21
73.000000
  0
LINE
  8
0
  6
CONTINUOUS
 62
7
 10
-39.783298
 20
89.500000
 11
-37.783298
 21
89.500000
  0
LINE
  8
0
  6
CONTINUOUS
 62
7
 10
-47.783298
 20
91.500000
 11
-39.783298
 21
91.500000
  0
LINE
  8
0
  6
CONTINUOUS
 62
7
 10
-47.783298
 20
73.000000
 11
-39.783298
 21
73.000000
  0
LINE
  8
0
  6
CONTINUOUS
 62
7
 10
-39.783298
 20
72.500000
 11
34.216702
 21
72.500000
  0
LINE
  8
0
  6
CONTINUOUS
 62
7
 10
-37.783298
 20
92.500000
 11
-37.783298
 21
82.500000
  0
LINE
  8
0
  6
CONTINUOUS
 62
7
 10
37.216702
 20
92.500000
 11
37.216702
 21
92.000000
  0
LINE
  8
0
  6
CONTINUOUS
 62
7
 10
-37.783298
 20
92.500000
 11
37.216702
 21
92.500000
  0
LINE
  8
0
  6
CONTINUOUS
 62
7
 10
-37.783298
 20
83.000000
 11
-21.283300
 21
83.000000
  0
LINE
  8
0
  6
CONTINUOUS
 62
7
 10
-39.783298
 20
82.500000
 11
-21.283300
 21
82.500000
  0
LINE
  8
0
  6
CONTINUOUS
 62
7
 10
34.216702
 20
82.500000
 11
34.216702
 21
82.000000
  0
LINE
  8
0
  6
CONTINUOUS
 62
7
 10
-31.783300
 20
82.958603
 11
-28.283300
 21
84.979301
  0
LINE
  8
0
  6
CONTINUOUS
 62
7
 10
-28.283300
 20
89.020798
 11
-28.283300
 21
84.979301
  0
LINE
  8
0
  6
CONTINUOUS
 62
7
 10
-31.783300
 20
91.041298
 11
-28.283400
 21
89.020599
  0
LINE
  8
0
  6
CONTINUOUS
 62
7
 10
-35.283298
 20
89.020798
 11
-31.783300
 21
91.041496
  0
LINE
  8
0
  6
CONTINUOUS
 62
7
 10
-35.283298
 20
84.979301
 11
-35.283298
 21
89.020798
  0
LINE
  8
0
  6
CONTINUOUS
 62
7
 10
-28.283300
 20
87.500000
 11
-35.283298
 21
87.500000
  0
LINE
  8
0
  6
CONTINUOUS
 62
7
 10
-28.283300
 20
86.500000
 11
-35.283298
 21
86.500000
  0
LINE
  8
0
  6
CONTINUOUS
 62
7
 10
-35.283298
 20
84.979202
 11
-31.783400
 21
82.958504
  0
LINE
  8
0
  6
CONTINUOUS
 62
7
 10
34.216702
 20
73.000000
 11
35.416698
 21
73.000000
  0
LINE
  8
0
  6
CONTINUOUS
 62
7
 10
35.416698
 20
82.500000
 11
35.416698
 21
79.949997
  0
LINE
  8
0
  6
CONTINUOUS
 62
7
 10
35.816700
 20
77.050003
 11
35.816700
 21
73.750000
  0
LINE
  8
0
  6
CONTINUOUS
 62
7
 10
35.416698
 20
73.750000
 11
35.816700
 21
73.750000
  0
LINE
  8
0
  6
CENTER
 62
2
 10
-31.783300
 20
92.041496
 11
-31.783300
 21
81.958603
  0
LINE
  8
0
  6
CENTER
 62
2
 10
-36.824799
 20
87.000000
 11
-26.741899
 21
87.000000
  0
LINE
  8
0
  6
CENTER
 62
2
 10
-11.783300
 20
93.500000
 11
-11.783300
 21
85.500000
  0
LINE
  8
0
  6
DASHED
 62
2
 10
-13.783300
 20
92.500000
 11
-13.783300
 21
86.500000
  0
LINE
  8
0
  6
DASHED
 62
2
 10
-9.783330
 20
92.500000
 11
-9.783330
 21
86.500000
  0
LINE
  8
0
  6
DASHED
 62
2
 10
21.216700
 20
92.500000
 11
21.216700
 21
87.500000
  0
LINE
  8
0
  6
CENTER
 62
2
 10
23.216700
 20
93.500000
 11
23.216700
 21
86.199997
  0
LINE
  8
0
  6
DASHED
 62
2
 10
20.216700
 20
87.500000
 11
20.216700
 21
87.199997
  0
LINE
  8
0
  6
DASHED
 62
2
 10
20.216700
 20
87.500000
 11
26.216700
 21
87.500000
  0
LINE
  8
0
  6
DASHED
 62
2
 10
26.216700
 20
87.500000
 11
26.216700
 21
87.199997
  0
LINE
  8
0
  6
DASHED
 62
2
 10
25.216700
 20
92.500000
 11
25.216700
 21
87.500000
  0
LINE
  8
0
  6
CENTER
 62
2
 10
-30.783300
 20
74.500000
 11
-30.783300
 21
70.500000
  0
LINE
  8
0
  6
CENTER
 62
2
 10
-12.783300
 20
74.500000
 11
-12.783300
 21
70.500000
  0
LINE
  8
0
  6
CENTER
 62
2
 10
20.216700
 20
74.500000
 11
20.216700
 21
70.500000
  0
LINE
  8
0
  6
CENTER
 62
2
 10
-49.783298
 20
85.500000
 11
-45.783298
 21
85.500000
  0
LINE
  8
0
  6
CENTER
 62
2
 10
-49.783298
 20
76.500000
 11
-45.783298
 21
76.500000
  0
LINE
  8
0
  6
CENTER
 62
2
 10
2.216670
 20
74.500000
 11
2.216670
 21
70.500000
  0
LINE
  8
0
  6
CONTINUOUS
 62
7
 10
-21.283300
 20
87.199997
 11
-26.983299
 21
87.199997
  0
LINE
  8
0
  6
DASHED
 62
2
 10
-26.783300
 20
87.500000
 11
-25.433300
 21
87.500000
  0
LINE
  8
0
  6
CONTINUOUS
 62
7
 10
-25.433300
 20
92.500000
 11
-25.433300
 21
87.199997
  0
LINE
  8
0
  6
CONTINUOUS
 62
7
 10
-22.133301
 20
92.500000
 11
-22.133301
 21
87.199997
  0
LINE
  8
0
  6
CENTER
 62
2
 10
-23.783300
 20
93.500000
 11
-23.783300
 21
86.199997
  0
LINE
  8
0
  6
DASHED
 62
2
 10
-8.783330
 20
86.500000
 11
-14.783300
 21
86.500000
  0
LINE
  8
0
  6
DASHED
 62
2
 10
26.216700
 20
87.199997
 11
20.216700
 21
87.199997
  0
LINE
  8
0
  6
CONTINUOUS
 62
7
 10
136.783005
 20
-35.500000
 11
136.783005
 21
-16.500000
  0
LINE
  8
0
  6
CONTINUOUS
 62
7
 10
128.783005
 20
-35.500000
 11
128.783005
 21
-17.000000
  0
LINE
  8
0
  6
CONTINUOUS
 62
7
 10
136.783005
 20
-33.500000
 11
138.783005
 21
-33.500000
  0
LINE
  8
0
  6
CONTINUOUS
 62
7
 10
128.783005
 20
-35.500000
 11
136.783005
 21
-35.500000
  0
LINE
  8
0
  6
CONTINUOUS
 62
7
 10
128.783005
 20
-17.000000
 11
136.783005
 21
-17.000000
  0
LINE
  8
0
  6
CONTINUOUS
 62
7
 10
136.783005
 20
-16.500000
 11
225.783005
 21
-16.500000
  0
LINE
  8
0
  6
CONTINUOUS
 62
7
 10
138.783005
 20
-36.500000
 11
138.783005
 21
-26.500000
  0
LINE
  8
0
  6
CONTINUOUS
 62
7
 10
228.783005
 20
-36.500000
 11
228.783005
 21
-21.000000
  0
LINE
  8
0
  6
CONTINUOUS
 62
7
 10
138.783005
 20
-36.500000
 11
228.783005
 21
-36.500000
  0
LINE
  8
0
  6
CONTINUOUS
 62
7
 10
217.983002
 20
-31.000000
 11
211.380997
 21
-31.000000
  0
LINE
  8
0
  6
CONTINUOUS
 62
7
 10
138.783005
 20
-27.000000
 11
228.783005
 21
-27.000000
  0
LINE
  8
0
  6
CONTINUOUS
 62
7
 10
205.783005
 20
-32.500000
 11
161.783005
 21
-32.500000
  0
LINE
  8
0
  6
CONTINUOUS
 62
7
 10
136.783005
 20
-26.500000
 11
226.983002
 21
-26.500000
  0
LINE
  8
0
  6
CONTINUOUS
 62
7
 10
149.582993
 20
-31.000000
 11
156.184998
 21
-31.000000
  0
LINE
  8
0
  6
CONTINUOUS
 62
7
 10
227.382996
 20
-21.000000
 11
228.783005
 21
-21.000000
  0
LINE
  8
0
  6
CONTINUOUS
 62
7
 10
226.983002
 20
-21.903400
 11
228.783005
 21
-21.903400
  0
LINE
  8
0
  6
CONTINUOUS
 62
7
 10
226.983002
 20
-24.096600
 11
228.783005
 21
-24.096600
  0
LINE
  8
0
  6
CONTINUOUS
 62
7
 10
225.783005
 20
-26.500000
 11
225.783005
 21
-16.500000
  0
LINE
  8
0
  6
CONTINUOUS
 62
7
 10
151.132996
 20
-36.500000
 11
151.132996
 21
-31.000000
  0
LINE
  8
0
  6
DASHED
 62
2
 10
149.783005
 20
-31.500000
 11
151.132996
 21
-31.500000
  0
LINE
  8
0
  6
CENTER
 62
2
 10
152.783005
 20
-37.500000
 11
152.783005
 21
-30.000000
  0
LINE
  8
0
  6
CONTINUOUS
 62
7
 10
154.432999
 20
-36.500000
 11
154.432999
 21
-31.000000
  0
LINE
  8
0
  6
CONTINUOUS
 62
7
 10
225.783005
 20
-17.000000
 11
226.983002
 21
-17.000000
  0
LINE
  8
0
  6
CONTINUOUS
 62
7
 10
226.983002
 20
-26.500000
 11
226.983002
 21
-17.000000
  0
LINE
  8
0
  6
CONTINUOUS
 62
7
 10
227.382996
 20
-21.250000
 11
227.382996
 21
-17.750000
  0
LINE
  8
0
  6
CONTINUOUS
 62
7
 10
226.983002
 20
-17.750000
 11
227.382996
 21
-17.750000
  0
LINE
  8
0
  6
CONTINUOUS
 62
7
 10
226.983002
 20
-21.250000
 11
227.382996
 21
-21.250000
  0
LINE
  8
0
  6
CENTER
 62
2
 10
144.783005
 20
-27.500000
 11
144.783005
 21
-34.500000
  0
LINE
  8
0
  6
CENTER
 62
2
 10
141.283005
 20
-31.000000
 11
148.283005
 21
-31.000000
  0
LINE
  8
0
  6
CENTER
 62
2
 10
158.783005
 20
-30.000000
 11
158.783005
 21
-35.000000
  0
LINE
  8
0
  6
CENTER
 62
2
 10
156.283005
 20
-32.500000
 11
161.283005
 21
-32.500000
  0
LINE
  8
0
  6
CENTER
 62
2
 10
208.783005
 20
-30.000000
 11
208.783005
 21
-35.000000
  0
LINE
  8
0
  6
CENTER
 62
2
 10
206.283005
 20
-32.500000
 11
211.283005
 21
-32.500000
  0
LINE
  8
0
  6
CENTER
 62
2
 10
208.632996
 20
-18.200001
 11
208.632996
 21
-22.200001
  0
LINE
  8
0
  6
CENTER
 62
2
 10
206.632996
 20
-20.200001
 11
210.632996
 21
-20.200001
  0
LINE
  8
0
  6
CENTER
 62
2
 10
215.483002
 20
-18.000000
 11
215.483002
 21
-23.000000
  0
LINE
  8
0
  6
CENTER
 62
2
 10
212.983002
 20
-20.500000
 11
217.983002
 21
-20.500000
  0
LINE
  8
0
  6
CENTER
 62
2
 10
218.632996
 20
-18.200001
 11
218.632996
 21
-22.200001
  0
LINE
  8
0
  6
CENTER
 62
2
 10
216.632996
 20
-20.200001
 11
220.632996
 21
-20.200001
  0
LINE
  8
0
  6
CENTER
 62
2
 10
221.983002
 20
-18.000000
 11
221.983002
 21
-23.000000
  0
LINE
  8
0
  6
CENTER
 62
2
 10
219.483002
 20
-20.500000
 11
224.483002
 21
-20.500000
  0
LINE
  8
0
  6
CENTER
 62
2
 10
222.783005
 20
-27.500000
 11
222.783005
 21
-34.500000
  0
LINE
  8
0
  6
CENTER
 62
2
 10
219.283005
 20
-31.000000
 11
226.283005
 21
-31.000000
  0
LINE
  8
0
  6
CENTER
 62
2
 10
164.783005
 20
-37.500000
 11
164.783005
 21
-31.500000
  0
LINE
  8
0
  6
DASHED
 62
2
 10
162.783005
 20
-34.900002
 11
162.783005
 21
-32.500000
  0
LINE
  8
0
  6
DASHED
 62
2
 10
166.783005
 20
-34.900002
 11
166.783005
 21
-32.500000
  0
LINE
  8
0
  6
DASHED
 62
2
 10
162.283005
 20
-36.500000
 11
162.283005
 21
-34.900002
  0
LINE
  8
0
  6
DASHED
 62
2
 10
167.283005
 20
-36.500000
 11
167.283005
 21
-34.900002
  0
LINE
  8
0
  6
DASHED
 62
2
 10
162.283005
 20
-34.900002
 11
167.283005
 21
-34.900002
  0
LINE
  8
0
  6
DASHED
 62
2
 10
212.783005
 20
-36.500000
 11
212.783005
 21
-31.500000
  0
LINE
  8
0
  6
CENTER
 62
2
 10
214.783005
 20
-37.500000
 11
214.783005
 21
-30.000000
  0
LINE
  8
0
  6
DASHED
 62
2
 10
211.783005
 20
-31.500000
 11
211.783005
 21
-30.992399
  0
LINE
  8
0
  6
DASHED
 62
2
 10
211.783005
 20
-31.500000
 11
217.783005
 21
-31.500000
  0
LINE
  8
0
  6
DASHED
 62
2
 10
217.783005
 20
-31.500000
 11
217.783005
 21
-31.000000
  0
LINE
  8
0
  6
DASHED
 62
2
 10
216.783005
 20
-36.500000
 11
216.783005
 21
-31.500000
  0
LINE
  8
0
  6
CENTER
 62
2
 10
145.783005
 20
-14.500000
 11
145.783005
 21
-18.500000
  0
LINE
  8
0
  6
CENTER
 62
2
 10
163.783005
 20
-14.500000
 11
163.783005
 21
-18.500000
  0
LINE
  8
0
  6
CENTER
 62
2
 10
211.783005
 20
-14.500000
 11
211.783005
 21
-18.500000
  0
LINE
  8
0
  6
CENTER
 62
2
 10
126.782997
 20
-29.500000
 11
130.783005
 21
-29.500000
  0
LINE
  8
0
  6
CENTER
 62
2
 10
126.782997
 20
-20.500000
 11
130.783005
 21
-20.500000
  0
LINE
  8
0
  6
DASHED
 62
2
 10
149.783005
 20
-31.500000
 11
149.783005
 21
-31.000000
  0
LINE
  8
0
  6
DASHED
 62
2
 10
155.783005
 20
-31.500000
 11
155.783005
 21
-31.000000
  0
LINE
  8
0
  6
CONTINUOUS
 62
7
 10
151.132996
 20
-31.500000
 11
154.432999
 21
-31.500000
  0
LINE
  8
0
  6
DASHED
 62
2
 10
154.432999
 20
-31.500000
 11
155.783005
 21
-31.500000
  0
LINE
  8
0
  6
CONTINUOUS
 62
7
 10
-39.783298
 20
-35.500000
 11
-39.783298
 21
-16.500000
  0
LINE
  8
0
  6
CONTINUOUS
 62
7
 10
-47.783298
 20
-35.500000
 11
-47.783298
 21
-17.000000
  0
LINE
  8
0
  6
CONTINUOUS
 62
7
 10
-39.783298
 20
-33.500000
 11
-37.783298
 21
-33.500000
  0
LINE
  8
0
  6
CONTINUOUS
 62
7
 10
-47.783298
 20
-35.500000
 11
-39.783298
 21
-35.500000
  0
LINE
  8
0
  6
CONTINUOUS
 62
7
 10
-47.783298
 20
-17.000000
 11
-39.783298
 21
-17.000000
  0
LINE
  8
0
  6
CONTINUOUS
 62
7
 10
-39.783298
 20
-16.500000
 11
34.216702
 21
-16.500000
  0
LINE
  8
0
  6
CONTINUOUS
 62
7
 10
-37.783298
 20
-36.500000
 11
-37.783298
 21
-26.500000
  0
LINE
  8
0
  6
CONTINUOUS
 62
7
 10
37.216702
 20
-36.500000
 11
37.216702
 21
-21.000000
  0
LINE
  8
0
  6
CONTINUOUS
 62
7
 10
-37.783298
 20
-36.500000
 11
37.216702
 21
-36.500000
  0
LINE
  8
0
  6
CONTINUOUS
 62
7
 10
-37.783298
 20
-27.000000
 11
37.216702
 21
-27.000000
  0
LINE
  8
0
  6
CONTINUOUS
 62
7
 10
-39.783298
 20
-26.500000
 11
35.416698
 21
-26.500000
  0
LINE
  8
0
  6
CONTINUOUS
 62
7
 10
35.816700
 20
-21.000000
 11
37.216702
 21
-21.000000
  0
LINE
  8
0
  6
CONTINUOUS
 62
7
 10
35.416698
 20
-21.903400
 11
37.216702
 21
-21.903400
  0
LINE
  8
0
  6
CONTINUOUS
 62
7
 10
35.416698
 20
-24.096600
 11
37.216702
 21
-24.096600
  0
LINE
  8
0
  6
CONTINUOUS
 62
7
 10
34.216702
 20
-26.500000
 11
34.216702
 21
-16.500000
  0
LINE
  8
0
  6
CONTINUOUS
 62
7
 10
-25.433300
 20
-36.500000
 11
-25.433300
 21
-31.200001
  0
LINE
  8
0
  6
DASHED
 62
2
 10
-26.783300
 20
-31.500000
 11
-25.433300
 21
-31.500000
  0
LINE
  8
0
  6
CENTER
 62
2
 10
-23.783300
 20
-37.500000
 11
-23.783300
 21
-30.200001
  0
LINE
  8
0
  6
CONTINUOUS
 62
7
 10
-22.133301
 20
-36.500000
 11
-22.133301
 21
-31.200001
  0
LINE
  8
0
  6
CONTINUOUS
 62
7
 10
34.216702
 20
-17.000000
 11
35.416698
 21
-17.000000
  0
LINE
  8
0
  6
CONTINUOUS
 62
7
 10
35.416698
 20
-26.500000
 11
35.416698
 21
-17.000000
  0
LINE
  8
0
  6
CONTINUOUS
 62
7
 10
35.816700
 20
-21.250000
 11
35.816700
 21
-17.750000
  0
LINE
  8
0
  6
CONTINUOUS
 62
7
 10
35.416698
 20
-17.750000
 11
35.816700
 21
-17.750000
  0
LINE
  8
0
  6
CONTINUOUS
 62
7
 10
35.416698
 20
-21.250000
 11
35.816700
 21
-21.250000
  0
LINE
  8
0
  6
CENTER
 62
2
 10
-31.783300
 20
-27.500000
 11
-31.783300
 21
-34.500000
  0
LINE
  8
0
  6
CENTER
 62
2
 10
-35.283298
 20
-31.000000
 11
-28.283300
 21
-31.000000
  0
LINE
  8
0
  6
CENTER
 62
2
 10
-17.783300
 20
-30.000000
 11
-17.783300
 21
-35.000000
  0
LINE
  8
0
  6
CENTER
 62
2
 10
-20.283300
 20
-32.500000
 11
-15.283300
 21
-32.500000
  0
LINE
  8
0
  6
CENTER
 62
2
 10
17.216700
 20
-30.000000
 11
17.216700
 21
-35.000000
  0
LINE
  8
0
  6
CENTER
 62
2
 10
14.716700
 20
-32.500000
 11
19.716700
 21
-32.500000
  0
LINE
  8
0
  6
CENTER
 62
2
 10
17.066700
 20
-18.200001
 11
17.066700
 21
-22.200001
  0
LINE
  8
0
  6
CENTER
 62
2
 10
15.066700
 20
-20.200001
 11
19.066700
 21
-20.200001
  0
LINE
  8
0
  6
CENTER
 62
2
 10
23.916700
 20
-18.000000
 11
23.916700
 21
-23.000000
  0
LINE
  8
0
  6
CENTER
 62
2
 10
21.416700
 20
-20.500000
 11
26.416700
 21
-20.500000
  0
LINE
  8
0
  6
CENTER
 62
2
 10
27.066700
 20
-18.200001
 11
27.066700
 21
-22.200001
  0
LINE
  8
0
  6
CENTER
 62
2
 10
25.066700
 20
-20.200001
 11
29.066700
 21
-20.200001
  0
LINE
  8
0
  6
CENTER
 62
2
 10
30.416700
 20
-18.000000
 11
30.416700
 21
-23.000000
  0
LINE
  8
0
  6
CENTER
 62
2
 10
27.916700
 20
-20.500000
 11
32.916698
 21
-20.500000
  0
LINE
  8
0
  6
CENTER
 62
2
 10
31.216700
 20
-27.500000
 11
31.216700
 21
-34.500000
  0
LINE
  8
0
  6
CENTER
 62
2
 10
27.716700
 20
-31.000000
 11
34.716702
 21
-31.000000
  0
LINE
  8
0
  6
CENTER
 62
2
 10
-11.783300
 20
-37.500000
 11
-11.783300
 21
-29.500000
  0
LINE
  8
0
  6
DASHED
 62
2
 10
-13.783300
 20
-36.500000
 11
-13.783300
 21
-30.500000
  0
LINE
  8
0
  6
DASHED
 62
2
 10
-9.783330
 20
-36.500000
 11
-9.783330
 21
-30.500000
  0
LINE
  8
0
  6
DASHED
 62
2
 10
21.216700
 20
-36.500000
 11
21.216700
 21
-31.500000
  0
LINE
  8
0
  6
CENTER
 62
2
 10
23.216700
 20
-37.500000
 11
23.216700
 21
-30.200001
  0
LINE
  8
0
  6
DASHED
 62
2
 10
20.216700
 20
-31.500000
 11
20.216700
 21
-31.200001
  0
LINE
  8
0
  6
DASHED
 62
2
 10
20.216700
 20
-31.500000
 11
26.216700
 21
-31.500000
  0
LINE
  8
0
  6
DASHED
 62
2
 10
26.216700
 20
-31.500000
 11
26.216700
 21
-31.200001
  0
LINE
  8
0
  6
DASHED
 62
2
 10
25.216700
 20
-36.500000
 11
25.216700
 21
-31.500000
  0
LINE
  8
0
  6
CENTER
 62
2
 10
-30.783300
 20
-14.500000
 11
-30.783300
 21
-18.500000
  0
LINE
  8
0
  6
CENTER
 62
2
 10
-12.783300
 20
-14.500000
 11
-12.783300
 21
-18.500000
  0
LINE
  8
0
  6
CENTER
 62
2
 10
20.216700
 20
-14.500000
 11
20.216700
 21
-18.500000
  0
LINE
  8
0
  6
CENTER
 62
2
 10
-49.783298
 20
-29.500000
 11
-45.783298
 21
-29.500000
  0
LINE
  8
0
  6
CENTER
 62
2
 10
-49.783298
 20
-20.500000
 11
-45.783298
 21
-20.500000
  0
LINE
  8
0
  6
CENTER
 62
2
 10
2.216670
 20
-14.500000
 11
2.216670
 21
-18.500000
  0
LINE
  8
0
  6
CONTINUOUS
 62
7
 10
19.814800
 20
-31.200001
 11
26.416700
 21
-31.200001
  0
LINE
  8
0
  6
CONTINUOUS
 62
7
 10
-15.743700
 20
-30.500000
 11
15.177100
 21
-30.500000
  0
LINE
  8
0
  6
CONTINUOUS
 62
7
 10
-26.983299
 20
-31.200001
 11
-20.381300
 21
-31.200001
  0
LINE
  8
0
  6
CONTINUOUS
 62
7
 10
-31.783300
 20
-93.099998
 11
-31.783300
 21
-96.000000
  0
LINE
  8
0
  6
CONTINUOUS
 62
7
 10
144.783005
 20
-93.099998
 11
144.783005
 21
-96.000000
  0
LINE
  8
0
  6
CONTINUOUS
 62
7
 10
155.283005
 20
92.000000
 11
239.283005
 21
92.000000
  0
LINE
  8
0
  6
CONTINUOUS
 62
7
 10
155.283005
 20
92.000000
 11
155.283005
 21
73.000000
  0
LINE
  8
0
  6
CONTINUOUS
 62
7
 10
163.283005
 20
80.000000
 11
163.283005
 21
73.000000
  0
LINE
  8
0
  6
CENTER
 62
2
 10
134.983002
 20
78.500000
 11
166.983002
 21
78.500000
  0
LINE
  8
0
  6
CONTINUOUS
 62
7
 10
151.283005
 20
74.800003
 11
155.283005
 21
74.800003
  0
LINE
  8
0
  6
CONTINUOUS
 62
7
 10
151.283005
 20
82.199997
 11
151.283005
 21
74.800003
  0
LINE
  8
0
  6
CONTINUOUS
 62
7
 10
151.283005
 20
82.199997
 11
155.283005
 21
82.199997
  0
LINE
  8
0
  6
CONTINUOUS
 62
7
 10
151.283005
 20
79.699997
 11
155.283005
 21
79.699997
  0
LINE
  8
0
  6
CONTINUOUS
 62
7
 10
151.283005
 20
80.931099
 11
155.283005
 21
80.931099
  0
LINE
  8
0
  6
CONTINUOUS
 62
7
 10
151.283005
 20
77.300003
 11
155.283005
 21
77.300003
  0
LINE
  8
0
  6
CONTINUOUS
 62
7
 10
151.283005
 20
76.068901
 11
155.283005
 21
76.068901
  0
LINE
  8
0
  6
CONTINUOUS
 62
7
 10
135.983002
 20
76.000000
 11
135.983002
 21
81.000000
  0
LINE
  8
0
  6
CONTINUOUS
 62
7
 10
135.983002
 20
81.000000
 11
151.283005
 21
81.000000
  0
LINE
  8
0
  6
CONTINUOUS
 62
7
 10
135.983002
 20
76.000000
 11
151.283005
 21
76.000000
  0
LINE
  8
0
  6
CONTINUOUS
 62
2
 10
135.983002
 20
76.400002
 11
151.283005
 21
76.400002
  0
LINE
  8
0
  6
CONTINUOUS
 62
2
 10
135.983002
 20
80.599998
 11
151.283005
 21
80.599998
  0
LINE
  8
0
  6
CONTINUOUS
 62
7
 10
155.283005
 20
73.000000
 11
163.283005
 21
73.000000
  0
LINE
  8
0
  6
CONTINUOUS
 62
7
 10
210.983002
 20
82.000000
 11
226.483002
 21
82.000000
  0
LINE
  8
0
  6
CONTINUOUS
 62
7
 10
226.483002
 20
74.000000
 11
226.483002
 21
82.000000
  0
LINE
  8
0
  6
CONTINUOUS
 62
7
 10
210.983002
 20
74.000000
 11
226.483002
 21
74.000000
  0
LINE
  8
0
  6
CONTINUOUS
 62
7
 10
210.983002
 20
74.000000
 11
210.983002
 21
82.000000
  0
LINE
  8
0
  6
CONTINUOUS
 62
7
 10
136.783005
 20
76.000000
 11
136.783005
 21
72.500000
  0
LINE
  8
0
  6
CONTINUOUS
 62
7
 10
164.625000
 20
82.500000
 11
226.983002
 21
82.500000
  0
LINE
  8
0
  6
CONTINUOUS
 62
7
 10
166.283005
 20
83.000000
 11
228.283005
 21
83.000000
  0
LINE
  8
0
  6
CONTINUOUS
 62
7
 10
225.783005
 20
74.000000
 11
225.783005
 21
72.500000
  0
LINE
  8
0
  6
CONTINUOUS
 62
7
 10
163.283005
 20
42.000000
 11
163.283005
 21
50.000000
  0
LINE
  8
0
  6
CONTINUOUS
 62
7
 10
210.983002
 20
50.000000
 11
155.283005
 21
50.000000
  0
LINE
  8
0
  6
CENTER
 62
2
 10
166.983002
 20
46.000000
 11
134.983002
 21
46.000000
  0
LINE
  8
0
  6
CONTINUOUS
 62
7
 10
135.983002
 20
48.500000
 11
151.283005
 21
48.500000
  0
LINE
  8
0
  6
CONTINUOUS
 62
2
 10
135.983002
 20
48.099998
 11
151.283005
 21
48.099998
  0
LINE
  8
0
  6
CONTINUOUS
 62
2
 10
135.983002
 20
43.900002
 11
151.283005
 21
43.900002
  0
LINE
  8
0
  6
CONTINUOUS
 62
7
 10
135.983002
 20
48.500000
 11
135.983002
 21
43.500000
  0
LINE
  8
0
  6
CONTINUOUS
 62
7
 10
135.983002
 20
43.500000
 11
151.283005
 21
43.500000
  0
LINE
  8
0
  6
CONTINUOUS
 62
7
 10
155.283005
 20
42.000000
 11
155.283005
 21
50.000000
  0
LINE
  8
0
  6
CONTINUOUS
 62
7
 10
210.983002
 20
41.500000
 11
210.983002
 21
50.500000
  0
LINE
  8
0
  6
CONTINUOUS
 62
7
 10
155.283005
 20
49.500000
 11
151.283005
 21
49.500000
  0
LINE
  8
0
  6
CONTINUOUS
 62
7
 10
151.283005
 20
49.500000
 11
151.283005
 21
42.500000
  0
LINE
  8
0
  6
CONTINUOUS
 62
7
 10
155.283005
 20
48.789299
 11
151.283005
 21
48.789299
  0
LINE
  8
0
  6
CONTINUOUS
 62
7
 10
155.283005
 20
46.710800
 11
151.283005
 21
46.710800
  0
LINE
  8
0
  6
CONTINUOUS
 62
7
 10
155.283005
 20
45.289299
 11
151.283005
 21
45.289299
  0
LINE
  8
0
  6
CONTINUOUS
 62
7
 10
155.283005
 20
43.210800
 11
151.283005
 21
43.210800
  0
LINE
  8
0
  6
CONTINUOUS
 62
7
 10
155.283005
 20
42.500000
 11
151.283005
 21
42.500000
  0
LINE
  8
0
  6
CONTINUOUS
 62
7
 10
226.483002
 20
50.500000
 11
210.983002
 21
50.500000
  0
LINE
  8
0
  6
CONTINUOUS
 62
7
 10
226.483002
 20
41.500000
 11
226.483002
 21
50.500000
  0
LINE
  8
0
  6
CONTINUOUS
 62
7
 10
144.783005
 20
43.500000
 11
144.783005
 21
42.599998
  0
LINE
  8
0
  6
CONTINUOUS
 62
7
 10
210.983002
 20
42.000000
 11
154.432999
 21
42.000000
  0
LINE
  8
0
  6
CONTINUOUS
 62
7
 10
103.282997
 20
50.000000
 11
103.282997
 21
42.000000
  0
LINE
  8
0
  6
CONTINUOUS
 62
7
 10
103.282997
 20
50.000000
 11
122.282997
 21
50.000000
  0
LINE
  8
0
  6
CONTINUOUS
 62
7
 10
114.351997
 20
48.789200
 11
113.152000
 21
46.710800
  0
LINE
  8
0
  6
CONTINUOUS
 62
7
 10
117.983002
 20
49.500000
 11
115.583000
 21
49.500000
  0
LINE
  8
0
  6
CONTINUOUS
 62
7
 10
119.213997
 20
48.789200
 11
120.414001
 21
46.710800
  0
LINE
  8
0
  6
CONTINUOUS
 62
7
 10
120.414001
 20
45.289200
 11
119.213997
 21
43.210800
  0
LINE
  8
0
  6
CONTINUOUS
 62
7
 10
115.583000
 20
42.500000
 11
117.983002
 21
42.500000
  0
LINE
  8
0
  6
CONTINUOUS
 62
7
 10
113.152000
 20
45.289200
 11
114.351997
 21
43.210800
  0
LINE
  8
0
  6
CONTINUOUS
 62
7
 10
113.282997
 20
50.500000
 11
113.282997
 21
50.000000
  0
LINE
  8
0
  6
CONTINUOUS
 62
7
 10
121.282997
 20
50.500000
 11
121.282997
 21
50.000000
  0
LINE
  8
0
  6
CONTINUOUS
 62
7
 10
121.282997
 20
50.500000
 11
113.282997
 21
50.500000
  0
LINE
  8
0
  6
CONTINUOUS
 62
7
 10
121.282997
 20
42.000000
 11
121.282997
 21
41.500000
  0
LINE
  8
0
  6
CONTINUOUS
 62
7
 10
117.504997
 20
47.250000
 11
118.226997
 21
46.000000
  0
LINE
  8
0
  6
CONTINUOUS
 62
7
 10
118.226997
 20
46.000000
 11
117.504997
 21
44.750000
  0
LINE
  8
0
  6
CONTINUOUS
 62
7
 10
116.061996
 20
44.750000
 11
117.504997
 21
44.750000
  0
LINE
  8
0
  6
CONTINUOUS
 62
7
 10
115.339996
 20
46.000000
 11
116.061996
 21
44.750000
  0
LINE
  8
0
  6
CONTINUOUS
 62
7
 10
116.061996
 20
47.250000
 11
115.339996
 21
46.000000
  0
LINE
  8
0
  6
CONTINUOUS
 62
7
 10
117.504997
 20
47.250000
 11
116.061996
 21
47.250000
  0
LINE
  8
0
  6
CENTER
 62
2
 10
121.483002
 20
46.000000
 11
112.083000
 21
46.000000
  0
LINE
  8
0
  6
CENTER
 62
2
 10
116.782997
 20
41.299999
 11
116.782997
 21
50.700001
  0
LINE
  8
0
  6
CONTINUOUS
 62
7
 10
122.282997
 20
50.000000
 11
122.282997
 21
42.000000
  0
LINE
  8
0
  6
CONTINUOUS
 62
7
 10
113.282997
 20
42.000000
 11
113.282997
 21
41.500000
  0
LINE
  8
0
  6
CONTINUOUS
 62
7
 10
226.483002
 20
-100.500000
 11
226.483002
 21
-101.000000
  0
LINE
  8
0
  6
CONTINUOUS
 62
7
 10
135.983002
 20
-99.000000
 11
135.983002
 21
-94.000000
  0
LINE
  8
0
  6
CONTINUOUS
 62
7
 10
239.283005
 20
-100.500000
 11
155.283005
 21
-100.500000
  0
LINE
  8
0
  6
CENTER
 62
2
 10
156.283005
 20
-96.500000
 11
134.983002
 21
-96.500000
  0
LINE
  8
0
  6
CONTINUOUS
 62
7
 10
135.983002
 20
-99.000000
 11
151.283005
 21
-99.000000
  0
LINE
  8
0
  6
CONTINUOUS
 62
2
 10
135.983002
 20
-98.599998
 11
151.283005
 21
-98.599998
  0
LINE
  8
0
  6
CONTINUOUS
 62
2
 10
135.983002
 20
-94.400002
 11
141.283005
 21
-94.400002
  0
LINE
  8
0
  6
CONTINUOUS
 62
7
 10
135.983002
 20
-94.000000
 11
141.283005
 21
-94.000000
  0
LINE
  8
0
  6
CONTINUOUS
 62
7
 10
155.283005
 20
-92.500000
 11
155.283005
 21
-100.500000
  0
LINE
  8
0
  6
CONTINUOUS
 62
7
 10
210.983002
 20
-100.500000
 11
210.983002
 21
-101.000000
  0
LINE
  8
0
  6
CONTINUOUS
 62
7
 10
155.283005
 20
-100.000000
 11
151.283005
 21
-100.000000
  0
LINE
  8
0
  6
CONTINUOUS
 62
7
 10
151.283005
 20
-100.000000
 11
151.283005
 21
-93.000000
  0
LINE
  8
0
  6
CONTINUOUS
 62
7
 10
155.283005
 20
-99.289200
 11
151.283005
 21
-99.289200
  0
LINE
  8
0
  6
CONTINUOUS
 62
7
 10
155.283005
 20
-97.210800
 11
151.283005
 21
-97.210800
  0
LINE
  8
0
  6
CONTINUOUS
 62
7
 10
155.283005
 20
-95.789200
 11
151.283005
 21
-95.789200
  0
LINE
  8
0
  6
CONTINUOUS
 62
7
 10
155.283005
 20
-93.710701
 11
151.283005
 21
-93.710701
  0
LINE
  8
0
  6
CONTINUOUS
 62
7
 10
155.283005
 20
-93.000000
 11
151.283005
 21
-93.000000
  0
LINE
  8
0
  6
CONTINUOUS
 62
7
 10
226.483002
 20
-101.000000
 11
210.983002
 21
-101.000000
  0
LINE
  8
0
  6
CONTINUOUS
 62
7
 10
148.283005
 20
-94.000000
 11
151.283005
 21
-94.000000
  0
LINE
  8
0
  6
CONTINUOUS
 62
2
 10
148.283005
 20
-94.400002
 11
151.283005
 21
-94.400002
  0
LINE
  8
0
  6
CENTER
 62
2
 10
-158.000000
 20
28.000000
 11
-230.000000
 21
28.000000
  0
LINE
  8
0
  6
CONTINUOUS
 62
7
 10
-161.300003
 20
41.500000
 11
-229.000000
 21
41.500000
  0
LINE
  8
0
  6
CONTINUOUS
 62
7
 10
-162.000000
 20
14.500000
 11
-229.000000
 21
14.500000
  0
LINE
  8
0
  6
CONTINUOUS
 62
7
 10
-162.000000
 20
21.000000
 11
-221.000000
 21
21.000000
  0
LINE
  8
0
  6
CONTINUOUS
 62
7
 10
-162.000000
 20
35.000000
 11
-221.000000
 21
35.000000
  0
LINE
  8
0
  6
CONTINUOUS
 62
7
 10
-159.000000
 20
14.000000
 11
-203.350006
 21
14.000000
  0
LINE
  8
0
  6
CONTINUOUS
 62
7
 10
-159.000000
 20
42.000000
 11
-159.000000
 21
14.000000
  0
LINE
  8
0
  6
CONTINUOUS
 62
7
 10
-221.000000
 20
41.500000
 11
-221.000000
 21
14.500000
  0
LINE
  8
0
  6
CONTINUOUS
 62
7
 10
-162.000000
 20
41.500000
 11
-162.000000
 21
14.500000
  0
LINE
  8
0
  6
CONTINUOUS
 62
7
 10
-219.000000
 20
14.500000
 11
-219.000000
 21
14.000000
  0
LINE
  8
0
  6
CONTINUOUS
 62
7
 10
-219.000000
 20
42.000000
 11
-219.000000
 21
41.500000
  0
LINE
  8
0
  6
CONTINUOUS
 62
7
 10
-206.649994
 20
14.000000
 11
-206.649994
 21
14.500000
  0
LINE
  8
0
  6
CONTINUOUS
 62
7
 10
-203.350006
 20
14.000000
 11
-203.350006
 21
14.500000
  0
LINE
  8
0
  6
CONTINUOUS
 62
7
 10
-203.350006
 20
41.500000
 11
-203.350006
 21
42.000000
  0
LINE
  8
0
  6
CONTINUOUS
 62
7
 10
-206.649994
 20
41.500000
 11
-206.649994
 21
42.000000
  0
LINE
  8
0
  6
CONTINUOUS
 62
7
 10
-206.649994
 20
14.000000
 11
-219.000000
 21
14.000000
  0
LINE
  8
0
  6
CONTINUOUS
 62
7
 10
-206.649994
 20
42.000000
 11
-219.000000
 21
42.000000
  0
LINE
  8
0
  6
CONTINUOUS
 62
7
 10
-229.000000
 20
41.500000
 11
-229.000000
 21
14.500000
  0
LINE
  8
0
  6
CENTER
 62
2
 10
-212.000000
 20
40.500000
 11
-212.000000
 21
35.500000
  0
LINE
  8
0
  6
CENTER
 62
2
 10
-214.500000
 20
38.000000
 11
-209.500000
 21
38.000000
  0
LINE
  8
0
  6
CENTER
 62
2
 10
-212.000000
 20
20.500000
 11
-212.000000
 21
15.500000
  0
LINE
  8
0
  6
CENTER
 62
2
 10
-214.500000
 20
18.000000
 11
-209.500000
 21
18.000000
  0
LINE
  8
0
  6
CENTER
 62
2
 10
-176.000000
 20
40.500000
 11
-176.000000
 21
35.500000
  0
LINE
  8
0
  6
CENTER
 62
2
 10
-178.500000
 20
38.000000
 11
-173.500000
 21
38.000000
  0
LINE
  8
0
  6
CENTER
 62
2
 10
-190.000000
 20
41.099998
 11
-190.000000
 21
35.900002
  0
LINE
  8
0
  6
CENTER
 62
2
 10
-192.600006
 20
38.500000
 11
-187.399994
 21
38.500000
  0
LINE
  8
0
  6
CENTER
 62
2
 10
-176.000000
 20
20.500000
 11
-176.000000
 21
15.500000
  0
LINE
  8
0
  6
CENTER
 62
2
 10
-178.500000
 20
18.000000
 11
-173.500000
 21
18.000000
  0
LINE
  8
0
  6
CENTER
 62
2
 10
-194.000000
 20
40.500000
 11
-194.000000
 21
35.500000
  0
LINE
  8
0
  6
CENTER
 62
2
 10
-196.500000
 20
38.000000
 11
-191.500000
 21
38.000000
  0
LINE
  8
0
  6
CENTER
 62
2
 10
-194.000000
 20
20.500000
 11
-194.000000
 21
15.500000
  0
LINE
  8
0
  6
CENTER
 62
2
 10
-196.500000
 20
18.000000
 11
-191.500000
 21
18.000000
  0
LINE
  8
0
  6
CONTINUOUS
 62
7
 10
-160.800003
 20
14.700000
 11
-162.000000
 21
14.700000
  0
LINE
  8
0
  6
CONTINUOUS
 62
7
 10
-160.800003
 20
19.250000
 11
-160.800003
 21
14.700000
  0
LINE
  8
0
  6
CONTINUOUS
 62
7
 10
-160.800003
 20
33.250000
 11
-160.800003
 21
22.750000
  0
LINE
  8
0
  6
CONTINUOUS
 62
7
 10
-161.399994
 20
33.250000
 11
-161.399994
 21
36.750000
  0
LINE
  8
0
  6
CONTINUOUS
 62
7
 10
-161.399994
 20
33.250000
 11
-160.399994
 21
33.250000
  0
LINE
  8
0
  6
CONTINUOUS
 62
7
 10
-160.399994
 20
33.250000
 11
-160.399994
 21
36.750000
  0
LINE
  8
0
  6
CONTINUOUS
 62
7
 10
-161.399994
 20
36.750000
 11
-160.399994
 21
36.750000
  0
LINE
  8
0
  6
CONTINUOUS
 62
7
 10
-160.800003
 20
36.750000
 11
-160.800003
 21
41.299999
  0
LINE
  8
0
  6
CONTINUOUS
 62
7
 10
-160.800003
 20
41.299999
 11
-162.000000
 21
41.299999
  0
LINE
  8
0
  6
CONTINUOUS
 62
7
 10
-216.899994
 20
42.599998
 11
-216.899994
 21
42.000000
  0
LINE
  8
0
  6
CONTINUOUS
 62
7
 10
-161.399994
 20
22.750000
 11
-161.399994
 21
19.250000
  0
LINE
  8
0
  6
CONTINUOUS
 62
7
 10
-161.399994
 20
22.750000
 11
-160.399994
 21
22.750000
  0
LINE
  8
0
  6
CONTINUOUS
 62
7
 10
-160.399994
 20
19.250000
 11
-160.399994
 21
22.750000
  0
LINE
  8
0
  6
CONTINUOUS
 62
7
 10
-161.399994
 20
19.250000
 11
-160.399994
 21
19.250000
  0
LINE
  8
0
  6
DASHED
 62
2
 10
-203.350006
 20
17.500000
 11
-203.350006
 21
14.500000
  0
LINE
  8
0
  6
DASHED
 62
2
 10
-206.649994
 20
17.500000
 11
-206.649994
 21
14.500000
  0
LINE
  8
0
  6
DASHED
 62
2
 10
-203.350006
 20
38.500000
 11
-203.350006
 21
41.500000
  0
LINE
  8
0
  6
DASHED
 62
2
 10
-206.649994
 20
38.500000
 11
-206.649994
 21
41.500000
  0
LINE
  8
0
  6
CENTER
 62
2
 10
-173.000000
 20
42.500000
 11
-173.000000
 21
34.500000
  0
LINE
  8
0
  6
CENTER
 62
2
 10
-177.000000
 20
38.500000
 11
-169.000000
 21
38.500000
  0
LINE
  8
0
  6
CENTER
 62
2
 10
-173.000000
 20
21.500000
 11
-173.000000
 21
13.500000
  0
LINE
  8
0
  6
CENTER
 62
2
 10
-177.000000
 20
17.500000
 11
-169.000000
 21
17.500000
  0
LINE
  8
0
  6
CENTER
 62
2
 10
-205.000000
 20
21.500000
 11
-205.000000
 21
13.500000
  0
LINE
  8
0
  6
CENTER
 62
2
 10
-209.000000
 20
17.500000
 11
-201.000000
 21
17.500000
  0
LINE
  8
0
  6
CENTER
 62
2
 10
-205.000000
 20
42.500000
 11
-205.000000
 21
34.500000
  0
LINE
  8
0
  6
CENTER
 62
2
 10
-209.000000
 20
38.500000
 11
-201.000000
 21
38.500000
  0
LINE
  8
0
  6
CENTER
 62
2
 10
-213.000000
 20
44.500000
 11
-213.000000
 21
41.000000
  0
LINE
  8
0
  6
CONTINUOUS
 62
7
 10
-209.000000
 20
42.599998
 11
-209.000000
 21
42.000000
  0
LINE
  8
0
  6
CONTINUOUS
 62
7
 10
-216.500000
 20
43.500000
 11
-216.500000
 21
42.599998
  0
LINE
  8
0
  6
CONTINUOUS
 62
7
 10
-209.500000
 20
43.500000
 11
-209.500000
 21
42.599998
  0
LINE
  8
0
  6
CONTINUOUS
 62
7
 10
-209.000000
 20
42.599998
 11
-216.899994
 21
42.599998
  0
LINE
  8
0
  6
CENTER
 62
2
 10
-231.000000
 20
38.000000
 11
-227.000000
 21
38.000000
  0
LINE
  8
0
  6
CENTER
 62
2
 10
-231.000000
 20
18.000000
 11
-227.000000
 21
18.000000
  0
LINE
  8
0
  6
CONTINUOUS
 62
7
 10
-63.783298
 20
41.500000
 11
-63.783298
 21
35.000000
  0
LINE
  8
0
  6
CONTINUOUS
 62
7
 10
-64.083298
 20
34.700001
 11
-64.083298
 21
21.299999
  0
LINE
  8
0
  6
CONTINUOUS
 62
7
 10
-63.783298
 20
14.500000
 11
-63.783298
 21
21.000000
  0
LINE
  8
0
  6
CONTINUOUS
 62
7
 10
-63.783298
 20
14.500000
 11
-82.783302
 21
14.500000
  0
LINE
  8
0
  6
CONTINUOUS
 62
7
 10
-63.783298
 20
41.500000
 11
-82.783302
 21
41.500000
  0
LINE
  8
0
  6
CONTINUOUS
 62
7
 10
-63.783298
 20
35.000000
 11
-64.083397
 21
34.700001
  0
LINE
  8
0
  6
CONTINUOUS
 62
7
 10
-63.783401
 20
21.000000
 11
-64.083397
 21
21.299999
  0
LINE
  8
0
  6
CONTINUOUS
 62
7
 10
-74.283302
 20
14.000000
 11
-74.283302
 21
14.500000
  0
LINE
  8
0
  6
CONTINUOUS
 62
7
 10
-83.783302
 20
14.000000
 11
-83.783302
 21
42.000000
  0
LINE
  8
0
  6
CONTINUOUS
 62
7
 10
-74.283302
 20
14.000000
 11
-83.783302
 21
14.000000
  0
LINE
  8
0
  6
CONTINUOUS
 62
7
 10
-82.783302
 20
14.500000
 11
-82.783302
 21
41.500000
  0
LINE
  8
0
  6
CONTINUOUS
 62
7
 10
-64.283302
 20
41.500000
 11
-64.283302
 21
14.500000
  0
LINE
  8
0
  6
CONTINUOUS
 62
7
 10
-64.283302
 20
42.000000
 11
-83.783302
 21
42.000000
  0
LINE
  8
0
  6
CONTINUOUS
 62
7
 10
-74.283302
 20
42.000000
 11
-74.283302
 21
41.500000
  0
LINE
  8
0
  6
CONTINUOUS
 62
7
 10
-82.324799
 20
45.500000
 11
-82.324799
 21
42.599998
  0
LINE
  8
0
  6
CONTINUOUS
 62
7
 10
-80.304001
 20
45.500000
 11
-80.304001
 21
42.599998
  0
LINE
  8
0
  6
CONTINUOUS
 62
7
 10
-76.262604
 20
45.500000
 11
-76.262604
 21
42.599998
  0
LINE
  8
0
  6
CONTINUOUS
 62
7
 10
-74.241898
 20
45.500000
 11
-82.324799
 21
45.500000
  0
LINE
  8
0
  6
CONTINUOUS
 62
7
 10
-74.241898
 20
45.500000
 11
-74.241898
 21
42.599998
  0
LINE
  8
0
  6
CONTINUOUS
 62
7
 10
-74.241898
 20
42.599998
 11
-82.324799
 21
42.599998
  0
LINE
  8
0
  6
CONTINUOUS
 62
7
 10
-74.383301
 20
42.599998
 11
-74.383301
 21
42.000000
  0
LINE
  8
0
  6
CONTINUOUS
 62
7
 10
-82.183296
 20
42.599998
 11
-82.183296
 21
42.000000
  0
LINE
  8
0
  6
CENTER
 62
2
 10
-76.783302
 20
41.000000
 11
-76.783302
 21
15.000000
  0
LINE
  8
0
  6
CENTER
 62
2
 10
-84.783302
 20
28.000000
 11
-62.783298
 21
28.000000
  0
LINE
  8
0
  6
CENTER
 62
2
 10
-67.783302
 20
31.000000
 11
-67.783302
 21
25.000000
  0
LINE
  8
0
  6
CENTER
 62
2
 10
-79.783302
 20
38.000000
 11
-63.783298
 21
38.000000
  0
LINE
  8
0
  6
CENTER
 62
2
 10
-67.783302
 20
42.000000
 11
-67.783302
 21
34.000000
  0
LINE
  8
0
  6
CENTER
 62
2
 10
-79.783302
 20
18.000000
 11
-63.783298
 21
18.000000
  0
LINE
  8
0
  6
CENTER
 62
2
 10
-67.783302
 20
22.000000
 11
-67.783302
 21
14.000000
  0
LINE
  8
0
  6
CENTER
 62
2
 10
-78.283302
 20
46.500000
 11
-78.283302
 21
41.000000
  0
LINE
  8
0
  6
CONTINUOUS
 62
7
 10
-221.000000
 20
91.500000
 11
-221.000000
 21
81.000000
  0
LINE
  8
0
  6
CONTINUOUS
 62
7
 10
-229.000000
 20
91.500000
 11
-229.000000
 21
73.000000
  0
LINE
  8
0
  6
CONTINUOUS
 62
7
 10
-221.000000
 20
89.500000
 11
-219.000000
 21
89.500000
  0
LINE
  8
0
  6
CONTINUOUS
 62
7
 10
-229.000000
 20
91.500000
 11
-221.000000
 21
91.500000
  0
LINE
  8
0
  6
CONTINUOUS
 62
7
 10
-229.000000
 20
73.000000
 11
-221.000000
 21
73.000000
  0
LINE
  8
0
  6
CONTINUOUS
 62
7
 10
-221.000000
 20
72.500000
 11
-162.000000
 21
72.500000
  0
LINE
  8
0
  6
CONTINUOUS
 62
7
 10
-219.000000
 20
92.500000
 11
-219.000000
 21
82.500000
  0
LINE
  8
0
  6
CONTINUOUS
 62
7
 10
-159.000000
 20
92.500000
 11
-159.000000
 21
92.000000
  0
LINE
  8
0
  6
CONTINUOUS
 62
7
 10
-219.000000
 20
92.500000
 11
-159.000000
 21
92.500000
  0
LINE
  8
0
  6
DASHED
 62
2
 10
-170.000000
 20
87.000000
 11
-176.000000
 21
87.000000
  0
LINE
  8
0
  6
CONTINUOUS
 62
7
 10
-219.000000
 20
83.000000
 11
-202.500000
 21
83.000000
  0
LINE
  8
0
  6
DASHED
 62
2
 10
-190.000000
 20
88.500000
 11
-196.000000
 21
88.500000
  0
LINE
  8
0
  6
CONTINUOUS
 62
7
 10
-221.000000
 20
82.500000
 11
-202.500000
 21
82.500000
  0
LINE
  8
0
  6
CONTINUOUS
 62
7
 10
-208.199997
 20
87.000000
 11
-202.500000
 21
87.000000
  0
LINE
  8
0
  6
CONTINUOUS
 62
7
 10
-162.000000
 20
82.500000
 11
-162.000000
 21
82.000000
  0
LINE
  8
0
  6
CONTINUOUS
 62
7
 10
-206.649994
 20
92.500000
 11
-206.649994
 21
87.000000
  0
LINE
  8
0
  6
DASHED
 62
2
 10
-208.000000
 20
87.500000
 11
-206.649994
 21
87.500000
  0
LINE
  8
0
  6
CENTER
 62
2
 10
-205.000000
 20
93.500000
 11
-205.000000
 21
86.000000
  0
LINE
  8
0
  6
CONTINUOUS
 62
7
 10
-203.350006
 20
92.500000
 11
-203.350006
 21
87.000000
  0
LINE
  8
0
  6
CONTINUOUS
 62
7
 10
-213.000000
 20
82.958603
 11
-209.500000
 21
84.979301
  0
LINE
  8
0
  6
CONTINUOUS
 62
7
 10
-209.500000
 20
89.020798
 11
-209.500000
 21
84.979301
  0
LINE
  8
0
  6
CONTINUOUS
 62
7
 10
-213.000000
 20
91.041496
 11
-209.500000
 21
89.020798
  0
LINE
  8
0
  6
CONTINUOUS
 62
7
 10
-216.500000
 20
89.020699
 11
-213.000000
 21
91.041496
  0
LINE
  8
0
  6
CONTINUOUS
 62
7
 10
-216.500000
 20
84.979301
 11
-216.500000
 21
89.020798
  0
LINE
  8
0
  6
CONTINUOUS
 62
7
 10
-209.500000
 20
87.500000
 11
-216.500000
 21
87.500000
  0
LINE
  8
0
  6
CONTINUOUS
 62
7
 10
-209.500000
 20
86.500000
 11
-216.500000
 21
86.500000
  0
LINE
  8
0
  6
CONTINUOUS
 62
7
 10
-216.500000
 20
84.979301
 11
-213.000000
 21
82.958603
  0
LINE
  8
0
  6
CONTINUOUS
 62
7
 10
-162.000000
 20
73.000000
 11
-160.800003
 21
73.000000
  0
LINE
  8
0
  6
CONTINUOUS
 62
7
 10
-160.800003
 20
82.500000
 11
-160.800003
 21
79.949997
  0
LINE
  8
0
  6
CONTINUOUS
 62
7
 10
-160.399994
 20
77.050003
 11
-160.399994
 21
73.750000
  0
LINE
  8
0
  6
CONTINUOUS
 62
7
 10
-160.800003
 20
73.750000
 11
-160.399994
 21
73.750000
  0
LINE
  8
0
  6
CENTER
 62
2
 10
-213.000000
 20
92.041496
 11
-213.000000
 21
81.958603
  0
LINE
  8
0
  6
CENTER
 62
2
 10
-218.041000
 20
87.000000
 11
-208.199997
 21
87.000000
  0
LINE
  8
0
  6
CENTER
 62
2
 10
17.066700
 20
78.199997
 11
17.066700
 21
74.199997
  0
LINE
  8
0
  6
CENTER
 62
2
 10
15.066700
 20
76.199997
 11
19.066700
 21
76.199997
  0
LINE
  8
0
  6
CENTER
 62
2
 10
-193.000000
 20
93.500000
 11
-193.000000
 21
87.500000
  0
LINE
  8
0
  6
DASHED
 62
2
 10
-195.000000
 20
90.900002
 11
-195.000000
 21
88.500000
  0
LINE
  8
0
  6
DASHED
 62
2
 10
-191.000000
 20
90.900002
 11
-191.000000
 21
88.500000
  0
LINE
  8
0
  6
DASHED
 62
2
 10
-195.500000
 20
92.500000
 11
-195.500000
 21
90.900002
  0
LINE
  8
0
  6
DASHED
 62
2
 10
-190.500000
 20
92.500000
 11
-190.500000
 21
90.900002
  0
LINE
  8
0
  6
DASHED
 62
2
 10
-175.000000
 20
92.500000
 11
-175.000000
 21
87.500000
  0
LINE
  8
0
  6
CENTER
 62
2
 10
-173.000000
 20
93.500000
 11
-173.000000
 21
86.000000
  0
LINE
  8
0
  6
DASHED
 62
2
 10
-176.000000
 20
87.500000
 11
-176.000000
 21
86.992500
  0
LINE
  8
0
  6
DASHED
 62
2
 10
-176.000000
 20
87.500000
 11
-170.000000
 21
87.500000
  0
LINE
  8
0
  6
DASHED
 62
2
 10
-170.000000
 20
87.500000
 11
-170.000000
 21
87.000000
  0
LINE
  8
0
  6
DASHED
 62
2
 10
-171.000000
 20
92.500000
 11
-171.000000
 21
87.500000
  0
LINE
  8
0
  6
CENTER
 62
2
 10
-212.000000
 20
74.500000
 11
-212.000000
 21
70.500000
  0
LINE
  8
0
  6
CENTER
 62
2
 10
-194.000000
 20
74.500000
 11
-194.000000
 21
70.500000
  0
LINE
  8
0
  6
CENTER
 62
2
 10
-176.000000
 20
74.500000
 11
-176.000000
 21
70.500000
  0
LINE
  8
0
  6
CENTER
 62
2
 10
-231.000000
 20
85.500000
 11
-227.000000
 21
85.500000
  0
LINE
  8
0
  6
CENTER
 62
2
 10
-231.000000
 20
76.500000
 11
-227.000000
 21
76.500000
  0
LINE
  8
0
  6
DASHED
 62
2
 10
-208.000000
 20
87.500000
 11
-208.000000
 21
87.000000
  0
LINE
  8
0
  6
DASHED
 62
2
 10
-202.000000
 20
87.500000
 11
-202.000000
 21
87.000000
  0
LINE
  8
0
  6
CONTINUOUS
 62
7
 10
-206.649994
 20
87.500000
 11
-203.350006
 21
87.500000
  0
LINE
  8
0
  6
DASHED
 62
2
 10
-203.350006
 20
87.500000
 11
-202.000000
 21
87.500000
  0
LINE
  8
0
  6
CONTINUOUS
 62
7
 10
-221.000000
 20
-92.000000
 11
-221.000000
 21
-65.000000
  0
LINE
  8
0
  6
CONTINUOUS
 62
7
 10
-203.350006
 20
-92.000000
 11
-206.649994
 21
-92.000000
  0
LINE
  8
0
  6
CONTINUOUS
 62
7
 10
-203.350006
 20
-65.000000
 11
-206.649994
 21
-65.000000
  0
LINE
  8
0
  6
CONTINUOUS
 62
7
 10
-219.000000
 20
-92.500000
 11
-219.000000
 21
-64.500000
  0
LINE
  8
0
  6
CONTINUOUS
 62
7
 10
-159.000000
 20
-64.500000
 11
-203.350006
 21
-64.500000
  0
LINE
  8
0
  6
CONTINUOUS
 62
7
 10
-159.000000
 20
-92.500000
 11
-159.000000
 21
-64.500000
  0
LINE
  8
0
  6
CENTER
 62
2
 10
-158.000000
 20
-78.500000
 11
-230.000000
 21
-78.500000
  0
LINE
  8
0
  6
CONTINUOUS
 62
7
 10
-206.649994
 20
-64.500000
 11
-219.000000
 21
-64.500000
  0
LINE
  8
0
  6
CONTINUOUS
 62
7
 10
-206.649994
 20
-92.500000
 11
-219.000000
 21
-92.500000
  0
LINE
  8
0
  6
CONTINUOUS
 62
7
 10
-219.000000
 20
-65.000000
 11
-229.000000
 21
-65.000000
  0
LINE
  8
0
  6
CONTINUOUS
 62
7
 10
-219.000000
 20
-92.000000
 11
-229.000000
 21
-92.000000
  0
LINE
  8
0
  6
CONTINUOUS
 62
7
 10
-229.000000
 20
-92.000000
 11
-229.000000
 21
-65.000000
  0
LINE
  8
0
  6
CONTINUOUS
 62
7
 10
-219.000000
 20
-82.500000
 11
-221.000000
 21
-82.500000
  0
LINE
  8
0
  6
CONTINUOUS
 62
7
 10
-219.000000
 20
-74.500000
 11
-221.000000
 21
-74.500000
  0
LINE
  8
0
  6
CONTINUOUS
 62
7
 10
-209.500000
 20
-96.000000
 11
-216.500000
 21
-96.000000
  0
LINE
  8
0
  6
CENTER
 62
2
 10
-205.000000
 20
-65.349998
 11
-205.000000
 21
-70.650002
  0
LINE
  8
0
  6
CENTER
 62
2
 10
-207.649994
 20
-68.000000
 11
-202.350006
 21
-68.000000
  0
LINE
  8
0
  6
CENTER
 62
2
 10
-205.000000
 20
-86.349998
 11
-205.000000
 21
-91.650002
  0
LINE
  8
0
  6
CENTER
 62
2
 10
-207.649994
 20
-89.000000
 11
-202.350006
 21
-89.000000
  0
LINE
  8
0
  6
CENTER
 62
2
 10
-193.000000
 20
-85.500000
 11
-193.000000
 21
-92.500000
  0
LINE
  8
0
  6
CENTER
 62
2
 10
-196.500000
 20
-89.000000
 11
-189.500000
 21
-89.000000
  0
LINE
  8
0
  6
CENTER
 62
2
 10
-193.000000
 20
-64.500000
 11
-193.000000
 21
-71.500000
  0
LINE
  8
0
  6
CENTER
 62
2
 10
-196.500000
 20
-68.000000
 11
-189.500000
 21
-68.000000
  0
LINE
  8
0
  6
CENTER
 62
2
 10
-173.000000
 20
-65.000000
 11
-173.000000
 21
-71.000000
  0
LINE
  8
0
  6
CENTER
 62
2
 10
-176.000000
 20
-68.000000
 11
-170.000000
 21
-68.000000
  0
LINE
  8
0
  6
CENTER
 62
2
 10
-173.000000
 20
-86.000000
 11
-173.000000
 21
-92.000000
  0
LINE
  8
0
  6
CENTER
 62
2
 10
-176.000000
 20
-89.000000
 11
-170.000000
 21
-89.000000
  0
LINE
  8
0
  6
CONTINUOUS
 62
7
 10
-206.649994
 20
-64.500000
 11
-206.649994
 21
-68.000000
  0
LINE
  8
0
  6
CONTINUOUS
 62
7
 10
-203.350006
 20
-64.500000
 11
-203.350006
 21
-68.000000
  0
LINE
  8
0
  6
CONTINUOUS
 62
7
 10
-206.649994
 20
-89.000000
 11
-206.649994
 21
-92.500000
  0
LINE
  8
0
  6
CONTINUOUS
 62
7
 10
-203.350006
 20
-89.000000
 11
-203.350006
 21
-92.500000
  0
LINE
  8
0
  6
CENTER
 62
2
 10
-213.000000
 20
-91.500000
 11
-213.000000
 21
-97.000000
  0
LINE
  8
0
  6
CONTINUOUS
 62
7
 10
-209.100006
 20
-93.099998
 11
-216.899994
 21
-93.099998
  0
LINE
  8
0
  6
CONTINUOUS
 62
7
 10
-216.899994
 20
-92.500000
 11
-216.899994
 21
-93.099998
  0
LINE
  8
0
  6
CONTINUOUS
 62
7
 10
-209.100006
 20
-92.500000
 11
-209.100006
 21
-93.099998
  0
LINE
  8
0
  6
CONTINUOUS
 62
7
 10
-209.500000
 20
-93.099998
 11
-209.500000
 21
-96.000000
  0
LINE
  8
0
  6
CONTINUOUS
 62
7
 10
-216.500000
 20
-93.099998
 11
-216.500000
 21
-96.000000
  0
LINE
  8
0
  6
CONTINUOUS
 62
7
 10
-221.000000
 20
-35.500000
 11
-221.000000
 21
-16.500000
  0
LINE
  8
0
  6
CONTINUOUS
 62
7
 10
-229.000000
 20
-35.500000
 11
-229.000000
 21
-17.000000
  0
LINE
  8
0
  6
CONTINUOUS
 62
7
 10
-221.000000
 20
-33.500000
 11
-219.000000
 21
-33.500000
  0
LINE
  8
0
  6
CONTINUOUS
 62
7
 10
-229.000000
 20
-35.500000
 11
-221.000000
 21
-35.500000
  0
LINE
  8
0
  6
CONTINUOUS
 62
7
 10
-229.000000
 20
-17.000000
 11
-221.000000
 21
-17.000000
  0
LINE
  8
0
  6
CONTINUOUS
 62
7
 10
-221.000000
 20
-16.500000
 11
-162.000000
 21
-16.500000
  0
LINE
  8
0
  6
CONTINUOUS
 62
7
 10
-219.000000
 20
-36.500000
 11
-219.000000
 21
-26.500000
  0
LINE
  8
0
  6
CONTINUOUS
 62
7
 10
-159.000000
 20
-36.500000
 11
-159.000000
 21
-21.000000
  0
LINE
  8
0
  6
CONTINUOUS
 62
7
 10
-219.000000
 20
-36.500000
 11
-159.000000
 21
-36.500000
  0
LINE
  8
0
  6
CONTINUOUS
 62
7
 10
-169.800003
 20
-31.000000
 11
-176.401993
 21
-31.000000
  0
LINE
  8
0
  6
CONTINUOUS
 62
7
 10
-219.000000
 20
-27.000000
 11
-159.000000
 21
-27.000000
  0
LINE
  8
0
  6
CONTINUOUS
 62
7
 10
-182.000000
 20
-32.500000
 11
-196.000000
 21
-32.500000
  0
LINE
  8
0
  6
CONTINUOUS
 62
7
 10
-221.000000
 20
-26.500000
 11
-160.800003
 21
-26.500000
  0
LINE
  8
0
  6
CONTINUOUS
 62
7
 10
-208.199997
 20
-31.000000
 11
-201.598007
 21
-31.000000
  0
LINE
  8
0
  6
CONTINUOUS
 62
7
 10
-160.399994
 20
-21.000000
 11
-159.000000
 21
-21.000000
  0
LINE
  8
0
  6
CONTINUOUS
 62
7
 10
-160.800003
 20
-21.903400
 11
-159.000000
 21
-21.903400
  0
LINE
  8
0
  6
CONTINUOUS
 62
7
 10
-160.800003
 20
-24.096600
 11
-159.000000
 21
-24.096600
  0
LINE
  8
0
  6
CONTINUOUS
 62
7
 10
-162.000000
 20
-26.500000
 11
-162.000000
 21
-16.500000
  0
LINE
  8
0
  6
CONTINUOUS
 62
7
 10
-206.649994
 20
-36.500000
 11
-206.649994
 21
-31.000000
  0
LINE
  8
0
  6
DASHED
 62
2
 10
-208.000000
 20
-31.500000
 11
-206.649994
 21
-31.500000
  0
LINE
  8
0
  6
CENTER
 62
2
 10
-205.000000
 20
-37.500000
 11
-205.000000
 21
-30.000000
  0
LINE
  8
0
  6
CONTINUOUS
 62
7
 10
-203.350006
 20
-36.500000
 11
-203.350006
 21
-31.000000
  0
LINE
  8
0
  6
CONTINUOUS
 62
7
 10
-162.000000
 20
-17.000000
 11
-160.800003
 21
-17.000000
  0
LINE
  8
0
  6
CONTINUOUS
 62
7
 10
-160.800003
 20
-26.500000
 11
-160.800003
 21
-17.000000
  0
LINE
  8
0
  6
CONTINUOUS
 62
7
 10
-160.399994
 20
-21.250000
 11
-160.399994
 21
-17.750000
  0
LINE
  8
0
  6
CONTINUOUS
 62
7
 10
-160.800003
 20
-17.750000
 11
-160.399994
 21
-17.750000
  0
LINE
  8
0
  6
CONTINUOUS
 62
7
 10
-160.800003
 20
-21.250000
 11
-160.399994
 21
-21.250000
  0
LINE
  8
0
  6
CENTER
 62
2
 10
-213.000000
 20
-27.500000
 11
-213.000000
 21
-34.500000
  0
LINE
  8
0
  6
CENTER
 62
2
 10
-216.500000
 20
-31.000000
 11
-209.500000
 21
-31.000000
  0
LINE
  8
0
  6
CENTER
 62
2
 10
-199.000000
 20
-30.000000
 11
-199.000000
 21
-35.000000
  0
LINE
  8
0
  6
CENTER
 62
2
 10
-201.500000
 20
-32.500000
 11
-196.500000
 21
-32.500000
  0
LINE
  8
0
  6
CENTER
 62
2
 10
-179.000000
 20
-30.000000
 11
-179.000000
 21
-35.000000
  0
LINE
  8
0
  6
CENTER
 62
2
 10
-181.500000
 20
-32.500000
 11
-176.500000
 21
-32.500000
  0
LINE
  8
0
  6
CENTER
 62
2
 10
-179.149994
 20
-18.200001
 11
-179.149994
 21
-22.200001
  0
LINE
  8
0
  6
CENTER
 62
2
 10
-181.149994
 20
-20.200001
 11
-177.149994
 21
-20.200001
  0
LINE
  8
0
  6
CENTER
 62
2
 10
-172.300003
 20
-18.000000
 11
-172.300003
 21
-23.000000
  0
LINE
  8
0
  6
CENTER
 62
2
 10
-174.800003
 20
-20.500000
 11
-169.800003
 21
-20.500000
  0
LINE
  8
0
  6
CENTER
 62
2
 10
-169.149994
 20
-18.200001
 11
-169.149994
 21
-22.200001
  0
LINE
  8
0
  6
CENTER
 62
2
 10
-171.149994
 20
-20.200001
 11
-167.149994
 21
-20.200001
  0
LINE
  8
0
  6
CENTER
 62
2
 10
-165.800003
 20
-18.000000
 11
-165.800003
 21
-23.000000
  0
LINE
  8
0
  6
CENTER
 62
2
 10
-168.300003
 20
-20.500000
 11
-163.300003
 21
-20.500000
  0
LINE
  8
0
  6
CENTER
 62
2
 10
-165.000000
 20
-27.500000
 11
-165.000000
 21
-34.500000
  0
LINE
  8
0
  6
CENTER
 62
2
 10
-168.500000
 20
-31.000000
 11
-161.500000
 21
-31.000000
  0
LINE
  8
0
  6
CENTER
 62
2
 10
-193.000000
 20
-37.500000
 11
-193.000000
 21
-31.500000
  0
LINE
  8
0
  6
DASHED
 62
2
 10
-195.000000
 20
-34.900002
 11
-195.000000
 21
-32.500000
  0
LINE
  8
0
  6
DASHED
 62
2
 10
-191.000000
 20
-34.900002
 11
-191.000000
 21
-32.500000
  0
LINE
  8
0
  6
DASHED
 62
2
 10
-195.500000
 20
-36.500000
 11
-195.500000
 21
-34.900002
  0
LINE
  8
0
  6
DASHED
 62
2
 10
-190.500000
 20
-36.500000
 11
-190.500000
 21
-34.900002
  0
LINE
  8
0
  6
DASHED
 62
2
 10
-195.500000
 20
-34.900002
 11
-190.500000
 21
-34.900002
  0
LINE
  8
0
  6
DASHED
 62
2
 10
-175.000000
 20
-36.500000
 11
-175.000000
 21
-31.500000
  0
LINE
  8
0
  6
CENTER
 62
2
 10
-173.000000
 20
-37.500000
 11
-173.000000
 21
-30.000000
  0
LINE
  8
0
  6
DASHED
 62
2
 10
-176.000000
 20
-31.500000
 11
-176.000000
 21
-30.992399
  0
LINE
  8
0
  6
DASHED
 62
2
 10
-176.000000
 20
-31.500000
 11
-170.000000
 21
-31.500000
  0
LINE
  8
0
  6
DASHED
 62
2
 10
-170.000000
 20
-31.500000
 11
-170.000000
 21
-31.000000
  0
LINE
  8
0
  6
DASHED
 62
2
 10
-171.000000
 20
-36.500000
 11
-171.000000
 21
-31.500000
  0
LINE
  8
0
  6
CENTER
 62
2
 10
-212.000000
 20
-14.500000
 11
-212.000000
 21
-18.500000
  0
LINE
  8
0
  6
CENTER
 62
2
 10
-194.000000
 20
-14.500000
 11
-194.000000
 21
-18.500000
  0
LINE
  8
0
  6
CENTER
 62
2
 10
-176.000000
 20
-14.500000
 11
-176.000000
 21
-18.500000
  0
LINE
  8
0
  6
CENTER
 62
2
 10
-231.000000
 20
-29.500000
 11
-227.000000
 21
-29.500000
  0
LINE
  8
0
  6
CENTER
 62
2
 10
-231.000000
 20
-20.500000
 11
-227.000000
 21
-20.500000
  0
LINE
  8
0
  6
DASHED
 62
2
 10
-208.000000
 20
-31.500000
 11
-208.000000
 21
-31.000000
  0
LINE
  8
0
  6
DASHED
 62
2
 10
-202.000000
 20
-31.500000
 11
-202.000000
 21
-31.000000
  0
LINE
  8
0
  6
CONTINUOUS
 62
7
 10
-206.649994
 20
-31.500000
 11
-203.350006
 21
-31.500000
  0
LINE
  8
0
  6
DASHED
 62
2
 10
-203.350006
 20
-31.500000
 11
-202.000000
 21
-31.500000
  0
LINE
  8
0
  6
CONTINUOUS
 62
7
 10
-213.000000
 20
-93.099998
 11
-213.000000
 21
-96.000000
  0
LINE
  8
0
  6
CONTINUOUS
 62
7
 10
-202.500000
 20
92.000000
 11
-202.500000
 21
73.000000
  0
LINE
  8
0
  6
CONTINUOUS
 62
7
 10
-194.500000
 20
80.000000
 11
-194.500000
 21
73.000000
  0
LINE
  8
0
  6
CENTER
 62
2
 10
-222.800003
 20
78.500000
 11
-190.800003
 21
78.500000
  0
LINE
  8
0
  6
CONTINUOUS
 62
7
 10
-206.500000
 20
74.800003
 11
-202.500000
 21
74.800003
  0
LINE
  8
0
  6
CONTINUOUS
 62
7
 10
-206.500000
 20
82.199997
 11
-206.500000
 21
74.800003
  0
LINE
  8
0
  6
CONTINUOUS
 62
7
 10
-206.500000
 20
82.199997
 11
-202.500000
 21
82.199997
  0
LINE
  8
0
  6
CONTINUOUS
 62
7
 10
-206.500000
 20
79.699997
 11
-202.500000
 21
79.699997
  0
LINE
  8
0
  6
CONTINUOUS
 62
7
 10
-206.500000
 20
80.931099
 11
-202.500000
 21
80.931099
  0
LINE
  8
0
  6
CONTINUOUS
 62
7
 10
-206.500000
 20
77.300003
 11
-202.500000
 21
77.300003
  0
LINE
  8
0
  6
CONTINUOUS
 62
7
 10
-206.500000
 20
76.068901
 11
-202.500000
 21
76.068901
  0
LINE
  8
0
  6
CONTINUOUS
 62
7
 10
-221.800003
 20
76.000000
 11
-221.800003
 21
81.000000
  0
LINE
  8
0
  6
CONTINUOUS
 62
7
 10
-221.800003
 20
81.000000
 11
-206.500000
 21
81.000000
  0
LINE
  8
0
  6
CONTINUOUS
 62
7
 10
-221.800003
 20
76.000000
 11
-206.500000
 21
76.000000
  0
LINE
  8
0
  6
CONTINUOUS
 62
2
 10
-221.800003
 20
76.400002
 11
-206.500000
 21
76.400002
  0
LINE
  8
0
  6
CONTINUOUS
 62
2
 10
-221.800003
 20
80.599998
 11
-206.500000
 21
80.599998
  0
LINE
  8
0
  6
CONTINUOUS
 62
7
 10
-202.500000
 20
73.000000
 11
-194.500000
 21
73.000000
  0
LINE
  8
0
  6
CONTINUOUS
 62
7
 10
-176.800003
 20
82.000000
 11
-161.300003
 21
82.000000
  0
LINE
  8
0
  6
CONTINUOUS
 62
7
 10
-161.300003
 20
74.000000
 11
-161.300003
 21
82.000000
  0
LINE
  8
0
  6
CONTINUOUS
 62
7
 10
-176.800003
 20
74.000000
 11
-161.300003
 21
74.000000
  0
LINE
  8
0
  6
CONTINUOUS
 62
7
 10
-176.800003
 20
74.000000
 11
-176.800003
 21
82.000000
  0
LINE
  8
0
  6
CONTINUOUS
 62
7
 10
-221.000000
 20
76.000000
 11
-221.000000
 21
72.500000
  0
LINE
  8
0
  6
CONTINUOUS
 62
7
 10
-193.158005
 20
82.500000
 11
-160.800003
 21
82.500000
  0
LINE
  8
0
  6
CONTINUOUS
 62
7
 10
-191.500000
 20
83.000000
 11
-159.500000
 21
83.000000
  0
LINE
  8
0
  6
CONTINUOUS
 62
7
 10
-162.000000
 20
74.000000
 11
-162.000000
 21
72.500000
  0
LINE
  8
0
  6
CONTINUOUS
 62
7
 10
-194.500000
 20
42.000000
 11
-194.500000
 21
50.000000
  0
LINE
  8
0
  6
CONTINUOUS
 62
7
 10
-176.800003
 20
50.000000
 11
-202.500000
 21
50.000000
  0
LINE
  8
0
  6
CENTER
 62
2
 10
-190.800003
 20
46.000000
 11
-222.800003
 21
46.000000
  0
LINE
  8
0
  6
CONTINUOUS
 62
7
 10
-221.800003
 20
48.500000
 11
-206.500000
 21
48.500000
  0
LINE
  8
0
  6
CONTINUOUS
 62
2
 10
-221.800003
 20
48.099998
 11
-206.500000
 21
48.099998
  0
LINE
  8
0
  6
CONTINUOUS
 62
2
 10
-221.800003
 20
43.900002
 11
-206.500000
 21
43.900002
  0
LINE
  8
0
  6
CONTINUOUS
 62
7
 10
-221.800003
 20
48.500000
 11
-221.800003
 21
43.500000
  0
LINE
  8
0
  6
CONTINUOUS
 62
7
 10
-221.800003
 20
43.500000
 11
-206.500000
 21
43.500000
  0
LINE
  8
0
  6
CONTINUOUS
 62
7
 10
-202.500000
 20
42.000000
 11
-202.500000
 21
50.000000
  0
LINE
  8
0
  6
CONTINUOUS
 62
7
 10
-176.800003
 20
41.500000
 11
-176.800003
 21
50.500000
  0
LINE
  8
0
  6
CONTINUOUS
 62
7
 10
-202.500000
 20
49.500000
 11
-206.500000
 21
49.500000
  0
LINE
  8
0
  6
CONTINUOUS
 62
7
 10
-206.500000
 20
49.500000
 11
-206.500000
 21
42.500000
  0
LINE
  8
0
  6
CONTINUOUS
 62
7
 10
-202.500000
 20
48.789299
 11
-206.500000
 21
48.789299
  0
LINE
  8
0
  6
CONTINUOUS
 62
7
 10
-202.500000
 20
46.710800
 11
-206.500000
 21
46.710800
  0
LINE
  8
0
  6
CONTINUOUS
 62
7
 10
-202.500000
 20
45.289299
 11
-206.500000
 21
45.289299
  0
LINE
  8
0
  6
CONTINUOUS
 62
7
 10
-202.500000
 20
43.210800
 11
-206.500000
 21
43.210800
  0
LINE
  8
0
  6
CONTINUOUS
 62
7
 10
-202.500000
 20
42.500000
 11
-206.500000
 21
42.500000
  0
LINE
  8
0
  6
CONTINUOUS
 62
7
 10
-161.300003
 20
50.500000
 11
-176.800003
 21
50.500000
  0
LINE
  8
0
  6
CONTINUOUS
 62
7
 10
-161.300003
 20
41.500000
 11
-161.300003
 21
50.500000
  0
LINE
  8
0
  6
CONTINUOUS
 62
7
 10
-213.000000
 20
43.500000
 11
-213.000000
 21
42.599998
  0
LINE
  8
0
  6
CONTINUOUS
 62
7
 10
-176.800003
 20
42.000000
 11
-203.350006
 21
42.000000
  0
LINE
  8
0
  6
CONTINUOUS
 62
7
 10
-83.283302
 20
50.000000
 11
-83.283302
 21
42.000000
  0
LINE
  8
0
  6
CONTINUOUS
 62
7
 10
-83.283302
 20
50.000000
 11
-64.283302
 21
50.000000
  0
LINE
  8
0
  6
CONTINUOUS
 62
7
 10
-72.214401
 20
48.789200
 11
-73.414497
 21
46.710701
  0
LINE
  8
0
  6
CONTINUOUS
 62
7
 10
-68.583298
 20
49.500000
 11
-70.983299
 21
49.500000
  0
LINE
  8
0
  6
CONTINUOUS
 62
7
 10
-67.352203
 20
48.789200
 11
-66.152199
 21
46.710800
  0
LINE
  8
0
  6
CONTINUOUS
 62
7
 10
-66.152298
 20
45.289299
 11
-67.352303
 21
43.210800
  0
LINE
  8
0
  6
CONTINUOUS
 62
7
 10
-70.983299
 20
42.500000
 11
-68.583298
 21
42.500000
  0
LINE
  8
0
  6
CONTINUOUS
 62
7
 10
-73.414497
 20
45.289200
 11
-72.214500
 21
43.210800
  0
LINE
  8
0
  6
CONTINUOUS
 62
7
 10
-73.283302
 20
50.500000
 11
-73.283302
 21
50.000000
  0
LINE
  8
0
  6
CONTINUOUS
 62
7
 10
-65.283302
 20
50.500000
 11
-65.283302
 21
50.000000
  0
LINE
  8
0
  6
CONTINUOUS
 62
7
 10
-65.283302
 20
50.500000
 11
-73.283302
 21
50.500000
  0
LINE
  8
0
  6
CONTINUOUS
 62
7
 10
-65.283302
 20
42.000000
 11
-65.283302
 21
41.500000
  0
LINE
  8
0
  6
CONTINUOUS
 62
7
 10
-69.061699
 20
47.250000
 11
-68.339996
 21
46.000000
  0
LINE
  8
0
  6
CONTINUOUS
 62
7
 10
-68.339996
 20
46.000000
 11
-69.061699
 21
44.750000
  0
LINE
  8
0
  6
CONTINUOUS
 62
7
 10
-70.504997
 20
44.750000
 11
-69.061600
 21
44.750000
  0
LINE
  8
0
  6
CONTINUOUS
 62
7
 10
-71.226700
 20
46.000000
 11
-70.504997
 21
44.750000
  0
LINE
  8
0
  6
CONTINUOUS
 62
7
 10
-70.505096
 20
47.250000
 11
-71.226799
 21
46.000000
  0
LINE
  8
0
  6
CONTINUOUS
 62
7
 10
-69.061600
 20
47.250000
 11
-70.504997
 21
47.250000
  0
LINE
  8
0
  6
CENTER
 62
2
 10
-65.083298
 20
46.000000
 11
-74.483299
 21
46.000000
  0
LINE
  8
0
  6
CENTER
 62
2
 10
-69.783302
 20
41.299999
 11
-69.783302
 21
50.700001
  0
LINE
  8
0
  6
CONTINUOUS
 62
7
 10
-64.283302
 20
50.000000
 11
-64.283302
 21
42.000000
  0
LINE
  8
0
  6
CONTINUOUS
 62
7
 10
-73.283302
 20
42.000000
 11
-73.283302
 21
41.500000
  0
LINE
  8
0
  6
CONTINUOUS
 62
7
 10
-161.300003
 20
-100.500000
 11
-161.300003
 21
-101.000000
  0
LINE
  8
0
  6
CONTINUOUS
 62
7
 10
-221.800003
 20
-99.000000
 11
-221.800003
 21
-94.000000
  0
LINE
  8
0
  6
CENTER
 62
2
 10
-201.500000
 20
-96.500000
 11
-222.800003
 21
-96.500000
  0
LINE
  8
0
  6
CONTINUOUS
 62
7
 10
-221.800003
 20
-99.000000
 11
-206.500000
 21
-99.000000
  0
LINE
  8
0
  6
CONTINUOUS
 62
2
 10
-221.800003
 20
-98.599998
 11
-206.500000
 21
-98.599998
  0
LINE
  8
0
  6
CONTINUOUS
 62
2
 10
-221.800003
 20
-94.400002
 11
-216.500000
 21
-94.400002
  0
LINE
  8
0
  6
CONTINUOUS
 62
7
 10
-221.800003
 20
-94.000000
 11
-216.500000
 21
-94.000000
  0
LINE
  8
0
  6
CONTINUOUS
 62
7
 10
-202.500000
 20
-92.500000
 11
-202.500000
 21
-100.500000
  0
LINE
  8
0
  6
CONTINUOUS
 62
7
 10
-176.800003
 20
-100.500000
 11
-176.800003
 21
-101.000000
  0
LINE
  8
0
  6
CONTINUOUS
 62
7
 10
-202.500000
 20
-100.000000
 11
-206.500000
 21
-100.000000
  0
LINE
  8
0
  6
CONTINUOUS
 62
7
 10
-206.500000
 20
-100.000000
 11
-206.500000
 21
-93.000000
  0
LINE
  8
0
  6
CONTINUOUS
 62
7
 10
-202.500000
 20
-99.289200
 11
-206.500000
 21
-99.289200
  0
LINE
  8
0
  6
CONTINUOUS
 62
7
 10
-202.500000
 20
-97.210701
 11
-206.500000
 21
-97.210701
  0
LINE
  8
0
  6
CONTINUOUS
 62
7
 10
-202.500000
 20
-95.789200
 11
-206.500000
 21
-95.789200
  0
LINE
  8
0
  6
CONTINUOUS
 62
7
 10
-202.500000
 20
-93.710701
 11
-206.500000
 21
-93.710701
  0
LINE
  8
0
  6
CONTINUOUS
 62
7
 10
-202.500000
 20
-93.000000
 11
-206.500000
 21
-93.000000
  0
LINE
  8
0
  6
CONTINUOUS
 62
7
 10
-161.300003
 20
-101.000000
 11
-176.800003
 21
-101.000000
  0
LINE
  8
0
  6
CONTINUOUS
 62
7
 10
-209.500000
 20
-94.000000
 11
-206.500000
 21
-94.000000
  0
LINE
  8
0
  6
CONTINUOUS
 62
2
 10
-209.500000
 20
-94.400002
 11
-206.500000
 21
-94.400002
  0
LINE
  8
0
  6
CENTER
 62
2
 10
193.783005
 20
74.500000
 11
193.783005
 21
70.500000
  0
LINE
  8
0
  6
CENTER
 62
2
 10
163.783005
 20
20.500000
 11
163.783005
 21
15.500000
  0
LINE
  8
0
  6
CENTER
 62
2
 10
161.283005
 20
18.000000
 11
166.283005
 21
18.000000
  0
LINE
  8
0
  6
CENTER
 62
2
 10
163.783005
 20
40.500000
 11
163.783005
 21
35.500000
  0
LINE
  8
0
  6
CENTER
 62
2
 10
161.283005
 20
38.000000
 11
166.283005
 21
38.000000
  0
LINE
  8
0
  6
CENTER
 62
2
 10
193.783005
 20
-14.500000
 11
193.783005
 21
-18.500000
  0
LINE
  8
0
  6
CONTINUOUS
 62
7
 10
-245.000000
 20
41.500000
 11
-245.000000
 21
35.000000
  0
LINE
  8
0
  6
CONTINUOUS
 62
7
 10
-245.300003
 20
34.700001
 11
-245.300003
 21
21.299999
  0
LINE
  8
0
  6
CONTINUOUS
 62
7
 10
-245.000000
 20
14.500000
 11
-245.000000
 21
21.000000
  0
LINE
  8
0
  6
CONTINUOUS
 62
7
 10
-245.000000
 20
14.500000
 11
-264.000000
 21
14.500000
  0
LINE
  8
0
  6
CONTINUOUS
 62
7
 10
-245.000000
 20
41.500000
 11
-264.000000
 21
41.500000
  0
LINE
  8
0
  6
CONTINUOUS
 62
7
 10
-245.000000
 20
35.000000
 11
-245.300003
 21
34.700001
  0
LINE
  8
0
  6
CONTINUOUS
 62
7
 10
-245.000000
 20
21.000099
 11
-245.300003
 21
21.300100
  0
LINE
  8
0
  6
CONTINUOUS
 62
7
 10
-255.500000
 20
14.000000
 11
-255.500000
 21
14.500000
  0
LINE
  8
0
  6
CONTINUOUS
 62
7
 10
-265.000000
 20
14.000000
 11
-265.000000
 21
42.000000
  0
LINE
  8
0
  6
CONTINUOUS
 62
7
 10
-255.500000
 20
14.000000
 11
-265.000000
 21
14.000000
  0
LINE
  8
0
  6
CONTINUOUS
 62
7
 10
-264.000000
 20
14.500000
 11
-264.000000
 21
41.500000
  0
LINE
  8
0
  6
CONTINUOUS
 62
7
 10
-245.500000
 20
41.500000
 11
-245.500000
 21
14.500000
  0
LINE
  8
0
  6
CONTINUOUS
 62
7
 10
-245.500000
 20
42.000000
 11
-265.000000
 21
42.000000
  0
LINE
  8
0
  6
CONTINUOUS
 62
7
 10
-255.500000
 20
42.000000
 11
-255.500000
 21
41.500000
  0
LINE
  8
0
  6
CONTINUOUS
 62
7
 10
-263.540985
 20
45.500000
 11
-263.540985
 21
42.599998
  0
LINE
  8
0
  6
CONTINUOUS
 62
7
 10
-261.520996
 20
45.500000
 11
-261.520996
 21
42.599998
  0
LINE
  8
0
  6
CONTINUOUS
 62
7
 10
-257.479004
 20
45.500000
 11
-257.479004
 21
42.599998
  0
LINE
  8
0
  6
CONTINUOUS
 62
7
 10
-255.459000
 20
45.500000
 11
-263.540985
 21
45.500000
  0
LINE
  8
0
  6
CONTINUOUS
 62
7
 10
-255.459000
 20
45.500000
 11
-255.459000
 21
42.599998
  0
LINE
  8
0
  6
CONTINUOUS
 62
7
 10
-255.459000
 20
42.599998
 11
-263.540985
 21
42.599998
  0
LINE
  8
0
  6
CONTINUOUS
 62
7
 10
-255.600006
 20
42.599998
 11
-255.600006
 21
42.000000
  0
LINE
  8
0
  6
CONTINUOUS
 62
7
 10
-263.399994
 20
42.599998
 11
-263.399994
 21
42.000000
  0
LINE
  8
0
  6
CENTER
 62
2
 10
-258.000000
 20
41.000000
 11
-258.000000
 21
15.000000
  0
LINE
  8
0
  6
CENTER
 62
2
 10
-266.000000
 20
28.000000
 11
-244.000000
 21
28.000000
  0
LINE
  8
0
  6
CENTER
 62
2
 10
-249.000000
 20
31.000000
 11
-249.000000
 21
25.000000
  0
LINE
  8
0
  6
CENTER
 62
2
 10
-261.000000
 20
38.000000
 11
-245.000000
 21
38.000000
  0
LINE
  8
0
  6
CENTER
 62
2
 10
-249.000000
 20
42.000000
 11
-249.000000
 21
34.000000
  0
LINE
  8
0
  6
CENTER
 62
2
 10
-261.000000
 20
18.000000
 11
-245.000000
 21
18.000000
  0
LINE
  8
0
  6
CENTER
 62
2
 10
-249.000000
 20
22.000000
 11
-249.000000
 21
14.000000
  0
LINE
  8
0
  6
CENTER
 62
2
 10
-259.500000
 20
46.500000
 11
-259.500000
 21
41.000000
  0
LINE
  8
0
  6
CONTINUOUS
 62
7
 10
-264.500000
 20
50.000000
 11
-264.500000
 21
42.000000
  0
LINE
  8
0
  6
CONTINUOUS
 62
7
 10
-264.500000
 20
50.000000
 11
-245.500000
 21
50.000000
  0
LINE
  8
0
  6
CONTINUOUS
 62
7
 10
-253.431000
 20
48.789200
 11
-254.630997
 21
46.710800
  0
LINE
  8
0
  6
CONTINUOUS
 62
7
 10
-249.800003
 20
49.500000
 11
-252.199997
 21
49.500000
  0
LINE
  8
0
  6
CONTINUOUS
 62
7
 10
-248.569000
 20
48.789299
 11
-247.369003
 21
46.710800
  0
LINE
  8
0
  6
CONTINUOUS
 62
7
 10
-247.369003
 20
45.289200
 11
-248.569000
 21
43.210800
  0
LINE
  8
0
  6
CONTINUOUS
 62
7
 10
-252.199997
 20
42.500000
 11
-249.800003
 21
42.500000
  0
LINE
  8
0
  6
CONTINUOUS
 62
7
 10
-254.630997
 20
45.289200
 11
-253.431000
 21
43.210800
  0
LINE
  8
0
  6
CONTINUOUS
 62
7
 10
-254.500000
 20
50.500000
 11
-254.500000
 21
50.000000
  0
LINE
  8
0
  6
CONTINUOUS
 62
7
 10
-246.500000
 20
50.500000
 11
-246.500000
 21
50.000000
  0
LINE
  8
0
  6
CONTINUOUS
 62
7
 10
-246.500000
 20
50.500000
 11
-254.500000
 21
50.500000
  0
LINE
  8
0
  6
CONTINUOUS
 62
7
 10
-246.500000
 20
42.000000
 11
-246.500000
 21
41.500000
  0
LINE
  8
0
  6
CONTINUOUS
 62
7
 10
-250.278000
 20
47.250000
 11
-249.557007
 21
46.000000
  0
LINE
  8
0
  6
CONTINUOUS
 62
7
 10
-249.557007
 20
46.000000
 11
-250.278000
 21
44.750000
  0
LINE
  8
0
  6
CONTINUOUS
 62
7
 10
-251.722000
 20
44.750000
 11
-250.278000
 21
44.750000
  0
LINE
  8
0
  6
CONTINUOUS
 62
7
 10
-252.442993
 20
46.000000
 11
-251.722000
 21
44.750000
  0
LINE
  8
0
  6
CONTINUOUS
 62
7
 10
-251.722000
 20
47.250000
 11
-252.442993
 21
46.000000
  0
LINE
  8
0
  6
CONTINUOUS
 62
7
 10
-250.278000
 20
47.250000
 11
-251.722000
 21
47.250000
  0
LINE
  8
0
  6
CENTER
 62
2
 10
-246.300003
 20
46.000000
 11
-255.699997
 21
46.000000
  0
LINE
  8
0
  6
CENTER
 62
2
 10
-251.000000
 20
41.299999
 11
-251.000000
 21
50.700001
  0
LINE
  8
0
  6
CONTINUOUS
 62
7
 10
-245.500000
 20
50.000000
 11
-245.500000
 21
42.000000
  0
LINE
  8
0
  6
CONTINUOUS
 62
7
 10
-254.500000
 20
42.000000
 11
-254.500000
 21
41.500000
  0
LINE
  8
0
  6
CONTINUOUS
 62
7
 10
265.282990
 20
14.000000
 11
274.782990
 21
14.000000
  0
LINE
  8
0
  6
CENTER
 62
2
 10
267.782990
 20
34.400002
 11
267.782990
 21
21.600000
  0
LINE
  8
0
  6
CENTER
 62
2
 10
253.783005
 20
28.000000
 11
275.782990
 21
28.000000
  0
LINE
  8
0
  6
CONTINUOUS
 62
7
 10
259.282990
 20
34.000000
 11
259.282990
 21
22.000000
  0
LINE
  8
0
  6
CONTINUOUS
 62
7
 10
262.493011
 20
34.000000
 11
265.282990
 21
34.000000
  0
LINE
  8
0
  6
CONTINUOUS
 62
7
 10
259.282990
 20
34.000000
 11
260.074005
 21
34.000000
  0
LINE
  8
0
  6
CONTINUOUS
 62
7
 10
262.493011
 20
22.000000
 11
265.282990
 21
22.000000
  0
LINE
  8
0
  6
CONTINUOUS
 62
7
 10
259.282990
 20
22.000000
 11
260.074005
 21
22.000000
  0
LINE
  8
0
  6
CONTINUOUS
 62
7
 10
265.282990
 20
14.000000
 11
265.282990
 21
22.000000
  0
LINE
  8
0
  6
CONTINUOUS
 62
7
 10
274.782990
 20
14.000000
 11
274.782990
 21
42.000000
  0
LINE
  8
0
  6
CONTINUOUS
 62
7
 10
265.282990
 20
42.000000
 11
265.282990
 21
34.000000
  0
LINE
  8
0
  6
CONTINUOUS
 62
7
 10
255.283005
 20
42.000000
 11
274.782990
 21
42.000000
  0
LINE
  8
0
  6
CONTINUOUS
 62
7
 10
255.082993
 20
34.700001
 11
255.082993
 21
21.299999
  0
LINE
  8
0
  6
CONTINUOUS
 62
7
 10
254.783005
 20
14.500000
 11
254.783005
 21
21.000000
  0
LINE
  8
0
  6
CONTINUOUS
 62
7
 10
254.783005
 20
14.500000
 11
265.282990
 21
14.500000
  0
LINE
  8
0
  6
CONTINUOUS
 62
7
 10
264.782990
 20
14.500000
 11
264.782990
 21
22.000000
  0
LINE
  8
0
  6
CONTINUOUS
 62
7
 10
254.783005
 20
21.000099
 11
255.082993
 21
21.300100
  0
LINE
  8
0
  6
CONTINUOUS
 62
7
 10
254.783005
 20
41.500000
 11
254.783005
 21
35.000000
  0
LINE
  8
0
  6
CONTINUOUS
 62
7
 10
254.783005
 20
35.000000
 11
255.082993
 21
34.700001
  0
LINE
  8
0
  6
CONTINUOUS
 62
7
 10
264.782990
 20
41.500000
 11
264.782990
 21
34.000000
  0
LINE
  8
0
  6
CONTINUOUS
 62
7
 10
254.783005
 20
41.500000
 11
265.282990
 21
41.500000
  0
LINE
  8
0
  6
CENTER
 62
2
 10
272.782990
 20
38.500000
 11
276.782990
 21
38.500000
  0
LINE
  8
0
  6
CENTER
 62
2
 10
272.782990
 20
17.500000
 11
276.782990
 21
17.500000
  0
LINE
  8
0
  6
CENTER
 62
2
 10
252.783005
 20
38.000000
 11
256.782990
 21
38.000000
  0
LINE
  8
0
  6
CENTER
 62
2
 10
252.783005
 20
18.000000
 11
256.782990
 21
18.000000
  0
LINE
  8
0
  6
CONTINUOUS
 62
7
 10
274.282990
 20
50.000000
 11
274.282990
 21
42.000000
  0
LINE
  8
0
  6
CONTINUOUS
 62
7
 10
274.282990
 20
50.000000
 11
255.283005
 21
50.000000
  0
LINE
  8
0
  6
CONTINUOUS
 62
7
 10
264.282990
 20
50.500000
 11
264.282990
 21
50.000000
  0
LINE
  8
0
  6
CONTINUOUS
 62
7
 10
256.282990
 20
50.500000
 11
256.282990
 21
50.000000
  0
LINE
  8
0
  6
CONTINUOUS
 62
7
 10
256.282990
 20
50.500000
 11
264.282990
 21
50.500000
  0
LINE
  8
0
  6
CONTINUOUS
 62
7
 10
255.283005
 20
50.000000
 11
255.283005
 21
42.000000
  0
LINE
  8
0
  6
CONTINUOUS
 62
7
 10
-21.283300
 20
92.000000
 11
20.716700
 21
92.000000
  0
LINE
  8
0
  6
CONTINUOUS
 62
7
 10
-21.283300
 20
92.000000
 11
-21.283300
 21
73.000000
  0
LINE
  8
0
  6
CONTINUOUS
 62
7
 10
-13.283300
 20
80.000000
 11
-13.283300
 21
73.000000
  0
LINE
  8
0
  6
CENTER
 62
2
 10
-41.583302
 20
78.500000
 11
-9.583310
 21
78.500000
  0
LINE
  8
0
  6
CONTINUOUS
 62
7
 10
-25.283300
 20
74.800003
 11
-21.283300
 21
74.800003
  0
LINE
  8
0
  6
CONTINUOUS
 62
7
 10
-25.283300
 20
82.199997
 11
-25.283300
 21
74.800003
  0
LINE
  8
0
  6
CONTINUOUS
 62
7
 10
-25.283300
 20
82.199997
 11
-21.283300
 21
82.199997
  0
LINE
  8
0
  6
CONTINUOUS
 62
7
 10
-25.283300
 20
79.699997
 11
-21.283300
 21
79.699997
  0
LINE
  8
0
  6
CONTINUOUS
 62
7
 10
-25.283300
 20
80.931099
 11
-21.283300
 21
80.931099
  0
LINE
  8
0
  6
CONTINUOUS
 62
7
 10
-25.283300
 20
77.300003
 11
-21.283300
 21
77.300003
  0
LINE
  8
0
  6
CONTINUOUS
 62
7
 10
-25.283300
 20
76.068901
 11
-21.283300
 21
76.068901
  0
LINE
  8
0
  6
CONTINUOUS
 62
7
 10
-40.583302
 20
76.000000
 11
-40.583302
 21
81.000000
  0
LINE
  8
0
  6
CONTINUOUS
 62
7
 10
-40.583302
 20
81.000000
 11
-25.283300
 21
81.000000
  0
LINE
  8
0
  6
CONTINUOUS
 62
7
 10
-40.583302
 20
76.000000
 11
-25.283300
 21
76.000000
  0
LINE
  8
0
  6
CONTINUOUS
 62
2
 10
-40.583302
 20
76.400002
 11
-25.283300
 21
76.400002
  0
LINE
  8
0
  6
CONTINUOUS
 62
2
 10
-40.583302
 20
80.599998
 11
-25.283300
 21
80.599998
  0
LINE
  8
0
  6
CONTINUOUS
 62
7
 10
-21.283300
 20
73.000000
 11
-13.283300
 21
73.000000
  0
LINE
  8
0
  6
CONTINUOUS
 62
7
 10
19.416700
 20
82.000000
 11
34.916698
 21
82.000000
  0
LINE
  8
0
  6
CONTINUOUS
 62
7
 10
34.916698
 20
74.000000
 11
34.916698
 21
82.000000
  0
LINE
  8
0
  6
CONTINUOUS
 62
7
 10
19.416700
 20
74.000000
 11
34.916698
 21
74.000000
  0
LINE
  8
0
  6
CONTINUOUS
 62
7
 10
19.416700
 20
74.000000
 11
19.416700
 21
82.000000
  0
LINE
  8
0
  6
CONTINUOUS
 62
7
 10
-10.283300
 20
83.000000
 11
36.716702
 21
83.000000
  0
LINE
  8
0
  6
CONTINUOUS
 62
7
 10
-11.941700
 20
82.500000
 11
35.416698
 21
82.500000
  0
LINE
  8
0
  6
CONTINUOUS
 62
7
 10
-39.783298
 20
76.000000
 11
-39.783298
 21
72.500000
  0
LINE
  8
0
  6
DASHED
 62
2
 10
-26.783300
 20
87.500000
 11
-26.783300
 21
87.199997
  0
LINE
  8
0
  6
DASHED
 62
2
 10
-20.783300
 20
87.500000
 11
-20.783300
 21
87.199997
  0
LINE
  8
0
  6
CONTINUOUS
 62
7
 10
-25.433300
 20
87.500000
 11
-22.133301
 21
87.500000
  0
LINE
  8
0
  6
DASHED
 62
2
 10
-22.133301
 20
87.500000
 11
-20.783300
 21
87.500000
  0
LINE
  8
0
  6
CONTINUOUS
 62
7
 10
34.216702
 20
74.000000
 11
34.216702
 21
72.500000
  0
LINE
  8
0
  6
CONTINUOUS
 62
7
 10
-13.283300
 20
42.000000
 11
-13.283300
 21
50.000000
  0
LINE
  8
0
  6
CONTINUOUS
 62
7
 10
19.416700
 20
50.000000
 11
-21.283300
 21
50.000000
  0
LINE
  8
0
  6
CENTER
 62
2
 10
-9.583310
 20
46.000000
 11
-41.583302
 21
46.000000
  0
LINE
  8
0
  6
CONTINUOUS
 62
7
 10
-40.583302
 20
48.500000
 11
-25.283300
 21
48.500000
  0
LINE
  8
0
  6
CONTINUOUS
 62
2
 10
-40.583302
 20
48.099998
 11
-25.283300
 21
48.099998
  0
LINE
  8
0
  6
CONTINUOUS
 62
2
 10
-40.583302
 20
43.900002
 11
-25.283300
 21
43.900002
  0
LINE
  8
0
  6
CONTINUOUS
 62
7
 10
-40.583302
 20
48.500000
 11
-40.583302
 21
43.500000
  0
LINE
  8
0
  6
CONTINUOUS
 62
7
 10
-40.583302
 20
43.500000
 11
-25.283300
 21
43.500000
  0
LINE
  8
0
  6
CONTINUOUS
 62
7
 10
-21.283300
 20
42.000000
 11
-21.283300
 21
50.000000
  0
LINE
  8
0
  6
CONTINUOUS
 62
7
 10
19.416700
 20
41.500000
 11
19.416700
 21
50.500000
  0
LINE
  8
0
  6
CONTINUOUS
 62
7
 10
-21.283300
 20
49.500000
 11
-25.283300
 21
49.500000
  0
LINE
  8
0
  6
CONTINUOUS
 62
7
 10
-25.283300
 20
49.500000
 11
-25.283300
 21
42.500000
  0
LINE
  8
0
  6
CONTINUOUS
 62
7
 10
-21.283300
 20
48.789299
 11
-25.283300
 21
48.789299
  0
LINE
  8
0
  6
CONTINUOUS
 62
7
 10
-21.283300
 20
46.710800
 11
-25.283300
 21
46.710800
  0
LINE
  8
0
  6
CONTINUOUS
 62
7
 10
-21.283300
 20
45.289299
 11
-25.283300
 21
45.289299
  0
LINE
  8
0
  6
CONTINUOUS
 62
7
 10
-21.283300
 20
43.210800
 11
-25.283300
 21
43.210800
  0
LINE
  8
0
  6
CONTINUOUS
 62
7
 10
-21.283300
 20
42.500000
 11
-25.283300
 21
42.500000
  0
LINE
  8
0
  6
CONTINUOUS
 62
7
 10
34.916698
 20
50.500000
 11
19.416700
 21
50.500000
  0
LINE
  8
0
  6
CONTINUOUS
 62
7
 10
34.916698
 20
41.500000
 11
34.916698
 21
50.500000
  0
LINE
  8
0
  6
CONTINUOUS
 62
7
 10
-31.783300
 20
43.500000
 11
-31.783300
 21
42.599998
  0
LINE
  8
0
  6
CONTINUOUS
 62
7
 10
19.416700
 20
42.000000
 11
-22.133301
 21
42.000000
  0
LINE
  8
0
  6
CENTER
 62
2
 10
-20.283300
 20
-96.500000
 11
-41.583302
 21
-96.500000
  0
LINE
  8
0
  6
CONTINUOUS
 62
7
 10
-40.583302
 20
-99.000000
 11
-25.283300
 21
-99.000000
  0
LINE
  8
0
  6
CONTINUOUS
 62
2
 10
-40.583302
 20
-98.599998
 11
-25.283300
 21
-98.599998
  0
LINE
  8
0
  6
CONTINUOUS
 62
2
 10
-40.583302
 20
-94.400002
 11
-35.283298
 21
-94.400002
  0
LINE
  8
0
  6
CONTINUOUS
 62
7
 10
-40.583302
 20
-99.000000
 11
-40.583302
 21
-94.000000
  0
LINE
  8
0
  6
CONTINUOUS
 62
7
 10
-40.583302
 20
-94.000000
 11
-35.283298
 21
-94.000000
  0
LINE
  8
0
  6
CONTINUOUS
 62
7
 10
-21.283300
 20
-100.000000
 11
-25.283300
 21
-100.000000
  0
LINE
  8
0
  6
CONTINUOUS
 62
7
 10
-25.283300
 20
-100.000000
 11
-25.283300
 21
-93.000000
  0
LINE
  8
0
  6
CONTINUOUS
 62
7
 10
-21.283300
 20
-99.289200
 11
-25.283300
 21
-99.289200
  0
LINE
  8
0
  6
CONTINUOUS
 62
7
 10
-21.283300
 20
-97.210800
 11
-25.283300
 21
-97.210800
  0
LINE
  8
0
  6
CONTINUOUS
 62
7
 10
-21.283300
 20
-95.789200
 11
-25.283300
 21
-95.789200
  0
LINE
  8
0
  6
CONTINUOUS
 62
7
 10
-21.283300
 20
-93.710701
 11
-25.283300
 21
-93.710701
  0
LINE
  8
0
  6
CONTINUOUS
 62
7
 10
-21.283300
 20
-93.000000
 11
-25.283300
 21
-93.000000
  0
LINE
  8
0
  6
CONTINUOUS
 62
7
 10
-21.283300
 20
-92.500000
 11
-21.283300
 21
-100.500000
  0
LINE
  8
0
  6
CONTINUOUS
 62
7
 10
47.716702
 20
-100.500000
 11
-21.283300
 21
-100.500000
  0
LINE
  8
0
  6
CONTINUOUS
 62
7
 10
19.416700
 20
-100.500000
 11
19.416700
 21
-101.000000
  0
LINE
  8
0
  6
CONTINUOUS
 62
7
 10
34.916698
 20
-100.500000
 11
34.916698
 21
-101.000000
  0
LINE
  8
0
  6
CONTINUOUS
 62
7
 10
34.916698
 20
-101.000000
 11
19.416700
 21
-101.000000
  0
LINE
  8
0
  6
CONTINUOUS
 62
7
 10
-28.283300
 20
-94.000000
 11
-25.283300
 21
-94.000000
  0
LINE
  8
0
  6
CONTINUOUS
 62
2
 10
-28.283300
 20
-94.400002
 11
-25.283300
 21
-94.400002
  0
LINE
  8
0
  6
CENTER
 62
2
 10
-179.149994
 20
78.199997
 11
-179.149994
 21
74.199997
  0
LINE
  8
0
  6
CENTER
 62
2
 10
-181.149994
 20
76.199997
 11
-177.149994
 21
76.199997
  0
LINE
  8
0
  6
CONTINUOUS
 62
7
 10
263.213989
 20
48.789200
 11
264.414001
 21
46.710701
  0
LINE
  8
0
  6
CONTINUOUS
 62
7
 10
259.583008
 20
49.500000
 11
261.983002
 21
49.500000
  0
LINE
  8
0
  6
CONTINUOUS
 62
7
 10
258.351990
 20
48.789200
 11
257.152008
 21
46.710800
  0
LINE
  8
0
  6
CONTINUOUS
 62
7
 10
257.152008
 20
45.289200
 11
258.351990
 21
43.210701
  0
LINE
  8
0
  6
CONTINUOUS
 62
7
 10
261.983002
 20
42.500000
 11
259.583008
 21
42.500000
  0
LINE
  8
0
  6
CONTINUOUS
 62
7
 10
264.414001
 20
45.289299
 11
263.213989
 21
43.210800
  0
LINE
  8
0
  6
CONTINUOUS
 62
7
 10
260.062012
 20
47.250000
 11
259.339996
 21
46.000000
  0
LINE
  8
0
  6
CONTINUOUS
 62
7
 10
259.339996
 20
46.000000
 11
260.062012
 21
44.750000
  0
LINE
  8
0
  6
CONTINUOUS
 62
7
 10
261.505005
 20
44.750000
 11
260.062012
 21
44.750000
  0
LINE
  8
0
  6
CONTINUOUS
 62
7
 10
262.226990
 20
46.000099
 11
261.505005
 21
44.750000
  0
LINE
  8
0
  6
CONTINUOUS
 62
7
 10
261.505005
 20
47.250000
 11
262.226990
 21
46.000000
  0
LINE
  8
0
  6
CONTINUOUS
 62
7
 10
260.062012
 20
47.250000
 11
261.505005
 21
47.250000
  0
LINE
  8
0
  6
CENTER
 62
2
 10
256.083008
 20
46.000000
 11
265.483002
 21
46.000000
  0
LINE
  8
0
  6
CENTER
 62
2
 10
260.782990
 20
41.299999
 11
260.782990
 21
50.700001
  0
LINE
  8
0
  6
CONTINUOUS
 62
7
 10
256.282990
 20
42.000000
 11
256.282990
 21
41.500000
  0
LINE
  8
0
  6
CONTINUOUS
 62
7
 10
264.282990
 20
42.000000
 11
264.282990
 21
41.500000
  0
LINE
  8
0
  6
CONTINUOUS
 62
7
 10
-160.800003
 20
78.250000
 11
-160.800003
 21
78.250000
  0
LINE
  8
0
  6
CENTER
 62
2
 10
225.483002
 20
78.500000
 11
249.483002
 21
78.500000
  0
LINE
  8
0
  6
CONTINUOUS
 62
2
 10
243.283005
 20
80.599998
 11
248.483002
 21
80.599998
  0
LINE
  8
0
  6
CONTINUOUS
 62
7
 10
231.283005
 20
73.000000
 11
239.283005
 21
73.000000
  0
LINE
  8
0
  6
CONTINUOUS
 62
7
 10
231.283005
 20
80.000000
 11
231.283005
 21
73.000000
  0
LINE
  8
0
  6
CONTINUOUS
 62
7
 10
239.283005
 20
92.000000
 11
239.283005
 21
73.000000
  0
LINE
  8
0
  6
CONTINUOUS
 62
7
 10
243.283005
 20
82.199997
 11
243.283005
 21
74.800003
  0
LINE
  8
0
  6
CONTINUOUS
 62
7
 10
239.283005
 20
74.800003
 11
243.283005
 21
74.800003
  0
LINE
  8
0
  6
CONTINUOUS
 62
7
 10
239.283005
 20
82.199997
 11
243.283005
 21
82.199997
  0
LINE
  8
0
  6
CONTINUOUS
 62
7
 10
239.283005
 20
79.699997
 11
243.283005
 21
79.699997
  0
LINE
  8
0
  6
CONTINUOUS
 62
7
 10
239.283005
 20
80.931099
 11
243.283005
 21
80.931099
  0
LINE
  8
0
  6
CONTINUOUS
 62
7
 10
239.283005
 20
77.300003
 11
243.283005
 21
77.300003
  0
LINE
  8
0
  6
CONTINUOUS
 62
7
 10
239.283005
 20
76.068901
 11
243.283005
 21
76.068901
  0
LINE
  8
0
  6
CONTINUOUS
 62
7
 10
248.483002
 20
76.000000
 11
248.483002
 21
81.000000
  0
LINE
  8
0
  6
CONTINUOUS
 62
7
 10
243.283005
 20
76.000000
 11
248.483002
 21
76.000000
  0
LINE
  8
0
  6
CONTINUOUS
 62
7
 10
243.283005
 20
81.000000
 11
248.483002
 21
81.000000
  0
LINE
  8
0
  6
CONTINUOUS
 62
2
 10
243.283005
 20
76.400002
 11
248.483002
 21
76.400002
  0
LINE
  8
0
  6
CONTINUOUS
 62
7
 10
-160.800003
 20
77.050003
 11
-160.800003
 21
73.000000
  0
LINE
  8
0
  6
CONTINUOUS
 62
7
 10
-159.000000
 20
82.958099
 11
-159.000000
 21
81.000000
  0
LINE
  8
0
  6
CONTINUOUS
 62
7
 10
239.283005
 20
50.000000
 11
226.483002
 21
50.000000
  0
LINE
  8
0
  6
CONTINUOUS
 62
7
 10
239.283005
 20
42.000000
 11
226.483002
 21
42.000000
  0
LINE
  8
0
  6
CENTER
 62
2
 10
249.483002
 20
46.000000
 11
225.483002
 21
46.000000
  0
LINE
  8
0
  6
CONTINUOUS
 62
7
 10
231.283005
 20
50.000000
 11
231.283005
 21
42.000000
  0
LINE
  8
0
  6
CONTINUOUS
 62
7
 10
239.283005
 20
50.000000
 11
239.283005
 21
42.000000
  0
LINE
  8
0
  6
CONTINUOUS
 62
7
 10
239.283005
 20
49.500000
 11
243.283005
 21
49.500000
  0
LINE
  8
0
  6
CONTINUOUS
 62
7
 10
243.283005
 20
42.500000
 11
243.283005
 21
49.500000
  0
LINE
  8
0
  6
CONTINUOUS
 62
7
 10
239.283005
 20
48.789299
 11
243.283005
 21
48.789299
  0
LINE
  8
0
  6
CONTINUOUS
 62
7
 10
239.283005
 20
42.500000
 11
243.283005
 21
42.500000
  0
LINE
  8
0
  6
CONTINUOUS
 62
7
 10
239.283005
 20
43.210800
 11
243.283005
 21
43.210800
  0
LINE
  8
0
  6
CONTINUOUS
 62
7
 10
239.283005
 20
45.289200
 11
243.283005
 21
45.289200
  0
LINE
  8
0
  6
CONTINUOUS
 62
7
 10
239.283005
 20
46.710800
 11
243.283005
 21
46.710800
  0
LINE
  8
0
  6
CONTINUOUS
 62
7
 10
243.283005
 20
48.500000
 11
248.483002
 21
48.500000
  0
LINE
  8
0
  6
CONTINUOUS
 62
2
 10
243.283005
 20
48.099998
 11
248.483002
 21
48.099998
  0
LINE
  8
0
  6
CONTINUOUS
 62
7
 10
248.483002
 20
43.500000
 11
248.483002
 21
48.500000
  0
LINE
  8
0
  6
CONTINUOUS
 62
2
 10
243.283005
 20
43.900002
 11
248.483002
 21
43.900002
  0
LINE
  8
0
  6
CONTINUOUS
 62
7
 10
243.283005
 20
43.500000
 11
248.483002
 21
43.500000
  0
LINE
  8
0
  6
CENTER
 62
2
 10
249.483002
 20
-96.500000
 11
238.283005
 21
-96.500000
  0
LINE
  8
0
  6
CONTINUOUS
 62
7
 10
239.283005
 20
-100.500000
 11
239.283005
 21
-92.500000
  0
LINE
  8
0
  6
CONTINUOUS
 62
7
 10
239.283005
 20
-100.000000
 11
243.283005
 21
-100.000000
  0
LINE
  8
0
  6
CONTINUOUS
 62
7
 10
243.283005
 20
-93.000000
 11
243.283005
 21
-100.000000
  0
LINE
  8
0
  6
CONTINUOUS
 62
7
 10
239.283005
 20
-99.289200
 11
243.283005
 21
-99.289200
  0
LINE
  8
0
  6
CONTINUOUS
 62
7
 10
239.283005
 20
-93.000000
 11
243.283005
 21
-93.000000
  0
LINE
  8
0
  6
CONTINUOUS
 62
7
 10
239.283005
 20
-93.710800
 11
243.283005
 21
-93.710800
  0
LINE
  8
0
  6
CONTINUOUS
 62
7
 10
239.283005
 20
-95.789200
 11
243.283005
 21
-95.789200
  0
LINE
  8
0
  6
CONTINUOUS
 62
7
 10
239.283005
 20
-97.210701
 11
243.283005
 21
-97.210701
  0
LINE
  8
0
  6
CONTINUOUS
 62
7
 10
243.283005
 20
-99.000000
 11
248.483002
 21
-99.000000
  0
LINE
  8
0
  6
CONTINUOUS
 62
2
 10
243.283005
 20
-98.599998
 11
248.483002
 21
-98.599998
  0
LINE
  8
0
  6
CONTINUOUS
 62
7
 10
248.483002
 20
-94.000000
 11
248.483002
 21
-99.000000
  0
LINE
  8
0
  6
CONTINUOUS
 62
2
 10
243.283005
 20
-94.400002
 11
248.483002
 21
-94.400002
  0
LINE
  8
0
  6
CONTINUOUS
 62
7
 10
243.283005
 20
-94.000000
 11
248.483002
 21
-94.000000
  0
LINE
  8
0
  6
CONTINUOUS
 62
7
 10
228.783005
 20
-36.000000
 11
239.283005
 21
-36.000000
  0
LINE
  8
0
  6
CENTER
 62
2
 10
225.483002
 20
-22.500000
 11
249.483002
 21
-22.500000
  0
LINE
  8
0
  6
CONTINUOUS
 62
2
 10
243.283005
 20
-24.600000
 11
248.483002
 21
-24.600000
  0
LINE
  8
0
  6
CONTINUOUS
 62
7
 10
231.283005
 20
-17.000000
 11
239.283005
 21
-17.000000
  0
LINE
  8
0
  6
CONTINUOUS
 62
7
 10
231.283005
 20
-24.000000
 11
231.283005
 21
-17.000000
  0
LINE
  8
0
  6
CONTINUOUS
 62
7
 10
239.283005
 20
-36.000000
 11
239.283005
 21
-17.000000
  0
LINE
  8
0
  6
CONTINUOUS
 62
7
 10
243.283005
 20
-26.200001
 11
243.283005
 21
-18.799999
  0
LINE
  8
0
  6
CONTINUOUS
 62
7
 10
239.283005
 20
-18.799999
 11
243.283005
 21
-18.799999
  0
LINE
  8
0
  6
CONTINUOUS
 62
7
 10
239.283005
 20
-26.200001
 11
243.283005
 21
-26.200001
  0
LINE
  8
0
  6
CONTINUOUS
 62
7
 10
239.283005
 20
-23.700001
 11
243.283005
 21
-23.700001
  0
LINE
  8
0
  6
CONTINUOUS
 62
7
 10
239.283005
 20
-24.931101
 11
243.283005
 21
-24.931101
  0
LINE
  8
0
  6
CONTINUOUS
 62
7
 10
239.283005
 20
-21.299999
 11
243.283005
 21
-21.299999
  0
LINE
  8
0
  6
CONTINUOUS
 62
7
 10
239.283005
 20
-20.068899
 11
243.283005
 21
-20.068899
  0
LINE
  8
0
  6
CONTINUOUS
 62
7
 10
248.483002
 20
-20.000000
 11
248.483002
 21
-25.000000
  0
LINE
  8
0
  6
CONTINUOUS
 62
7
 10
228.783005
 20
-25.000000
 11
231.112000
 21
-25.000000
  0
LINE
  8
0
  6
CONTINUOUS
 62
7
 10
227.983002
 20
-20.000000
 11
231.283005
 21
-20.000000
  0
LINE
  8
0
  6
CONTINUOUS
 62
2
 10
227.983002
 20
-20.400000
 11
231.283005
 21
-20.400000
  0
LINE
  8
0
  6
CONTINUOUS
 62
2
 10
228.783005
 20
-24.600000
 11
231.223007
 21
-24.600000
  0
LINE
  8
0
  6
CONTINUOUS
 62
7
 10
243.283005
 20
-20.000000
 11
248.483002
 21
-20.000000
  0
LINE
  8
0
  6
CONTINUOUS
 62
7
 10
243.283005
 20
-25.000000
 11
248.483002
 21
-25.000000
  0
LINE
  8
0
  6
CONTINUOUS
 62
2
 10
243.283005
 20
-20.400000
 11
248.483002
 21
-20.400000
  0
LINE
  8
0
  6
CONTINUOUS
 62
7
 10
-6.283330
 20
92.000000
 11
47.716702
 21
92.000000
  0
LINE
  8
0
  6
CENTER
 62
2
 10
33.916698
 20
78.500000
 11
57.916698
 21
78.500000
  0
LINE
  8
0
  6
CONTINUOUS
 62
2
 10
51.716702
 20
80.599998
 11
56.916698
 21
80.599998
  0
LINE
  8
0
  6
CONTINUOUS
 62
7
 10
39.716702
 20
73.000000
 11
47.716702
 21
73.000000
  0
LINE
  8
0
  6
CONTINUOUS
 62
7
 10
39.716702
 20
80.000000
 11
39.716702
 21
73.000000
  0
LINE
  8
0
  6
CONTINUOUS
 62
7
 10
47.716702
 20
92.000000
 11
47.716702
 21
73.000000
  0
LINE
  8
0
  6
CONTINUOUS
 62
7
 10
51.716702
 20
82.199997
 11
51.716702
 21
74.800003
  0
LINE
  8
0
  6
CONTINUOUS
 62
7
 10
47.716702
 20
74.800003
 11
51.716702
 21
74.800003
  0
LINE
  8
0
  6
CONTINUOUS
 62
7
 10
47.716702
 20
82.199997
 11
51.716702
 21
82.199997
  0
LINE
  8
0
  6
CONTINUOUS
 62
7
 10
47.716702
 20
79.699997
 11
51.716702
 21
79.699997
  0
LINE
  8
0
  6
CONTINUOUS
 62
7
 10
47.716702
 20
80.931099
 11
51.716702
 21
80.931099
  0
LINE
  8
0
  6
CONTINUOUS
 62
7
 10
47.716702
 20
77.300003
 11
51.716702
 21
77.300003
  0
LINE
  8
0
  6
CONTINUOUS
 62
7
 10
47.716702
 20
76.069000
 11
51.716702
 21
76.069000
  0
LINE
  8
0
  6
CONTINUOUS
 62
7
 10
56.916698
 20
76.000000
 11
56.916698
 21
81.000000
  0
LINE
  8
0
  6
CONTINUOUS
 62
7
 10
51.716702
 20
76.000000
 11
56.916698
 21
76.000000
  0
LINE
  8
0
  6
CONTINUOUS
 62
7
 10
51.716702
 20
81.000000
 11
56.916698
 21
81.000000
  0
LINE
  8
0
  6
CONTINUOUS
 62
2
 10
51.716702
 20
76.400002
 11
56.916698
 21
76.400002
  0
LINE
  8
0
  6
CONTINUOUS
 62
7
 10
47.716702
 20
50.000000
 11
34.916698
 21
50.000000
  0
LINE
  8
0
  6
CONTINUOUS
 62
7
 10
47.716702
 20
42.000000
 11
34.916698
 21
42.000000
  0
LINE
  8
0
  6
CENTER
 62
2
 10
57.916599
 20
46.000000
 11
33.916698
 21
46.000000
  0
LINE
  8
0
  6
CONTINUOUS
 62
7
 10
39.716702
 20
50.000000
 11
39.716702
 21
42.000000
  0
LINE
  8
0
  6
CONTINUOUS
 62
7
 10
47.716702
 20
50.000000
 11
47.716702
 21
42.000000
  0
LINE
  8
0
  6
CONTINUOUS
 62
7
 10
47.716702
 20
49.500000
 11
51.716702
 21
49.500000
  0
LINE
  8
0
  6
CONTINUOUS
 62
7
 10
51.716702
 20
42.500000
 11
51.716702
 21
49.500000
  0
LINE
  8
0
  6
CONTINUOUS
 62
7
 10
47.716702
 20
48.789299
 11
51.716702
 21
48.789299
  0
LINE
  8
0
  6
CONTINUOUS
 62
7
 10
47.716702
 20
42.500000
 11
51.716702
 21
42.500000
  0
LINE
  8
0
  6
CONTINUOUS
 62
7
 10
47.716702
 20
43.210800
 11
51.716702
 21
43.210800
  0
LINE
  8
0
  6
CONTINUOUS
 62
7
 10
47.716702
 20
45.289200
 11
51.716702
 21
45.289200
  0
LINE
  8
0
  6
CONTINUOUS
 62
7
 10
47.716702
 20
46.710800
 11
51.716702
 21
46.710800
  0
LINE
  8
0
  6
CONTINUOUS
 62
7
 10
51.716702
 20
48.500000
 11
56.916599
 21
48.500000
  0
LINE
  8
0
  6
CONTINUOUS
 62
2
 10
51.716702
 20
48.099998
 11
56.916599
 21
48.099998
  0
LINE
  8
0
  6
CONTINUOUS
 62
7
 10
56.916599
 20
43.500000
 11
56.916599
 21
48.500000
  0
LINE
  8
0
  6
CONTINUOUS
 62
2
 10
51.716702
 20
43.900002
 11
56.916599
 21
43.900002
  0
LINE
  8
0
  6
CONTINUOUS
 62
7
 10
51.716702
 20
43.500000
 11
56.916599
 21
43.500000
  0
LINE
  8
0
  6
CONTINUOUS
 62
7
 10
37.216702
 20
-36.000000
 11
47.716702
 21
-36.000000
  0
LINE
  8
0
  6
CENTER
 62
2
 10
33.916698
 20
-22.500000
 11
57.916698
 21
-22.500000
  0
LINE
  8
0
  6
CONTINUOUS
 62
2
 10
51.716702
 20
-24.600000
 11
56.916698
 21
-24.600000
  0
LINE
  8
0
  6
CONTINUOUS
 62
7
 10
39.716702
 20
-17.000000
 11
47.716702
 21
-17.000000
  0
LINE
  8
0
  6
CONTINUOUS
 62
7
 10
39.716702
 20
-24.000000
 11
39.716702
 21
-17.000000
  0
LINE
  8
0
  6
CONTINUOUS
 62
7
 10
47.716702
 20
-36.000000
 11
47.716702
 21
-17.000000
  0
LINE
  8
0
  6
CONTINUOUS
 62
7
 10
51.716702
 20
-26.200001
 11
51.716702
 21
-18.799999
  0
LINE
  8
0
  6
CONTINUOUS
 62
7
 10
47.716702
 20
-18.799999
 11
51.716702
 21
-18.799999
  0
LINE
  8
0
  6
CONTINUOUS
 62
7
 10
47.716702
 20
-26.200001
 11
51.716702
 21
-26.200001
  0
LINE
  8
0
  6
CONTINUOUS
 62
7
 10
47.716702
 20
-23.700001
 11
51.716702
 21
-23.700001
  0
LINE
  8
0
  6
CONTINUOUS
 62
7
 10
47.716702
 20
-24.931101
 11
51.716702
 21
-24.931101
  0
LINE
  8
0
  6
CONTINUOUS
 62
7
 10
47.716702
 20
-21.299999
 11
51.716702
 21
-21.299999
  0
LINE
  8
0
  6
CONTINUOUS
 62
7
 10
47.716702
 20
-20.068899
 11
51.716702
 21
-20.068899
  0
LINE
  8
0
  6
CONTINUOUS
 62
7
 10
56.916698
 20
-20.000000
 11
56.916698
 21
-25.000000
  0
LINE
  8
0
  6
CONTINUOUS
 62
7
 10
37.216702
 20
-25.000000
 11
39.545101
 21
-25.000000
  0
LINE
  8
0
  6
CONTINUOUS
 62
7
 10
36.416698
 20
-20.000000
 11
39.716702
 21
-20.000000
  0
LINE
  8
0
  6
CONTINUOUS
 62
2
 10
36.416698
 20
-20.400000
 11
39.716702
 21
-20.400000
  0
LINE
  8
0
  6
CONTINUOUS
 62
2
 10
37.216702
 20
-24.600000
 11
39.656101
 21
-24.600000
  0
LINE
  8
0
  6
CONTINUOUS
 62
7
 10
51.716702
 20
-20.000000
 11
56.916698
 21
-20.000000
  0
LINE
  8
0
  6
CONTINUOUS
 62
7
 10
51.716702
 20
-25.000000
 11
56.916698
 21
-25.000000
  0
LINE
  8
0
  6
CONTINUOUS
 62
2
 10
51.716702
 20
-20.400000
 11
56.916698
 21
-20.400000
  0
LINE
  8
0
  6
CENTER
 62
2
 10
57.916599
 20
-96.500000
 11
46.716702
 21
-96.500000
  0
LINE
  8
0
  6
CONTINUOUS
 62
7
 10
47.716702
 20
-100.500000
 11
47.716702
 21
-92.500000
  0
LINE
  8
0
  6
CONTINUOUS
 62
7
 10
47.716702
 20
-100.000000
 11
51.716702
 21
-100.000000
  0
LINE
  8
0
  6
CONTINUOUS
 62
7
 10
51.716702
 20
-93.000000
 11
51.716702
 21
-100.000000
  0
LINE
  8
0
  6
CONTINUOUS
 62
7
 10
47.716702
 20
-99.289200
 11
51.716702
 21
-99.289200
  0
LINE
  8
0
  6
CONTINUOUS
 62
7
 10
47.716702
 20
-93.000000
 11
51.716702
 21
-93.000000
  0
LINE
  8
0
  6
CONTINUOUS
 62
7
 10
47.716702
 20
-93.710701
 11
51.716702
 21
-93.710701
  0
LINE
  8
0
  6
CONTINUOUS
 62
7
 10
47.716702
 20
-95.789200
 11
51.716702
 21
-95.789200
  0
LINE
  8
0
  6
CONTINUOUS
 62
7
 10
47.716702
 20
-97.210701
 11
51.716702
 21
-97.210701
  0
LINE
  8
0
  6
CONTINUOUS
 62
7
 10
51.716702
 20
-99.000000
 11
56.916599
 21
-99.000000
  0
LINE
  8
0
  6
CONTINUOUS
 62
2
 10
51.716702
 20
-98.599998
 11
56.916599
 21
-98.599998
  0
LINE
  8
0
  6
CONTINUOUS
 62
7
 10
56.916599
 20
-94.000000
 11
56.916599
 21
-99.000000
  0
LINE
  8
0
  6
CONTINUOUS
 62
2
 10
51.716702
 20
-94.400002
 11
56.916599
 21
-94.400002
  0
LINE
  8
0
  6
CONTINUOUS
 62
7
 10
51.716702
 20
-94.000000
 11
56.916599
 21
-94.000000
  0
LINE
  8
0
  6
CONTINUOUS
 62
7
 10
226.983002
 20
77.050003
 11
226.983002
 21
73.000000
  0
LINE
  8
0
  6
CONTINUOUS
 62
7
 10
228.783005
 20
82.958099
 11
228.783005
 21
81.000000
  0
LINE
  8
0
  6
CONTINUOUS
 62
7
 10
74.716698
 20
14.000000
 11
84.216698
 21
14.000000
  0
LINE
  8
0
  6
CENTER
 62
2
 10
77.216698
 20
34.400002
 11
77.216698
 21
21.600000
  0
LINE
  8
0
  6
CENTER
 62
2
 10
63.216702
 20
28.000000
 11
85.216698
 21
28.000000
  0
LINE
  8
0
  6
CONTINUOUS
 62
7
 10
68.716698
 20
34.000000
 11
68.716698
 21
22.000000
  0
LINE
  8
0
  6
CONTINUOUS
 62
7
 10
71.926003
 20
34.000000
 11
74.716698
 21
34.000000
  0
LINE
  8
0
  6
CONTINUOUS
 62
7
 10
68.716698
 20
34.000000
 11
69.507301
 21
34.000000
  0
LINE
  8
0
  6
CONTINUOUS
 62
7
 10
71.926003
 20
22.000000
 11
74.716698
 21
22.000000
  0
LINE
  8
0
  6
CONTINUOUS
 62
7
 10
68.716698
 20
22.000000
 11
69.507301
 21
22.000000
  0
LINE
  8
0
  6
CONTINUOUS
 62
7
 10
74.716698
 20
14.000000
 11
74.716698
 21
22.000000
  0
LINE
  8
0
  6
CONTINUOUS
 62
7
 10
84.216698
 20
14.000000
 11
84.216698
 21
42.000000
  0
LINE
  8
0
  6
CONTINUOUS
 62
7
 10
74.716698
 20
42.000000
 11
74.716698
 21
34.000000
  0
LINE
  8
0
  6
CONTINUOUS
 62
7
 10
64.716698
 20
42.000000
 11
84.216698
 21
42.000000
  0
LINE
  8
0
  6
CONTINUOUS
 62
7
 10
64.516701
 20
34.700001
 11
64.516701
 21
21.299999
  0
LINE
  8
0
  6
CONTINUOUS
 62
7
 10
64.216698
 20
14.500000
 11
64.216698
 21
21.000000
  0
LINE
  8
0
  6
CONTINUOUS
 62
7
 10
64.216698
 20
14.500000
 11
74.716698
 21
14.500000
  0
LINE
  8
0
  6
CONTINUOUS
 62
7
 10
74.216698
 20
14.500000
 11
74.216698
 21
22.000000
  0
LINE
  8
0
  6
CONTINUOUS
 62
7
 10
64.216499
 20
21.000099
 11
64.516502
 21
21.300100
  0
LINE
  8
0
  6
CONTINUOUS
 62
7
 10
64.216698
 20
41.500000
 11
64.216698
 21
35.000000
  0
LINE
  8
0
  6
CONTINUOUS
 62
7
 10
64.216599
 20
35.000000
 11
64.516602
 21
34.700001
  0
LINE
  8
0
  6
CONTINUOUS
 62
7
 10
74.216698
 20
41.500000
 11
74.216698
 21
34.000000
  0
LINE
  8
0
  6
CONTINUOUS
 62
7
 10
64.216698
 20
41.500000
 11
74.716698
 21
41.500000
  0
LINE
  8
0
  6
CENTER
 62
2
 10
82.216698
 20
38.500000
 11
86.216698
 21
38.500000
  0
LINE
  8
0
  6
CENTER
 62
2
 10
82.216698
 20
17.500000
 11
86.216698
 21
17.500000
  0
LINE
  8
0
  6
CENTER
 62
2
 10
62.216702
 20
38.000000
 11
66.216698
 21
38.000000
  0
LINE
  8
0
  6
CENTER
 62
2
 10
62.216702
 20
18.000000
 11
66.216698
 21
18.000000
  0
LINE
  8
0
  6
CONTINUOUS
 62
7
 10
83.716698
 20
50.000000
 11
83.716698
 21
42.000000
  0
LINE
  8
0
  6
CONTINUOUS
 62
7
 10
83.716698
 20
50.000000
 11
64.716698
 21
50.000000
  0
LINE
  8
0
  6
CONTINUOUS
 62
7
 10
73.716698
 20
50.500000
 11
73.716698
 21
50.000000
  0
LINE
  8
0
  6
CONTINUOUS
 62
7
 10
65.716698
 20
50.500000
 11
65.716698
 21
50.000000
  0
LINE
  8
0
  6
CONTINUOUS
 62
7
 10
65.716698
 20
50.500000
 11
73.716698
 21
50.500000
  0
LINE
  8
0
  6
CONTINUOUS
 62
7
 10
64.716698
 20
50.000000
 11
64.716698
 21
42.000000
  0
LINE
  8
0
  6
CONTINUOUS
 62
7
 10
72.647598
 20
48.789200
 11
73.847603
 21
46.710701
  0
LINE
  8
0
  6
CONTINUOUS
 62
7
 10
69.016701
 20
49.500000
 11
71.416702
 21
49.500000
  0
LINE
  8
0
  6
CONTINUOUS
 62
7
 10
67.785500
 20
48.789299
 11
66.585503
 21
46.710899
  0
LINE
  8
0
  6
CONTINUOUS
 62
7
 10
66.585503
 20
45.289200
 11
67.785500
 21
43.210701
  0
LINE
  8
0
  6
CONTINUOUS
 62
7
 10
71.416702
 20
42.500000
 11
69.016701
 21
42.500000
  0
LINE
  8
0
  6
CONTINUOUS
 62
7
 10
73.847702
 20
45.289299
 11
72.647697
 21
43.210899
  0
LINE
  8
0
  6
CONTINUOUS
 62
7
 10
69.494904
 20
47.250099
 11
68.773201
 21
46.000099
  0
LINE
  8
0
  6
CONTINUOUS
 62
7
 10
68.773300
 20
46.000000
 11
69.494904
 21
44.750000
  0
LINE
  8
0
  6
CONTINUOUS
 62
7
 10
70.938400
 20
44.750000
 11
69.495003
 21
44.750000
  0
LINE
  8
0
  6
CONTINUOUS
 62
7
 10
71.660004
 20
46.000099
 11
70.938301
 21
44.750099
  0
LINE
  8
0
  6
CONTINUOUS
 62
7
 10
70.938202
 20
47.249901
 11
71.659897
 21
45.999901
  0
LINE
  8
0
  6
CONTINUOUS
 62
7
 10
69.495003
 20
47.250000
 11
70.938400
 21
47.250000
  0
LINE
  8
0
  6
CENTER
 62
2
 10
65.516701
 20
46.000000
 11
74.916702
 21
46.000000
  0
LINE
  8
0
  6
CENTER
 62
2
 10
70.216698
 20
41.299999
 11
70.216698
 21
50.700001
  0
LINE
  8
0
  6
CONTINUOUS
 62
7
 10
65.716698
 20
42.000000
 11
65.716698
 21
41.500000
  0
LINE
  8
0
  6
CONTINUOUS
 62
7
 10
73.716698
 20
42.000000
 11
73.716698
 21
41.500000
  0
LINE
  8
0
  6
CONTINUOUS
 62
7
 10
-116.500000
 20
14.000000
 11
-107.000000
 21
14.000000
  0
LINE
  8
0
  6
CENTER
 62
2
 10
-114.000000
 20
34.400002
 11
-114.000000
 21
21.600000
  0
LINE
  8
0
  6
CENTER
 62
2
 10
-128.000000
 20
28.000000
 11
-106.000000
 21
28.000000
  0
LINE
  8
0
  6
CONTINUOUS
 62
7
 10
-122.500000
 20
34.000000
 11
-122.500000
 21
22.000000
  0
LINE
  8
0
  6
CONTINUOUS
 62
7
 10
-119.291000
 20
34.000000
 11
-116.500000
 21
34.000000
  0
LINE
  8
0
  6
CONTINUOUS
 62
7
 10
-122.500000
 20
34.000000
 11
-121.709000
 21
34.000000
  0
LINE
  8
0
  6
CONTINUOUS
 62
7
 10
-119.291000
 20
22.000000
 11
-116.500000
 21
22.000000
  0
LINE
  8
0
  6
CONTINUOUS
 62
7
 10
-122.500000
 20
22.000000
 11
-121.709000
 21
22.000000
  0
LINE
  8
0
  6
CONTINUOUS
 62
7
 10
-116.500000
 20
14.000000
 11
-116.500000
 21
22.000000
  0
LINE
  8
0
  6
CONTINUOUS
 62
7
 10
-107.000000
 20
14.000000
 11
-107.000000
 21
42.000000
  0
LINE
  8
0
  6
CONTINUOUS
 62
7
 10
-116.500000
 20
42.000000
 11
-116.500000
 21
34.000000
  0
LINE
  8
0
  6
CONTINUOUS
 62
7
 10
-126.500000
 20
42.000000
 11
-107.000000
 21
42.000000
  0
LINE
  8
0
  6
CONTINUOUS
 62
7
 10
-126.699997
 20
34.700001
 11
-126.699997
 21
21.299999
  0
LINE
  8
0
  6
CONTINUOUS
 62
7
 10
-127.000000
 20
14.500000
 11
-127.000000
 21
21.000000
  0
LINE
  8
0
  6
CONTINUOUS
 62
7
 10
-127.000000
 20
14.500000
 11
-116.500000
 21
14.500000
  0
LINE
  8
0
  6
CONTINUOUS
 62
7
 10
-117.000000
 20
14.500000
 11
-117.000000
 21
22.000000
  0
LINE
  8
0
  6
CONTINUOUS
 62
7
 10
-127.000000
 20
21.000000
 11
-126.699997
 21
21.299999
  0
LINE
  8
0
  6
CONTINUOUS
 62
7
 10
-127.000000
 20
41.500000
 11
-127.000000
 21
35.000000
  0
LINE
  8
0
  6
CONTINUOUS
 62
7
 10
-127.000000
 20
35.000000
 11
-126.699997
 21
34.700001
  0
LINE
  8
0
  6
CONTINUOUS
 62
7
 10
-117.000000
 20
41.500000
 11
-117.000000
 21
34.000000
  0
LINE
  8
0
  6
CONTINUOUS
 62
7
 10
-127.000000
 20
41.500000
 11
-116.500000
 21
41.500000
  0
LINE
  8
0
  6
CENTER
 62
2
 10
-109.000000
 20
38.500000
 11
-105.000000
 21
38.500000
  0
LINE
  8
0
  6
CENTER
 62
2
 10
-109.000000
 20
17.500000
 11
-105.000000
 21
17.500000
  0
LINE
  8
0
  6
CENTER
 62
2
 10
-129.000000
 20
38.000000
 11
-125.000000
 21
38.000000
  0
LINE
  8
0
  6
CENTER
 62
2
 10
-129.000000
 20
18.000000
 11
-125.000000
 21
18.000000
  0
LINE
  8
0
  6
CONTINUOUS
 62
7
 10
-107.500000
 20
50.000000
 11
-107.500000
 21
42.000000
  0
LINE
  8
0
  6
CONTINUOUS
 62
7
 10
-107.500000
 20
50.000000
 11
-126.500000
 21
50.000000
  0
LINE
  8
0
  6
CONTINUOUS
 62
7
 10
-117.500000
 20
50.500000
 11
-117.500000
 21
50.000000
  0
LINE
  8
0
  6
CONTINUOUS
 62
7
 10
-125.500000
 20
50.500000
 11
-125.500000
 21
50.000000
  0
LINE
  8
0
  6
CONTINUOUS
 62
7
 10
-125.500000
 20
50.500000
 11
-117.500000
 21
50.500000
  0
LINE
  8
0
  6
CONTINUOUS
 62
7
 10
-126.500000
 20
50.000000
 11
-126.500000
 21
42.000000
  0
LINE
  8
0
  6
CONTINUOUS
 62
7
 10
-118.569000
 20
48.789200
 11
-117.369003
 21
46.710800
  0
LINE
  8
0
  6
CONTINUOUS
 62
7
 10
-122.199997
 20
49.500000
 11
-119.800003
 21
49.500000
  0
LINE
  8
0
  6
CONTINUOUS
 62
7
 10
-123.431000
 20
48.789200
 11
-124.630997
 21
46.710800
  0
LINE
  8
0
  6
CONTINUOUS
 62
7
 10
-124.630997
 20
45.289299
 11
-123.431000
 21
43.210800
  0
LINE
  8
0
  6
CONTINUOUS
 62
7
 10
-119.800003
 20
42.500000
 11
-122.199997
 21
42.500000
  0
LINE
  8
0
  6
CONTINUOUS
 62
7
 10
-117.369003
 20
45.289200
 11
-118.569000
 21
43.210800
  0
LINE
  8
0
  6
CONTINUOUS
 62
7
 10
-121.722000
 20
47.250000
 11
-122.443001
 21
46.000000
  0
LINE
  8
0
  6
CONTINUOUS
 62
7
 10
-122.443001
 20
46.000000
 11
-121.722000
 21
44.750000
  0
LINE
  8
0
  6
CONTINUOUS
 62
7
 10
-120.278000
 20
44.750000
 11
-121.722000
 21
44.750000
  0
LINE
  8
0
  6
CONTINUOUS
 62
7
 10
-119.556999
 20
46.000000
 11
-120.278000
 21
44.750000
  0
LINE
  8
0
  6
CONTINUOUS
 62
7
 10
-120.278000
 20
47.250000
 11
-119.556999
 21
46.000000
  0
LINE
  8
0
  6
CONTINUOUS
 62
7
 10
-121.722000
 20
47.250000
 11
-120.278000
 21
47.250000
  0
LINE
  8
0
  6
CENTER
 62
2
 10
-125.699997
 20
46.000000
 11
-116.300003
 21
46.000000
  0
LINE
  8
0
  6
CENTER
 62
2
 10
-121.000000
 20
41.299999
 11
-121.000000
 21
50.700001
  0
LINE
  8
0
  6
CONTINUOUS
 62
7
 10
-125.500000
 20
42.000000
 11
-125.500000
 21
41.500000
  0
LINE
  8
0
  6
CONTINUOUS
 62
7
 10
-117.500000
 20
42.000000
 11
-117.500000
 21
41.500000
  0
LINE
  8
0
  6
CONTINUOUS
 62
7
 10
-202.500000
 20
92.000000
 11
-148.500000
 21
92.000000
  0
LINE
  8
0
  6
CENTER
 62
2
 10
-162.300003
 20
78.500000
 11
-138.300003
 21
78.500000
  0
LINE
  8
0
  6
CONTINUOUS
 62
2
 10
-144.500000
 20
80.599998
 11
-139.300003
 21
80.599998
  0
LINE
  8
0
  6
CONTINUOUS
 62
7
 10
-156.500000
 20
73.000000
 11
-148.500000
 21
73.000000
  0
LINE
  8
0
  6
CONTINUOUS
 62
7
 10
-156.500000
 20
80.000000
 11
-156.500000
 21
73.000000
  0
LINE
  8
0
  6
CONTINUOUS
 62
7
 10
-148.500000
 20
92.000000
 11
-148.500000
 21
73.000000
  0
LINE
  8
0
  6
CONTINUOUS
 62
7
 10
-144.500000
 20
82.199997
 11
-144.500000
 21
74.800003
  0
LINE
  8
0
  6
CONTINUOUS
 62
7
 10
-148.500000
 20
74.800003
 11
-144.500000
 21
74.800003
  0
LINE
  8
0
  6
CONTINUOUS
 62
7
 10
-148.500000
 20
82.199997
 11
-144.500000
 21
82.199997
  0
LINE
  8
0
  6
CONTINUOUS
 62
7
 10
-148.500000
 20
79.699997
 11
-144.500000
 21
79.699997
  0
LINE
  8
0
  6
CONTINUOUS
 62
7
 10
-148.500000
 20
80.931099
 11
-144.500000
 21
80.931099
  0
LINE
  8
0
  6
CONTINUOUS
 62
7
 10
-148.500000
 20
77.300003
 11
-144.500000
 21
77.300003
  0
LINE
  8
0
  6
CONTINUOUS
 62
7
 10
-148.500000
 20
76.068901
 11
-144.500000
 21
76.068901
  0
LINE
  8
0
  6
CONTINUOUS
 62
7
 10
-139.300003
 20
76.000000
 11
-139.300003
 21
81.000000
  0
LINE
  8
0
  6
CONTINUOUS
 62
7
 10
-144.500000
 20
76.000000
 11
-139.300003
 21
76.000000
  0
LINE
  8
0
  6
CONTINUOUS
 62
7
 10
-144.500000
 20
81.000000
 11
-139.300003
 21
81.000000
  0
LINE
  8
0
  6
CONTINUOUS
 62
2
 10
-144.500000
 20
76.400002
 11
-139.300003
 21
76.400002
  0
LINE
  8
0
  6
CONTINUOUS
 62
7
 10
-148.500000
 20
50.000000
 11
-161.300003
 21
50.000000
  0
LINE
  8
0
  6
CONTINUOUS
 62
7
 10
-148.500000
 20
42.000000
 11
-161.300003
 21
42.000000
  0
LINE
  8
0
  6
CENTER
 62
2
 10
-138.300003
 20
46.000000
 11
-162.300003
 21
46.000000
  0
LINE
  8
0
  6
CONTINUOUS
 62
7
 10
-156.500000
 20
50.000000
 11
-156.500000
 21
42.000000
  0
LINE
  8
0
  6
CONTINUOUS
 62
7
 10
-148.500000
 20
50.000000
 11
-148.500000
 21
42.000000
  0
LINE
  8
0
  6
CONTINUOUS
 62
7
 10
-148.500000
 20
49.500000
 11
-144.500000
 21
49.500000
  0
LINE
  8
0
  6
CONTINUOUS
 62
7
 10
-144.500000
 20
42.500000
 11
-144.500000
 21
49.500000
  0
LINE
  8
0
  6
CONTINUOUS
 62
7
 10
-148.500000
 20
48.789299
 11
-144.500000
 21
48.789299
  0
LINE
  8
0
  6
CONTINUOUS
 62
7
 10
-148.500000
 20
42.500000
 11
-144.500000
 21
42.500000
  0
LINE
  8
0
  6
CONTINUOUS
 62
7
 10
-148.500000
 20
43.210800
 11
-144.500000
 21
43.210800
  0
LINE
  8
0
  6
CONTINUOUS
 62
7
 10
-148.500000
 20
45.289200
 11
-144.500000
 21
45.289200
  0
LINE
  8
0
  6
CONTINUOUS
 62
7
 10
-148.500000
 20
46.710800
 11
-144.500000
 21
46.710800
  0
LINE
  8
0
  6
CONTINUOUS
 62
7
 10
-144.500000
 20
48.500000
 11
-139.300003
 21
48.500000
  0
LINE
  8
0
  6
CONTINUOUS
 62
2
 10
-144.500000
 20
48.099998
 11
-139.300003
 21
48.099998
  0
LINE
  8
0
  6
CONTINUOUS
 62
7
 10
-139.300003
 20
43.500000
 11
-139.300003
 21
48.500000
  0
LINE
  8
0
  6
CONTINUOUS
 62
2
 10
-144.500000
 20
43.900002
 11
-139.300003
 21
43.900002
  0
LINE
  8
0
  6
CONTINUOUS
 62
7
 10
-144.500000
 20
43.500000
 11
-139.300003
 21
43.500000
  0
LINE
  8
0
  6
CONTINUOUS
 62
7
 10
-159.000000
 20
-36.000000
 11
-148.500000
 21
-36.000000
  0
LINE
  8
0
  6
CENTER
 62
2
 10
-162.300003
 20
-22.500000
 11
-138.300003
 21
-22.500000
  0
LINE
  8
0
  6
CONTINUOUS
 62
2
 10
-144.500000
 20
-24.600000
 11
-139.300003
 21
-24.600000
  0
LINE
  8
0
  6
CONTINUOUS
 62
7
 10
-156.500000
 20
-17.000000
 11
-148.500000
 21
-17.000000
  0
LINE
  8
0
  6
CONTINUOUS
 62
7
 10
-156.500000
 20
-24.000000
 11
-156.500000
 21
-17.000000
  0
LINE
  8
0
  6
CONTINUOUS
 62
7
 10
-148.500000
 20
-36.000000
 11
-148.500000
 21
-17.000000
  0
LINE
  8
0
  6
CONTINUOUS
 62
7
 10
-144.500000
 20
-26.200001
 11
-144.500000
 21
-18.799999
  0
LINE
  8
0
  6
CONTINUOUS
 62
7
 10
-148.500000
 20
-18.799999
 11
-144.500000
 21
-18.799999
  0
LINE
  8
0
  6
CONTINUOUS
 62
7
 10
-148.500000
 20
-26.200001
 11
-144.500000
 21
-26.200001
  0
LINE
  8
0
  6
CONTINUOUS
 62
7
 10
-148.500000
 20
-23.700001
 11
-144.500000
 21
-23.700001
  0
LINE
  8
0
  6
CONTINUOUS
 62
7
 10
-148.500000
 20
-24.931101
 11
-144.500000
 21
-24.931101
  0
LINE
  8
0
  6
CONTINUOUS
 62
7
 10
-148.500000
 20
-21.299999
 11
-144.500000
 21
-21.299999
  0
LINE
  8
0
  6
CONTINUOUS
 62
7
 10
-148.500000
 20
-20.068899
 11
-144.500000
 21
-20.068899
  0
LINE
  8
0
  6
CONTINUOUS
 62
7
 10
-139.300003
 20
-20.000000
 11
-139.300003
 21
-25.000000
  0
LINE
  8
0
  6
CONTINUOUS
 62
7
 10
-159.000000
 20
-25.000000
 11
-156.671997
 21
-25.000000
  0
LINE
  8
0
  6
CONTINUOUS
 62
7
 10
-159.800003
 20
-20.000000
 11
-156.500000
 21
-20.000000
  0
LINE
  8
0
  6
CONTINUOUS
 62
2
 10
-159.800003
 20
-20.400000
 11
-156.500000
 21
-20.400000
  0
LINE
  8
0
  6
CONTINUOUS
 62
2
 10
-159.000000
 20
-24.600000
 11
-156.561005
 21
-24.600000
  0
LINE
  8
0
  6
CONTINUOUS
 62
7
 10
-144.500000
 20
-20.000000
 11
-139.300003
 21
-20.000000
  0
LINE
  8
0
  6
CONTINUOUS
 62
7
 10
-144.500000
 20
-25.000000
 11
-139.300003
 21
-25.000000
  0
LINE
  8
0
  6
CONTINUOUS
 62
2
 10
-144.500000
 20
-20.400000
 11
-139.300003
 21
-20.400000
  0
LINE
  8
0
  6
CONTINUOUS
 62
7
 10
-148.500000
 20
-92.500000
 11
-203.350006
 21
-92.500000
  0
LINE
  8
0
  6
CONTINUOUS
 62
7
 10
-148.500000
 20
-100.500000
 11
-202.500000
 21
-100.500000
  0
LINE
  8
0
  6
CENTER
 62
2
 10
-138.300003
 20
-96.500000
 11
-149.500000
 21
-96.500000
  0
LINE
  8
0
  6
CONTINUOUS
 62
7
 10
-148.500000
 20
-100.500000
 11
-148.500000
 21
-92.500000
  0
LINE
  8
0
  6
CONTINUOUS
 62
7
 10
-148.500000
 20
-100.000000
 11
-144.500000
 21
-100.000000
  0
LINE
  8
0
  6
CONTINUOUS
 62
7
 10
-144.500000
 20
-93.000000
 11
-144.500000
 21
-100.000000
  0
LINE
  8
0
  6
CONTINUOUS
 62
7
 10
-148.500000
 20
-99.289200
 11
-144.500000
 21
-99.289200
  0
LINE
  8
0
  6
CONTINUOUS
 62
7
 10
-148.500000
 20
-93.000000
 11
-144.500000
 21
-93.000000
  0
LINE
  8
0
  6
CONTINUOUS
 62
7
 10
-148.500000
 20
-93.710701
 11
-144.500000
 21
-93.710701
  0
LINE
  8
0
  6
CONTINUOUS
 62
7
 10
-148.500000
 20
-95.789200
 11
-144.500000
 21
-95.789200
  0
LINE
  8
0
  6
CONTINUOUS
 62
7
 10
-148.500000
 20
-97.210701
 11
-144.500000
 21
-97.210701
  0
LINE
  8
0
  6
CONTINUOUS
 62
7
 10
-144.500000
 20
-99.000000
 11
-139.300003
 21
-99.000000
  0
LINE
  8
0
  6
CONTINUOUS
 62
2
 10
-144.500000
 20
-98.599998
 11
-139.300003
 21
-98.599998
  0
LINE
  8
0
  6
CONTINUOUS
 62
7
 10
-139.300003
 20
-94.000000
 11
-139.300003
 21
-99.000000
  0
LINE
  8
0
  6
CONTINUOUS
 62
2
 10
-144.500000
 20
-94.400002
 11
-139.300003
 21
-94.400002
  0
LINE
  8
0
  6
CONTINUOUS
 62
7
 10
-144.500000
 20
-94.000000
 11
-139.300003
 21
-94.000000
  0
LINE
  8
0
  6
CONTINUOUS
 62
7
 10
37.216702
 20
82.958099
 11
37.216702
 21
81.000000
  0
LINE
  8
0
  6
CONTINUOUS
 62
7
 10
35.416698
 20
77.050003
 11
35.416698
 21
73.000000
  0
LINE
  8
0
  6
DASHED
 62
2
 10
-26.783300
 20
-31.500000
 11
-26.783300
 21
-31.200001
  0
LINE
  8
0
  6
DASHED
 62
2
 10
-20.783300
 20
-31.500000
 11
-20.783300
 21
-31.200001
  0
LINE
  8
0
  6
CONTINUOUS
 62
7
 10
-25.433300
 20
-31.500000
 11
-22.133301
 21
-31.500000
  0
LINE
  8
0
  6
DASHED
 62
2
 10
-22.133301
 20
-31.500000
 11
-20.783300
 21
-31.500000
  0
LINE
  8
0
  6
DASHED
 62
2
 10
-191.350006
 20
90.900002
 11
-191.350006
 21
88.500000
  0
LINE
  8
0
  6
DASHED
 62
2
 10
-194.649994
 20
90.900002
 11
-194.649994
 21
88.500000
  0
LINE
  8
0
  6
DASHED
 62
2
 10
-174.649994
 20
92.500000
 11
-174.649994
 21
87.500000
  0
LINE
  8
0
  6
DASHED
 62
2
 10
-171.350006
 20
92.500000
 11
-171.350006
 21
87.500000
  0
LINE
  8
0
  6
DASHED
 62
2
 10
-195.500000
 20
90.900002
 11
-190.500000
 21
90.900002
  0
LINE
  8
0
  6
CENTER
 62
2
 10
-190.000000
 20
20.100000
 11
-190.000000
 21
14.900000
  0
LINE
  8
0
  6
CENTER
 62
2
 10
-192.600006
 20
17.500000
 11
-187.399994
 21
17.500000
  0
LINE
  8
0
  6
DASHED
 62
2
 10
-194.649994
 20
-34.900002
 11
-194.649994
 21
-32.500000
  0
LINE
  8
0
  6
DASHED
 62
2
 10
-191.350006
 20
-34.900002
 11
-191.350006
 21
-32.500000
  0
LINE
  8
0
  6
DASHED
 62
2
 10
-174.649994
 20
-36.500000
 11
-174.649994
 21
-31.500000
  0
LINE
  8
0
  6
DASHED
 62
2
 10
-171.350006
 20
-36.500000
 11
-171.350006
 21
-31.500000
  0
LINE
  8
0
  6
DASHED
 62
2
 10
162.783005
 20
90.900002
 11
162.783005
 21
88.500000
  0
LINE
  8
0
  6
DASHED
 62
2
 10
166.783005
 20
90.900002
 11
166.783005
 21
88.500000
  0
LINE
  8
0
  6
DASHED
 62
2
 10
163.132996
 20
90.900002
 11
163.132996
 21
88.500000
  0
LINE
  8
0
  6
DASHED
 62
2
 10
166.432999
 20
90.900002
 11
166.432999
 21
88.500000
  0
LINE
  8
0
  6
DASHED
 62
2
 10
213.132996
 20
92.500000
 11
213.132996
 21
87.500000
  0
LINE
  8
0
  6
DASHED
 62
2
 10
216.432999
 20
92.500000
 11
216.432999
 21
87.500000
  0
LINE
  8
0
  6
CENTER
 62
2
 10
177.783005
 20
20.100000
 11
177.783005
 21
14.900000
  0
LINE
  8
0
  6
CENTER
 62
2
 10
175.182999
 20
17.500000
 11
180.382996
 21
17.500000
  0
LINE
  8
0
  6
DASHED
 62
2
 10
163.132996
 20
-34.900002
 11
163.132996
 21
-32.500000
  0
LINE
  8
0
  6
DASHED
 62
2
 10
166.432999
 20
-34.900002
 11
166.432999
 21
-32.500000
  0
LINE
  8
0
  6
DASHED
 62
2
 10
216.432999
 20
-36.500000
 11
216.432999
 21
-31.500000
  0
LINE
  8
0
  6
DASHED
 62
2
 10
213.132996
 20
-36.500000
 11
213.132996
 21
-31.500000
  0
LINE
  8
0
  6
DASHED
 62
2
 10
-13.433300
 20
92.500000
 11
-13.433300
 21
86.500000
  0
LINE
  8
0
  6
DASHED
 62
2
 10
-10.133300
 20
92.500000
 11
-10.133300
 21
86.500000
  0
LINE
  8
0
  6
DASHED
 62
2
 10
21.566700
 20
92.500000
 11
21.566700
 21
87.500000
  0
LINE
  8
0
  6
DASHED
 62
2
 10
24.866699
 20
92.500000
 11
24.866699
 21
87.500000
  0
LINE
  8
0
  6
CENTER
 62
2
 10
-8.783330
 20
20.100000
 11
-8.783330
 21
14.900000
  0
LINE
  8
0
  6
CENTER
 62
2
 10
-11.383400
 20
17.500000
 11
-6.183350
 21
17.500000
  0
LINE
  8
0
  6
DASHED
 62
2
 10
-10.133300
 20
-36.500000
 11
-10.133300
 21
-30.500000
  0
LINE
  8
0
  6
DASHED
 62
2
 10
-13.433300
 20
-36.500000
 11
-13.433300
 21
-30.500000
  0
LINE
  8
0
  6
DASHED
 62
2
 10
24.866699
 20
-36.500000
 11
24.866699
 21
-31.500000
  0
LINE
  8
0
  6
DASHED
 62
2
 10
21.566700
 20
-36.500000
 11
21.566700
 21
-31.500000
  0
LINE
  8
0
  6
CONTINUOUS
 62
2
 10
-194.438995
 20
80.599998
 11
-193.300003
 21
80.599998
  0
LINE
  8
0
  6
CONTINUOUS
 62
7
 10
-194.328003
 20
81.000000
 11
-193.300003
 21
81.000000
  0
LINE
  8
0
  6
CONTINUOUS
 62
7
 10
-193.300003
 20
76.000000
 11
-193.300003
 21
81.000000
  0
LINE
  8
0
  6
CONTINUOUS
 62
7
 10
-193.300003
 20
79.949997
 11
-191.800003
 21
79.949997
  0
LINE
  8
0
  6
CONTINUOUS
 62
7
 10
-191.800003
 20
77.050003
 11
-191.800003
 21
79.949997
  0
LINE
  8
0
  6
CONTINUOUS
 62
7
 10
-193.300003
 20
77.050003
 11
-191.800003
 21
77.050003
  0
LINE
  8
0
  6
CONTINUOUS
 62
2
 10
-194.500000
 20
76.400002
 11
-193.300003
 21
76.400002
  0
LINE
  8
0
  6
CONTINUOUS
 62
7
 10
-194.500000
 20
76.000000
 11
-193.300003
 21
76.000000
  0
LINE
  8
0
  6
CONTINUOUS
 62
2
 10
-159.800003
 20
80.599998
 11
-156.561005
 21
80.599998
  0
LINE
  8
0
  6
CONTINUOUS
 62
7
 10
-159.800003
 20
81.000000
 11
-156.671997
 21
81.000000
  0
LINE
  8
0
  6
CONTINUOUS
 62
7
 10
-159.800003
 20
76.000000
 11
-159.800003
 21
81.000000
  0
LINE
  8
0
  6
CONTINUOUS
 62
7
 10
-161.300003
 20
79.949997
 11
-159.800003
 21
79.949997
  0
LINE
  8
0
  6
CONTINUOUS
 62
7
 10
-161.300003
 20
77.050003
 11
-159.800003
 21
77.050003
  0
LINE
  8
0
  6
CONTINUOUS
 62
7
 10
-159.800003
 20
76.000000
 11
-156.500000
 21
76.000000
  0
LINE
  8
0
  6
CONTINUOUS
 62
2
 10
-159.800003
 20
76.400002
 11
-156.500000
 21
76.400002
  0
LINE
  8
0
  6
CONTINUOUS
 62
2
 10
-194.500000
 20
48.099998
 11
-193.300003
 21
48.099998
  0
LINE
  8
0
  6
CONTINUOUS
 62
7
 10
-194.500000
 20
48.500000
 11
-193.300003
 21
48.500000
  0
LINE
  8
0
  6
CONTINUOUS
 62
7
 10
-193.300003
 20
43.500000
 11
-193.300003
 21
48.500000
  0
LINE
  8
0
  6
CONTINUOUS
 62
7
 10
-193.300003
 20
47.450001
 11
-191.800003
 21
47.450001
  0
LINE
  8
0
  6
CONTINUOUS
 62
7
 10
-191.800003
 20
44.549999
 11
-191.800003
 21
47.450001
  0
LINE
  8
0
  6
CONTINUOUS
 62
7
 10
-193.300003
 20
44.549999
 11
-191.800003
 21
44.549999
  0
LINE
  8
0
  6
CONTINUOUS
 62
2
 10
-194.500000
 20
43.900002
 11
-193.300003
 21
43.900002
  0
LINE
  8
0
  6
CONTINUOUS
 62
7
 10
-194.500000
 20
43.500000
 11
-193.300003
 21
43.500000
  0
LINE
  8
0
  6
CONTINUOUS
 62
2
 10
-159.800003
 20
48.099998
 11
-156.500000
 21
48.099998
  0
LINE
  8
0
  6
CONTINUOUS
 62
7
 10
-159.800003
 20
48.500000
 11
-156.500000
 21
48.500000
  0
LINE
  8
0
  6
CONTINUOUS
 62
7
 10
-159.800003
 20
43.500000
 11
-159.800003
 21
48.500000
  0
LINE
  8
0
  6
CONTINUOUS
 62
7
 10
-161.300003
 20
47.450001
 11
-159.800003
 21
47.450001
  0
LINE
  8
0
  6
CONTINUOUS
 62
7
 10
-161.300003
 20
44.549999
 11
-159.800003
 21
44.549999
  0
LINE
  8
0
  6
CONTINUOUS
 62
7
 10
-159.800003
 20
43.500000
 11
-156.500000
 21
43.500000
  0
LINE
  8
0
  6
CONTINUOUS
 62
2
 10
-159.800003
 20
43.900002
 11
-156.500000
 21
43.900002
  0
LINE
  8
0
  6
CONTINUOUS
 62
2
 10
-13.222700
 20
80.599998
 11
-12.083300
 21
80.599998
  0
LINE
  8
0
  6
CONTINUOUS
 62
7
 10
-13.111800
 20
81.000000
 11
-12.083300
 21
81.000000
  0
LINE
  8
0
  6
CONTINUOUS
 62
7
 10
-12.083300
 20
76.000000
 11
-12.083300
 21
81.000000
  0
LINE
  8
0
  6
CONTINUOUS
 62
7
 10
-12.083300
 20
79.949997
 11
-10.583300
 21
79.949997
  0
LINE
  8
0
  6
CONTINUOUS
 62
7
 10
-10.583300
 20
77.050003
 11
-10.583300
 21
79.949997
  0
LINE
  8
0
  6
CONTINUOUS
 62
7
 10
-12.083300
 20
77.050003
 11
-10.583300
 21
77.050003
  0
LINE
  8
0
  6
CONTINUOUS
 62
2
 10
-13.283300
 20
76.400002
 11
-12.083300
 21
76.400002
  0
LINE
  8
0
  6
CONTINUOUS
 62
7
 10
-13.283300
 20
76.000000
 11
-12.083300
 21
76.000000
  0
LINE
  8
0
  6
CONTINUOUS
 62
2
 10
36.416698
 20
80.599998
 11
39.656101
 21
80.599998
  0
LINE
  8
0
  6
CONTINUOUS
 62
7
 10
36.416698
 20
81.000000
 11
39.545101
 21
81.000000
  0
LINE
  8
0
  6
CONTINUOUS
 62
7
 10
36.416698
 20
76.000000
 11
36.416698
 21
81.000000
  0
LINE
  8
0
  6
CONTINUOUS
 62
7
 10
34.916698
 20
79.949997
 11
36.416698
 21
79.949997
  0
LINE
  8
0
  6
CONTINUOUS
 62
7
 10
34.916698
 20
77.050003
 11
36.416698
 21
77.050003
  0
LINE
  8
0
  6
CONTINUOUS
 62
7
 10
36.416698
 20
76.000000
 11
39.716702
 21
76.000000
  0
LINE
  8
0
  6
CONTINUOUS
 62
2
 10
36.416698
 20
76.400002
 11
39.716702
 21
76.400002
  0
LINE
  8
0
  6
CONTINUOUS
 62
2
 10
-13.283300
 20
48.099998
 11
-12.083300
 21
48.099998
  0
LINE
  8
0
  6
CONTINUOUS
 62
7
 10
-13.283300
 20
48.500000
 11
-12.083300
 21
48.500000
  0
LINE
  8
0
  6
CONTINUOUS
 62
7
 10
-12.083300
 20
43.500000
 11
-12.083300
 21
48.500000
  0
LINE
  8
0
  6
CONTINUOUS
 62
7
 10
-12.083300
 20
47.450001
 11
-10.583300
 21
47.450001
  0
LINE
  8
0
  6
CONTINUOUS
 62
7
 10
-10.583300
 20
44.549999
 11
-10.583300
 21
47.450001
  0
LINE
  8
0
  6
CONTINUOUS
 62
7
 10
-12.083300
 20
44.549999
 11
-10.583300
 21
44.549999
  0
LINE
  8
0
  6
CONTINUOUS
 62
2
 10
-13.283300
 20
43.900002
 11
-12.083300
 21
43.900002
  0
LINE
  8
0
  6
CONTINUOUS
 62
7
 10
-13.283300
 20
43.500000
 11
-12.083300
 21
43.500000
  0
LINE
  8
0
  6
CONTINUOUS
 62
2
 10
36.416698
 20
48.099998
 11
39.716702
 21
48.099998
  0
LINE
  8
0
  6
CONTINUOUS
 62
7
 10
36.416698
 20
48.500000
 11
39.716702
 21
48.500000
  0
LINE
  8
0
  6
CONTINUOUS
 62
7
 10
36.416698
 20
43.500000
 11
36.416698
 21
48.500000
  0
LINE
  8
0
  6
CONTINUOUS
 62
7
 10
34.916698
 20
47.450001
 11
36.416698
 21
47.450001
  0
LINE
  8
0
  6
CONTINUOUS
 62
7
 10
34.916698
 20
44.549999
 11
36.416698
 21
44.549999
  0
LINE
  8
0
  6
CONTINUOUS
 62
7
 10
36.416698
 20
43.500000
 11
39.716702
 21
43.500000
  0
LINE
  8
0
  6
CONTINUOUS
 62
2
 10
36.416698
 20
43.900002
 11
39.716702
 21
43.900002
  0
LINE
  8
0
  6
CONTINUOUS
 62
2
 10
163.343994
 20
80.599998
 11
164.483002
 21
80.599998
  0
LINE
  8
0
  6
CONTINUOUS
 62
7
 10
163.455002
 20
81.000000
 11
164.483002
 21
81.000000
  0
LINE
  8
0
  6
CONTINUOUS
 62
7
 10
164.483002
 20
76.000000
 11
164.483002
 21
81.000000
  0
LINE
  8
0
  6
CONTINUOUS
 62
7
 10
164.483002
 20
79.949997
 11
165.983002
 21
79.949997
  0
LINE
  8
0
  6
CONTINUOUS
 62
7
 10
165.983002
 20
77.050003
 11
165.983002
 21
79.949997
  0
LINE
  8
0
  6
CONTINUOUS
 62
7
 10
164.483002
 20
77.050003
 11
165.983002
 21
77.050003
  0
LINE
  8
0
  6
CONTINUOUS
 62
2
 10
163.283005
 20
76.400002
 11
164.483002
 21
76.400002
  0
LINE
  8
0
  6
CONTINUOUS
 62
7
 10
163.283005
 20
76.000000
 11
164.483002
 21
76.000000
  0
LINE
  8
0
  6
CONTINUOUS
 62
2
 10
227.983002
 20
80.599998
 11
231.223007
 21
80.599998
  0
LINE
  8
0
  6
CONTINUOUS
 62
7
 10
227.983002
 20
81.000000
 11
231.112000
 21
81.000000
  0
LINE
  8
0
  6
CONTINUOUS
 62
7
 10
227.983002
 20
76.000000
 11
227.983002
 21
81.000000
  0
LINE
  8
0
  6
CONTINUOUS
 62
7
 10
226.483002
 20
79.949997
 11
227.983002
 21
79.949997
  0
LINE
  8
0
  6
CONTINUOUS
 62
7
 10
226.483002
 20
77.050003
 11
227.983002
 21
77.050003
  0
LINE
  8
0
  6
CONTINUOUS
 62
7
 10
227.983002
 20
76.000000
 11
231.283005
 21
76.000000
  0
LINE
  8
0
  6
CONTINUOUS
 62
2
 10
227.983002
 20
76.400002
 11
231.283005
 21
76.400002
  0
LINE
  8
0
  6
CONTINUOUS
 62
2
 10
163.283005
 20
48.099998
 11
164.483002
 21
48.099998
  0
LINE
  8
0
  6
CONTINUOUS
 62
7
 10
163.283005
 20
48.500000
 11
164.483002
 21
48.500000
  0
LINE
  8
0
  6
CONTINUOUS
 62
7
 10
164.483002
 20
43.500000
 11
164.483002
 21
48.500000
  0
LINE
  8
0
  6
CONTINUOUS
 62
7
 10
164.483002
 20
47.450001
 11
165.983002
 21
47.450001
  0
LINE
  8
0
  6
CONTINUOUS
 62
7
 10
165.983002
 20
44.549999
 11
165.983002
 21
47.450001
  0
LINE
  8
0
  6
CONTINUOUS
 62
7
 10
164.483002
 20
44.549999
 11
165.983002
 21
44.549999
  0
LINE
  8
0
  6
CONTINUOUS
 62
2
 10
163.283005
 20
43.900002
 11
164.483002
 21
43.900002
  0
LINE
  8
0
  6
CONTINUOUS
 62
7
 10
163.283005
 20
43.500000
 11
164.483002
 21
43.500000
  0
LINE
  8
0
  6
CONTINUOUS
 62
2
 10
227.983002
 20
48.099998
 11
231.283005
 21
48.099998
  0
LINE
  8
0
  6
CONTINUOUS
 62
7
 10
227.983002
 20
48.500000
 11
231.283005
 21
48.500000
  0
LINE
  8
0
  6
CONTINUOUS
 62
7
 10
227.983002
 20
43.500000
 11
227.983002
 21
48.500000
  0
LINE
  8
0
  6
CONTINUOUS
 62
7
 10
226.483002
 20
47.450001
 11
227.983002
 21
47.450001
  0
LINE
  8
0
  6
CONTINUOUS
 62
7
 10
226.483002
 20
44.549999
 11
227.983002
 21
44.549999
  0
LINE
  8
0
  6
CONTINUOUS
 62
7
 10
227.983002
 20
43.500000
 11
231.283005
 21
43.500000
  0
LINE
  8
0
  6
CONTINUOUS
 62
2
 10
227.983002
 20
43.900002
 11
231.283005
 21
43.900002
  0
LINE
  8
0
  6
CONTINUOUS
 62
7
 10
227.983002
 20
-21.000000
 11
227.983002
 21
-20.000000
  0
LINE
  8
0
  6
CONTINUOUS
 62
7
 10
-159.800003
 20
-21.000000
 11
-159.800003
 21
-20.000000
  0
LINE
  8
0
  6
CONTINUOUS
 62
7
 10
36.416698
 20
-21.000000
 11
36.416698
 21
-20.000000
  0
LINE
  8
0
  6
CONTINUOUS
 62
7
 10
-93.466698
 20
195.500000
 11
-93.466698
 21
-195.000000
  0
LINE
  8
0
  6
CONTINUOUS
 62
7
 10
94.316704
 20
195.500000
 11
94.316704
 21
-195.000000
  0
CIRCLE
  8
0
  6
CONTINUOUS
 62
2
 10
164.783005
 20
-68.000000
 40
2.000000
  0
CIRCLE
  8
0
  6
CONTINUOUS
 62
7
 10
164.783005
 20
-68.000000
 40
2.500000
  0
CIRCLE
  8
0
  6
CONTINUOUS
 62
2
 10
211.783005
 20
38.000000
 40
1.500000
  0
CIRCLE
  8
0
  6
CONTINUOUS
 62
7
 10
193.783005
 20
38.000000
 40
1.250000
  0
CIRCLE
  8
0
  6
CONTINUOUS
 62
2
 10
193.783005
 20
38.000000
 40
1.500000
  0
CIRCLE
  8
0
  6
CONTINUOUS
 62
7
 10
177.783005
 20
38.500000
 40
1.600000
  0
CIRCLE
  8
0
  6
CONTINUOUS
 62
7
 10
145.783005
 20
38.000000
 40
1.250000
  0
CIRCLE
  8
0
  6
CONTINUOUS
 62
2
 10
145.783005
 20
38.000000
 40
1.500000
  0
CIRCLE
  8
0
  6
CONTINUOUS
 62
7
 10
145.783005
 20
18.000000
 40
1.250000
  0
CIRCLE
  8
0
  6
CONTINUOUS
 62
2
 10
145.783005
 20
18.000000
 40
1.500000
  0
CIRCLE
  8
0
  6
CONTINUOUS
 62
7
 10
211.783005
 20
18.000000
 40
1.250000
  0
CIRCLE
  8
0
  6
CONTINUOUS
 62
2
 10
211.783005
 20
18.000000
 40
1.500000
  0
CIRCLE
  8
0
  6
CONTINUOUS
 62
7
 10
193.783005
 20
18.000000
 40
1.250000
  0
CIRCLE
  8
0
  6
CONTINUOUS
 62
2
 10
193.783005
 20
18.000000
 40
1.500000
  0
CIRCLE
  8
0
  6
CONTINUOUS
 62
7
 10
211.783005
 20
38.000000
 40
1.250000
  0
ARC
  8
0
  6
DASHED
 62
2
 10
152.783005
 20
17.500000
 40
3.000000
 50
303.367004
 51
236.632996
  0
ARC
  8
0
  6
DASHED
 62
2
 10
152.783005
 20
17.500000
 40
1.649990
 50
0.000000
 51
180.000000
  0
ARC
  8
0
  6
DASHED
 62
2
 10
152.783005
 20
38.500000
 40
1.649990
 50
180.000000
 51
0.000000
  0
ARC
  8
0
  6
DASHED
 62
2
 10
152.783005
 20
38.500000
 40
3.000000
 50
123.366997
 51
416.632996
  0
CIRCLE
  8
0
  6
DASHED
 62
2
 10
214.783005
 20
38.500000
 40
3.000000
  0
CIRCLE
  8
0
  6
DASHED
 62
2
 10
214.783005
 20
38.500000
 40
2.000000
  0
CIRCLE
  8
0
  6
DASHED
 62
2
 10
214.783005
 20
38.500000
 40
1.650000
  0
CIRCLE
  8
0
  6
DASHED
 62
2
 10
214.783005
 20
17.500000
 40
3.000000
  0
CIRCLE
  8
0
  6
DASHED
 62
2
 10
214.783005
 20
17.500000
 40
2.000000
  0
CIRCLE
  8
0
  6
DASHED
 62
2
 10
214.783005
 20
17.500000
 40
1.650000
  0
CIRCLE
  8
0
  6
CONTINUOUS
 62
2
 10
118.782997
 20
28.000000
 40
2.000000
  0
CIRCLE
  8
0
  6
CONTINUOUS
 62
7
 10
118.782997
 20
38.000000
 40
3.000000
  0
CIRCLE
  8
0
  6
CONTINUOUS
 62
7
 10
118.782997
 20
28.000000
 40
1.650000
  0
CIRCLE
  8
0
  6
CONTINUOUS
 62
7
 10
109.782997
 20
28.000000
 40
5.000000
  0
CIRCLE
  8
0
  6
CONTINUOUS
 62
7
 10
118.782997
 20
18.000000
 40
3.000000
  0
CIRCLE
  8
0
  6
CONTINUOUS
 62
2
 10
109.782997
 20
18.000000
 40
2.000000
  0
CIRCLE
  8
0
  6
CONTINUOUS
 62
7
 10
109.782997
 20
18.000000
 40
1.650000
  0
CIRCLE
  8
0
  6
CONTINUOUS
 62
2
 10
109.782997
 20
38.000000
 40
2.000000
  0
CIRCLE
  8
0
  6
CONTINUOUS
 62
7
 10
109.782997
 20
38.000000
 40
1.650000
  0
ARC
  8
0
  6
CONTINUOUS
 62
7
 10
144.783005
 20
87.000000
 40
4.800000
 50
303.557007
 51
0.000000
  0
CIRCLE
  8
0
  6
CONTINUOUS
 62
2
 10
208.632996
 20
76.199997
 40
1.000000
  0
CIRCLE
  8
0
  6
CONTINUOUS
 62
7
 10
208.632996
 20
76.199997
 40
0.800000
  0
ARC
  8
0
  6
CONTINUOUS
 62
7
 10
152.783005
 20
-68.000000
 40
1.649990
 50
180.000000
 51
0.000000
  0
ARC
  8
0
  6
CONTINUOUS
 62
7
 10
152.783005
 20
-89.000000
 40
1.649990
 50
0.000000
 51
180.000000
  0
CIRCLE
  8
0
  6
CONTINUOUS
 62
7
 10
164.783005
 20
-89.000000
 40
2.500000
  0
CIRCLE
  8
0
  6
CONTINUOUS
 62
7
 10
214.783005
 20
-89.000000
 40
1.650000
  0
CIRCLE
  8
0
  6
CONTINUOUS
 62
2
 10
214.783005
 20
-89.000000
 40
2.000000
  0
CIRCLE
  8
0
  6
CONTINUOUS
 62
7
 10
164.783005
 20
-89.000000
 40
1.650000
  0
CIRCLE
  8
0
  6
CONTINUOUS
 62
2
 10
164.783005
 20
-89.000000
 40
2.000000
  0
CIRCLE
  8
0
  6
CONTINUOUS
 62
7
 10
214.783005
 20
-68.000000
 40
1.650000
  0
CIRCLE
  8
0
  6
CONTINUOUS
 62
2
 10
214.783005
 20
-68.000000
 40
2.000000
  0
CIRCLE
  8
0
  6
CONTINUOUS
 62
7
 10
164.783005
 20
-68.000000
 40
1.650000
  0
ARC
  8
0
  6
CONTINUOUS
 62
7
 10
-23.783300
 20
-68.000000
 40
1.650000
 50
180.000000
 51
0.000000
  0
ARC
  8
0
  6
CONTINUOUS
 62
7
 10
-23.783300
 20
-89.000000
 40
1.650000
 50
0.000000
 51
180.000000
  0
CIRCLE
  8
0
  6
CONTINUOUS
 62
7
 10
23.216700
 20
-89.000000
 40
1.650000
  0
CIRCLE
  8
0
  6
CONTINUOUS
 62
2
 10
23.216700
 20
-89.000000
 40
2.000000
  0
CIRCLE
  8
0
  6
CONTINUOUS
 62
7
 10
-11.783300
 20
-89.000000
 40
1.650000
  0
CIRCLE
  8
0
  6
CONTINUOUS
 62
2
 10
-11.783300
 20
-89.000000
 40
2.000000
  0
CIRCLE
  8
0
  6
CONTINUOUS
 62
7
 10
23.216700
 20
-68.000000
 40
1.650000
  0
CIRCLE
  8
0
  6
CONTINUOUS
 62
2
 10
23.216700
 20
-68.000000
 40
2.000000
  0
CIRCLE
  8
0
  6
CONTINUOUS
 62
7
 10
-11.783300
 20
-68.000000
 40
1.650000
  0
CIRCLE
  8
0
  6
CONTINUOUS
 62
2
 10
-11.783300
 20
-68.000000
 40
2.000000
  0
CIRCLE
  8
0
  6
CONTINUOUS
 62
2
 10
20.216700
 20
38.000000
 40
1.500000
  0
CIRCLE
  8
0
  6
CONTINUOUS
 62
7
 10
-12.783300
 20
38.000000
 40
1.250000
  0
CIRCLE
  8
0
  6
CONTINUOUS
 62
2
 10
-12.783300
 20
38.000000
 40
1.500000
  0
CIRCLE
  8
0
  6
CONTINUOUS
 62
7
 10
-8.783330
 20
38.500000
 40
1.600000
  0
CIRCLE
  8
0
  6
CONTINUOUS
 62
7
 10
-30.783300
 20
38.000000
 40
1.250000
  0
CIRCLE
  8
0
  6
CONTINUOUS
 62
2
 10
-30.783300
 20
38.000000
 40
1.500000
  0
CIRCLE
  8
0
  6
CONTINUOUS
 62
7
 10
-30.783300
 20
18.000000
 40
1.250000
  0
CIRCLE
  8
0
  6
CONTINUOUS
 62
2
 10
-30.783300
 20
18.000000
 40
1.500000
  0
CIRCLE
  8
0
  6
CONTINUOUS
 62
7
 10
20.216700
 20
18.000000
 40
1.250000
  0
CIRCLE
  8
0
  6
CONTINUOUS
 62
2
 10
20.216700
 20
18.000000
 40
1.500000
  0
CIRCLE
  8
0
  6
CONTINUOUS
 62
7
 10
-12.783300
 20
18.000000
 40
1.250000
  0
CIRCLE
  8
0
  6
CONTINUOUS
 62
2
 10
-12.783300
 20
18.000000
 40
1.500000
  0
CIRCLE
  8
0
  6
CONTINUOUS
 62
7
 10
20.216700
 20
38.000000
 40
1.250000
  0
ARC
  8
0
  6
DASHED
 62
2
 10
-23.783300
 20
17.500000
 40
3.000000
 50
303.367004
 51
236.632996
  0
ARC
  8
0
  6
DASHED
 62
2
 10
-23.783300
 20
17.500000
 40
1.650000
 50
0.000000
 51
180.000000
  0
ARC
  8
0
  6
DASHED
 62
2
 10
-23.783300
 20
38.500000
 40
1.650000
 50
180.000000
 51
0.000000
  0
ARC
  8
0
  6
DASHED
 62
2
 10
-23.783300
 20
38.500000
 40
3.000000
 50
123.366997
 51
416.632996
  0
CIRCLE
  8
0
  6
DASHED
 62
2
 10
23.216700
 20
38.500000
 40
3.000000
  0
CIRCLE
  8
0
  6
DASHED
 62
2
 10
23.216700
 20
38.500000
 40
2.000000
  0
CIRCLE
  8
0
  6
DASHED
 62
2
 10
23.216700
 20
38.500000
 40
1.650000
  0
CIRCLE
  8
0
  6
DASHED
 62
2
 10
23.216700
 20
17.500000
 40
3.000000
  0
CIRCLE
  8
0
  6
DASHED
 62
2
 10
23.216700
 20
17.500000
 40
2.000000
  0
CIRCLE
  8
0
  6
DASHED
 62
2
 10
23.216700
 20
17.500000
 40
1.650000
  0
CIRCLE
  8
0
  6
CONTINUOUS
 62
7
 10
2.216670
 20
18.000000
 40
1.250000
  0
CIRCLE
  8
0
  6
CONTINUOUS
 62
2
 10
2.216670
 20
18.000000
 40
1.500000
  0
CIRCLE
  8
0
  6
CONTINUOUS
 62
2
 10
2.216670
 20
38.000000
 40
1.500000
  0
CIRCLE
  8
0
  6
CONTINUOUS
 62
7
 10
2.216670
 20
38.000000
 40
1.250000
  0
ARC
  8
0
  6
CONTINUOUS
 62
7
 10
-31.783300
 20
87.199997
 40
4.800000
 50
298.954987
 51
0.000000
  0
CIRCLE
  8
0
  6
CONTINUOUS
 62
2
 10
144.783005
 20
-31.000000
 40
2.500000
  0
CIRCLE
  8
0
  6
CONTINUOUS
 62
7
 10
144.783005
 20
-31.000000
 40
2.100000
  0
CIRCLE
  8
0
  6
CONTINUOUS
 62
2
 10
222.783005
 20
-31.000000
 40
2.500000
  0
CIRCLE
  8
0
  6
CONTINUOUS
 62
7
 10
222.783005
 20
-31.000000
 40
2.100000
  0
ARC
  8
0
  6
CONTINUOUS
 62
7
 10
144.783005
 20
-31.000000
 40
4.800000
 50
0.000000
 51
56.442600
  0
ARC
  8
0
  6
CONTINUOUS
 62
7
 10
158.783005
 20
-32.500000
 40
3.000000
 50
0.000000
 51
150.000000
  0
CIRCLE
  8
0
  6
CONTINUOUS
 62
2
 10
218.632996
 20
-20.200001
 40
1.000000
  0
CIRCLE
  8
0
  6
CONTINUOUS
 62
7
 10
208.632996
 20
-20.200001
 40
0.750000
  0
CIRCLE
  8
0
  6
CONTINUOUS
 62
7
 10
221.983002
 20
-20.500000
 40
1.250000
  0
CIRCLE
  8
0
  6
CONTINUOUS
 62
2
 10
158.783005
 20
-32.500000
 40
1.500000
  0
CIRCLE
  8
0
  6
CONTINUOUS
 62
2
 10
208.783005
 20
-32.500000
 40
1.500000
  0
CIRCLE
  8
0
  6
CONTINUOUS
 62
2
 10
221.983002
 20
-20.500000
 40
1.500000
  0
ARC
  8
0
  6
CONTINUOUS
 62
7
 10
222.783005
 20
-31.000000
 40
4.800000
 50
123.556999
 51
180.000000
  0
ARC
  8
0
  6
CONTINUOUS
 62
7
 10
208.783005
 20
-32.500000
 40
3.000010
 50
29.999901
 51
180.000000
  0
CIRCLE
  8
0
  6
CONTINUOUS
 62
7
 10
208.783005
 20
-32.500000
 40
1.250000
  0
CIRCLE
  8
0
  6
CONTINUOUS
 62
7
 10
218.632996
 20
-20.200001
 40
0.750000
  0
CIRCLE
  8
0
  6
CONTINUOUS
 62
2
 10
208.632996
 20
-20.200001
 40
1.000000
  0
CIRCLE
  8
0
  6
CONTINUOUS
 62
2
 10
215.483002
 20
-20.500000
 40
1.500000
  0
CIRCLE
  8
0
  6
CONTINUOUS
 62
7
 10
215.483002
 20
-20.500000
 40
1.250000
  0
CIRCLE
  8
0
  6
CONTINUOUS
 62
7
 10
158.783005
 20
-32.500000
 40
1.250000
  0
CIRCLE
  8
0
  6
CONTINUOUS
 62
2
 10
-31.783300
 20
-31.000000
 40
2.500000
  0
CIRCLE
  8
0
  6
CONTINUOUS
 62
7
 10
-31.783300
 20
-31.000000
 40
2.100000
  0
CIRCLE
  8
0
  6
CONTINUOUS
 62
2
 10
31.216700
 20
-31.000000
 40
2.500000
  0
CIRCLE
  8
0
  6
CONTINUOUS
 62
7
 10
31.216700
 20
-31.000000
 40
2.100000
  0
CIRCLE
  8
0
  6
CONTINUOUS
 62
2
 10
27.066700
 20
-20.200001
 40
1.000000
  0
CIRCLE
  8
0
  6
CONTINUOUS
 62
7
 10
17.066700
 20
-20.200001
 40
0.750000
  0
CIRCLE
  8
0
  6
CONTINUOUS
 62
7
 10
30.416700
 20
-20.500000
 40
1.250000
  0
CIRCLE
  8
0
  6
CONTINUOUS
 62
2
 10
-17.783300
 20
-32.500000
 40
1.500000
  0
CIRCLE
  8
0
  6
CONTINUOUS
 62
2
 10
17.216700
 20
-32.500000
 40
1.500000
  0
CIRCLE
  8
0
  6
CONTINUOUS
 62
2
 10
30.416700
 20
-20.500000
 40
1.500000
  0
CIRCLE
  8
0
  6
CONTINUOUS
 62
7
 10
17.216700
 20
-32.500000
 40
1.250000
  0
CIRCLE
  8
0
  6
CONTINUOUS
 62
7
 10
27.066700
 20
-20.200001
 40
0.750000
  0
CIRCLE
  8
0
  6
CONTINUOUS
 62
2
 10
17.066700
 20
-20.200001
 40
1.000000
  0
CIRCLE
  8
0
  6
CONTINUOUS
 62
2
 10
23.916700
 20
-20.500000
 40
1.500000
  0
CIRCLE
  8
0
  6
CONTINUOUS
 62
7
 10
23.916700
 20
-20.500000
 40
1.250000
  0
CIRCLE
  8
0
  6
CONTINUOUS
 62
7
 10
-17.783300
 20
-32.500000
 40
1.250000
  0
ARC
  8
0
  6
CONTINUOUS
 62
7
 10
31.216700
 20
-31.200001
 40
4.800000
 50
118.955002
 51
180.000000
  0
ARC
  8
0
  6
CONTINUOUS
 62
7
 10
17.216700
 20
-32.700001
 40
3.000000
 50
30.000000
 51
132.834000
  0
ARC
  8
0
  6
CONTINUOUS
 62
7
 10
-17.783300
 20
-32.700001
 40
3.000000
 50
47.166500
 51
150.000000
  0
ARC
  8
0
  6
CONTINUOUS
 62
7
 10
-31.783300
 20
-31.200001
 40
4.800000
 50
0.000000
 51
61.044701
  0
ARC
  8
0
  6
CONTINUOUS
 62
7
 10
166.283005
 20
80.000000
 40
3.000000
 50
90.000000
 51
180.000000
  0
ARC
  8
0
  6
CONTINUOUS
 62
7
 10
116.782997
 20
46.000000
 40
3.700000
 50
108.925003
 51
131.074997
  0
ARC
  8
0
  6
CONTINUOUS
 62
7
 10
116.782997
 20
46.000000
 40
3.700000
 50
48.924599
 51
71.075401
  0
ARC
  8
0
  6
CONTINUOUS
 62
7
 10
116.782997
 20
46.000000
 40
3.700000
 50
348.924988
 51
11.075400
  0
ARC
  8
0
  6
CONTINUOUS
 62
7
 10
116.782997
 20
46.000000
 40
3.700000
 50
288.924988
 51
311.075012
  0
ARC
  8
0
  6
CONTINUOUS
 62
7
 10
116.782997
 20
46.000000
 40
3.700000
 50
168.925003
 51
191.074997
  0
ARC
  8
0
  6
CONTINUOUS
 62
7
 10
116.782997
 20
46.000000
 40
3.700000
 50
228.925003
 51
251.074997
  0
CIRCLE
  8
0
  6
CONTINUOUS
 62
7
 10
116.782997
 20
46.000000
 40
2.500000
  0
CIRCLE
  8
0
  6
CONTINUOUS
 62
2
 10
-193.000000
 20
-68.000000
 40
2.000000
  0
CIRCLE
  8
0
  6
CONTINUOUS
 62
7
 10
-193.000000
 20
-68.000000
 40
2.500000
  0
CIRCLE
  8
0
  6
CONTINUOUS
 62
2
 10
-176.000000
 20
38.000000
 40
1.500000
  0
CIRCLE
  8
0
  6
CONTINUOUS
 62
7
 10
-194.000000
 20
38.000000
 40
1.250000
  0
CIRCLE
  8
0
  6
CONTINUOUS
 62
2
 10
-194.000000
 20
38.000000
 40
1.500000
  0
CIRCLE
  8
0
  6
CONTINUOUS
 62
7
 10
-190.000000
 20
38.500000
 40
1.600000
  0
CIRCLE
  8
0
  6
CONTINUOUS
 62
7
 10
-212.000000
 20
38.000000
 40
1.250000
  0
CIRCLE
  8
0
  6
CONTINUOUS
 62
2
 10
-212.000000
 20
38.000000
 40
1.500000
  0
CIRCLE
  8
0
  6
CONTINUOUS
 62
7
 10
-212.000000
 20
18.000000
 40
1.250000
  0
CIRCLE
  8
0
  6
CONTINUOUS
 62
2
 10
-212.000000
 20
18.000000
 40
1.500000
  0
CIRCLE
  8
0
  6
CONTINUOUS
 62
7
 10
-176.000000
 20
18.000000
 40
1.250000
  0
CIRCLE
  8
0
  6
CONTINUOUS
 62
2
 10
-176.000000
 20
18.000000
 40
1.500000
  0
CIRCLE
  8
0
  6
CONTINUOUS
 62
7
 10
-194.000000
 20
18.000000
 40
1.250000
  0
CIRCLE
  8
0
  6
CONTINUOUS
 62
2
 10
-194.000000
 20
18.000000
 40
1.500000
  0
CIRCLE
  8
0
  6
CONTINUOUS
 62
7
 10
-176.000000
 20
38.000000
 40
1.250000
  0
ARC
  8
0
  6
DASHED
 62
2
 10
-205.000000
 20
17.500000
 40
3.000000
 50
303.367004
 51
236.632996
  0
ARC
  8
0
  6
DASHED
 62
2
 10
-205.000000
 20
17.500000
 40
1.649990
 50
0.000000
 51
180.000000
  0
ARC
  8
0
  6
DASHED
 62
2
 10
-205.000000
 20
38.500000
 40
1.649990
 50
180.000000
 51
0.000000
  0
ARC
  8
0
  6
DASHED
 62
2
 10
-205.000000
 20
38.500000
 40
3.000000
 50
123.366997
 51
416.632996
  0
CIRCLE
  8
0
  6
DASHED
 62
2
 10
-173.000000
 20
38.500000
 40
3.000000
  0
CIRCLE
  8
0
  6
DASHED
 62
2
 10
-173.000000
 20
38.500000
 40
2.000000
  0
CIRCLE
  8
0
  6
DASHED
 62
2
 10
-173.000000
 20
38.500000
 40
1.650000
  0
CIRCLE
  8
0
  6
DASHED
 62
2
 10
-173.000000
 20
17.500000
 40
3.000000
  0
CIRCLE
  8
0
  6
DASHED
 62
2
 10
-173.000000
 20
17.500000
 40
2.000000
  0
CIRCLE
  8
0
  6
DASHED
 62
2
 10
-173.000000
 20
17.500000
 40
1.650000
  0
CIRCLE
  8
0
  6
CONTINUOUS
 62
2
 10
-67.783302
 20
28.000000
 40
2.000000
  0
CIRCLE
  8
0
  6
CONTINUOUS
 62
7
 10
-67.783302
 20
38.000000
 40
3.000000
  0
CIRCLE
  8
0
  6
CONTINUOUS
 62
7
 10
-67.783302
 20
28.000000
 40
1.650000
  0
CIRCLE
  8
0
  6
CONTINUOUS
 62
7
 10
-76.783302
 20
28.000000
 40
5.000000
  0
CIRCLE
  8
0
  6
CONTINUOUS
 62
7
 10
-67.783302
 20
18.000000
 40
3.000000
  0
CIRCLE
  8
0
  6
CONTINUOUS
 62
2
 10
-76.783302
 20
18.000000
 40
2.000000
  0
CIRCLE
  8
0
  6
CONTINUOUS
 62
7
 10
-76.783302
 20
18.000000
 40
1.650000
  0
CIRCLE
  8
0
  6
CONTINUOUS
 62
2
 10
-76.783302
 20
38.000000
 40
2.000000
  0
CIRCLE
  8
0
  6
CONTINUOUS
 62
7
 10
-76.783302
 20
38.000000
 40
1.650000
  0
ARC
  8
0
  6
CONTINUOUS
 62
7
 10
-213.000000
 20
87.000000
 40
4.800000
 50
303.557007
 51
0.000000
  0
CIRCLE
  8
0
  6
CONTINUOUS
 62
2
 10
17.066700
 20
76.199997
 40
1.000000
  0
CIRCLE
  8
0
  6
CONTINUOUS
 62
7
 10
17.066700
 20
76.199997
 40
0.800000
  0
ARC
  8
0
  6
CONTINUOUS
 62
7
 10
-205.000000
 20
-68.000000
 40
1.649990
 50
180.000000
 51
0.000000
  0
ARC
  8
0
  6
CONTINUOUS
 62
7
 10
-205.000000
 20
-89.000000
 40
1.649990
 50
0.000000
 51
180.000000
  0
CIRCLE
  8
0
  6
CONTINUOUS
 62
7
 10
-193.000000
 20
-89.000000
 40
2.500000
  0
CIRCLE
  8
0
  6
CONTINUOUS
 62
7
 10
-173.000000
 20
-89.000000
 40
1.650000
  0
CIRCLE
  8
0
  6
CONTINUOUS
 62
2
 10
-173.000000
 20
-89.000000
 40
2.000000
  0
CIRCLE
  8
0
  6
CONTINUOUS
 62
7
 10
-193.000000
 20
-89.000000
 40
1.650000
  0
CIRCLE
  8
0
  6
CONTINUOUS
 62
2
 10
-193.000000
 20
-89.000000
 40
2.000000
  0
CIRCLE
  8
0
  6
CONTINUOUS
 62
7
 10
-173.000000
 20
-68.000000
 40
1.650000
  0
CIRCLE
  8
0
  6
CONTINUOUS
 62
2
 10
-173.000000
 20
-68.000000
 40
2.000000
  0
CIRCLE
  8
0
  6
CONTINUOUS
 62
7
 10
-193.000000
 20
-68.000000
 40
1.650000
  0
CIRCLE
  8
0
  6
CONTINUOUS
 62
2
 10
-213.000000
 20
-31.000000
 40
2.500000
  0
CIRCLE
  8
0
  6
CONTINUOUS
 62
7
 10
-213.000000
 20
-31.000000
 40
2.100000
  0
CIRCLE
  8
0
  6
CONTINUOUS
 62
2
 10
-165.000000
 20
-31.000000
 40
2.500000
  0
CIRCLE
  8
0
  6
CONTINUOUS
 62
7
 10
-165.000000
 20
-31.000000
 40
2.100000
  0
ARC
  8
0
  6
CONTINUOUS
 62
7
 10
-213.000000
 20
-31.000000
 40
4.800000
 50
0.000000
 51
56.442600
  0
ARC
  8
0
  6
CONTINUOUS
 62
7
 10
-199.000000
 20
-32.500000
 40
3.000000
 50
0.000000
 51
150.000000
  0
CIRCLE
  8
0
  6
CONTINUOUS
 62
2
 10
-169.149994
 20
-20.200001
 40
1.000000
  0
CIRCLE
  8
0
  6
CONTINUOUS
 62
7
 10
-179.149994
 20
-20.200001
 40
0.750000
  0
CIRCLE
  8
0
  6
CONTINUOUS
 62
7
 10
-165.800003
 20
-20.500000
 40
1.250000
  0
CIRCLE
  8
0
  6
CONTINUOUS
 62
2
 10
-199.000000
 20
-32.500000
 40
1.500000
  0
CIRCLE
  8
0
  6
CONTINUOUS
 62
2
 10
-179.000000
 20
-32.500000
 40
1.500000
  0
CIRCLE
  8
0
  6
CONTINUOUS
 62
2
 10
-165.800003
 20
-20.500000
 40
1.500000
  0
ARC
  8
0
  6
CONTINUOUS
 62
7
 10
-165.000000
 20
-31.000000
 40
4.800000
 50
123.556999
 51
180.000000
  0
ARC
  8
0
  6
CONTINUOUS
 62
7
 10
-179.000000
 20
-32.500000
 40
3.000010
 50
29.999901
 51
180.000000
  0
CIRCLE
  8
0
  6
CONTINUOUS
 62
7
 10
-179.000000
 20
-32.500000
 40
1.250000
  0
CIRCLE
  8
0
  6
CONTINUOUS
 62
7
 10
-169.149994
 20
-20.200001
 40
0.750000
  0
CIRCLE
  8
0
  6
CONTINUOUS
 62
2
 10
-179.149994
 20
-20.200001
 40
1.000000
  0
CIRCLE
  8
0
  6
CONTINUOUS
 62
2
 10
-172.300003
 20
-20.500000
 40
1.500000
  0
CIRCLE
  8
0
  6
CONTINUOUS
 62
7
 10
-172.300003
 20
-20.500000
 40
1.250000
  0
CIRCLE
  8
0
  6
CONTINUOUS
 62
7
 10
-199.000000
 20
-32.500000
 40
1.250000
  0
ARC
  8
0
  6
CONTINUOUS
 62
7
 10
-191.500000
 20
80.000000
 40
3.000000
 50
90.000000
 51
180.000000
  0
ARC
  8
0
  6
CONTINUOUS
 62
7
 10
-69.783302
 20
46.000000
 40
3.700000
 50
108.925003
 51
131.074997
  0
ARC
  8
0
  6
CONTINUOUS
 62
7
 10
-69.783302
 20
46.000000
 40
3.700000
 50
48.924599
 51
71.075401
  0
ARC
  8
0
  6
CONTINUOUS
 62
7
 10
-69.783302
 20
46.000000
 40
3.700000
 50
348.924988
 51
11.075400
  0
ARC
  8
0
  6
CONTINUOUS
 62
7
 10
-69.783302
 20
46.000000
 40
3.700000
 50
288.924988
 51
311.075012
  0
ARC
  8
0
  6
CONTINUOUS
 62
7
 10
-69.783302
 20
46.000000
 40
3.700000
 50
168.925003
 51
191.074997
  0
ARC
  8
0
  6
CONTINUOUS
 62
7
 10
-69.783302
 20
46.000000
 40
3.700000
 50
228.925003
 51
251.074997
  0
CIRCLE
  8
0
  6
CONTINUOUS
 62
7
 10
-69.783302
 20
46.000000
 40
2.500000
  0
CIRCLE
  8
0
  6
CONTINUOUS
 62
7
 10
163.783005
 20
18.000000
 40
1.250000
  0
CIRCLE
  8
0
  6
CONTINUOUS
 62
2
 10
163.783005
 20
18.000000
 40
1.500000
  0
CIRCLE
  8
0
  6
CONTINUOUS
 62
7
 10
163.783005
 20
38.000000
 40
1.250000
  0
CIRCLE
  8
0
  6
CONTINUOUS
 62
2
 10
163.783005
 20
38.000000
 40
1.500000
  0
CIRCLE
  8
0
  6
CONTINUOUS
 62
2
 10
-249.000000
 20
28.000000
 40
2.000000
  0
CIRCLE
  8
0
  6
CONTINUOUS
 62
7
 10
-249.000000
 20
38.000000
 40
3.000000
  0
CIRCLE
  8
0
  6
CONTINUOUS
 62
7
 10
-249.000000
 20
28.000000
 40
1.650000
  0
CIRCLE
  8
0
  6
CONTINUOUS
 62
7
 10
-258.000000
 20
28.000000
 40
5.000000
  0
CIRCLE
  8
0
  6
CONTINUOUS
 62
7
 10
-249.000000
 20
18.000000
 40
3.000000
  0
CIRCLE
  8
0
  6
CONTINUOUS
 62
2
 10
-258.000000
 20
18.000000
 40
2.000000
  0
CIRCLE
  8
0
  6
CONTINUOUS
 62
7
 10
-258.000000
 20
18.000000
 40
1.650000
  0
CIRCLE
  8
0
  6
CONTINUOUS
 62
2
 10
-258.000000
 20
38.000000
 40
2.000000
  0
CIRCLE
  8
0
  6
CONTINUOUS
 62
7
 10
-258.000000
 20
38.000000
 40
1.650000
  0
ARC
  8
0
  6
CONTINUOUS
 62
7
 10
-251.000000
 20
46.000000
 40
3.700000
 50
108.925003
 51
131.074997
  0
ARC
  8
0
  6
CONTINUOUS
 62
7
 10
-251.000000
 20
46.000000
 40
3.700000
 50
48.924599
 51
71.075401
  0
ARC
  8
0
  6
CONTINUOUS
 62
7
 10
-251.000000
 20
46.000000
 40
3.700000
 50
348.924988
 51
11.075400
  0
ARC
  8
0
  6
CONTINUOUS
 62
7
 10
-251.000000
 20
46.000000
 40
3.700000
 50
288.924988
 51
311.075012
  0
ARC
  8
0
  6
CONTINUOUS
 62
7
 10
-251.000000
 20
46.000000
 40
3.700000
 50
168.925003
 51
191.074997
  0
ARC
  8
0
  6
CONTINUOUS
 62
7
 10
-251.000000
 20
46.000000
 40
3.700000
 50
228.925003
 51
251.074997
  0
CIRCLE
  8
0
  6
CONTINUOUS
 62
7
 10
-251.000000
 20
46.000000
 40
2.500000
  0
CIRCLE
  8
0
  6
CONTINUOUS
 62
7
 10
267.782990
 20
28.000000
 40
5.400000
  0
ARC
  8
0
  6
CONTINUOUS
 62
7
 10
261.282990
 20
34.599998
 40
1.350000
 50
206.389999
 51
333.614014
  0
ARC
  8
0
  6
CONTINUOUS
 62
7
 10
261.282990
 20
21.400000
 40
1.350000
 50
26.389299
 51
153.613007
  0
ARC
  8
0
  6
CONTINUOUS
 62
7
 10
-10.283300
 20
80.000000
 40
3.000000
 50
90.000000
 51
180.000000
  0
CIRCLE
  8
0
  6
CONTINUOUS
 62
2
 10
-179.149994
 20
76.199997
 40
1.000000
  0
CIRCLE
  8
0
  6
CONTINUOUS
 62
7
 10
-179.149994
 20
76.199997
 40
0.800000
  0
ARC
  8
0
  6
CONTINUOUS
 62
7
 10
260.782990
 20
46.000000
 40
3.700000
 50
48.924599
 51
71.075203
  0
ARC
  8
0
  6
CONTINUOUS
 62
7
 10
260.782990
 20
46.000000
 40
3.700000
 50
108.925003
 51
131.074997
  0
ARC
  8
0
  6
CONTINUOUS
 62
7
 10
260.782990
 20
46.000000
 40
3.700010
 50
168.925003
 51
191.074997
  0
ARC
  8
0
  6
CONTINUOUS
 62
7
 10
260.782990
 20
46.000000
 40
3.700000
 50
228.925003
 51
251.074997
  0
ARC
  8
0
  6
CONTINUOUS
 62
7
 10
260.782990
 20
46.000000
 40
3.700010
 50
348.924988
 51
11.075300
  0
ARC
  8
0
  6
CONTINUOUS
 62
7
 10
260.782990
 20
46.000000
 40
3.700000
 50
288.924988
 51
311.075012
  0
CIRCLE
  8
0
  6
CONTINUOUS
 62
7
 10
260.782990
 20
46.000000
 40
2.500000
  0
ARC
  8
0
  6
CONTINUOUS
 62
7
 10
228.283005
 20
80.000000
 40
3.000000
 50
0.000000
 51
90.000000
  0
ARC
  8
0
  6
CONTINUOUS
 62
7
 10
228.283005
 20
-24.000000
 40
3.000000
 50
279.593994
 51
0.000000
  0
ARC
  8
0
  6
CONTINUOUS
 62
7
 10
36.716702
 20
80.000000
 40
3.000000
 50
0.000000
 51
90.000000
  0
ARC
  8
0
  6
CONTINUOUS
 62
7
 10
36.716702
 20
-24.000000
 40
3.000000
 50
279.593994
 51
0.000000
  0
CIRCLE
  8
0
  6
CONTINUOUS
 62
7
 10
77.216698
 20
28.000000
 40
5.400000
  0
ARC
  8
0
  6
CONTINUOUS
 62
7
 10
70.716698
 20
34.599998
 40
1.350000
 50
206.389999
 51
333.614014
  0
ARC
  8
0
  6
CONTINUOUS
 62
7
 10
70.716698
 20
21.400000
 40
1.350000
 50
26.389099
 51
153.613007
  0
ARC
  8
0
  6
CONTINUOUS
 62
7
 10
70.216698
 20
46.000000
 40
3.700000
 50
48.924599
 51
71.075401
  0
ARC
  8
0
  6
CONTINUOUS
 62
7
 10
70.216698
 20
46.000000
 40
3.700000
 50
108.925003
 51
131.074997
  0
ARC
  8
0
  6
CONTINUOUS
 62
7
 10
70.216698
 20
46.000000
 40
3.700000
 50
168.925003
 51
191.074997
  0
ARC
  8
0
  6
CONTINUOUS
 62
7
 10
70.216698
 20
46.000000
 40
3.700000
 50
228.925003
 51
251.074997
  0
ARC
  8
0
  6
CONTINUOUS
 62
7
 10
70.216698
 20
46.000000
 40
3.700000
 50
348.924988
 51
11.075400
  0
ARC
  8
0
  6
CONTINUOUS
 62
7
 10
70.216698
 20
46.000000
 40
3.700000
 50
288.924988
 51
311.075012
  0
CIRCLE
  8
0
  6
CONTINUOUS
 62
7
 10
70.216698
 20
46.000000
 40
2.500000
  0
CIRCLE
  8
0
  6
CONTINUOUS
 62
7
 10
-114.000000
 20
28.000000
 40
5.400000
  0
ARC
  8
0
  6
CONTINUOUS
 62
7
 10
-120.500000
 20
34.599998
 40
1.350000
 50
206.389999
 51
333.614014
  0
ARC
  8
0
  6
CONTINUOUS
 62
7
 10
-120.500000
 20
21.400000
 40
1.350000
 50
26.389099
 51
153.613007
  0
ARC
  8
0
  6
CONTINUOUS
 62
7
 10
-121.000000
 20
46.000000
 40
3.700000
 50
48.924599
 51
71.075401
  0
ARC
  8
0
  6
CONTINUOUS
 62
7
 10
-121.000000
 20
46.000000
 40
3.700000
 50
108.925003
 51
131.074997
  0
ARC
  8
0
  6
CONTINUOUS
 62
7
 10
-121.000000
 20
46.000000
 40
3.700000
 50
168.925003
 51
191.074997
  0
ARC
  8
0
  6
CONTINUOUS
 62
7
 10
-121.000000
 20
46.000000
 40
3.700000
 50
228.925003
 51
251.074997
  0
ARC
  8
0
  6
CONTINUOUS
 62
7
 10
-121.000000
 20
46.000000
 40
3.700000
 50
348.924988
 51
11.075400
  0
ARC
  8
0
  6
CONTINUOUS
 62
7
 10
-121.000000
 20
46.000000
 40
3.700000
 50
288.924988
 51
311.075012
  0
CIRCLE
  8
0
  6
CONTINUOUS
 62
7
 10
-121.000000
 20
46.000000
 40
2.500000
  0
ARC
  8
0
  6
CONTINUOUS
 62
7
 10
-159.500000
 20
80.000000
 40
3.000000
 50
0.000000
 51
90.000000
  0
ARC
  8
0
  6
CONTINUOUS
 62
7
 10
-159.500000
 20
-24.000000
 40
3.000000
 50
279.593994
 51
0.000000
  0
CIRCLE
  8
0
  6
CONTINUOUS
 62
7
 10
-190.000000
 20
17.500000
 40
1.600000
  0
CIRCLE
  8
0
  6
CONTINUOUS
 62
7
 10
177.783005
 20
17.500000
 40
1.600000
  0
CIRCLE
  8
0
  6
CONTINUOUS
 62
7
 10
-8.783330
 20
17.500000
 40
1.600000
  0
TEXT
  8
0
 62
7
 10
202.930283
 20
183.925003
 40
6.300000
  1
Ver.1.0
 50
0.000000
 41
1.010330
 51
0.000000
  7
STANDARD
  0
TEXT
  8
0
 62
7
 10
172.714691
 20
-187.250000
 40
9.000000
  1
KOGANEI CORP.
 50
0.000000
 41
0.771524
 51
0.000000
  7
STANDARD
  0
TEXT
  8
0
 62
7
 10
-240.419724
 20
183.925003
 40
6.300000
  1
AP UNIT
 50
0.000000
 41
0.832036
 51
0.000000
  7
STANDARD
  0
TEXT
  8
0
 62
7
 10
106.166611
 20
158.925003
 40
6.300000
  1
MODEL:APU-SD10-45-TP-QT
 50
0.000000
 41
0.774953
 51
0.000000
  7
STANDARD
  0
TEXT
  8
0
 62
7
 10
-269.400391
 20
158.925003
 40
6.300000
  1
MODEL:APU-SD10-15-TP-QT
 50
0.000000
 41
0.787554
 51
0.000000
  7
STANDARD
  0
TEXT
  8
0
 62
7
 10
-81.617088
 20
158.925003
 40
6.300000
  1
MODEL:APU-SD10-30-TP-QT
 50
0.000000
 41
0.781203
 51
0.000000
  7
STANDARD
  0
ENDSEC
  0
EOF
