  0
SECTION
  2
HEADER
  0
ENDSEC
  0
SECTION
  2
TABLES
  0
TABLE
  2
LTYPE
 70
     4
  0
LTYPE
  2
CONTINUOUS
 70
    64
  3
Solid line
 72
    65
 73
     0
 40
0.000000
  0
LTYPE
  2
DASHED
 70
    64
  3
__ __ __ __ __ __ __ __ __ __ __ __ __ __ __
 72
    65
 73
     2
 40
3.500000
 49
2.000000
 49
-1.500000
  0
LTYPE
  2
CENTER
 70
    64
  3
____ _ ____ _ ____ _ ____ _ ____ _ ____ _ ____
 72
    65
 73
     4
 40
17.500000
 49
13.000000
 49
-1.500000
 49
1.500000
 49
-1.500000
  0
LTYPE
  2
PHANTOM
 70
    64
  3
_____ _ _ _____ _ _ _____ _ _ _____ _ _ ____  
 72
    65
 73
     6
 40
15.500000
 49
8.000000
 49
-1.500000
 49
1.500000
 49
-1.500000
 49
1.500000
 49
-1.500000
  0
ENDTAB
  0
TABLE
  2
LAYER
 70
     1
  0
LAYER
  2
0
 70
     0
 62
     7
  6
CONTINUOUS
  0
ENDTAB
  0
TABLE
  2
STYLE
 70
     1
  0
STYLE
  2
STANDARD
 70
     0
 40
0.000000
 41
1.000000
 50
0.000000
 71
     0
 42
0.200000
  3
txt
  4
BIGFONT
  0
ENDTAB
  0
TABLE
  2
VIEW
 70
     0
  0
ENDTAB
  0
ENDSEC
  0
SECTION
  2
BLOCKS
  0
ENDSEC
  0
SECTION
  2
ENTITIES
  0
LINE
  8
0
  6
CONTINUOUS
 62
7
 10
-281.250000
 20
195.500000
 11
282.100006
 21
195.500000
  0
LINE
  8
0
  6
CONTINUOUS
 62
7
 10
-281.250000
 20
195.500000
 11
-281.250000
 21
-195.000000
  0
LINE
  8
0
  6
CONTINUOUS
 62
7
 10
282.100006
 20
195.500000
 11
282.100006
 21
-195.000000
  0
LINE
  8
0
  6
CONTINUOUS
 62
7
 10
-281.250000
 20
-195.000000
 11
282.100006
 21
-195.000000
  0
LINE
  8
0
  6
CONTINUOUS
 62
7
 10
162.100006
 20
-175.000000
 11
162.100006
 21
-195.000000
  0
LINE
  8
0
  6
CONTINUOUS
 62
7
 10
162.100006
 20
-175.000000
 11
282.100006
 21
-175.000000
  0
LINE
  8
0
  6
CONTINUOUS
 62
7
 10
162.100006
 20
175.500000
 11
282.100006
 21
175.500000
  0
LINE
  8
0
  6
CONTINUOUS
 62
7
 10
-281.250000
 20
175.500000
 11
-161.250000
 21
175.500000
  0
LINE
  8
0
  6
CONTINUOUS
 62
7
 10
162.100006
 20
195.500000
 11
162.100006
 21
175.500000
  0
LINE
  8
0
  6
CONTINUOUS
 62
7
 10
-161.250000
 20
195.500000
 11
-161.250000
 21
175.500000
  0
LINE
  8
0
  6
CENTER
 62
2
 10
238.783005
 20
28.000000
 11
136.783005
 21
28.000000
  0
LINE
  8
0
  6
CONTINUOUS
 62
7
 10
235.483002
 20
41.500000
 11
137.783005
 21
41.500000
  0
LINE
  8
0
  6
CONTINUOUS
 62
7
 10
234.783005
 20
14.500000
 11
137.783005
 21
14.500000
  0
LINE
  8
0
  6
CONTINUOUS
 62
7
 10
234.783005
 20
21.000000
 11
145.783005
 21
21.000000
  0
LINE
  8
0
  6
CONTINUOUS
 62
7
 10
234.783005
 20
35.000000
 11
145.783005
 21
35.000000
  0
LINE
  8
0
  6
CONTINUOUS
 62
7
 10
237.783005
 20
14.000000
 11
163.432999
 21
14.000000
  0
LINE
  8
0
  6
CONTINUOUS
 62
7
 10
237.783005
 20
42.000000
 11
237.783005
 21
14.000000
  0
LINE
  8
0
  6
CONTINUOUS
 62
7
 10
145.783005
 20
41.500000
 11
145.783005
 21
14.500000
  0
LINE
  8
0
  6
CONTINUOUS
 62
7
 10
234.783005
 20
41.500000
 11
234.783005
 21
14.500000
  0
LINE
  8
0
  6
CONTINUOUS
 62
7
 10
147.783005
 20
14.500000
 11
147.783005
 21
14.000000
  0
LINE
  8
0
  6
CONTINUOUS
 62
7
 10
147.783005
 20
42.000000
 11
147.783005
 21
41.500000
  0
LINE
  8
0
  6
CONTINUOUS
 62
7
 10
237.783005
 20
42.000000
 11
235.483002
 21
42.000000
  0
LINE
  8
0
  6
CONTINUOUS
 62
7
 10
160.132996
 20
14.000000
 11
160.132996
 21
14.500000
  0
LINE
  8
0
  6
CONTINUOUS
 62
7
 10
163.432999
 20
14.000000
 11
163.432999
 21
14.500000
  0
LINE
  8
0
  6
CONTINUOUS
 62
7
 10
163.432999
 20
41.500000
 11
163.432999
 21
42.000000
  0
LINE
  8
0
  6
CONTINUOUS
 62
7
 10
160.132996
 20
41.500000
 11
160.132996
 21
42.000000
  0
LINE
  8
0
  6
CONTINUOUS
 62
7
 10
160.132996
 20
14.000000
 11
147.783005
 21
14.000000
  0
LINE
  8
0
  6
CONTINUOUS
 62
7
 10
160.132996
 20
42.000000
 11
147.783005
 21
42.000000
  0
LINE
  8
0
  6
CONTINUOUS
 62
7
 10
137.783005
 20
41.500000
 11
137.783005
 21
14.500000
  0
LINE
  8
0
  6
CENTER
 62
2
 10
154.783005
 20
40.500000
 11
154.783005
 21
35.500000
  0
LINE
  8
0
  6
CENTER
 62
2
 10
152.283005
 20
38.000000
 11
157.283005
 21
38.000000
  0
LINE
  8
0
  6
CENTER
 62
2
 10
154.783005
 20
20.500000
 11
154.783005
 21
15.500000
  0
LINE
  8
0
  6
CENTER
 62
2
 10
152.283005
 20
18.000000
 11
157.283005
 21
18.000000
  0
LINE
  8
0
  6
CENTER
 62
2
 10
220.783005
 20
40.500000
 11
220.783005
 21
35.500000
  0
LINE
  8
0
  6
CENTER
 62
2
 10
218.283005
 20
38.000000
 11
223.283005
 21
38.000000
  0
LINE
  8
0
  6
CENTER
 62
2
 10
186.783005
 20
41.099998
 11
186.783005
 21
35.900002
  0
LINE
  8
0
  6
CENTER
 62
2
 10
184.182999
 20
38.500000
 11
189.382996
 21
38.500000
  0
LINE
  8
0
  6
CENTER
 62
2
 10
220.783005
 20
20.500000
 11
220.783005
 21
15.500000
  0
LINE
  8
0
  6
CENTER
 62
2
 10
218.283005
 20
18.000000
 11
223.283005
 21
18.000000
  0
LINE
  8
0
  6
CENTER
 62
2
 10
202.783005
 20
40.500000
 11
202.783005
 21
35.500000
  0
LINE
  8
0
  6
CENTER
 62
2
 10
200.283005
 20
38.000000
 11
205.283005
 21
38.000000
  0
LINE
  8
0
  6
CENTER
 62
2
 10
202.783005
 20
20.500000
 11
202.783005
 21
15.500000
  0
LINE
  8
0
  6
CENTER
 62
2
 10
200.283005
 20
18.000000
 11
205.283005
 21
18.000000
  0
LINE
  8
0
  6
CONTINUOUS
 62
7
 10
235.983002
 20
14.700000
 11
234.783005
 21
14.700000
  0
LINE
  8
0
  6
CONTINUOUS
 62
7
 10
235.983002
 20
19.250000
 11
235.983002
 21
14.700000
  0
LINE
  8
0
  6
CONTINUOUS
 62
7
 10
235.983002
 20
33.250000
 11
235.983002
 21
22.750000
  0
LINE
  8
0
  6
CONTINUOUS
 62
7
 10
235.382996
 20
33.250000
 11
235.382996
 21
36.750000
  0
LINE
  8
0
  6
CONTINUOUS
 62
7
 10
235.382996
 20
33.250000
 11
236.382996
 21
33.250000
  0
LINE
  8
0
  6
CONTINUOUS
 62
7
 10
236.382996
 20
33.250000
 11
236.382996
 21
36.750000
  0
LINE
  8
0
  6
CONTINUOUS
 62
7
 10
235.382996
 20
36.750000
 11
236.382996
 21
36.750000
  0
LINE
  8
0
  6
CONTINUOUS
 62
7
 10
235.983002
 20
36.750000
 11
235.983002
 21
41.299999
  0
LINE
  8
0
  6
CONTINUOUS
 62
7
 10
235.983002
 20
41.299999
 11
234.783005
 21
41.299999
  0
LINE
  8
0
  6
CONTINUOUS
 62
7
 10
149.882996
 20
42.599998
 11
149.882996
 21
42.000000
  0
LINE
  8
0
  6
CONTINUOUS
 62
7
 10
235.382996
 20
22.750000
 11
235.382996
 21
19.250000
  0
LINE
  8
0
  6
CONTINUOUS
 62
7
 10
235.382996
 20
22.750000
 11
236.382996
 21
22.750000
  0
LINE
  8
0
  6
CONTINUOUS
 62
7
 10
236.382996
 20
19.250000
 11
236.382996
 21
22.750000
  0
LINE
  8
0
  6
CONTINUOUS
 62
7
 10
235.382996
 20
19.250000
 11
236.382996
 21
19.250000
  0
LINE
  8
0
  6
DASHED
 62
2
 10
163.432999
 20
17.500000
 11
163.432999
 21
14.500000
  0
LINE
  8
0
  6
DASHED
 62
2
 10
160.132996
 20
17.500000
 11
160.132996
 21
14.500000
  0
LINE
  8
0
  6
DASHED
 62
2
 10
163.432999
 20
38.500000
 11
163.432999
 21
41.500000
  0
LINE
  8
0
  6
DASHED
 62
2
 10
160.132996
 20
38.500000
 11
160.132996
 21
41.500000
  0
LINE
  8
0
  6
CENTER
 62
2
 10
223.783005
 20
42.500000
 11
223.783005
 21
34.500000
  0
LINE
  8
0
  6
CENTER
 62
2
 10
219.783005
 20
38.500000
 11
227.783005
 21
38.500000
  0
LINE
  8
0
  6
CENTER
 62
2
 10
223.783005
 20
21.500000
 11
223.783005
 21
13.500000
  0
LINE
  8
0
  6
CENTER
 62
2
 10
219.783005
 20
17.500000
 11
227.783005
 21
17.500000
  0
LINE
  8
0
  6
CENTER
 62
2
 10
161.783005
 20
21.500000
 11
161.783005
 21
13.500000
  0
LINE
  8
0
  6
CENTER
 62
2
 10
157.783005
 20
17.500000
 11
165.783005
 21
17.500000
  0
LINE
  8
0
  6
CENTER
 62
2
 10
161.783005
 20
42.500000
 11
161.783005
 21
34.500000
  0
LINE
  8
0
  6
CENTER
 62
2
 10
157.783005
 20
38.500000
 11
165.783005
 21
38.500000
  0
LINE
  8
0
  6
CENTER
 62
2
 10
153.783005
 20
44.500000
 11
153.783005
 21
41.000000
  0
LINE
  8
0
  6
CONTINUOUS
 62
7
 10
157.783005
 20
42.599998
 11
157.783005
 21
42.000000
  0
LINE
  8
0
  6
CONTINUOUS
 62
7
 10
150.283005
 20
43.500000
 11
150.283005
 21
42.599998
  0
LINE
  8
0
  6
CONTINUOUS
 62
7
 10
157.283005
 20
43.500000
 11
157.283005
 21
42.599998
  0
LINE
  8
0
  6
CONTINUOUS
 62
7
 10
157.783005
 20
42.599998
 11
149.882996
 21
42.599998
  0
LINE
  8
0
  6
CENTER
 62
2
 10
135.783005
 20
38.000000
 11
139.783005
 21
38.000000
  0
LINE
  8
0
  6
CENTER
 62
2
 10
135.783005
 20
18.000000
 11
139.783005
 21
18.000000
  0
LINE
  8
0
  6
CONTINUOUS
 62
7
 10
121.782997
 20
41.500000
 11
121.782997
 21
35.000000
  0
LINE
  8
0
  6
CONTINUOUS
 62
7
 10
121.483002
 20
34.700001
 11
121.483002
 21
21.299999
  0
LINE
  8
0
  6
CONTINUOUS
 62
7
 10
121.782997
 20
14.500000
 11
121.782997
 21
21.000000
  0
LINE
  8
0
  6
CONTINUOUS
 62
7
 10
121.782997
 20
14.500000
 11
102.782997
 21
14.500000
  0
LINE
  8
0
  6
CONTINUOUS
 62
7
 10
121.782997
 20
41.500000
 11
102.782997
 21
41.500000
  0
LINE
  8
0
  6
CONTINUOUS
 62
7
 10
121.782997
 20
35.000000
 11
121.483002
 21
34.700001
  0
LINE
  8
0
  6
CONTINUOUS
 62
7
 10
121.782997
 20
21.000000
 11
121.483002
 21
21.299999
  0
LINE
  8
0
  6
CONTINUOUS
 62
7
 10
111.282997
 20
14.000000
 11
111.282997
 21
14.500000
  0
LINE
  8
0
  6
CONTINUOUS
 62
7
 10
101.782997
 20
14.000000
 11
101.782997
 21
42.000000
  0
LINE
  8
0
  6
CONTINUOUS
 62
7
 10
111.282997
 20
14.000000
 11
101.782997
 21
14.000000
  0
LINE
  8
0
  6
CONTINUOUS
 62
7
 10
102.782997
 20
14.500000
 11
102.782997
 21
41.500000
  0
LINE
  8
0
  6
CONTINUOUS
 62
7
 10
121.282997
 20
41.500000
 11
121.282997
 21
14.500000
  0
LINE
  8
0
  6
CONTINUOUS
 62
7
 10
121.282997
 20
42.000000
 11
101.782997
 21
42.000000
  0
LINE
  8
0
  6
CONTINUOUS
 62
7
 10
111.282997
 20
42.000000
 11
111.282997
 21
41.500000
  0
LINE
  8
0
  6
CONTINUOUS
 62
7
 10
103.241997
 20
45.500000
 11
103.241997
 21
42.599998
  0
LINE
  8
0
  6
CONTINUOUS
 62
7
 10
105.263000
 20
45.500000
 11
105.263000
 21
42.599998
  0
LINE
  8
0
  6
CONTINUOUS
 62
7
 10
109.304001
 20
45.500000
 11
109.304001
 21
42.599998
  0
LINE
  8
0
  6
CONTINUOUS
 62
7
 10
111.324997
 20
45.500000
 11
103.241997
 21
45.500000
  0
LINE
  8
0
  6
CONTINUOUS
 62
7
 10
111.324997
 20
45.500000
 11
111.324997
 21
42.599998
  0
LINE
  8
0
  6
CONTINUOUS
 62
7
 10
111.324997
 20
42.599998
 11
103.241997
 21
42.599998
  0
LINE
  8
0
  6
CONTINUOUS
 62
7
 10
111.182999
 20
42.599998
 11
111.182999
 21
42.000000
  0
LINE
  8
0
  6
CONTINUOUS
 62
7
 10
103.383003
 20
42.599998
 11
103.383003
 21
42.000000
  0
LINE
  8
0
  6
CENTER
 62
2
 10
108.782997
 20
41.000000
 11
108.782997
 21
15.000000
  0
LINE
  8
0
  6
CENTER
 62
2
 10
100.782997
 20
28.000000
 11
122.782997
 21
28.000000
  0
LINE
  8
0
  6
CENTER
 62
2
 10
117.782997
 20
31.000000
 11
117.782997
 21
25.000000
  0
LINE
  8
0
  6
CENTER
 62
2
 10
105.782997
 20
38.000000
 11
121.782997
 21
38.000000
  0
LINE
  8
0
  6
CENTER
 62
2
 10
117.782997
 20
42.000000
 11
117.782997
 21
34.000000
  0
LINE
  8
0
  6
CENTER
 62
2
 10
105.782997
 20
18.000000
 11
121.782997
 21
18.000000
  0
LINE
  8
0
  6
CENTER
 62
2
 10
117.782997
 20
22.000000
 11
117.782997
 21
14.000000
  0
LINE
  8
0
  6
CENTER
 62
2
 10
107.282997
 20
46.500000
 11
107.282997
 21
41.000000
  0
LINE
  8
0
  6
CONTINUOUS
 62
7
 10
265.282990
 20
14.000000
 11
274.782990
 21
14.000000
  0
LINE
  8
0
  6
CENTER
 62
2
 10
267.782990
 20
34.400002
 11
267.782990
 21
21.600000
  0
LINE
  8
0
  6
CENTER
 62
2
 10
253.783005
 20
28.000000
 11
275.782990
 21
28.000000
  0
LINE
  8
0
  6
CONTINUOUS
 62
7
 10
259.282990
 20
34.000000
 11
259.282990
 21
22.000000
  0
LINE
  8
0
  6
CONTINUOUS
 62
7
 10
262.493011
 20
34.000000
 11
265.282990
 21
34.000000
  0
LINE
  8
0
  6
CONTINUOUS
 62
7
 10
259.282990
 20
34.000000
 11
260.074005
 21
34.000000
  0
LINE
  8
0
  6
CONTINUOUS
 62
7
 10
262.493011
 20
22.000000
 11
265.282990
 21
22.000000
  0
LINE
  8
0
  6
CONTINUOUS
 62
7
 10
259.282990
 20
22.000000
 11
260.074005
 21
22.000000
  0
LINE
  8
0
  6
CONTINUOUS
 62
7
 10
265.282990
 20
14.000000
 11
265.282990
 21
22.000000
  0
LINE
  8
0
  6
CONTINUOUS
 62
7
 10
274.782990
 20
14.000000
 11
274.782990
 21
42.000000
  0
LINE
  8
0
  6
CONTINUOUS
 62
7
 10
265.282990
 20
42.000000
 11
265.282990
 21
34.000000
  0
LINE
  8
0
  6
CONTINUOUS
 62
7
 10
264.282990
 20
42.000000
 11
274.782990
 21
42.000000
  0
LINE
  8
0
  6
CONTINUOUS
 62
7
 10
255.082993
 20
34.700001
 11
255.082993
 21
21.299999
  0
LINE
  8
0
  6
CONTINUOUS
 62
7
 10
254.783005
 20
14.500000
 11
254.783005
 21
21.000000
  0
LINE
  8
0
  6
CONTINUOUS
 62
7
 10
254.783005
 20
14.500000
 11
265.282990
 21
14.500000
  0
LINE
  8
0
  6
CONTINUOUS
 62
7
 10
264.782990
 20
14.500000
 11
264.782990
 21
22.000000
  0
LINE
  8
0
  6
CONTINUOUS
 62
7
 10
254.783005
 20
21.000099
 11
255.082993
 21
21.299999
  0
LINE
  8
0
  6
CONTINUOUS
 62
7
 10
254.783005
 20
41.500000
 11
254.783005
 21
35.000000
  0
LINE
  8
0
  6
CONTINUOUS
 62
7
 10
254.783005
 20
35.000000
 11
255.082993
 21
34.700001
  0
LINE
  8
0
  6
CONTINUOUS
 62
7
 10
264.782990
 20
41.500000
 11
264.782990
 21
34.000000
  0
LINE
  8
0
  6
CONTINUOUS
 62
7
 10
254.783005
 20
41.500000
 11
265.282990
 21
41.500000
  0
LINE
  8
0
  6
CONTINUOUS
 62
7
 10
273.325012
 20
45.500000
 11
265.242004
 21
45.500000
  0
LINE
  8
0
  6
CONTINUOUS
 62
7
 10
265.242004
 20
45.500000
 11
265.242004
 21
42.599998
  0
LINE
  8
0
  6
CONTINUOUS
 62
7
 10
267.263000
 20
45.500000
 11
267.263000
 21
42.599998
  0
LINE
  8
0
  6
CONTINUOUS
 62
7
 10
271.303986
 20
45.500000
 11
271.303986
 21
42.599998
  0
LINE
  8
0
  6
CONTINUOUS
 62
7
 10
273.325012
 20
45.500000
 11
273.325012
 21
42.599998
  0
LINE
  8
0
  6
CONTINUOUS
 62
7
 10
273.325012
 20
42.599998
 11
265.242004
 21
42.599998
  0
LINE
  8
0
  6
CONTINUOUS
 62
7
 10
273.183014
 20
42.599998
 11
273.183014
 21
42.000000
  0
LINE
  8
0
  6
CONTINUOUS
 62
7
 10
265.382996
 20
42.599998
 11
265.382996
 21
42.000000
  0
LINE
  8
0
  6
CENTER
 62
2
 10
269.282990
 20
46.500000
 11
269.282990
 21
41.000000
  0
LINE
  8
0
  6
CENTER
 62
2
 10
272.782990
 20
38.500000
 11
276.782990
 21
38.500000
  0
LINE
  8
0
  6
CENTER
 62
2
 10
272.782990
 20
17.500000
 11
276.782990
 21
17.500000
  0
LINE
  8
0
  6
CENTER
 62
2
 10
252.783005
 20
38.000000
 11
256.782990
 21
38.000000
  0
LINE
  8
0
  6
CENTER
 62
2
 10
252.783005
 20
18.000000
 11
256.782990
 21
18.000000
  0
LINE
  8
0
  6
CONTINUOUS
 62
7
 10
145.783005
 20
91.500000
 11
145.783005
 21
81.000000
  0
LINE
  8
0
  6
CONTINUOUS
 62
7
 10
137.783005
 20
91.500000
 11
137.783005
 21
73.000000
  0
LINE
  8
0
  6
CONTINUOUS
 62
7
 10
145.783005
 20
89.500000
 11
147.783005
 21
89.500000
  0
LINE
  8
0
  6
CONTINUOUS
 62
7
 10
137.783005
 20
91.500000
 11
145.783005
 21
91.500000
  0
LINE
  8
0
  6
CONTINUOUS
 62
7
 10
137.783005
 20
73.000000
 11
145.783005
 21
73.000000
  0
LINE
  8
0
  6
CONTINUOUS
 62
7
 10
145.783005
 20
72.500000
 11
234.783005
 21
72.500000
  0
LINE
  8
0
  6
CONTINUOUS
 62
7
 10
147.783005
 20
92.500000
 11
147.783005
 21
82.500000
  0
LINE
  8
0
  6
CONTINUOUS
 62
7
 10
237.783005
 20
92.500000
 11
237.783005
 21
77.000000
  0
LINE
  8
0
  6
CONTINUOUS
 62
7
 10
147.783005
 20
92.500000
 11
237.783005
 21
92.500000
  0
LINE
  8
0
  6
CONTINUOUS
 62
7
 10
226.983002
 20
87.000000
 11
221.283005
 21
87.000000
  0
LINE
  8
0
  6
CONTINUOUS
 62
7
 10
147.783005
 20
83.000000
 11
164.283005
 21
83.000000
  0
LINE
  8
0
  6
CONTINUOUS
 62
7
 10
145.783005
 20
82.500000
 11
164.283005
 21
82.500000
  0
LINE
  8
0
  6
CONTINUOUS
 62
7
 10
158.582993
 20
87.000000
 11
164.283005
 21
87.000000
  0
LINE
  8
0
  6
CONTINUOUS
 62
7
 10
236.382996
 20
77.000000
 11
237.783005
 21
77.000000
  0
LINE
  8
0
  6
CONTINUOUS
 62
7
 10
235.983002
 20
77.903397
 11
237.783005
 21
77.903397
  0
LINE
  8
0
  6
CONTINUOUS
 62
7
 10
235.983002
 20
80.096603
 11
237.783005
 21
80.096603
  0
LINE
  8
0
  6
CONTINUOUS
 62
7
 10
234.783005
 20
82.500000
 11
234.783005
 21
82.000000
  0
LINE
  8
0
  6
CONTINUOUS
 62
7
 10
160.132996
 20
92.500000
 11
160.132996
 21
87.000000
  0
LINE
  8
0
  6
DASHED
 62
2
 10
158.783005
 20
87.500000
 11
160.132996
 21
87.500000
  0
LINE
  8
0
  6
CENTER
 62
2
 10
161.783005
 20
93.500000
 11
161.783005
 21
86.000000
  0
LINE
  8
0
  6
CONTINUOUS
 62
7
 10
163.432999
 20
92.500000
 11
163.432999
 21
87.000000
  0
LINE
  8
0
  6
CONTINUOUS
 62
7
 10
153.783005
 20
82.958504
 11
157.283005
 21
84.979301
  0
LINE
  8
0
  6
CONTINUOUS
 62
7
 10
157.283005
 20
89.020798
 11
157.283005
 21
84.979301
  0
LINE
  8
0
  6
CONTINUOUS
 62
7
 10
153.783005
 20
91.041397
 11
157.283005
 21
89.020699
  0
LINE
  8
0
  6
CONTINUOUS
 62
7
 10
150.283005
 20
89.020798
 11
153.783005
 21
91.041496
  0
LINE
  8
0
  6
CONTINUOUS
 62
7
 10
150.283005
 20
84.979301
 11
150.283005
 21
89.020798
  0
LINE
  8
0
  6
CONTINUOUS
 62
7
 10
157.283005
 20
87.500000
 11
150.283005
 21
87.500000
  0
LINE
  8
0
  6
CONTINUOUS
 62
7
 10
157.283005
 20
86.500000
 11
150.283005
 21
86.500000
  0
LINE
  8
0
  6
CONTINUOUS
 62
7
 10
150.283005
 20
84.979202
 11
153.783005
 21
82.958504
  0
LINE
  8
0
  6
CONTINUOUS
 62
7
 10
231.783005
 20
82.958504
 11
235.283005
 21
84.979301
  0
LINE
  8
0
  6
CONTINUOUS
 62
7
 10
235.283005
 20
89.020798
 11
235.283005
 21
84.979301
  0
LINE
  8
0
  6
CONTINUOUS
 62
7
 10
231.783005
 20
91.041397
 11
235.283005
 21
89.020699
  0
LINE
  8
0
  6
CONTINUOUS
 62
7
 10
228.283005
 20
89.020798
 11
231.783005
 21
91.041496
  0
LINE
  8
0
  6
CONTINUOUS
 62
7
 10
228.283005
 20
84.979301
 11
228.283005
 21
89.020798
  0
LINE
  8
0
  6
CONTINUOUS
 62
7
 10
235.283005
 20
87.500000
 11
228.283005
 21
87.500000
  0
LINE
  8
0
  6
CONTINUOUS
 62
7
 10
235.283005
 20
86.500000
 11
228.283005
 21
86.500000
  0
LINE
  8
0
  6
CONTINUOUS
 62
7
 10
228.283005
 20
84.979202
 11
231.783005
 21
82.958504
  0
LINE
  8
0
  6
CONTINUOUS
 62
7
 10
234.783005
 20
73.000000
 11
235.983002
 21
73.000000
  0
LINE
  8
0
  6
CONTINUOUS
 62
7
 10
235.983002
 20
82.500000
 11
235.983002
 21
73.000000
  0
LINE
  8
0
  6
CONTINUOUS
 62
7
 10
236.382996
 20
77.250000
 11
236.382996
 21
73.750000
  0
LINE
  8
0
  6
CONTINUOUS
 62
7
 10
235.983002
 20
73.750000
 11
236.382996
 21
73.750000
  0
LINE
  8
0
  6
CONTINUOUS
 62
7
 10
235.983002
 20
77.250000
 11
236.382996
 21
77.250000
  0
LINE
  8
0
  6
CENTER
 62
2
 10
231.783005
 20
92.041496
 11
231.783005
 21
81.958603
  0
LINE
  8
0
  6
CENTER
 62
2
 10
226.983002
 20
87.000000
 11
236.824997
 21
87.000000
  0
LINE
  8
0
  6
CENTER
 62
2
 10
153.783005
 20
92.041496
 11
153.783005
 21
81.958603
  0
LINE
  8
0
  6
CENTER
 62
2
 10
148.742004
 20
87.000000
 11
158.582993
 21
87.000000
  0
LINE
  8
0
  6
CENTER
 62
2
 10
217.632996
 20
78.199997
 11
217.632996
 21
74.199997
  0
LINE
  8
0
  6
CENTER
 62
2
 10
215.632996
 20
76.199997
 11
219.632996
 21
76.199997
  0
LINE
  8
0
  6
CENTER
 62
2
 10
154.783005
 20
74.500000
 11
154.783005
 21
70.500000
  0
LINE
  8
0
  6
CENTER
 62
2
 10
172.783005
 20
74.500000
 11
172.783005
 21
70.500000
  0
LINE
  8
0
  6
CENTER
 62
2
 10
220.783005
 20
74.500000
 11
220.783005
 21
70.500000
  0
LINE
  8
0
  6
CENTER
 62
2
 10
135.783005
 20
85.500000
 11
139.783005
 21
85.500000
  0
LINE
  8
0
  6
CENTER
 62
2
 10
135.783005
 20
76.500000
 11
139.783005
 21
76.500000
  0
LINE
  8
0
  6
DASHED
 62
2
 10
158.783005
 20
87.500000
 11
158.783005
 21
87.000000
  0
LINE
  8
0
  6
DASHED
 62
2
 10
164.783005
 20
87.500000
 11
164.783005
 21
87.000000
  0
LINE
  8
0
  6
CONTINUOUS
 62
7
 10
160.132996
 20
87.500000
 11
163.432999
 21
87.500000
  0
LINE
  8
0
  6
DASHED
 62
2
 10
163.432999
 20
87.500000
 11
164.783005
 21
87.500000
  0
LINE
  8
0
  6
CONTINUOUS
 62
7
 10
145.783005
 20
-92.000000
 11
145.783005
 21
-65.000000
  0
LINE
  8
0
  6
CONTINUOUS
 62
7
 10
163.432999
 20
-92.000000
 11
160.132996
 21
-92.000000
  0
LINE
  8
0
  6
CONTINUOUS
 62
7
 10
163.432999
 20
-65.000000
 11
160.132996
 21
-65.000000
  0
LINE
  8
0
  6
CONTINUOUS
 62
7
 10
147.783005
 20
-92.500000
 11
147.783005
 21
-64.500000
  0
LINE
  8
0
  6
CONTINUOUS
 62
7
 10
237.783005
 20
-64.500000
 11
163.432999
 21
-64.500000
  0
LINE
  8
0
  6
CONTINUOUS
 62
7
 10
237.783005
 20
-92.500000
 11
237.783005
 21
-64.500000
  0
LINE
  8
0
  6
CENTER
 62
2
 10
238.783005
 20
-78.500000
 11
136.783005
 21
-78.500000
  0
LINE
  8
0
  6
CONTINUOUS
 62
7
 10
237.783005
 20
-92.500000
 11
163.432999
 21
-92.500000
  0
LINE
  8
0
  6
CONTINUOUS
 62
7
 10
160.132996
 20
-64.500000
 11
147.783005
 21
-64.500000
  0
LINE
  8
0
  6
CONTINUOUS
 62
7
 10
160.132996
 20
-92.500000
 11
147.783005
 21
-92.500000
  0
LINE
  8
0
  6
CONTINUOUS
 62
7
 10
147.783005
 20
-65.000000
 11
137.783005
 21
-65.000000
  0
LINE
  8
0
  6
CONTINUOUS
 62
7
 10
147.783005
 20
-92.000000
 11
137.783005
 21
-92.000000
  0
LINE
  8
0
  6
CONTINUOUS
 62
7
 10
137.783005
 20
-92.000000
 11
137.783005
 21
-65.000000
  0
LINE
  8
0
  6
CONTINUOUS
 62
7
 10
147.783005
 20
-82.500000
 11
145.783005
 21
-82.500000
  0
LINE
  8
0
  6
CONTINUOUS
 62
7
 10
147.783005
 20
-74.500000
 11
145.783005
 21
-74.500000
  0
LINE
  8
0
  6
CONTINUOUS
 62
7
 10
157.283005
 20
-96.000000
 11
150.283005
 21
-96.000000
  0
LINE
  8
0
  6
CONTINUOUS
 62
7
 10
235.283005
 20
-96.000000
 11
228.283005
 21
-96.000000
  0
LINE
  8
0
  6
CENTER
 62
2
 10
161.783005
 20
-65.349998
 11
161.783005
 21
-70.650002
  0
LINE
  8
0
  6
CENTER
 62
2
 10
159.132996
 20
-68.000000
 11
164.432999
 21
-68.000000
  0
LINE
  8
0
  6
CENTER
 62
2
 10
161.783005
 20
-86.349998
 11
161.783005
 21
-91.650002
  0
LINE
  8
0
  6
CENTER
 62
2
 10
159.132996
 20
-89.000000
 11
164.432999
 21
-89.000000
  0
LINE
  8
0
  6
CENTER
 62
2
 10
173.783005
 20
-85.500000
 11
173.783005
 21
-92.500000
  0
LINE
  8
0
  6
CENTER
 62
2
 10
170.283005
 20
-89.000000
 11
177.283005
 21
-89.000000
  0
LINE
  8
0
  6
CENTER
 62
2
 10
173.783005
 20
-64.500000
 11
173.783005
 21
-71.500000
  0
LINE
  8
0
  6
CENTER
 62
2
 10
170.283005
 20
-68.000000
 11
177.283005
 21
-68.000000
  0
LINE
  8
0
  6
CENTER
 62
2
 10
223.783005
 20
-65.000000
 11
223.783005
 21
-71.000000
  0
LINE
  8
0
  6
CENTER
 62
2
 10
220.783005
 20
-68.000000
 11
226.783005
 21
-68.000000
  0
LINE
  8
0
  6
CENTER
 62
2
 10
223.783005
 20
-86.000000
 11
223.783005
 21
-92.000000
  0
LINE
  8
0
  6
CENTER
 62
2
 10
220.783005
 20
-89.000000
 11
226.783005
 21
-89.000000
  0
LINE
  8
0
  6
CONTINUOUS
 62
7
 10
160.132996
 20
-64.500000
 11
160.132996
 21
-68.000000
  0
LINE
  8
0
  6
CONTINUOUS
 62
7
 10
163.432999
 20
-64.500000
 11
163.432999
 21
-68.000000
  0
LINE
  8
0
  6
CONTINUOUS
 62
7
 10
160.132996
 20
-89.000000
 11
160.132996
 21
-92.500000
  0
LINE
  8
0
  6
CONTINUOUS
 62
7
 10
163.432999
 20
-89.000000
 11
163.432999
 21
-92.500000
  0
LINE
  8
0
  6
CENTER
 62
2
 10
153.783005
 20
-91.500000
 11
153.783005
 21
-97.000000
  0
LINE
  8
0
  6
CONTINUOUS
 62
7
 10
157.682999
 20
-93.099998
 11
149.882996
 21
-93.099998
  0
LINE
  8
0
  6
CONTINUOUS
 62
7
 10
149.882996
 20
-92.500000
 11
149.882996
 21
-93.099998
  0
LINE
  8
0
  6
CONTINUOUS
 62
7
 10
157.682999
 20
-92.500000
 11
157.682999
 21
-93.099998
  0
LINE
  8
0
  6
CONTINUOUS
 62
7
 10
157.283005
 20
-93.099998
 11
157.283005
 21
-96.000000
  0
LINE
  8
0
  6
CONTINUOUS
 62
7
 10
150.283005
 20
-93.099998
 11
150.283005
 21
-96.000000
  0
LINE
  8
0
  6
CENTER
 62
2
 10
231.783005
 20
-97.000000
 11
231.783005
 21
-91.500000
  0
LINE
  8
0
  6
CONTINUOUS
 62
7
 10
235.682999
 20
-93.099998
 11
227.882996
 21
-93.099998
  0
LINE
  8
0
  6
CONTINUOUS
 62
7
 10
235.682999
 20
-93.099998
 11
235.682999
 21
-92.500000
  0
LINE
  8
0
  6
CONTINUOUS
 62
7
 10
227.882996
 20
-93.099998
 11
227.882996
 21
-92.500000
  0
LINE
  8
0
  6
CONTINUOUS
 62
7
 10
235.283005
 20
-96.000000
 11
235.283005
 21
-93.099998
  0
LINE
  8
0
  6
CONTINUOUS
 62
7
 10
228.283005
 20
-96.000000
 11
228.283005
 21
-93.099998
  0
LINE
  8
0
  6
CONTINUOUS
 62
7
 10
-33.783298
 20
-92.000000
 11
-33.783298
 21
-65.000000
  0
LINE
  8
0
  6
CONTINUOUS
 62
7
 10
-16.133301
 20
-92.000000
 11
-19.433300
 21
-92.000000
  0
LINE
  8
0
  6
CONTINUOUS
 62
7
 10
-16.133301
 20
-65.000000
 11
-19.433300
 21
-65.000000
  0
LINE
  8
0
  6
CONTINUOUS
 62
7
 10
-31.783300
 20
-92.500000
 11
-31.783300
 21
-64.500000
  0
LINE
  8
0
  6
CONTINUOUS
 62
7
 10
43.216702
 20
-64.500000
 11
-16.133301
 21
-64.500000
  0
LINE
  8
0
  6
CONTINUOUS
 62
7
 10
43.216702
 20
-92.500000
 11
43.216702
 21
-64.500000
  0
LINE
  8
0
  6
CENTER
 62
2
 10
44.216702
 20
-78.500000
 11
-42.783298
 21
-78.500000
  0
LINE
  8
0
  6
CONTINUOUS
 62
7
 10
43.216702
 20
-92.500000
 11
-16.133301
 21
-92.500000
  0
LINE
  8
0
  6
CONTINUOUS
 62
7
 10
-19.433300
 20
-64.500000
 11
-31.783300
 21
-64.500000
  0
LINE
  8
0
  6
CONTINUOUS
 62
7
 10
-19.433300
 20
-92.500000
 11
-31.783300
 21
-92.500000
  0
LINE
  8
0
  6
CONTINUOUS
 62
7
 10
-31.783300
 20
-65.000000
 11
-41.783298
 21
-65.000000
  0
LINE
  8
0
  6
CONTINUOUS
 62
7
 10
-31.783300
 20
-92.000000
 11
-41.783298
 21
-92.000000
  0
LINE
  8
0
  6
CONTINUOUS
 62
7
 10
-41.783298
 20
-92.000000
 11
-41.783298
 21
-65.000000
  0
LINE
  8
0
  6
CONTINUOUS
 62
7
 10
-31.783300
 20
-82.500000
 11
-33.783298
 21
-82.500000
  0
LINE
  8
0
  6
CONTINUOUS
 62
7
 10
-31.783300
 20
-74.500000
 11
-33.783298
 21
-74.500000
  0
LINE
  8
0
  6
CONTINUOUS
 62
7
 10
-22.283300
 20
-96.000000
 11
-29.283300
 21
-96.000000
  0
LINE
  8
0
  6
CONTINUOUS
 62
7
 10
40.716702
 20
-96.000000
 11
33.716702
 21
-96.000000
  0
LINE
  8
0
  6
CENTER
 62
2
 10
-17.783300
 20
-65.349998
 11
-17.783300
 21
-70.650002
  0
LINE
  8
0
  6
CENTER
 62
2
 10
-20.433300
 20
-68.000000
 11
-15.133300
 21
-68.000000
  0
LINE
  8
0
  6
CENTER
 62
2
 10
-17.783300
 20
-86.349998
 11
-17.783300
 21
-91.650002
  0
LINE
  8
0
  6
CENTER
 62
2
 10
-20.433300
 20
-89.000000
 11
-15.133300
 21
-89.000000
  0
LINE
  8
0
  6
CENTER
 62
2
 10
-5.783330
 20
-85.500000
 11
-5.783330
 21
-92.500000
  0
LINE
  8
0
  6
CENTER
 62
2
 10
-9.283330
 20
-89.000000
 11
-2.283330
 21
-89.000000
  0
LINE
  8
0
  6
CENTER
 62
2
 10
-5.783330
 20
-64.500000
 11
-5.783330
 21
-71.500000
  0
LINE
  8
0
  6
CENTER
 62
2
 10
-9.283330
 20
-68.000000
 11
-2.283330
 21
-68.000000
  0
LINE
  8
0
  6
CENTER
 62
2
 10
29.216700
 20
-65.000000
 11
29.216700
 21
-71.000000
  0
LINE
  8
0
  6
CENTER
 62
2
 10
26.216700
 20
-68.000000
 11
32.216702
 21
-68.000000
  0
LINE
  8
0
  6
CENTER
 62
2
 10
29.216700
 20
-86.000000
 11
29.216700
 21
-92.000000
  0
LINE
  8
0
  6
CENTER
 62
2
 10
26.216700
 20
-89.000000
 11
32.216702
 21
-89.000000
  0
LINE
  8
0
  6
CONTINUOUS
 62
7
 10
-19.433300
 20
-64.500000
 11
-19.433300
 21
-68.000000
  0
LINE
  8
0
  6
CONTINUOUS
 62
7
 10
-16.133301
 20
-64.500000
 11
-16.133301
 21
-68.000000
  0
LINE
  8
0
  6
CONTINUOUS
 62
7
 10
-19.433300
 20
-89.000000
 11
-19.433300
 21
-92.500000
  0
LINE
  8
0
  6
CONTINUOUS
 62
7
 10
-16.133301
 20
-89.000000
 11
-16.133301
 21
-92.500000
  0
LINE
  8
0
  6
CENTER
 62
2
 10
-25.783300
 20
-91.500000
 11
-25.783300
 21
-97.000000
  0
LINE
  8
0
  6
CONTINUOUS
 62
7
 10
-21.883301
 20
-93.099998
 11
-29.683300
 21
-93.099998
  0
LINE
  8
0
  6
CONTINUOUS
 62
7
 10
-29.683300
 20
-92.500000
 11
-29.683300
 21
-93.099998
  0
LINE
  8
0
  6
CONTINUOUS
 62
7
 10
-21.883301
 20
-92.500000
 11
-21.883301
 21
-93.099998
  0
LINE
  8
0
  6
CONTINUOUS
 62
7
 10
-22.283300
 20
-93.099998
 11
-22.283300
 21
-96.000000
  0
LINE
  8
0
  6
CONTINUOUS
 62
7
 10
-29.283300
 20
-93.099998
 11
-29.283300
 21
-96.000000
  0
LINE
  8
0
  6
CENTER
 62
2
 10
37.216702
 20
-97.000000
 11
37.216702
 21
-91.500000
  0
LINE
  8
0
  6
CONTINUOUS
 62
7
 10
41.116699
 20
-93.099998
 11
33.316700
 21
-93.099998
  0
LINE
  8
0
  6
CONTINUOUS
 62
7
 10
41.116699
 20
-93.099998
 11
41.116699
 21
-92.500000
  0
LINE
  8
0
  6
CONTINUOUS
 62
7
 10
33.316700
 20
-93.099998
 11
33.316700
 21
-92.500000
  0
LINE
  8
0
  6
CONTINUOUS
 62
7
 10
40.716702
 20
-96.000000
 11
40.716702
 21
-93.099998
  0
LINE
  8
0
  6
CONTINUOUS
 62
7
 10
33.716702
 20
-96.000000
 11
33.716702
 21
-93.099998
  0
LINE
  8
0
  6
CENTER
 62
2
 10
44.216702
 20
28.000000
 11
-42.783298
 21
28.000000
  0
LINE
  8
0
  6
CONTINUOUS
 62
7
 10
40.916698
 20
41.500000
 11
-41.783298
 21
41.500000
  0
LINE
  8
0
  6
CONTINUOUS
 62
7
 10
40.216702
 20
14.500000
 11
-41.783298
 21
14.500000
  0
LINE
  8
0
  6
CONTINUOUS
 62
7
 10
40.216702
 20
21.000000
 11
-33.783298
 21
21.000000
  0
LINE
  8
0
  6
CONTINUOUS
 62
7
 10
40.216702
 20
35.000000
 11
-33.783298
 21
35.000000
  0
LINE
  8
0
  6
CONTINUOUS
 62
7
 10
43.216702
 20
14.000000
 11
-16.133301
 21
14.000000
  0
LINE
  8
0
  6
CONTINUOUS
 62
7
 10
43.216702
 20
42.000000
 11
43.216702
 21
14.000000
  0
LINE
  8
0
  6
CONTINUOUS
 62
7
 10
-33.783298
 20
41.500000
 11
-33.783298
 21
14.500000
  0
LINE
  8
0
  6
CONTINUOUS
 62
7
 10
40.216702
 20
41.500000
 11
40.216702
 21
14.500000
  0
LINE
  8
0
  6
CONTINUOUS
 62
7
 10
-31.783300
 20
14.500000
 11
-31.783300
 21
14.000000
  0
LINE
  8
0
  6
CONTINUOUS
 62
7
 10
-31.783300
 20
42.000000
 11
-31.783300
 21
41.500000
  0
LINE
  8
0
  6
CONTINUOUS
 62
7
 10
43.216702
 20
42.000000
 11
40.916698
 21
42.000000
  0
LINE
  8
0
  6
CONTINUOUS
 62
7
 10
-19.433300
 20
14.000000
 11
-19.433300
 21
14.500000
  0
LINE
  8
0
  6
CONTINUOUS
 62
7
 10
-16.133301
 20
14.000000
 11
-16.133301
 21
14.500000
  0
LINE
  8
0
  6
CONTINUOUS
 62
7
 10
-16.133301
 20
41.500000
 11
-16.133301
 21
42.000000
  0
LINE
  8
0
  6
CONTINUOUS
 62
7
 10
-19.433300
 20
41.500000
 11
-19.433300
 21
42.000000
  0
LINE
  8
0
  6
CONTINUOUS
 62
7
 10
-19.433300
 20
14.000000
 11
-31.783300
 21
14.000000
  0
LINE
  8
0
  6
CONTINUOUS
 62
7
 10
-19.433300
 20
42.000000
 11
-31.783300
 21
42.000000
  0
LINE
  8
0
  6
CONTINUOUS
 62
7
 10
-41.783298
 20
41.500000
 11
-41.783298
 21
14.500000
  0
LINE
  8
0
  6
CENTER
 62
2
 10
-24.783400
 20
40.500000
 11
-24.783400
 21
35.500000
  0
LINE
  8
0
  6
CENTER
 62
2
 10
-27.283400
 20
38.000000
 11
-22.283400
 21
38.000000
  0
LINE
  8
0
  6
CENTER
 62
2
 10
-24.783400
 20
20.500000
 11
-24.783400
 21
15.500000
  0
LINE
  8
0
  6
CENTER
 62
2
 10
-27.283400
 20
18.000000
 11
-22.283400
 21
18.000000
  0
LINE
  8
0
  6
CENTER
 62
2
 10
26.216700
 20
40.500000
 11
26.216700
 21
35.500000
  0
LINE
  8
0
  6
CENTER
 62
2
 10
23.716700
 20
38.000000
 11
28.716700
 21
38.000000
  0
LINE
  8
0
  6
CENTER
 62
2
 10
-2.783360
 20
41.099998
 11
-2.783360
 21
35.900002
  0
LINE
  8
0
  6
CENTER
 62
2
 10
-5.383360
 20
38.500000
 11
-0.183350
 21
38.500000
  0
LINE
  8
0
  6
CENTER
 62
2
 10
26.216700
 20
20.500000
 11
26.216700
 21
15.500000
  0
LINE
  8
0
  6
CENTER
 62
2
 10
23.716700
 20
18.000000
 11
28.716700
 21
18.000000
  0
LINE
  8
0
  6
CENTER
 62
2
 10
-6.783360
 20
40.500000
 11
-6.783360
 21
35.500000
  0
LINE
  8
0
  6
CENTER
 62
2
 10
-9.283360
 20
38.000000
 11
-4.283360
 21
38.000000
  0
LINE
  8
0
  6
CENTER
 62
2
 10
-6.783360
 20
20.500000
 11
-6.783360
 21
15.500000
  0
LINE
  8
0
  6
CENTER
 62
2
 10
-9.283360
 20
18.000000
 11
-4.283360
 21
18.000000
  0
LINE
  8
0
  6
CONTINUOUS
 62
7
 10
41.416698
 20
14.700000
 11
40.216702
 21
14.700000
  0
LINE
  8
0
  6
CONTINUOUS
 62
7
 10
41.416698
 20
19.250000
 11
41.416698
 21
14.700000
  0
LINE
  8
0
  6
CONTINUOUS
 62
7
 10
41.416698
 20
33.250000
 11
41.416698
 21
22.750000
  0
LINE
  8
0
  6
CONTINUOUS
 62
7
 10
40.816700
 20
33.250000
 11
40.816700
 21
36.750000
  0
LINE
  8
0
  6
CONTINUOUS
 62
7
 10
40.816700
 20
33.250000
 11
41.816700
 21
33.250000
  0
LINE
  8
0
  6
CONTINUOUS
 62
7
 10
41.816700
 20
33.250000
 11
41.816700
 21
36.750000
  0
LINE
  8
0
  6
CONTINUOUS
 62
7
 10
40.816700
 20
36.750000
 11
41.816700
 21
36.750000
  0
LINE
  8
0
  6
CONTINUOUS
 62
7
 10
41.416698
 20
36.750000
 11
41.416698
 21
41.299999
  0
LINE
  8
0
  6
CONTINUOUS
 62
7
 10
41.416698
 20
41.299999
 11
40.216702
 21
41.299999
  0
LINE
  8
0
  6
CONTINUOUS
 62
7
 10
-29.683300
 20
42.599998
 11
-29.683300
 21
42.000000
  0
LINE
  8
0
  6
CONTINUOUS
 62
7
 10
40.816700
 20
22.750000
 11
40.816700
 21
19.250000
  0
LINE
  8
0
  6
CONTINUOUS
 62
7
 10
40.816700
 20
22.750000
 11
41.816700
 21
22.750000
  0
LINE
  8
0
  6
CONTINUOUS
 62
7
 10
41.816700
 20
19.250000
 11
41.816700
 21
22.750000
  0
LINE
  8
0
  6
CONTINUOUS
 62
7
 10
40.816700
 20
19.250000
 11
41.816700
 21
19.250000
  0
LINE
  8
0
  6
DASHED
 62
2
 10
-16.133301
 20
17.500000
 11
-16.133301
 21
14.500000
  0
LINE
  8
0
  6
DASHED
 62
2
 10
-19.433300
 20
17.500000
 11
-19.433300
 21
14.500000
  0
LINE
  8
0
  6
DASHED
 62
2
 10
-16.133301
 20
38.500000
 11
-16.133301
 21
41.500000
  0
LINE
  8
0
  6
DASHED
 62
2
 10
-19.433300
 20
38.500000
 11
-19.433300
 21
41.500000
  0
LINE
  8
0
  6
CENTER
 62
2
 10
29.216700
 20
42.500000
 11
29.216700
 21
34.500000
  0
LINE
  8
0
  6
CENTER
 62
2
 10
25.216700
 20
38.500000
 11
33.216702
 21
38.500000
  0
LINE
  8
0
  6
CENTER
 62
2
 10
29.216700
 20
21.500000
 11
29.216700
 21
13.500000
  0
LINE
  8
0
  6
CENTER
 62
2
 10
25.216700
 20
17.500000
 11
33.216702
 21
17.500000
  0
LINE
  8
0
  6
CENTER
 62
2
 10
-17.783300
 20
21.500000
 11
-17.783300
 21
13.500000
  0
LINE
  8
0
  6
CENTER
 62
2
 10
-21.783300
 20
17.500000
 11
-13.783300
 21
17.500000
  0
LINE
  8
0
  6
CENTER
 62
2
 10
-17.783300
 20
42.500000
 11
-17.783300
 21
34.500000
  0
LINE
  8
0
  6
CENTER
 62
2
 10
-21.783300
 20
38.500000
 11
-13.783300
 21
38.500000
  0
LINE
  8
0
  6
CENTER
 62
2
 10
-25.783300
 20
44.500000
 11
-25.783300
 21
41.000000
  0
LINE
  8
0
  6
CONTINUOUS
 62
7
 10
-21.783300
 20
42.599998
 11
-21.783300
 21
42.000000
  0
LINE
  8
0
  6
CONTINUOUS
 62
7
 10
-29.283300
 20
43.500000
 11
-29.283300
 21
42.599998
  0
LINE
  8
0
  6
CONTINUOUS
 62
7
 10
-22.283300
 20
43.500000
 11
-22.283300
 21
42.599998
  0
LINE
  8
0
  6
CONTINUOUS
 62
7
 10
-21.783300
 20
42.599998
 11
-29.683300
 21
42.599998
  0
LINE
  8
0
  6
CENTER
 62
2
 10
-43.783298
 20
38.000000
 11
-39.783298
 21
38.000000
  0
LINE
  8
0
  6
CENTER
 62
2
 10
-43.783298
 20
18.000000
 11
-39.783298
 21
18.000000
  0
LINE
  8
0
  6
CENTER
 62
2
 10
8.216670
 20
20.500000
 11
8.216670
 21
15.500000
  0
LINE
  8
0
  6
CENTER
 62
2
 10
5.716670
 20
18.000000
 11
10.716700
 21
18.000000
  0
LINE
  8
0
  6
CENTER
 62
2
 10
8.216670
 20
40.500000
 11
8.216670
 21
35.500000
  0
LINE
  8
0
  6
CENTER
 62
2
 10
5.716670
 20
38.000000
 11
10.716700
 21
38.000000
  0
LINE
  8
0
  6
CONTINUOUS
 62
7
 10
-33.783298
 20
91.500000
 11
-33.783298
 21
81.000000
  0
LINE
  8
0
  6
CONTINUOUS
 62
7
 10
-41.783298
 20
91.500000
 11
-41.783298
 21
73.000000
  0
LINE
  8
0
  6
CONTINUOUS
 62
7
 10
-33.783298
 20
89.500000
 11
-31.783300
 21
89.500000
  0
LINE
  8
0
  6
CONTINUOUS
 62
7
 10
-41.783298
 20
91.500000
 11
-33.783298
 21
91.500000
  0
LINE
  8
0
  6
CONTINUOUS
 62
7
 10
-41.783298
 20
73.000000
 11
-33.783298
 21
73.000000
  0
LINE
  8
0
  6
CONTINUOUS
 62
7
 10
-33.783298
 20
72.500000
 11
40.216702
 21
72.500000
  0
LINE
  8
0
  6
CONTINUOUS
 62
7
 10
-31.783300
 20
92.500000
 11
-31.783300
 21
82.500000
  0
LINE
  8
0
  6
CONTINUOUS
 62
7
 10
43.216702
 20
92.500000
 11
43.216702
 21
77.000000
  0
LINE
  8
0
  6
CONTINUOUS
 62
7
 10
-31.783300
 20
92.500000
 11
43.216702
 21
92.500000
  0
LINE
  8
0
  6
CONTINUOUS
 62
7
 10
-31.783300
 20
83.000000
 11
-15.283300
 21
83.000000
  0
LINE
  8
0
  6
CONTINUOUS
 62
7
 10
-33.783298
 20
82.500000
 11
-15.283300
 21
82.500000
  0
LINE
  8
0
  6
CONTINUOUS
 62
7
 10
41.816700
 20
77.000000
 11
43.216702
 21
77.000000
  0
LINE
  8
0
  6
CONTINUOUS
 62
7
 10
41.416698
 20
77.903397
 11
43.216702
 21
77.903397
  0
LINE
  8
0
  6
CONTINUOUS
 62
7
 10
41.416698
 20
80.096603
 11
43.216702
 21
80.096603
  0
LINE
  8
0
  6
CONTINUOUS
 62
7
 10
40.216702
 20
82.500000
 11
40.216702
 21
82.000000
  0
LINE
  8
0
  6
CONTINUOUS
 62
7
 10
-25.783400
 20
82.958603
 11
-22.283400
 21
84.979301
  0
LINE
  8
0
  6
CONTINUOUS
 62
7
 10
-22.283300
 20
89.020798
 11
-22.283300
 21
84.979301
  0
LINE
  8
0
  6
CONTINUOUS
 62
7
 10
-25.783300
 20
91.041397
 11
-22.283400
 21
89.020699
  0
LINE
  8
0
  6
CONTINUOUS
 62
7
 10
-29.283199
 20
89.020798
 11
-25.783199
 21
91.041496
  0
LINE
  8
0
  6
CONTINUOUS
 62
7
 10
-29.283300
 20
84.979301
 11
-29.283300
 21
89.020798
  0
LINE
  8
0
  6
CONTINUOUS
 62
7
 10
-22.283300
 20
87.500000
 11
-29.283300
 21
87.500000
  0
LINE
  8
0
  6
CONTINUOUS
 62
7
 10
-22.283300
 20
86.500000
 11
-29.283300
 21
86.500000
  0
LINE
  8
0
  6
CONTINUOUS
 62
7
 10
-29.283300
 20
84.979301
 11
-25.783400
 21
82.958603
  0
LINE
  8
0
  6
CONTINUOUS
 62
7
 10
37.216702
 20
82.958603
 11
40.716702
 21
84.979301
  0
LINE
  8
0
  6
CONTINUOUS
 62
7
 10
40.716702
 20
89.020798
 11
40.716702
 21
84.979301
  0
LINE
  8
0
  6
CONTINUOUS
 62
7
 10
37.216599
 20
91.041397
 11
40.716599
 21
89.020699
  0
LINE
  8
0
  6
CONTINUOUS
 62
7
 10
33.716702
 20
89.020798
 11
37.216702
 21
91.041496
  0
LINE
  8
0
  6
CONTINUOUS
 62
7
 10
33.716599
 20
84.979301
 11
33.716599
 21
89.020798
  0
LINE
  8
0
  6
CONTINUOUS
 62
7
 10
40.716702
 20
87.500000
 11
33.716702
 21
87.500000
  0
LINE
  8
0
  6
CONTINUOUS
 62
7
 10
40.716702
 20
86.500000
 11
33.716702
 21
86.500000
  0
LINE
  8
0
  6
CONTINUOUS
 62
7
 10
33.716702
 20
84.979202
 11
37.216599
 21
82.958504
  0
LINE
  8
0
  6
CONTINUOUS
 62
7
 10
40.216702
 20
73.000000
 11
41.416698
 21
73.000000
  0
LINE
  8
0
  6
CONTINUOUS
 62
7
 10
41.416698
 20
82.500000
 11
41.416698
 21
73.000000
  0
LINE
  8
0
  6
CONTINUOUS
 62
7
 10
41.816700
 20
77.250000
 11
41.816700
 21
73.750000
  0
LINE
  8
0
  6
CONTINUOUS
 62
7
 10
41.416698
 20
73.750000
 11
41.816700
 21
73.750000
  0
LINE
  8
0
  6
CONTINUOUS
 62
7
 10
41.416698
 20
77.250000
 11
41.816700
 21
77.250000
  0
LINE
  8
0
  6
CENTER
 62
2
 10
37.216702
 20
92.041496
 11
37.216702
 21
81.958603
  0
LINE
  8
0
  6
CENTER
 62
2
 10
32.175201
 20
87.000000
 11
42.258099
 21
87.000000
  0
LINE
  8
0
  6
CENTER
 62
2
 10
-25.783300
 20
92.041496
 11
-25.783300
 21
81.958603
  0
LINE
  8
0
  6
CENTER
 62
2
 10
-30.824800
 20
87.000000
 11
-20.741899
 21
87.000000
  0
LINE
  8
0
  6
CENTER
 62
2
 10
-24.783300
 20
74.500000
 11
-24.783300
 21
70.500000
  0
LINE
  8
0
  6
CENTER
 62
2
 10
-6.783330
 20
74.500000
 11
-6.783330
 21
70.500000
  0
LINE
  8
0
  6
CENTER
 62
2
 10
26.216700
 20
74.500000
 11
26.216700
 21
70.500000
  0
LINE
  8
0
  6
CENTER
 62
2
 10
-43.783298
 20
85.500000
 11
-39.783298
 21
85.500000
  0
LINE
  8
0
  6
CENTER
 62
2
 10
-43.783298
 20
76.500000
 11
-39.783298
 21
76.500000
  0
LINE
  8
0
  6
CENTER
 62
2
 10
8.216670
 20
74.500000
 11
8.216670
 21
70.500000
  0
LINE
  8
0
  6
CONTINUOUS
 62
7
 10
-15.283300
 20
87.199997
 11
-20.983299
 21
87.199997
  0
LINE
  8
0
  6
DASHED
 62
2
 10
-20.783300
 20
87.500000
 11
-19.433300
 21
87.500000
  0
LINE
  8
0
  6
CONTINUOUS
 62
7
 10
-19.433300
 20
92.500000
 11
-19.433300
 21
87.199997
  0
LINE
  8
0
  6
CONTINUOUS
 62
7
 10
-16.133301
 20
92.500000
 11
-16.133301
 21
87.199997
  0
LINE
  8
0
  6
CENTER
 62
2
 10
-17.783300
 20
93.500000
 11
-17.783300
 21
86.199997
  0
LINE
  8
0
  6
CONTINUOUS
 62
7
 10
32.416698
 20
87.199997
 11
26.716700
 21
87.199997
  0
LINE
  8
0
  6
CONTINUOUS
 62
7
 10
145.783005
 20
-35.500000
 11
145.783005
 21
-16.500000
  0
LINE
  8
0
  6
CONTINUOUS
 62
7
 10
137.783005
 20
-35.500000
 11
137.783005
 21
-17.000000
  0
LINE
  8
0
  6
CONTINUOUS
 62
7
 10
145.783005
 20
-33.500000
 11
147.783005
 21
-33.500000
  0
LINE
  8
0
  6
CONTINUOUS
 62
7
 10
137.783005
 20
-35.500000
 11
145.783005
 21
-35.500000
  0
LINE
  8
0
  6
CONTINUOUS
 62
7
 10
137.783005
 20
-17.000000
 11
145.783005
 21
-17.000000
  0
LINE
  8
0
  6
CONTINUOUS
 62
7
 10
145.783005
 20
-16.500000
 11
234.783005
 21
-16.500000
  0
LINE
  8
0
  6
CONTINUOUS
 62
7
 10
147.783005
 20
-36.500000
 11
147.783005
 21
-26.500000
  0
LINE
  8
0
  6
CONTINUOUS
 62
7
 10
237.783005
 20
-36.500000
 11
237.783005
 21
-21.000000
  0
LINE
  8
0
  6
CONTINUOUS
 62
7
 10
147.783005
 20
-36.500000
 11
237.783005
 21
-36.500000
  0
LINE
  8
0
  6
CONTINUOUS
 62
7
 10
226.983002
 20
-31.000000
 11
220.380997
 21
-31.000000
  0
LINE
  8
0
  6
CONTINUOUS
 62
7
 10
147.783005
 20
-27.000000
 11
237.783005
 21
-27.000000
  0
LINE
  8
0
  6
CONTINUOUS
 62
7
 10
214.783005
 20
-32.500000
 11
170.783005
 21
-32.500000
  0
LINE
  8
0
  6
CONTINUOUS
 62
7
 10
145.783005
 20
-26.500000
 11
235.983002
 21
-26.500000
  0
LINE
  8
0
  6
CONTINUOUS
 62
7
 10
158.582993
 20
-31.000000
 11
165.184998
 21
-31.000000
  0
LINE
  8
0
  6
CONTINUOUS
 62
7
 10
236.382996
 20
-21.000000
 11
237.783005
 21
-21.000000
  0
LINE
  8
0
  6
CONTINUOUS
 62
7
 10
235.983002
 20
-21.903400
 11
237.783005
 21
-21.903400
  0
LINE
  8
0
  6
CONTINUOUS
 62
7
 10
235.983002
 20
-24.096600
 11
237.783005
 21
-24.096600
  0
LINE
  8
0
  6
CONTINUOUS
 62
7
 10
234.783005
 20
-26.500000
 11
234.783005
 21
-16.500000
  0
LINE
  8
0
  6
CONTINUOUS
 62
7
 10
160.132996
 20
-36.500000
 11
160.132996
 21
-31.000000
  0
LINE
  8
0
  6
DASHED
 62
2
 10
158.783005
 20
-31.500000
 11
160.132996
 21
-31.500000
  0
LINE
  8
0
  6
CENTER
 62
2
 10
161.783005
 20
-37.500000
 11
161.783005
 21
-30.000000
  0
LINE
  8
0
  6
CONTINUOUS
 62
7
 10
163.432999
 20
-36.500000
 11
163.432999
 21
-31.000000
  0
LINE
  8
0
  6
CONTINUOUS
 62
7
 10
234.783005
 20
-17.000000
 11
235.983002
 21
-17.000000
  0
LINE
  8
0
  6
CONTINUOUS
 62
7
 10
235.983002
 20
-26.500000
 11
235.983002
 21
-17.000000
  0
LINE
  8
0
  6
CONTINUOUS
 62
7
 10
236.382996
 20
-21.250000
 11
236.382996
 21
-17.750000
  0
LINE
  8
0
  6
CONTINUOUS
 62
7
 10
235.983002
 20
-17.750000
 11
236.382996
 21
-17.750000
  0
LINE
  8
0
  6
CONTINUOUS
 62
7
 10
235.983002
 20
-21.250000
 11
236.382996
 21
-21.250000
  0
LINE
  8
0
  6
CENTER
 62
2
 10
153.783005
 20
-27.500000
 11
153.783005
 21
-34.500000
  0
LINE
  8
0
  6
CENTER
 62
2
 10
150.283005
 20
-31.000000
 11
157.283005
 21
-31.000000
  0
LINE
  8
0
  6
CENTER
 62
2
 10
167.783005
 20
-30.000000
 11
167.783005
 21
-35.000000
  0
LINE
  8
0
  6
CENTER
 62
2
 10
165.283005
 20
-32.500000
 11
170.283005
 21
-32.500000
  0
LINE
  8
0
  6
CENTER
 62
2
 10
217.783005
 20
-30.000000
 11
217.783005
 21
-35.000000
  0
LINE
  8
0
  6
CENTER
 62
2
 10
215.283005
 20
-32.500000
 11
220.283005
 21
-32.500000
  0
LINE
  8
0
  6
CENTER
 62
2
 10
217.632996
 20
-18.200001
 11
217.632996
 21
-22.200001
  0
LINE
  8
0
  6
CENTER
 62
2
 10
215.632996
 20
-20.200001
 11
219.632996
 21
-20.200001
  0
LINE
  8
0
  6
CENTER
 62
2
 10
224.483002
 20
-18.000000
 11
224.483002
 21
-23.000000
  0
LINE
  8
0
  6
CENTER
 62
2
 10
221.983002
 20
-20.500000
 11
226.983002
 21
-20.500000
  0
LINE
  8
0
  6
CENTER
 62
2
 10
227.632996
 20
-18.200001
 11
227.632996
 21
-22.200001
  0
LINE
  8
0
  6
CENTER
 62
2
 10
225.632996
 20
-20.200001
 11
229.632996
 21
-20.200001
  0
LINE
  8
0
  6
CENTER
 62
2
 10
230.983002
 20
-18.000000
 11
230.983002
 21
-23.000000
  0
LINE
  8
0
  6
CENTER
 62
2
 10
228.483002
 20
-20.500000
 11
233.483002
 21
-20.500000
  0
LINE
  8
0
  6
CENTER
 62
2
 10
231.783005
 20
-27.500000
 11
231.783005
 21
-34.500000
  0
LINE
  8
0
  6
CENTER
 62
2
 10
228.283005
 20
-31.000000
 11
235.283005
 21
-31.000000
  0
LINE
  8
0
  6
CENTER
 62
2
 10
154.783005
 20
-14.500000
 11
154.783005
 21
-18.500000
  0
LINE
  8
0
  6
CENTER
 62
2
 10
172.783005
 20
-14.500000
 11
172.783005
 21
-18.500000
  0
LINE
  8
0
  6
CENTER
 62
2
 10
220.783005
 20
-14.500000
 11
220.783005
 21
-18.500000
  0
LINE
  8
0
  6
CENTER
 62
2
 10
135.783005
 20
-29.500000
 11
139.783005
 21
-29.500000
  0
LINE
  8
0
  6
CENTER
 62
2
 10
135.783005
 20
-20.500000
 11
139.783005
 21
-20.500000
  0
LINE
  8
0
  6
DASHED
 62
2
 10
158.783005
 20
-31.500000
 11
158.783005
 21
-31.000000
  0
LINE
  8
0
  6
DASHED
 62
2
 10
164.783005
 20
-31.500000
 11
164.783005
 21
-31.000000
  0
LINE
  8
0
  6
CONTINUOUS
 62
7
 10
160.132996
 20
-31.500000
 11
163.432999
 21
-31.500000
  0
LINE
  8
0
  6
DASHED
 62
2
 10
163.432999
 20
-31.500000
 11
164.783005
 21
-31.500000
  0
LINE
  8
0
  6
CONTINUOUS
 62
7
 10
-33.783298
 20
-35.500000
 11
-33.783298
 21
-16.500000
  0
LINE
  8
0
  6
CONTINUOUS
 62
7
 10
-41.783298
 20
-35.500000
 11
-41.783298
 21
-17.000000
  0
LINE
  8
0
  6
CONTINUOUS
 62
7
 10
-33.783298
 20
-33.500000
 11
-31.783300
 21
-33.500000
  0
LINE
  8
0
  6
CONTINUOUS
 62
7
 10
-41.783298
 20
-35.500000
 11
-33.783298
 21
-35.500000
  0
LINE
  8
0
  6
CONTINUOUS
 62
7
 10
-41.783298
 20
-17.000000
 11
-33.783298
 21
-17.000000
  0
LINE
  8
0
  6
CONTINUOUS
 62
7
 10
-33.783298
 20
-16.500000
 11
40.216702
 21
-16.500000
  0
LINE
  8
0
  6
CONTINUOUS
 62
7
 10
-31.783300
 20
-36.500000
 11
-31.783300
 21
-26.500000
  0
LINE
  8
0
  6
CONTINUOUS
 62
7
 10
43.216702
 20
-36.500000
 11
43.216702
 21
-21.000000
  0
LINE
  8
0
  6
CONTINUOUS
 62
7
 10
-31.783300
 20
-36.500000
 11
43.216702
 21
-36.500000
  0
LINE
  8
0
  6
CONTINUOUS
 62
7
 10
-31.783300
 20
-27.000000
 11
43.216702
 21
-27.000000
  0
LINE
  8
0
  6
CONTINUOUS
 62
7
 10
-33.783298
 20
-26.500000
 11
41.416698
 21
-26.500000
  0
LINE
  8
0
  6
CONTINUOUS
 62
7
 10
41.816700
 20
-21.000000
 11
43.216702
 21
-21.000000
  0
LINE
  8
0
  6
CONTINUOUS
 62
7
 10
41.416698
 20
-21.903400
 11
43.216702
 21
-21.903400
  0
LINE
  8
0
  6
CONTINUOUS
 62
7
 10
41.416698
 20
-24.096600
 11
43.216702
 21
-24.096600
  0
LINE
  8
0
  6
CONTINUOUS
 62
7
 10
40.216702
 20
-26.500000
 11
40.216702
 21
-16.500000
  0
LINE
  8
0
  6
CONTINUOUS
 62
7
 10
-19.433300
 20
-36.500000
 11
-19.433300
 21
-31.200001
  0
LINE
  8
0
  6
DASHED
 62
2
 10
-20.783300
 20
-31.500000
 11
-19.433300
 21
-31.500000
  0
LINE
  8
0
  6
CENTER
 62
2
 10
-17.783300
 20
-37.500000
 11
-17.783300
 21
-30.200001
  0
LINE
  8
0
  6
CONTINUOUS
 62
7
 10
-16.133301
 20
-36.500000
 11
-16.133301
 21
-31.200001
  0
LINE
  8
0
  6
CONTINUOUS
 62
7
 10
40.216702
 20
-17.000000
 11
41.416698
 21
-17.000000
  0
LINE
  8
0
  6
CONTINUOUS
 62
7
 10
41.416698
 20
-26.500000
 11
41.416698
 21
-17.000000
  0
LINE
  8
0
  6
CONTINUOUS
 62
7
 10
41.816700
 20
-21.250000
 11
41.816700
 21
-17.750000
  0
LINE
  8
0
  6
CONTINUOUS
 62
7
 10
41.416698
 20
-17.750000
 11
41.816700
 21
-17.750000
  0
LINE
  8
0
  6
CONTINUOUS
 62
7
 10
41.416698
 20
-21.250000
 11
41.816700
 21
-21.250000
  0
LINE
  8
0
  6
CENTER
 62
2
 10
-25.783300
 20
-27.500000
 11
-25.783300
 21
-34.500000
  0
LINE
  8
0
  6
CENTER
 62
2
 10
-29.283300
 20
-31.000000
 11
-22.283300
 21
-31.000000
  0
LINE
  8
0
  6
CENTER
 62
2
 10
-11.783300
 20
-30.000000
 11
-11.783300
 21
-35.000000
  0
LINE
  8
0
  6
CENTER
 62
2
 10
-14.283300
 20
-32.500000
 11
-9.283330
 21
-32.500000
  0
LINE
  8
0
  6
CENTER
 62
2
 10
23.216700
 20
-30.000000
 11
23.216700
 21
-35.000000
  0
LINE
  8
0
  6
CENTER
 62
2
 10
20.716700
 20
-32.500000
 11
25.716700
 21
-32.500000
  0
LINE
  8
0
  6
CENTER
 62
2
 10
23.066700
 20
-18.200001
 11
23.066700
 21
-22.200001
  0
LINE
  8
0
  6
CENTER
 62
2
 10
21.066700
 20
-20.200001
 11
25.066700
 21
-20.200001
  0
LINE
  8
0
  6
CENTER
 62
2
 10
29.916700
 20
-18.000000
 11
29.916700
 21
-23.000000
  0
LINE
  8
0
  6
CENTER
 62
2
 10
27.416700
 20
-20.500000
 11
32.416698
 21
-20.500000
  0
LINE
  8
0
  6
CENTER
 62
2
 10
33.066700
 20
-18.200001
 11
33.066700
 21
-22.200001
  0
LINE
  8
0
  6
CENTER
 62
2
 10
31.066700
 20
-20.200001
 11
35.066700
 21
-20.200001
  0
LINE
  8
0
  6
CENTER
 62
2
 10
36.416698
 20
-18.000000
 11
36.416698
 21
-23.000000
  0
LINE
  8
0
  6
CENTER
 62
2
 10
33.916698
 20
-20.500000
 11
38.916698
 21
-20.500000
  0
LINE
  8
0
  6
CENTER
 62
2
 10
37.216702
 20
-27.500000
 11
37.216702
 21
-34.500000
  0
LINE
  8
0
  6
CENTER
 62
2
 10
33.716702
 20
-31.000000
 11
40.716702
 21
-31.000000
  0
LINE
  8
0
  6
CENTER
 62
2
 10
-24.783300
 20
-14.500000
 11
-24.783300
 21
-18.500000
  0
LINE
  8
0
  6
CENTER
 62
2
 10
-6.783330
 20
-14.500000
 11
-6.783330
 21
-18.500000
  0
LINE
  8
0
  6
CENTER
 62
2
 10
26.216700
 20
-14.500000
 11
26.216700
 21
-18.500000
  0
LINE
  8
0
  6
CENTER
 62
2
 10
-43.783298
 20
-29.500000
 11
-39.783298
 21
-29.500000
  0
LINE
  8
0
  6
CENTER
 62
2
 10
-43.783298
 20
-20.500000
 11
-39.783298
 21
-20.500000
  0
LINE
  8
0
  6
CENTER
 62
2
 10
8.216670
 20
-14.500000
 11
8.216670
 21
-18.500000
  0
LINE
  8
0
  6
CONTINUOUS
 62
7
 10
25.814800
 20
-31.200001
 11
32.416698
 21
-31.200001
  0
LINE
  8
0
  6
CONTINUOUS
 62
7
 10
-9.743680
 20
-30.500000
 11
21.177099
 21
-30.500000
  0
LINE
  8
0
  6
CONTINUOUS
 62
7
 10
-20.983299
 20
-31.200001
 11
-14.381400
 21
-31.200001
  0
LINE
  8
0
  6
CONTINUOUS
 62
7
 10
-25.783300
 20
-93.099998
 11
-25.783300
 21
-96.000000
  0
LINE
  8
0
  6
CONTINUOUS
 62
7
 10
37.216702
 20
-96.000000
 11
37.216702
 21
-93.099998
  0
LINE
  8
0
  6
CONTINUOUS
 62
7
 10
153.783005
 20
-93.099998
 11
153.783005
 21
-96.000000
  0
LINE
  8
0
  6
CONTINUOUS
 62
7
 10
231.783005
 20
-96.000000
 11
231.783005
 21
-93.099998
  0
LINE
  8
0
  6
CONTINUOUS
 62
7
 10
164.283005
 20
92.000000
 11
221.283005
 21
92.000000
  0
LINE
  8
0
  6
CONTINUOUS
 62
7
 10
164.283005
 20
92.000000
 11
164.283005
 21
73.000000
  0
LINE
  8
0
  6
CONTINUOUS
 62
7
 10
172.283005
 20
80.000000
 11
172.283005
 21
73.000000
  0
LINE
  8
0
  6
CENTER
 62
2
 10
143.983002
 20
78.500000
 11
175.983002
 21
78.500000
  0
LINE
  8
0
  6
CONTINUOUS
 62
7
 10
160.283005
 20
74.800003
 11
164.283005
 21
74.800003
  0
LINE
  8
0
  6
CONTINUOUS
 62
7
 10
160.283005
 20
82.199997
 11
160.283005
 21
74.800003
  0
LINE
  8
0
  6
CONTINUOUS
 62
7
 10
160.283005
 20
82.199997
 11
164.283005
 21
82.199997
  0
LINE
  8
0
  6
CONTINUOUS
 62
7
 10
160.283005
 20
79.699997
 11
164.283005
 21
79.699997
  0
LINE
  8
0
  6
CONTINUOUS
 62
7
 10
160.283005
 20
80.931099
 11
164.283005
 21
80.931099
  0
LINE
  8
0
  6
CONTINUOUS
 62
7
 10
160.283005
 20
77.300003
 11
164.283005
 21
77.300003
  0
LINE
  8
0
  6
CONTINUOUS
 62
7
 10
160.283005
 20
76.068901
 11
164.283005
 21
76.068901
  0
LINE
  8
0
  6
CONTINUOUS
 62
7
 10
144.983002
 20
76.000000
 11
144.983002
 21
81.000000
  0
LINE
  8
0
  6
CONTINUOUS
 62
7
 10
144.983002
 20
81.000000
 11
160.283005
 21
81.000000
  0
LINE
  8
0
  6
CONTINUOUS
 62
7
 10
144.983002
 20
76.000000
 11
160.283005
 21
76.000000
  0
LINE
  8
0
  6
CONTINUOUS
 62
2
 10
144.983002
 20
76.400002
 11
160.283005
 21
76.400002
  0
LINE
  8
0
  6
CONTINUOUS
 62
2
 10
144.983002
 20
80.599998
 11
160.283005
 21
80.599998
  0
LINE
  8
0
  6
CONTINUOUS
 62
7
 10
164.283005
 20
73.000000
 11
172.283005
 21
73.000000
  0
LINE
  8
0
  6
CONTINUOUS
 62
7
 10
219.983002
 20
82.000000
 11
235.483002
 21
82.000000
  0
LINE
  8
0
  6
CONTINUOUS
 62
7
 10
235.483002
 20
74.000000
 11
235.483002
 21
82.000000
  0
LINE
  8
0
  6
CONTINUOUS
 62
7
 10
219.983002
 20
74.000000
 11
235.483002
 21
74.000000
  0
LINE
  8
0
  6
CONTINUOUS
 62
7
 10
221.283005
 20
92.000000
 11
221.283005
 21
83.000000
  0
LINE
  8
0
  6
CONTINUOUS
 62
7
 10
219.983002
 20
74.000000
 11
219.983002
 21
82.000000
  0
LINE
  8
0
  6
CONTINUOUS
 62
7
 10
145.783005
 20
76.000000
 11
145.783005
 21
72.500000
  0
LINE
  8
0
  6
CONTINUOUS
 62
7
 10
173.625000
 20
82.500000
 11
235.983002
 21
82.500000
  0
LINE
  8
0
  6
CONTINUOUS
 62
7
 10
175.283005
 20
83.000000
 11
237.783005
 21
83.000000
  0
LINE
  8
0
  6
CONTINUOUS
 62
7
 10
234.783005
 20
74.000000
 11
234.783005
 21
72.500000
  0
LINE
  8
0
  6
CONTINUOUS
 62
7
 10
172.283005
 20
42.000000
 11
172.283005
 21
50.000000
  0
LINE
  8
0
  6
CONTINUOUS
 62
7
 10
219.983002
 20
50.000000
 11
164.283005
 21
50.000000
  0
LINE
  8
0
  6
CENTER
 62
2
 10
175.983002
 20
46.000000
 11
143.983002
 21
46.000000
  0
LINE
  8
0
  6
CONTINUOUS
 62
7
 10
144.983002
 20
48.500000
 11
160.283005
 21
48.500000
  0
LINE
  8
0
  6
CONTINUOUS
 62
2
 10
144.983002
 20
48.099998
 11
160.283005
 21
48.099998
  0
LINE
  8
0
  6
CONTINUOUS
 62
2
 10
144.983002
 20
43.900002
 11
160.283005
 21
43.900002
  0
LINE
  8
0
  6
CONTINUOUS
 62
7
 10
144.983002
 20
48.500000
 11
144.983002
 21
43.500000
  0
LINE
  8
0
  6
CONTINUOUS
 62
7
 10
144.983002
 20
43.500000
 11
160.283005
 21
43.500000
  0
LINE
  8
0
  6
CONTINUOUS
 62
7
 10
164.283005
 20
42.000000
 11
164.283005
 21
50.000000
  0
LINE
  8
0
  6
CONTINUOUS
 62
7
 10
219.983002
 20
41.500000
 11
219.983002
 21
50.500000
  0
LINE
  8
0
  6
CONTINUOUS
 62
7
 10
164.283005
 20
49.500000
 11
160.283005
 21
49.500000
  0
LINE
  8
0
  6
CONTINUOUS
 62
7
 10
160.283005
 20
49.500000
 11
160.283005
 21
42.500000
  0
LINE
  8
0
  6
CONTINUOUS
 62
7
 10
164.283005
 20
48.789299
 11
160.283005
 21
48.789299
  0
LINE
  8
0
  6
CONTINUOUS
 62
7
 10
164.283005
 20
46.710800
 11
160.283005
 21
46.710800
  0
LINE
  8
0
  6
CONTINUOUS
 62
7
 10
164.283005
 20
45.289299
 11
160.283005
 21
45.289299
  0
LINE
  8
0
  6
CONTINUOUS
 62
7
 10
164.283005
 20
43.210800
 11
160.283005
 21
43.210800
  0
LINE
  8
0
  6
CONTINUOUS
 62
7
 10
164.283005
 20
42.500000
 11
160.283005
 21
42.500000
  0
LINE
  8
0
  6
CONTINUOUS
 62
7
 10
235.483002
 20
50.500000
 11
219.983002
 21
50.500000
  0
LINE
  8
0
  6
CONTINUOUS
 62
7
 10
235.483002
 20
41.500000
 11
235.483002
 21
50.500000
  0
LINE
  8
0
  6
CONTINUOUS
 62
7
 10
153.783005
 20
43.500000
 11
153.783005
 21
42.599998
  0
LINE
  8
0
  6
CONTINUOUS
 62
7
 10
219.983002
 20
42.000000
 11
163.432999
 21
42.000000
  0
LINE
  8
0
  6
CENTER
 62
2
 10
231.783005
 20
44.500000
 11
231.783005
 21
41.000000
  0
LINE
  8
0
  6
CONTINUOUS
 62
7
 10
102.282997
 20
50.000000
 11
102.282997
 21
42.000000
  0
LINE
  8
0
  6
CONTINUOUS
 62
7
 10
102.282997
 20
50.000000
 11
121.282997
 21
50.000000
  0
LINE
  8
0
  6
CONTINUOUS
 62
7
 10
113.351997
 20
48.789200
 11
112.152000
 21
46.710800
  0
LINE
  8
0
  6
CONTINUOUS
 62
7
 10
116.983002
 20
49.500000
 11
114.583000
 21
49.500000
  0
LINE
  8
0
  6
CONTINUOUS
 62
7
 10
118.213997
 20
48.789299
 11
119.414001
 21
46.710800
  0
LINE
  8
0
  6
CONTINUOUS
 62
7
 10
119.414001
 20
45.289200
 11
118.213997
 21
43.210800
  0
LINE
  8
0
  6
CONTINUOUS
 62
7
 10
114.583000
 20
42.500000
 11
116.983002
 21
42.500000
  0
LINE
  8
0
  6
CONTINUOUS
 62
7
 10
112.152000
 20
45.289299
 11
113.351997
 21
43.210800
  0
LINE
  8
0
  6
CONTINUOUS
 62
7
 10
112.282997
 20
50.500000
 11
112.282997
 21
50.000000
  0
LINE
  8
0
  6
CONTINUOUS
 62
7
 10
120.282997
 20
50.500000
 11
120.282997
 21
50.000000
  0
LINE
  8
0
  6
CONTINUOUS
 62
7
 10
120.282997
 20
50.500000
 11
112.282997
 21
50.500000
  0
LINE
  8
0
  6
CONTINUOUS
 62
7
 10
120.282997
 20
42.000000
 11
120.282997
 21
41.500000
  0
LINE
  8
0
  6
CONTINUOUS
 62
7
 10
116.504997
 20
47.250000
 11
117.226997
 21
46.000000
  0
LINE
  8
0
  6
CONTINUOUS
 62
7
 10
117.226997
 20
46.000000
 11
116.504997
 21
44.750000
  0
LINE
  8
0
  6
CONTINUOUS
 62
7
 10
115.061996
 20
44.750000
 11
116.504997
 21
44.750000
  0
LINE
  8
0
  6
CONTINUOUS
 62
7
 10
114.339996
 20
46.000000
 11
115.061996
 21
44.750000
  0
LINE
  8
0
  6
CONTINUOUS
 62
7
 10
115.061996
 20
47.250000
 11
114.339996
 21
46.000000
  0
LINE
  8
0
  6
CONTINUOUS
 62
7
 10
116.504997
 20
47.250000
 11
115.061996
 21
47.250000
  0
LINE
  8
0
  6
CENTER
 62
2
 10
120.483002
 20
46.000000
 11
111.083000
 21
46.000000
  0
LINE
  8
0
  6
CENTER
 62
2
 10
115.782997
 20
41.299999
 11
115.782997
 21
50.700001
  0
LINE
  8
0
  6
CONTINUOUS
 62
7
 10
121.282997
 20
50.000000
 11
121.282997
 21
42.000000
  0
LINE
  8
0
  6
CONTINUOUS
 62
7
 10
112.282997
 20
42.000000
 11
112.282997
 21
41.500000
  0
LINE
  8
0
  6
CONTINUOUS
 62
7
 10
274.282990
 20
50.000000
 11
274.282990
 21
42.000000
  0
LINE
  8
0
  6
CONTINUOUS
 62
7
 10
274.282990
 20
50.000000
 11
264.282990
 21
50.000000
  0
LINE
  8
0
  6
CONTINUOUS
 62
7
 10
264.282990
 20
50.500000
 11
264.282990
 21
41.500000
  0
LINE
  8
0
  6
CONTINUOUS
 62
7
 10
256.282990
 20
50.500000
 11
256.282990
 21
41.500000
  0
LINE
  8
0
  6
CONTINUOUS
 62
7
 10
256.282990
 20
50.500000
 11
264.282990
 21
50.500000
  0
LINE
  8
0
  6
CONTINUOUS
 62
7
 10
255.283005
 20
50.000000
 11
255.283005
 21
42.000000
  0
LINE
  8
0
  6
CONTINUOUS
 62
7
 10
256.282990
 20
42.000000
 11
255.283005
 21
42.000000
  0
LINE
  8
0
  6
CONTINUOUS
 62
7
 10
256.282990
 20
50.000000
 11
255.283005
 21
50.000000
  0
LINE
  8
0
  6
CONTINUOUS
 62
7
 10
235.483002
 20
-93.099998
 11
235.483002
 21
-101.000000
  0
LINE
  8
0
  6
CONTINUOUS
 62
7
 10
144.983002
 20
-99.000000
 11
144.983002
 21
-94.000000
  0
LINE
  8
0
  6
CONTINUOUS
 62
7
 10
221.283005
 20
-100.500000
 11
164.283005
 21
-100.500000
  0
LINE
  8
0
  6
CENTER
 62
2
 10
165.283005
 20
-96.500000
 11
143.983002
 21
-96.500000
  0
LINE
  8
0
  6
CONTINUOUS
 62
7
 10
144.983002
 20
-99.000000
 11
160.283005
 21
-99.000000
  0
LINE
  8
0
  6
CONTINUOUS
 62
2
 10
144.983002
 20
-98.599998
 11
160.283005
 21
-98.599998
  0
LINE
  8
0
  6
CONTINUOUS
 62
2
 10
144.983002
 20
-94.400002
 11
150.283005
 21
-94.400002
  0
LINE
  8
0
  6
CONTINUOUS
 62
7
 10
144.983002
 20
-94.000000
 11
150.283005
 21
-94.000000
  0
LINE
  8
0
  6
CONTINUOUS
 62
7
 10
164.283005
 20
-92.500000
 11
164.283005
 21
-100.500000
  0
LINE
  8
0
  6
CONTINUOUS
 62
7
 10
219.983002
 20
-100.500000
 11
219.983002
 21
-101.000000
  0
LINE
  8
0
  6
CONTINUOUS
 62
7
 10
164.283005
 20
-100.000000
 11
160.283005
 21
-100.000000
  0
LINE
  8
0
  6
CONTINUOUS
 62
7
 10
160.283005
 20
-100.000000
 11
160.283005
 21
-93.000000
  0
LINE
  8
0
  6
CONTINUOUS
 62
7
 10
164.283005
 20
-99.289200
 11
160.283005
 21
-99.289200
  0
LINE
  8
0
  6
CONTINUOUS
 62
7
 10
164.283005
 20
-97.210800
 11
160.283005
 21
-97.210800
  0
LINE
  8
0
  6
CONTINUOUS
 62
7
 10
164.283005
 20
-95.789200
 11
160.283005
 21
-95.789200
  0
LINE
  8
0
  6
CONTINUOUS
 62
7
 10
164.283005
 20
-93.710701
 11
160.283005
 21
-93.710701
  0
LINE
  8
0
  6
CONTINUOUS
 62
7
 10
164.283005
 20
-93.000000
 11
160.283005
 21
-93.000000
  0
LINE
  8
0
  6
CONTINUOUS
 62
7
 10
235.483002
 20
-101.000000
 11
219.983002
 21
-101.000000
  0
LINE
  8
0
  6
CONTINUOUS
 62
7
 10
221.283005
 20
-92.500000
 11
221.283005
 21
-100.500000
  0
LINE
  8
0
  6
CONTINUOUS
 62
7
 10
157.283005
 20
-94.000000
 11
160.283005
 21
-94.000000
  0
LINE
  8
0
  6
CONTINUOUS
 62
2
 10
157.283005
 20
-94.400002
 11
160.283005
 21
-94.400002
  0
LINE
  8
0
  6
CENTER
 62
2
 10
-151.000000
 20
28.000000
 11
-223.000000
 21
28.000000
  0
LINE
  8
0
  6
CONTINUOUS
 62
7
 10
-154.300003
 20
41.500000
 11
-222.000000
 21
41.500000
  0
LINE
  8
0
  6
CONTINUOUS
 62
7
 10
-155.000000
 20
14.500000
 11
-222.000000
 21
14.500000
  0
LINE
  8
0
  6
CONTINUOUS
 62
7
 10
-155.000000
 20
21.000000
 11
-214.000000
 21
21.000000
  0
LINE
  8
0
  6
CONTINUOUS
 62
7
 10
-155.000000
 20
35.000000
 11
-214.000000
 21
35.000000
  0
LINE
  8
0
  6
CONTINUOUS
 62
7
 10
-152.000000
 20
14.000000
 11
-196.350006
 21
14.000000
  0
LINE
  8
0
  6
CONTINUOUS
 62
7
 10
-152.000000
 20
42.000000
 11
-152.000000
 21
14.000000
  0
LINE
  8
0
  6
CONTINUOUS
 62
7
 10
-214.000000
 20
41.500000
 11
-214.000000
 21
14.500000
  0
LINE
  8
0
  6
CONTINUOUS
 62
7
 10
-155.000000
 20
41.500000
 11
-155.000000
 21
14.500000
  0
LINE
  8
0
  6
CONTINUOUS
 62
7
 10
-212.000000
 20
14.500000
 11
-212.000000
 21
14.000000
  0
LINE
  8
0
  6
CONTINUOUS
 62
7
 10
-212.000000
 20
42.000000
 11
-212.000000
 21
41.500000
  0
LINE
  8
0
  6
CONTINUOUS
 62
7
 10
-152.000000
 20
42.000000
 11
-154.300003
 21
42.000000
  0
LINE
  8
0
  6
CONTINUOUS
 62
7
 10
-199.649994
 20
14.000000
 11
-199.649994
 21
14.500000
  0
LINE
  8
0
  6
CONTINUOUS
 62
7
 10
-196.350006
 20
14.000000
 11
-196.350006
 21
14.500000
  0
LINE
  8
0
  6
CONTINUOUS
 62
7
 10
-196.350006
 20
41.500000
 11
-196.350006
 21
42.000000
  0
LINE
  8
0
  6
CONTINUOUS
 62
7
 10
-199.649994
 20
41.500000
 11
-199.649994
 21
42.000000
  0
LINE
  8
0
  6
CONTINUOUS
 62
7
 10
-199.649994
 20
14.000000
 11
-212.000000
 21
14.000000
  0
LINE
  8
0
  6
CONTINUOUS
 62
7
 10
-199.649994
 20
42.000000
 11
-212.000000
 21
42.000000
  0
LINE
  8
0
  6
CONTINUOUS
 62
7
 10
-222.000000
 20
41.500000
 11
-222.000000
 21
14.500000
  0
LINE
  8
0
  6
CENTER
 62
2
 10
-205.000000
 20
40.500000
 11
-205.000000
 21
35.500000
  0
LINE
  8
0
  6
CENTER
 62
2
 10
-207.500000
 20
38.000000
 11
-202.500000
 21
38.000000
  0
LINE
  8
0
  6
CENTER
 62
2
 10
-205.000000
 20
20.500000
 11
-205.000000
 21
15.500000
  0
LINE
  8
0
  6
CENTER
 62
2
 10
-207.500000
 20
18.000000
 11
-202.500000
 21
18.000000
  0
LINE
  8
0
  6
CENTER
 62
2
 10
-169.000000
 20
40.500000
 11
-169.000000
 21
35.500000
  0
LINE
  8
0
  6
CENTER
 62
2
 10
-171.500000
 20
38.000000
 11
-166.500000
 21
38.000000
  0
LINE
  8
0
  6
CENTER
 62
2
 10
-183.000000
 20
41.099998
 11
-183.000000
 21
35.900002
  0
LINE
  8
0
  6
CENTER
 62
2
 10
-185.600006
 20
38.500000
 11
-180.399994
 21
38.500000
  0
LINE
  8
0
  6
CENTER
 62
2
 10
-169.000000
 20
20.500000
 11
-169.000000
 21
15.500000
  0
LINE
  8
0
  6
CENTER
 62
2
 10
-171.500000
 20
18.000000
 11
-166.500000
 21
18.000000
  0
LINE
  8
0
  6
CENTER
 62
2
 10
-187.000000
 20
40.500000
 11
-187.000000
 21
35.500000
  0
LINE
  8
0
  6
CENTER
 62
2
 10
-189.500000
 20
38.000000
 11
-184.500000
 21
38.000000
  0
LINE
  8
0
  6
CENTER
 62
2
 10
-187.000000
 20
20.500000
 11
-187.000000
 21
15.500000
  0
LINE
  8
0
  6
CENTER
 62
2
 10
-189.500000
 20
18.000000
 11
-184.500000
 21
18.000000
  0
LINE
  8
0
  6
CONTINUOUS
 62
7
 10
-153.800003
 20
14.700000
 11
-155.000000
 21
14.700000
  0
LINE
  8
0
  6
CONTINUOUS
 62
7
 10
-153.800003
 20
19.250000
 11
-153.800003
 21
14.700000
  0
LINE
  8
0
  6
CONTINUOUS
 62
7
 10
-153.800003
 20
33.250000
 11
-153.800003
 21
22.750000
  0
LINE
  8
0
  6
CONTINUOUS
 62
7
 10
-154.399994
 20
33.250000
 11
-154.399994
 21
36.750000
  0
LINE
  8
0
  6
CONTINUOUS
 62
7
 10
-154.399994
 20
33.250000
 11
-153.399994
 21
33.250000
  0
LINE
  8
0
  6
CONTINUOUS
 62
7
 10
-153.399994
 20
33.250000
 11
-153.399994
 21
36.750000
  0
LINE
  8
0
  6
CONTINUOUS
 62
7
 10
-154.399994
 20
36.750000
 11
-153.399994
 21
36.750000
  0
LINE
  8
0
  6
CONTINUOUS
 62
7
 10
-153.800003
 20
36.750000
 11
-153.800003
 21
41.299999
  0
LINE
  8
0
  6
CONTINUOUS
 62
7
 10
-153.800003
 20
41.299999
 11
-155.000000
 21
41.299999
  0
LINE
  8
0
  6
CONTINUOUS
 62
7
 10
-209.899994
 20
42.599998
 11
-209.899994
 21
42.000000
  0
LINE
  8
0
  6
CONTINUOUS
 62
7
 10
-154.399994
 20
22.750000
 11
-154.399994
 21
19.250000
  0
LINE
  8
0
  6
CONTINUOUS
 62
7
 10
-154.399994
 20
22.750000
 11
-153.399994
 21
22.750000
  0
LINE
  8
0
  6
CONTINUOUS
 62
7
 10
-153.399994
 20
19.250000
 11
-153.399994
 21
22.750000
  0
LINE
  8
0
  6
CONTINUOUS
 62
7
 10
-154.399994
 20
19.250000
 11
-153.399994
 21
19.250000
  0
LINE
  8
0
  6
DASHED
 62
2
 10
-196.350006
 20
17.500000
 11
-196.350006
 21
14.500000
  0
LINE
  8
0
  6
DASHED
 62
2
 10
-199.649994
 20
17.500000
 11
-199.649994
 21
14.500000
  0
LINE
  8
0
  6
DASHED
 62
2
 10
-196.350006
 20
38.500000
 11
-196.350006
 21
41.500000
  0
LINE
  8
0
  6
DASHED
 62
2
 10
-199.649994
 20
38.500000
 11
-199.649994
 21
41.500000
  0
LINE
  8
0
  6
CENTER
 62
2
 10
-166.000000
 20
42.500000
 11
-166.000000
 21
34.500000
  0
LINE
  8
0
  6
CENTER
 62
2
 10
-170.000000
 20
38.500000
 11
-162.000000
 21
38.500000
  0
LINE
  8
0
  6
CENTER
 62
2
 10
-166.000000
 20
21.500000
 11
-166.000000
 21
13.500000
  0
LINE
  8
0
  6
CENTER
 62
2
 10
-170.000000
 20
17.500000
 11
-162.000000
 21
17.500000
  0
LINE
  8
0
  6
CENTER
 62
2
 10
-198.000000
 20
21.500000
 11
-198.000000
 21
13.500000
  0
LINE
  8
0
  6
CENTER
 62
2
 10
-202.000000
 20
17.500000
 11
-194.000000
 21
17.500000
  0
LINE
  8
0
  6
CENTER
 62
2
 10
-198.000000
 20
42.500000
 11
-198.000000
 21
34.500000
  0
LINE
  8
0
  6
CENTER
 62
2
 10
-202.000000
 20
38.500000
 11
-194.000000
 21
38.500000
  0
LINE
  8
0
  6
CENTER
 62
2
 10
-206.000000
 20
44.500000
 11
-206.000000
 21
41.000000
  0
LINE
  8
0
  6
CONTINUOUS
 62
7
 10
-202.000000
 20
42.599998
 11
-202.000000
 21
42.000000
  0
LINE
  8
0
  6
CONTINUOUS
 62
7
 10
-209.500000
 20
43.500000
 11
-209.500000
 21
42.599998
  0
LINE
  8
0
  6
CONTINUOUS
 62
7
 10
-202.500000
 20
43.500000
 11
-202.500000
 21
42.599998
  0
LINE
  8
0
  6
CONTINUOUS
 62
7
 10
-202.000000
 20
42.599998
 11
-209.899994
 21
42.599998
  0
LINE
  8
0
  6
CENTER
 62
2
 10
-224.000000
 20
38.000000
 11
-220.000000
 21
38.000000
  0
LINE
  8
0
  6
CENTER
 62
2
 10
-224.000000
 20
18.000000
 11
-220.000000
 21
18.000000
  0
LINE
  8
0
  6
CONTINUOUS
 62
7
 10
-57.783298
 20
41.500000
 11
-57.783298
 21
35.000000
  0
LINE
  8
0
  6
CONTINUOUS
 62
7
 10
-58.083302
 20
34.700001
 11
-58.083302
 21
21.299999
  0
LINE
  8
0
  6
CONTINUOUS
 62
7
 10
-57.783298
 20
14.500000
 11
-57.783298
 21
21.000000
  0
LINE
  8
0
  6
CONTINUOUS
 62
7
 10
-57.783298
 20
14.500000
 11
-76.783302
 21
14.500000
  0
LINE
  8
0
  6
CONTINUOUS
 62
7
 10
-57.783298
 20
41.500000
 11
-76.783302
 21
41.500000
  0
LINE
  8
0
  6
CONTINUOUS
 62
7
 10
-57.783298
 20
35.000000
 11
-58.083401
 21
34.700001
  0
LINE
  8
0
  6
CONTINUOUS
 62
7
 10
-57.783298
 20
21.000000
 11
-58.083401
 21
21.299999
  0
LINE
  8
0
  6
CONTINUOUS
 62
7
 10
-68.283302
 20
14.000000
 11
-68.283302
 21
14.500000
  0
LINE
  8
0
  6
CONTINUOUS
 62
7
 10
-77.783302
 20
14.000000
 11
-77.783302
 21
42.000000
  0
LINE
  8
0
  6
CONTINUOUS
 62
7
 10
-68.283302
 20
14.000000
 11
-77.783302
 21
14.000000
  0
LINE
  8
0
  6
CONTINUOUS
 62
7
 10
-76.783302
 20
14.500000
 11
-76.783302
 21
41.500000
  0
LINE
  8
0
  6
CONTINUOUS
 62
7
 10
-58.283298
 20
41.500000
 11
-58.283298
 21
14.500000
  0
LINE
  8
0
  6
CONTINUOUS
 62
7
 10
-58.283298
 20
42.000000
 11
-77.783302
 21
42.000000
  0
LINE
  8
0
  6
CONTINUOUS
 62
7
 10
-68.283302
 20
42.000000
 11
-68.283302
 21
41.500000
  0
LINE
  8
0
  6
CONTINUOUS
 62
7
 10
-76.324799
 20
45.500000
 11
-76.324799
 21
42.599998
  0
LINE
  8
0
  6
CONTINUOUS
 62
7
 10
-74.304001
 20
45.500000
 11
-74.304001
 21
42.599998
  0
LINE
  8
0
  6
CONTINUOUS
 62
7
 10
-70.262604
 20
45.500000
 11
-70.262604
 21
42.599998
  0
LINE
  8
0
  6
CONTINUOUS
 62
7
 10
-68.241898
 20
45.500000
 11
-76.324799
 21
45.500000
  0
LINE
  8
0
  6
CONTINUOUS
 62
7
 10
-68.241898
 20
45.500000
 11
-68.241898
 21
42.599998
  0
LINE
  8
0
  6
CONTINUOUS
 62
7
 10
-68.241898
 20
42.599998
 11
-76.324799
 21
42.599998
  0
LINE
  8
0
  6
CONTINUOUS
 62
7
 10
-68.383301
 20
42.599998
 11
-68.383301
 21
42.000000
  0
LINE
  8
0
  6
CONTINUOUS
 62
7
 10
-76.183296
 20
42.599998
 11
-76.183296
 21
42.000000
  0
LINE
  8
0
  6
CENTER
 62
2
 10
-70.783302
 20
41.000000
 11
-70.783302
 21
15.000000
  0
LINE
  8
0
  6
CENTER
 62
2
 10
-78.783302
 20
28.000000
 11
-56.783298
 21
28.000000
  0
LINE
  8
0
  6
CENTER
 62
2
 10
-61.783298
 20
31.000000
 11
-61.783298
 21
25.000000
  0
LINE
  8
0
  6
CENTER
 62
2
 10
-73.783302
 20
38.000000
 11
-57.783298
 21
38.000000
  0
LINE
  8
0
  6
CENTER
 62
2
 10
-61.783298
 20
42.000000
 11
-61.783298
 21
34.000000
  0
LINE
  8
0
  6
CENTER
 62
2
 10
-73.783302
 20
18.000000
 11
-57.783298
 21
18.000000
  0
LINE
  8
0
  6
CENTER
 62
2
 10
-61.783298
 20
22.000000
 11
-61.783298
 21
14.000000
  0
LINE
  8
0
  6
CENTER
 62
2
 10
-72.283302
 20
46.500000
 11
-72.283302
 21
41.000000
  0
LINE
  8
0
  6
CONTINUOUS
 62
7
 10
-214.000000
 20
91.500000
 11
-214.000000
 21
81.000000
  0
LINE
  8
0
  6
CONTINUOUS
 62
7
 10
-222.000000
 20
91.500000
 11
-222.000000
 21
73.000000
  0
LINE
  8
0
  6
CONTINUOUS
 62
7
 10
-214.000000
 20
89.500000
 11
-212.000000
 21
89.500000
  0
LINE
  8
0
  6
CONTINUOUS
 62
7
 10
-222.000000
 20
91.500000
 11
-214.000000
 21
91.500000
  0
LINE
  8
0
  6
CONTINUOUS
 62
7
 10
-222.000000
 20
73.000000
 11
-214.000000
 21
73.000000
  0
LINE
  8
0
  6
CONTINUOUS
 62
7
 10
-214.000000
 20
72.500000
 11
-155.000000
 21
72.500000
  0
LINE
  8
0
  6
CONTINUOUS
 62
7
 10
-212.000000
 20
92.500000
 11
-212.000000
 21
82.500000
  0
LINE
  8
0
  6
CONTINUOUS
 62
7
 10
-152.000000
 20
92.500000
 11
-152.000000
 21
77.000000
  0
LINE
  8
0
  6
CONTINUOUS
 62
7
 10
-212.000000
 20
92.500000
 11
-152.000000
 21
92.500000
  0
LINE
  8
0
  6
CONTINUOUS
 62
7
 10
-162.800003
 20
87.000000
 11
-168.500000
 21
87.000000
  0
LINE
  8
0
  6
CONTINUOUS
 62
7
 10
-212.000000
 20
83.000000
 11
-195.500000
 21
83.000000
  0
LINE
  8
0
  6
CONTINUOUS
 62
7
 10
-214.000000
 20
82.500000
 11
-195.500000
 21
82.500000
  0
LINE
  8
0
  6
CONTINUOUS
 62
7
 10
-201.199997
 20
87.000000
 11
-195.500000
 21
87.000000
  0
LINE
  8
0
  6
CONTINUOUS
 62
7
 10
-153.399994
 20
77.000000
 11
-152.000000
 21
77.000000
  0
LINE
  8
0
  6
CONTINUOUS
 62
7
 10
-153.800003
 20
77.903397
 11
-152.000000
 21
77.903397
  0
LINE
  8
0
  6
CONTINUOUS
 62
7
 10
-153.800003
 20
80.096603
 11
-152.000000
 21
80.096603
  0
LINE
  8
0
  6
CONTINUOUS
 62
7
 10
-155.000000
 20
82.500000
 11
-155.000000
 21
82.000000
  0
LINE
  8
0
  6
CONTINUOUS
 62
7
 10
-199.649994
 20
92.500000
 11
-199.649994
 21
87.000000
  0
LINE
  8
0
  6
DASHED
 62
2
 10
-201.000000
 20
87.500000
 11
-199.649994
 21
87.500000
  0
LINE
  8
0
  6
CENTER
 62
2
 10
-198.000000
 20
93.500000
 11
-198.000000
 21
86.000000
  0
LINE
  8
0
  6
CONTINUOUS
 62
7
 10
-196.350006
 20
92.500000
 11
-196.350006
 21
87.000000
  0
LINE
  8
0
  6
CONTINUOUS
 62
7
 10
-206.000000
 20
82.958603
 11
-202.500000
 21
84.979301
  0
LINE
  8
0
  6
CONTINUOUS
 62
7
 10
-202.500000
 20
89.020798
 11
-202.500000
 21
84.979301
  0
LINE
  8
0
  6
CONTINUOUS
 62
7
 10
-206.000000
 20
91.041496
 11
-202.500000
 21
89.020699
  0
LINE
  8
0
  6
CONTINUOUS
 62
7
 10
-209.500000
 20
89.020699
 11
-206.000000
 21
91.041496
  0
LINE
  8
0
  6
CONTINUOUS
 62
7
 10
-209.500000
 20
84.979301
 11
-209.500000
 21
89.020798
  0
LINE
  8
0
  6
CONTINUOUS
 62
7
 10
-202.500000
 20
87.500000
 11
-209.500000
 21
87.500000
  0
LINE
  8
0
  6
CONTINUOUS
 62
7
 10
-202.500000
 20
86.500000
 11
-209.500000
 21
86.500000
  0
LINE
  8
0
  6
CONTINUOUS
 62
7
 10
-209.500000
 20
84.979301
 11
-206.000000
 21
82.958603
  0
LINE
  8
0
  6
CONTINUOUS
 62
7
 10
-158.000000
 20
82.958504
 11
-154.500000
 21
84.979202
  0
LINE
  8
0
  6
CONTINUOUS
 62
7
 10
-154.500000
 20
89.020798
 11
-154.500000
 21
84.979301
  0
LINE
  8
0
  6
CONTINUOUS
 62
7
 10
-158.000000
 20
91.041496
 11
-154.500000
 21
89.020798
  0
LINE
  8
0
  6
CONTINUOUS
 62
7
 10
-161.500000
 20
89.020699
 11
-158.000000
 21
91.041496
  0
LINE
  8
0
  6
CONTINUOUS
 62
7
 10
-161.500000
 20
84.979301
 11
-161.500000
 21
89.020798
  0
LINE
  8
0
  6
CONTINUOUS
 62
7
 10
-154.500000
 20
87.500000
 11
-161.500000
 21
87.500000
  0
LINE
  8
0
  6
CONTINUOUS
 62
7
 10
-154.500000
 20
86.500000
 11
-161.500000
 21
86.500000
  0
LINE
  8
0
  6
CONTINUOUS
 62
7
 10
-161.500000
 20
84.979301
 11
-158.000000
 21
82.958603
  0
LINE
  8
0
  6
CONTINUOUS
 62
7
 10
-155.000000
 20
73.000000
 11
-153.800003
 21
73.000000
  0
LINE
  8
0
  6
CONTINUOUS
 62
7
 10
-153.800003
 20
82.500000
 11
-153.800003
 21
73.000000
  0
LINE
  8
0
  6
CONTINUOUS
 62
7
 10
-153.399994
 20
77.250000
 11
-153.399994
 21
73.750000
  0
LINE
  8
0
  6
CONTINUOUS
 62
7
 10
-153.800003
 20
73.750000
 11
-153.399994
 21
73.750000
  0
LINE
  8
0
  6
CONTINUOUS
 62
7
 10
-153.800003
 20
77.250000
 11
-153.399994
 21
77.250000
  0
LINE
  8
0
  6
CENTER
 62
2
 10
-158.000000
 20
92.041496
 11
-158.000000
 21
81.958603
  0
LINE
  8
0
  6
CENTER
 62
2
 10
-162.800003
 20
87.000000
 11
-152.959000
 21
87.000000
  0
LINE
  8
0
  6
CENTER
 62
2
 10
-206.000000
 20
92.041496
 11
-206.000000
 21
81.958603
  0
LINE
  8
0
  6
CENTER
 62
2
 10
-211.041000
 20
87.000000
 11
-201.199997
 21
87.000000
  0
LINE
  8
0
  6
CENTER
 62
2
 10
23.066700
 20
78.199997
 11
23.066700
 21
74.199997
  0
LINE
  8
0
  6
CENTER
 62
2
 10
21.066700
 20
76.199997
 11
25.066700
 21
76.199997
  0
LINE
  8
0
  6
CENTER
 62
2
 10
-205.000000
 20
74.500000
 11
-205.000000
 21
70.500000
  0
LINE
  8
0
  6
CENTER
 62
2
 10
-187.000000
 20
74.500000
 11
-187.000000
 21
70.500000
  0
LINE
  8
0
  6
CENTER
 62
2
 10
-169.000000
 20
74.500000
 11
-169.000000
 21
70.500000
  0
LINE
  8
0
  6
CENTER
 62
2
 10
-224.000000
 20
85.500000
 11
-220.000000
 21
85.500000
  0
LINE
  8
0
  6
CENTER
 62
2
 10
-224.000000
 20
76.500000
 11
-220.000000
 21
76.500000
  0
LINE
  8
0
  6
DASHED
 62
2
 10
-201.000000
 20
87.500000
 11
-201.000000
 21
87.000000
  0
LINE
  8
0
  6
DASHED
 62
2
 10
-195.000000
 20
87.500000
 11
-195.000000
 21
87.000000
  0
LINE
  8
0
  6
CONTINUOUS
 62
7
 10
-199.649994
 20
87.500000
 11
-196.350006
 21
87.500000
  0
LINE
  8
0
  6
DASHED
 62
2
 10
-196.350006
 20
87.500000
 11
-195.000000
 21
87.500000
  0
LINE
  8
0
  6
CONTINUOUS
 62
7
 10
-214.000000
 20
-92.000000
 11
-214.000000
 21
-65.000000
  0
LINE
  8
0
  6
CONTINUOUS
 62
7
 10
-196.350006
 20
-92.000000
 11
-199.649994
 21
-92.000000
  0
LINE
  8
0
  6
CONTINUOUS
 62
7
 10
-196.350006
 20
-65.000000
 11
-199.649994
 21
-65.000000
  0
LINE
  8
0
  6
CONTINUOUS
 62
7
 10
-212.000000
 20
-92.500000
 11
-212.000000
 21
-64.500000
  0
LINE
  8
0
  6
CONTINUOUS
 62
7
 10
-152.000000
 20
-64.500000
 11
-196.350006
 21
-64.500000
  0
LINE
  8
0
  6
CONTINUOUS
 62
7
 10
-152.000000
 20
-92.500000
 11
-152.000000
 21
-64.500000
  0
LINE
  8
0
  6
CENTER
 62
2
 10
-151.000000
 20
-78.500000
 11
-223.000000
 21
-78.500000
  0
LINE
  8
0
  6
CONTINUOUS
 62
7
 10
-152.000000
 20
-92.500000
 11
-196.350006
 21
-92.500000
  0
LINE
  8
0
  6
CONTINUOUS
 62
7
 10
-199.649994
 20
-64.500000
 11
-212.000000
 21
-64.500000
  0
LINE
  8
0
  6
CONTINUOUS
 62
7
 10
-199.649994
 20
-92.500000
 11
-212.000000
 21
-92.500000
  0
LINE
  8
0
  6
CONTINUOUS
 62
7
 10
-212.000000
 20
-65.000000
 11
-222.000000
 21
-65.000000
  0
LINE
  8
0
  6
CONTINUOUS
 62
7
 10
-212.000000
 20
-92.000000
 11
-222.000000
 21
-92.000000
  0
LINE
  8
0
  6
CONTINUOUS
 62
7
 10
-222.000000
 20
-92.000000
 11
-222.000000
 21
-65.000000
  0
LINE
  8
0
  6
CONTINUOUS
 62
7
 10
-212.000000
 20
-82.500000
 11
-214.000000
 21
-82.500000
  0
LINE
  8
0
  6
CONTINUOUS
 62
7
 10
-212.000000
 20
-74.500000
 11
-214.000000
 21
-74.500000
  0
LINE
  8
0
  6
CONTINUOUS
 62
7
 10
-202.500000
 20
-96.000000
 11
-209.500000
 21
-96.000000
  0
LINE
  8
0
  6
CONTINUOUS
 62
7
 10
-154.500000
 20
-96.000000
 11
-161.500000
 21
-96.000000
  0
LINE
  8
0
  6
CENTER
 62
2
 10
-198.000000
 20
-65.349998
 11
-198.000000
 21
-70.650002
  0
LINE
  8
0
  6
CENTER
 62
2
 10
-200.649994
 20
-68.000000
 11
-195.350006
 21
-68.000000
  0
LINE
  8
0
  6
CENTER
 62
2
 10
-198.000000
 20
-86.349998
 11
-198.000000
 21
-91.650002
  0
LINE
  8
0
  6
CENTER
 62
2
 10
-200.649994
 20
-89.000000
 11
-195.350006
 21
-89.000000
  0
LINE
  8
0
  6
CENTER
 62
2
 10
-186.000000
 20
-85.500000
 11
-186.000000
 21
-92.500000
  0
LINE
  8
0
  6
CENTER
 62
2
 10
-189.500000
 20
-89.000000
 11
-182.500000
 21
-89.000000
  0
LINE
  8
0
  6
CENTER
 62
2
 10
-186.000000
 20
-64.500000
 11
-186.000000
 21
-71.500000
  0
LINE
  8
0
  6
CENTER
 62
2
 10
-189.500000
 20
-68.000000
 11
-182.500000
 21
-68.000000
  0
LINE
  8
0
  6
CENTER
 62
2
 10
-166.000000
 20
-65.000000
 11
-166.000000
 21
-71.000000
  0
LINE
  8
0
  6
CENTER
 62
2
 10
-169.000000
 20
-68.000000
 11
-163.000000
 21
-68.000000
  0
LINE
  8
0
  6
CENTER
 62
2
 10
-166.000000
 20
-86.000000
 11
-166.000000
 21
-92.000000
  0
LINE
  8
0
  6
CENTER
 62
2
 10
-169.000000
 20
-89.000000
 11
-163.000000
 21
-89.000000
  0
LINE
  8
0
  6
CONTINUOUS
 62
7
 10
-199.649994
 20
-64.500000
 11
-199.649994
 21
-68.000000
  0
LINE
  8
0
  6
CONTINUOUS
 62
7
 10
-196.350006
 20
-64.500000
 11
-196.350006
 21
-68.000000
  0
LINE
  8
0
  6
CONTINUOUS
 62
7
 10
-199.649994
 20
-89.000000
 11
-199.649994
 21
-92.500000
  0
LINE
  8
0
  6
CONTINUOUS
 62
7
 10
-196.350006
 20
-89.000000
 11
-196.350006
 21
-92.500000
  0
LINE
  8
0
  6
CENTER
 62
2
 10
-206.000000
 20
-91.500000
 11
-206.000000
 21
-97.000000
  0
LINE
  8
0
  6
CONTINUOUS
 62
7
 10
-202.100006
 20
-93.099998
 11
-209.899994
 21
-93.099998
  0
LINE
  8
0
  6
CONTINUOUS
 62
7
 10
-209.899994
 20
-92.500000
 11
-209.899994
 21
-93.099998
  0
LINE
  8
0
  6
CONTINUOUS
 62
7
 10
-202.100006
 20
-92.500000
 11
-202.100006
 21
-93.099998
  0
LINE
  8
0
  6
CONTINUOUS
 62
7
 10
-202.500000
 20
-93.099998
 11
-202.500000
 21
-96.000000
  0
LINE
  8
0
  6
CONTINUOUS
 62
7
 10
-209.500000
 20
-93.099998
 11
-209.500000
 21
-96.000000
  0
LINE
  8
0
  6
CENTER
 62
2
 10
-158.000000
 20
-97.000000
 11
-158.000000
 21
-91.500000
  0
LINE
  8
0
  6
CONTINUOUS
 62
7
 10
-154.100006
 20
-93.099998
 11
-161.899994
 21
-93.099998
  0
LINE
  8
0
  6
CONTINUOUS
 62
7
 10
-154.100006
 20
-93.099998
 11
-154.100006
 21
-92.500000
  0
LINE
  8
0
  6
CONTINUOUS
 62
7
 10
-161.899994
 20
-93.099998
 11
-161.899994
 21
-92.500000
  0
LINE
  8
0
  6
CONTINUOUS
 62
7
 10
-154.500000
 20
-96.000000
 11
-154.500000
 21
-93.099998
  0
LINE
  8
0
  6
CONTINUOUS
 62
7
 10
-161.500000
 20
-96.000000
 11
-161.500000
 21
-93.099998
  0
LINE
  8
0
  6
CONTINUOUS
 62
7
 10
-214.000000
 20
-35.500000
 11
-214.000000
 21
-16.500000
  0
LINE
  8
0
  6
CONTINUOUS
 62
7
 10
-222.000000
 20
-35.500000
 11
-222.000000
 21
-17.000000
  0
LINE
  8
0
  6
CONTINUOUS
 62
7
 10
-214.000000
 20
-33.500000
 11
-212.000000
 21
-33.500000
  0
LINE
  8
0
  6
CONTINUOUS
 62
7
 10
-222.000000
 20
-35.500000
 11
-214.000000
 21
-35.500000
  0
LINE
  8
0
  6
CONTINUOUS
 62
7
 10
-222.000000
 20
-17.000000
 11
-214.000000
 21
-17.000000
  0
LINE
  8
0
  6
CONTINUOUS
 62
7
 10
-214.000000
 20
-16.500000
 11
-155.000000
 21
-16.500000
  0
LINE
  8
0
  6
CONTINUOUS
 62
7
 10
-212.000000
 20
-36.500000
 11
-212.000000
 21
-26.500000
  0
LINE
  8
0
  6
CONTINUOUS
 62
7
 10
-152.000000
 20
-36.500000
 11
-152.000000
 21
-21.000000
  0
LINE
  8
0
  6
CONTINUOUS
 62
7
 10
-212.000000
 20
-36.500000
 11
-152.000000
 21
-36.500000
  0
LINE
  8
0
  6
CONTINUOUS
 62
7
 10
-162.800003
 20
-31.000000
 11
-169.401993
 21
-31.000000
  0
LINE
  8
0
  6
CONTINUOUS
 62
7
 10
-212.000000
 20
-27.000000
 11
-152.000000
 21
-27.000000
  0
LINE
  8
0
  6
CONTINUOUS
 62
7
 10
-175.000000
 20
-32.500000
 11
-189.000000
 21
-32.500000
  0
LINE
  8
0
  6
CONTINUOUS
 62
7
 10
-214.000000
 20
-26.500000
 11
-153.800003
 21
-26.500000
  0
LINE
  8
0
  6
CONTINUOUS
 62
7
 10
-201.199997
 20
-31.000000
 11
-194.598007
 21
-31.000000
  0
LINE
  8
0
  6
CONTINUOUS
 62
7
 10
-153.399994
 20
-21.000000
 11
-152.000000
 21
-21.000000
  0
LINE
  8
0
  6
CONTINUOUS
 62
7
 10
-153.800003
 20
-21.903400
 11
-152.000000
 21
-21.903400
  0
LINE
  8
0
  6
CONTINUOUS
 62
7
 10
-153.800003
 20
-24.096600
 11
-152.000000
 21
-24.096600
  0
LINE
  8
0
  6
CONTINUOUS
 62
7
 10
-155.000000
 20
-26.500000
 11
-155.000000
 21
-16.500000
  0
LINE
  8
0
  6
CONTINUOUS
 62
7
 10
-199.649994
 20
-36.500000
 11
-199.649994
 21
-31.000000
  0
LINE
  8
0
  6
DASHED
 62
2
 10
-201.000000
 20
-31.500000
 11
-199.649994
 21
-31.500000
  0
LINE
  8
0
  6
CENTER
 62
2
 10
-198.000000
 20
-37.500000
 11
-198.000000
 21
-30.000000
  0
LINE
  8
0
  6
CONTINUOUS
 62
7
 10
-196.350006
 20
-36.500000
 11
-196.350006
 21
-31.000000
  0
LINE
  8
0
  6
CONTINUOUS
 62
7
 10
-155.000000
 20
-17.000000
 11
-153.800003
 21
-17.000000
  0
LINE
  8
0
  6
CONTINUOUS
 62
7
 10
-153.800003
 20
-26.500000
 11
-153.800003
 21
-17.000000
  0
LINE
  8
0
  6
CONTINUOUS
 62
7
 10
-153.399994
 20
-21.250000
 11
-153.399994
 21
-17.750000
  0
LINE
  8
0
  6
CONTINUOUS
 62
7
 10
-153.800003
 20
-17.750000
 11
-153.399994
 21
-17.750000
  0
LINE
  8
0
  6
CONTINUOUS
 62
7
 10
-153.800003
 20
-21.250000
 11
-153.399994
 21
-21.250000
  0
LINE
  8
0
  6
CENTER
 62
2
 10
-206.000000
 20
-27.500000
 11
-206.000000
 21
-34.500000
  0
LINE
  8
0
  6
CENTER
 62
2
 10
-209.500000
 20
-31.000000
 11
-202.500000
 21
-31.000000
  0
LINE
  8
0
  6
CENTER
 62
2
 10
-192.000000
 20
-30.000000
 11
-192.000000
 21
-35.000000
  0
LINE
  8
0
  6
CENTER
 62
2
 10
-194.500000
 20
-32.500000
 11
-189.500000
 21
-32.500000
  0
LINE
  8
0
  6
CENTER
 62
2
 10
-172.000000
 20
-30.000000
 11
-172.000000
 21
-35.000000
  0
LINE
  8
0
  6
CENTER
 62
2
 10
-174.500000
 20
-32.500000
 11
-169.500000
 21
-32.500000
  0
LINE
  8
0
  6
CENTER
 62
2
 10
-172.149994
 20
-18.200001
 11
-172.149994
 21
-22.200001
  0
LINE
  8
0
  6
CENTER
 62
2
 10
-174.149994
 20
-20.200001
 11
-170.149994
 21
-20.200001
  0
LINE
  8
0
  6
CENTER
 62
2
 10
-165.300003
 20
-18.000000
 11
-165.300003
 21
-23.000000
  0
LINE
  8
0
  6
CENTER
 62
2
 10
-167.800003
 20
-20.500000
 11
-162.800003
 21
-20.500000
  0
LINE
  8
0
  6
CENTER
 62
2
 10
-162.149994
 20
-18.200001
 11
-162.149994
 21
-22.200001
  0
LINE
  8
0
  6
CENTER
 62
2
 10
-164.149994
 20
-20.200001
 11
-160.149994
 21
-20.200001
  0
LINE
  8
0
  6
CENTER
 62
2
 10
-158.800003
 20
-18.000000
 11
-158.800003
 21
-23.000000
  0
LINE
  8
0
  6
CENTER
 62
2
 10
-161.300003
 20
-20.500000
 11
-156.300003
 21
-20.500000
  0
LINE
  8
0
  6
CENTER
 62
2
 10
-158.000000
 20
-27.500000
 11
-158.000000
 21
-34.500000
  0
LINE
  8
0
  6
CENTER
 62
2
 10
-161.500000
 20
-31.000000
 11
-154.500000
 21
-31.000000
  0
LINE
  8
0
  6
CENTER
 62
2
 10
-205.000000
 20
-14.500000
 11
-205.000000
 21
-18.500000
  0
LINE
  8
0
  6
CENTER
 62
2
 10
-187.000000
 20
-14.500000
 11
-187.000000
 21
-18.500000
  0
LINE
  8
0
  6
CENTER
 62
2
 10
-169.000000
 20
-14.500000
 11
-169.000000
 21
-18.500000
  0
LINE
  8
0
  6
CENTER
 62
2
 10
-224.000000
 20
-29.500000
 11
-220.000000
 21
-29.500000
  0
LINE
  8
0
  6
CENTER
 62
2
 10
-224.000000
 20
-20.500000
 11
-220.000000
 21
-20.500000
  0
LINE
  8
0
  6
DASHED
 62
2
 10
-201.000000
 20
-31.500000
 11
-201.000000
 21
-31.000000
  0
LINE
  8
0
  6
DASHED
 62
2
 10
-195.000000
 20
-31.500000
 11
-195.000000
 21
-31.000000
  0
LINE
  8
0
  6
CONTINUOUS
 62
7
 10
-199.649994
 20
-31.500000
 11
-196.350006
 21
-31.500000
  0
LINE
  8
0
  6
DASHED
 62
2
 10
-196.350006
 20
-31.500000
 11
-195.000000
 21
-31.500000
  0
LINE
  8
0
  6
CONTINUOUS
 62
7
 10
-206.000000
 20
-93.099998
 11
-206.000000
 21
-96.000000
  0
LINE
  8
0
  6
CONTINUOUS
 62
7
 10
-158.000000
 20
-96.000000
 11
-158.000000
 21
-93.099998
  0
LINE
  8
0
  6
CONTINUOUS
 62
7
 10
-195.500000
 20
92.000000
 11
-168.500000
 21
92.000000
  0
LINE
  8
0
  6
CONTINUOUS
 62
7
 10
-195.500000
 20
92.000000
 11
-195.500000
 21
73.000000
  0
LINE
  8
0
  6
CONTINUOUS
 62
7
 10
-187.500000
 20
80.000000
 11
-187.500000
 21
73.000000
  0
LINE
  8
0
  6
CENTER
 62
2
 10
-215.800003
 20
78.500000
 11
-183.800003
 21
78.500000
  0
LINE
  8
0
  6
CONTINUOUS
 62
7
 10
-199.500000
 20
74.800003
 11
-195.500000
 21
74.800003
  0
LINE
  8
0
  6
CONTINUOUS
 62
7
 10
-199.500000
 20
82.199997
 11
-199.500000
 21
74.800003
  0
LINE
  8
0
  6
CONTINUOUS
 62
7
 10
-199.500000
 20
82.199997
 11
-195.500000
 21
82.199997
  0
LINE
  8
0
  6
CONTINUOUS
 62
7
 10
-199.500000
 20
79.699997
 11
-195.500000
 21
79.699997
  0
LINE
  8
0
  6
CONTINUOUS
 62
7
 10
-199.500000
 20
80.931099
 11
-195.500000
 21
80.931099
  0
LINE
  8
0
  6
CONTINUOUS
 62
7
 10
-199.500000
 20
77.300003
 11
-195.500000
 21
77.300003
  0
LINE
  8
0
  6
CONTINUOUS
 62
7
 10
-199.500000
 20
76.068901
 11
-195.500000
 21
76.068901
  0
LINE
  8
0
  6
CONTINUOUS
 62
7
 10
-214.800003
 20
76.000000
 11
-214.800003
 21
81.000000
  0
LINE
  8
0
  6
CONTINUOUS
 62
7
 10
-214.800003
 20
81.000000
 11
-199.500000
 21
81.000000
  0
LINE
  8
0
  6
CONTINUOUS
 62
7
 10
-214.800003
 20
76.000000
 11
-199.500000
 21
76.000000
  0
LINE
  8
0
  6
CONTINUOUS
 62
2
 10
-214.800003
 20
76.400002
 11
-199.500000
 21
76.400002
  0
LINE
  8
0
  6
CONTINUOUS
 62
2
 10
-214.800003
 20
80.599998
 11
-199.500000
 21
80.599998
  0
LINE
  8
0
  6
CONTINUOUS
 62
7
 10
-195.500000
 20
73.000000
 11
-187.500000
 21
73.000000
  0
LINE
  8
0
  6
CONTINUOUS
 62
7
 10
-169.800003
 20
82.000000
 11
-154.300003
 21
82.000000
  0
LINE
  8
0
  6
CONTINUOUS
 62
7
 10
-154.300003
 20
74.000000
 11
-154.300003
 21
82.000000
  0
LINE
  8
0
  6
CONTINUOUS
 62
7
 10
-169.800003
 20
74.000000
 11
-154.300003
 21
74.000000
  0
LINE
  8
0
  6
CONTINUOUS
 62
7
 10
-168.500000
 20
92.000000
 11
-168.500000
 21
83.000000
  0
LINE
  8
0
  6
CONTINUOUS
 62
7
 10
-169.800003
 20
74.000000
 11
-169.800003
 21
82.000000
  0
LINE
  8
0
  6
CONTINUOUS
 62
7
 10
-214.000000
 20
76.000000
 11
-214.000000
 21
72.500000
  0
LINE
  8
0
  6
CONTINUOUS
 62
7
 10
-186.158005
 20
82.500000
 11
-153.800003
 21
82.500000
  0
LINE
  8
0
  6
CONTINUOUS
 62
7
 10
-184.500000
 20
83.000000
 11
-152.000000
 21
83.000000
  0
LINE
  8
0
  6
CONTINUOUS
 62
7
 10
-155.000000
 20
74.000000
 11
-155.000000
 21
72.500000
  0
LINE
  8
0
  6
CONTINUOUS
 62
7
 10
-187.500000
 20
42.000000
 11
-187.500000
 21
50.000000
  0
LINE
  8
0
  6
CONTINUOUS
 62
7
 10
-169.800003
 20
50.000000
 11
-195.500000
 21
50.000000
  0
LINE
  8
0
  6
CENTER
 62
2
 10
-183.800003
 20
46.000000
 11
-215.800003
 21
46.000000
  0
LINE
  8
0
  6
CONTINUOUS
 62
7
 10
-214.800003
 20
48.500000
 11
-199.500000
 21
48.500000
  0
LINE
  8
0
  6
CONTINUOUS
 62
2
 10
-214.800003
 20
48.099998
 11
-199.500000
 21
48.099998
  0
LINE
  8
0
  6
CONTINUOUS
 62
2
 10
-214.800003
 20
43.900002
 11
-199.500000
 21
43.900002
  0
LINE
  8
0
  6
CONTINUOUS
 62
7
 10
-214.800003
 20
48.500000
 11
-214.800003
 21
43.500000
  0
LINE
  8
0
  6
CONTINUOUS
 62
7
 10
-214.800003
 20
43.500000
 11
-199.500000
 21
43.500000
  0
LINE
  8
0
  6
CONTINUOUS
 62
7
 10
-195.500000
 20
42.000000
 11
-195.500000
 21
50.000000
  0
LINE
  8
0
  6
CONTINUOUS
 62
7
 10
-169.800003
 20
41.500000
 11
-169.800003
 21
50.500000
  0
LINE
  8
0
  6
CONTINUOUS
 62
7
 10
-195.500000
 20
49.500000
 11
-199.500000
 21
49.500000
  0
LINE
  8
0
  6
CONTINUOUS
 62
7
 10
-199.500000
 20
49.500000
 11
-199.500000
 21
42.500000
  0
LINE
  8
0
  6
CONTINUOUS
 62
7
 10
-195.500000
 20
48.789299
 11
-199.500000
 21
48.789299
  0
LINE
  8
0
  6
CONTINUOUS
 62
7
 10
-195.500000
 20
46.710800
 11
-199.500000
 21
46.710800
  0
LINE
  8
0
  6
CONTINUOUS
 62
7
 10
-195.500000
 20
45.289299
 11
-199.500000
 21
45.289299
  0
LINE
  8
0
  6
CONTINUOUS
 62
7
 10
-195.500000
 20
43.210800
 11
-199.500000
 21
43.210800
  0
LINE
  8
0
  6
CONTINUOUS
 62
7
 10
-195.500000
 20
42.500000
 11
-199.500000
 21
42.500000
  0
LINE
  8
0
  6
CONTINUOUS
 62
7
 10
-154.300003
 20
50.500000
 11
-169.800003
 21
50.500000
  0
LINE
  8
0
  6
CONTINUOUS
 62
7
 10
-154.300003
 20
41.500000
 11
-154.300003
 21
50.500000
  0
LINE
  8
0
  6
CONTINUOUS
 62
7
 10
-206.000000
 20
43.500000
 11
-206.000000
 21
42.599998
  0
LINE
  8
0
  6
CONTINUOUS
 62
7
 10
-169.800003
 20
42.000000
 11
-196.350006
 21
42.000000
  0
LINE
  8
0
  6
CENTER
 62
2
 10
-158.000000
 20
44.500000
 11
-158.000000
 21
41.000000
  0
LINE
  8
0
  6
CONTINUOUS
 62
7
 10
-77.283302
 20
50.000000
 11
-77.283302
 21
42.000000
  0
LINE
  8
0
  6
CONTINUOUS
 62
7
 10
-77.283302
 20
50.000000
 11
-58.283298
 21
50.000000
  0
LINE
  8
0
  6
CONTINUOUS
 62
7
 10
-66.214401
 20
48.789299
 11
-67.414398
 21
46.710800
  0
LINE
  8
0
  6
CONTINUOUS
 62
7
 10
-62.583302
 20
49.500000
 11
-64.983299
 21
49.500000
  0
LINE
  8
0
  6
CONTINUOUS
 62
7
 10
-61.352299
 20
48.789200
 11
-60.152302
 21
46.710800
  0
LINE
  8
0
  6
CONTINUOUS
 62
7
 10
-60.152302
 20
45.289299
 11
-61.352299
 21
43.210800
  0
LINE
  8
0
  6
CONTINUOUS
 62
7
 10
-64.983299
 20
42.500000
 11
-62.583302
 21
42.500000
  0
LINE
  8
0
  6
CONTINUOUS
 62
7
 10
-67.414398
 20
45.289200
 11
-66.214401
 21
43.210800
  0
LINE
  8
0
  6
CONTINUOUS
 62
7
 10
-67.283302
 20
50.500000
 11
-67.283302
 21
50.000000
  0
LINE
  8
0
  6
CONTINUOUS
 62
7
 10
-59.283298
 20
50.500000
 11
-59.283298
 21
50.000000
  0
LINE
  8
0
  6
CONTINUOUS
 62
7
 10
-59.283298
 20
50.500000
 11
-67.283302
 21
50.500000
  0
LINE
  8
0
  6
CONTINUOUS
 62
7
 10
-59.283298
 20
42.000000
 11
-59.283298
 21
41.500000
  0
LINE
  8
0
  6
CONTINUOUS
 62
7
 10
-63.061699
 20
47.250000
 11
-62.340000
 21
46.000000
  0
LINE
  8
0
  6
CONTINUOUS
 62
7
 10
-62.340000
 20
46.000000
 11
-63.061600
 21
44.750000
  0
LINE
  8
0
  6
CONTINUOUS
 62
7
 10
-64.504997
 20
44.750000
 11
-63.061600
 21
44.750000
  0
LINE
  8
0
  6
CONTINUOUS
 62
7
 10
-65.226700
 20
46.000000
 11
-64.505096
 21
44.750000
  0
LINE
  8
0
  6
CONTINUOUS
 62
7
 10
-64.505096
 20
47.250000
 11
-65.226700
 21
46.000099
  0
LINE
  8
0
  6
CONTINUOUS
 62
7
 10
-63.061600
 20
47.250000
 11
-64.504997
 21
47.250000
  0
LINE
  8
0
  6
CENTER
 62
2
 10
-59.083302
 20
46.000000
 11
-68.483299
 21
46.000000
  0
LINE
  8
0
  6
CENTER
 62
2
 10
-63.783298
 20
41.299999
 11
-63.783298
 21
50.700001
  0
LINE
  8
0
  6
CONTINUOUS
 62
7
 10
-58.283298
 20
50.000000
 11
-58.283298
 21
42.000000
  0
LINE
  8
0
  6
CONTINUOUS
 62
7
 10
-67.283302
 20
42.000000
 11
-67.283302
 21
41.500000
  0
LINE
  8
0
  6
CONTINUOUS
 62
7
 10
-154.300003
 20
-93.099998
 11
-154.300003
 21
-101.000000
  0
LINE
  8
0
  6
CONTINUOUS
 62
7
 10
-214.800003
 20
-99.000000
 11
-214.800003
 21
-94.000000
  0
LINE
  8
0
  6
CONTINUOUS
 62
7
 10
-168.500000
 20
-100.500000
 11
-195.500000
 21
-100.500000
  0
LINE
  8
0
  6
CENTER
 62
2
 10
-194.500000
 20
-96.500000
 11
-215.800003
 21
-96.500000
  0
LINE
  8
0
  6
CONTINUOUS
 62
7
 10
-214.800003
 20
-99.000000
 11
-199.500000
 21
-99.000000
  0
LINE
  8
0
  6
CONTINUOUS
 62
2
 10
-214.800003
 20
-98.599998
 11
-199.500000
 21
-98.599998
  0
LINE
  8
0
  6
CONTINUOUS
 62
2
 10
-214.800003
 20
-94.400002
 11
-209.500000
 21
-94.400002
  0
LINE
  8
0
  6
CONTINUOUS
 62
7
 10
-214.800003
 20
-94.000000
 11
-209.500000
 21
-94.000000
  0
LINE
  8
0
  6
CONTINUOUS
 62
7
 10
-195.500000
 20
-92.500000
 11
-195.500000
 21
-100.500000
  0
LINE
  8
0
  6
CONTINUOUS
 62
7
 10
-169.800003
 20
-100.500000
 11
-169.800003
 21
-101.000000
  0
LINE
  8
0
  6
CONTINUOUS
 62
7
 10
-195.500000
 20
-100.000000
 11
-199.500000
 21
-100.000000
  0
LINE
  8
0
  6
CONTINUOUS
 62
7
 10
-199.500000
 20
-100.000000
 11
-199.500000
 21
-93.000000
  0
LINE
  8
0
  6
CONTINUOUS
 62
7
 10
-195.500000
 20
-99.289200
 11
-199.500000
 21
-99.289200
  0
LINE
  8
0
  6
CONTINUOUS
 62
7
 10
-195.500000
 20
-97.210800
 11
-199.500000
 21
-97.210800
  0
LINE
  8
0
  6
CONTINUOUS
 62
7
 10
-195.500000
 20
-95.789200
 11
-199.500000
 21
-95.789200
  0
LINE
  8
0
  6
CONTINUOUS
 62
7
 10
-195.500000
 20
-93.710701
 11
-199.500000
 21
-93.710701
  0
LINE
  8
0
  6
CONTINUOUS
 62
7
 10
-195.500000
 20
-93.000000
 11
-199.500000
 21
-93.000000
  0
LINE
  8
0
  6
CONTINUOUS
 62
7
 10
-154.300003
 20
-101.000000
 11
-169.800003
 21
-101.000000
  0
LINE
  8
0
  6
CONTINUOUS
 62
7
 10
-168.500000
 20
-92.500000
 11
-168.500000
 21
-100.500000
  0
LINE
  8
0
  6
CONTINUOUS
 62
7
 10
-202.500000
 20
-94.000000
 11
-199.500000
 21
-94.000000
  0
LINE
  8
0
  6
CONTINUOUS
 62
2
 10
-202.500000
 20
-94.400002
 11
-199.500000
 21
-94.400002
  0
LINE
  8
0
  6
CONTINUOUS
 62
7
 10
70.716698
 20
14.000000
 11
80.216698
 21
14.000000
  0
LINE
  8
0
  6
CENTER
 62
2
 10
73.216698
 20
34.400002
 11
73.216698
 21
21.600000
  0
LINE
  8
0
  6
CENTER
 62
2
 10
59.216702
 20
28.000000
 11
81.216698
 21
28.000000
  0
LINE
  8
0
  6
CONTINUOUS
 62
7
 10
64.716698
 20
34.000000
 11
64.716698
 21
22.000000
  0
LINE
  8
0
  6
CONTINUOUS
 62
7
 10
67.926003
 20
34.000000
 11
70.716698
 21
34.000000
  0
LINE
  8
0
  6
CONTINUOUS
 62
7
 10
64.716698
 20
34.000000
 11
65.507301
 21
34.000000
  0
LINE
  8
0
  6
CONTINUOUS
 62
7
 10
67.926003
 20
22.000000
 11
70.716698
 21
22.000000
  0
LINE
  8
0
  6
CONTINUOUS
 62
7
 10
64.716698
 20
22.000000
 11
65.507301
 21
22.000000
  0
LINE
  8
0
  6
CONTINUOUS
 62
7
 10
70.716698
 20
14.000000
 11
70.716698
 21
22.000000
  0
LINE
  8
0
  6
CONTINUOUS
 62
7
 10
80.216698
 20
14.000000
 11
80.216698
 21
42.000000
  0
LINE
  8
0
  6
CONTINUOUS
 62
7
 10
70.716698
 20
42.000000
 11
70.716698
 21
34.000000
  0
LINE
  8
0
  6
CONTINUOUS
 62
7
 10
69.716698
 20
42.000000
 11
80.216698
 21
42.000000
  0
LINE
  8
0
  6
CONTINUOUS
 62
7
 10
60.516701
 20
34.700001
 11
60.516701
 21
21.299999
  0
LINE
  8
0
  6
CONTINUOUS
 62
7
 10
60.216702
 20
14.500000
 11
60.216702
 21
21.000000
  0
LINE
  8
0
  6
CONTINUOUS
 62
7
 10
60.216702
 20
14.500000
 11
70.716698
 21
14.500000
  0
LINE
  8
0
  6
CONTINUOUS
 62
7
 10
70.216698
 20
14.500000
 11
70.216698
 21
22.000000
  0
LINE
  8
0
  6
CONTINUOUS
 62
7
 10
60.216599
 20
21.000099
 11
60.516602
 21
21.300100
  0
LINE
  8
0
  6
CONTINUOUS
 62
7
 10
60.216702
 20
41.500000
 11
60.216702
 21
35.000000
  0
LINE
  8
0
  6
CONTINUOUS
 62
7
 10
60.216599
 20
34.999901
 11
60.516602
 21
34.699902
  0
LINE
  8
0
  6
CONTINUOUS
 62
7
 10
70.216698
 20
41.500000
 11
70.216698
 21
34.000000
  0
LINE
  8
0
  6
CONTINUOUS
 62
7
 10
60.216702
 20
41.500000
 11
70.716698
 21
41.500000
  0
LINE
  8
0
  6
CONTINUOUS
 62
7
 10
78.758102
 20
45.500000
 11
70.675201
 21
45.500000
  0
LINE
  8
0
  6
CONTINUOUS
 62
7
 10
70.675201
 20
45.500000
 11
70.675201
 21
42.599998
  0
LINE
  8
0
  6
CONTINUOUS
 62
7
 10
72.695999
 20
45.500000
 11
72.695999
 21
42.599998
  0
LINE
  8
0
  6
CONTINUOUS
 62
7
 10
76.737396
 20
45.500000
 11
76.737396
 21
42.599998
  0
LINE
  8
0
  6
CONTINUOUS
 62
7
 10
78.758102
 20
45.500000
 11
78.758102
 21
42.599998
  0
LINE
  8
0
  6
CONTINUOUS
 62
7
 10
78.758102
 20
42.599998
 11
70.675201
 21
42.599998
  0
LINE
  8
0
  6
CONTINUOUS
 62
7
 10
78.616699
 20
42.599998
 11
78.616699
 21
42.000000
  0
LINE
  8
0
  6
CONTINUOUS
 62
7
 10
70.816704
 20
42.599998
 11
70.816704
 21
42.000000
  0
LINE
  8
0
  6
CENTER
 62
2
 10
74.716698
 20
46.500000
 11
74.716698
 21
41.000000
  0
LINE
  8
0
  6
CENTER
 62
2
 10
78.216698
 20
38.500000
 11
82.216698
 21
38.500000
  0
LINE
  8
0
  6
CENTER
 62
2
 10
78.216698
 20
17.500000
 11
82.216698
 21
17.500000
  0
LINE
  8
0
  6
CENTER
 62
2
 10
58.216702
 20
38.000000
 11
62.216702
 21
38.000000
  0
LINE
  8
0
  6
CENTER
 62
2
 10
58.216702
 20
18.000000
 11
62.216702
 21
18.000000
  0
LINE
  8
0
  6
CONTINUOUS
 62
7
 10
79.716698
 20
50.000000
 11
79.716698
 21
42.000000
  0
LINE
  8
0
  6
CONTINUOUS
 62
7
 10
79.716698
 20
50.000000
 11
69.716698
 21
50.000000
  0
LINE
  8
0
  6
CONTINUOUS
 62
7
 10
69.716698
 20
50.500000
 11
69.716698
 21
41.500000
  0
LINE
  8
0
  6
CONTINUOUS
 62
7
 10
61.716702
 20
50.500000
 11
61.716702
 21
41.500000
  0
LINE
  8
0
  6
CONTINUOUS
 62
7
 10
61.716702
 20
50.500000
 11
69.716698
 21
50.500000
  0
LINE
  8
0
  6
CONTINUOUS
 62
7
 10
60.716702
 20
50.000000
 11
60.716702
 21
42.000000
  0
LINE
  8
0
  6
CONTINUOUS
 62
7
 10
61.716702
 20
42.000000
 11
60.716702
 21
42.000000
  0
LINE
  8
0
  6
CONTINUOUS
 62
7
 10
61.716702
 20
50.000000
 11
60.716702
 21
50.000000
  0
LINE
  8
0
  6
CENTER
 62
2
 10
202.783005
 20
74.500000
 11
202.783005
 21
70.500000
  0
LINE
  8
0
  6
CENTER
 62
2
 10
172.783005
 20
20.500000
 11
172.783005
 21
15.500000
  0
LINE
  8
0
  6
CENTER
 62
2
 10
170.283005
 20
18.000000
 11
175.283005
 21
18.000000
  0
LINE
  8
0
  6
CENTER
 62
2
 10
172.783005
 20
40.500000
 11
172.783005
 21
35.500000
  0
LINE
  8
0
  6
CENTER
 62
2
 10
170.283005
 20
38.000000
 11
175.283005
 21
38.000000
  0
LINE
  8
0
  6
CENTER
 62
2
 10
202.783005
 20
-14.500000
 11
202.783005
 21
-18.500000
  0
LINE
  8
0
  6
CONTINUOUS
 62
7
 10
-243.000000
 20
41.500000
 11
-243.000000
 21
35.000000
  0
LINE
  8
0
  6
CONTINUOUS
 62
7
 10
-243.300003
 20
34.700001
 11
-243.300003
 21
21.299999
  0
LINE
  8
0
  6
CONTINUOUS
 62
7
 10
-243.000000
 20
14.500000
 11
-243.000000
 21
21.000000
  0
LINE
  8
0
  6
CONTINUOUS
 62
7
 10
-243.000000
 20
14.500000
 11
-262.000000
 21
14.500000
  0
LINE
  8
0
  6
CONTINUOUS
 62
7
 10
-243.000000
 20
41.500000
 11
-262.000000
 21
41.500000
  0
LINE
  8
0
  6
CONTINUOUS
 62
7
 10
-243.000000
 20
35.000000
 11
-243.300003
 21
34.700001
  0
LINE
  8
0
  6
CONTINUOUS
 62
7
 10
-243.000000
 20
21.000099
 11
-243.300003
 21
21.300100
  0
LINE
  8
0
  6
CONTINUOUS
 62
7
 10
-253.500000
 20
14.000000
 11
-253.500000
 21
14.500000
  0
LINE
  8
0
  6
CONTINUOUS
 62
7
 10
-263.000000
 20
14.000000
 11
-263.000000
 21
42.000000
  0
LINE
  8
0
  6
CONTINUOUS
 62
7
 10
-253.500000
 20
14.000000
 11
-263.000000
 21
14.000000
  0
LINE
  8
0
  6
CONTINUOUS
 62
7
 10
-262.000000
 20
14.500000
 11
-262.000000
 21
41.500000
  0
LINE
  8
0
  6
CONTINUOUS
 62
7
 10
-243.500000
 20
41.500000
 11
-243.500000
 21
14.500000
  0
LINE
  8
0
  6
CONTINUOUS
 62
7
 10
-243.500000
 20
42.000000
 11
-263.000000
 21
42.000000
  0
LINE
  8
0
  6
CONTINUOUS
 62
7
 10
-253.500000
 20
42.000000
 11
-253.500000
 21
41.500000
  0
LINE
  8
0
  6
CONTINUOUS
 62
7
 10
-261.540985
 20
45.500000
 11
-261.540985
 21
42.599998
  0
LINE
  8
0
  6
CONTINUOUS
 62
7
 10
-259.520996
 20
45.500000
 11
-259.520996
 21
42.599998
  0
LINE
  8
0
  6
CONTINUOUS
 62
7
 10
-255.479004
 20
45.500000
 11
-255.479004
 21
42.599998
  0
LINE
  8
0
  6
CONTINUOUS
 62
7
 10
-253.459000
 20
45.500000
 11
-261.540985
 21
45.500000
  0
LINE
  8
0
  6
CONTINUOUS
 62
7
 10
-253.459000
 20
45.500000
 11
-253.459000
 21
42.599998
  0
LINE
  8
0
  6
CONTINUOUS
 62
7
 10
-253.459000
 20
42.599998
 11
-261.540985
 21
42.599998
  0
LINE
  8
0
  6
CONTINUOUS
 62
7
 10
-253.600006
 20
42.599998
 11
-253.600006
 21
42.000000
  0
LINE
  8
0
  6
CONTINUOUS
 62
7
 10
-261.399994
 20
42.599998
 11
-261.399994
 21
42.000000
  0
LINE
  8
0
  6
CENTER
 62
2
 10
-256.000000
 20
41.000000
 11
-256.000000
 21
15.000000
  0
LINE
  8
0
  6
CENTER
 62
2
 10
-264.000000
 20
28.000000
 11
-242.000000
 21
28.000000
  0
LINE
  8
0
  6
CENTER
 62
2
 10
-247.000000
 20
31.000000
 11
-247.000000
 21
25.000000
  0
LINE
  8
0
  6
CENTER
 62
2
 10
-259.000000
 20
38.000000
 11
-243.000000
 21
38.000000
  0
LINE
  8
0
  6
CENTER
 62
2
 10
-247.000000
 20
42.000000
 11
-247.000000
 21
34.000000
  0
LINE
  8
0
  6
CENTER
 62
2
 10
-259.000000
 20
18.000000
 11
-243.000000
 21
18.000000
  0
LINE
  8
0
  6
CENTER
 62
2
 10
-247.000000
 20
22.000000
 11
-247.000000
 21
14.000000
  0
LINE
  8
0
  6
CENTER
 62
2
 10
-257.500000
 20
46.500000
 11
-257.500000
 21
41.000000
  0
LINE
  8
0
  6
CONTINUOUS
 62
7
 10
-262.500000
 20
50.000000
 11
-262.500000
 21
42.000000
  0
LINE
  8
0
  6
CONTINUOUS
 62
7
 10
-262.500000
 20
50.000000
 11
-243.500000
 21
50.000000
  0
LINE
  8
0
  6
CONTINUOUS
 62
7
 10
-251.431000
 20
48.789200
 11
-252.630997
 21
46.710800
  0
LINE
  8
0
  6
CONTINUOUS
 62
7
 10
-247.800003
 20
49.500000
 11
-250.199997
 21
49.500000
  0
LINE
  8
0
  6
CONTINUOUS
 62
7
 10
-246.569000
 20
48.789200
 11
-245.369003
 21
46.710800
  0
LINE
  8
0
  6
CONTINUOUS
 62
7
 10
-245.369003
 20
45.289200
 11
-246.569000
 21
43.210701
  0
LINE
  8
0
  6
CONTINUOUS
 62
7
 10
-250.199997
 20
42.500000
 11
-247.800003
 21
42.500000
  0
LINE
  8
0
  6
CONTINUOUS
 62
7
 10
-252.630997
 20
45.289299
 11
-251.431000
 21
43.210800
  0
LINE
  8
0
  6
CONTINUOUS
 62
7
 10
-252.500000
 20
50.500000
 11
-252.500000
 21
50.000000
  0
LINE
  8
0
  6
CONTINUOUS
 62
7
 10
-244.500000
 20
50.500000
 11
-244.500000
 21
50.000000
  0
LINE
  8
0
  6
CONTINUOUS
 62
7
 10
-244.500000
 20
50.500000
 11
-252.500000
 21
50.500000
  0
LINE
  8
0
  6
CONTINUOUS
 62
7
 10
-244.500000
 20
42.000000
 11
-244.500000
 21
41.500000
  0
LINE
  8
0
  6
CONTINUOUS
 62
7
 10
-248.278000
 20
47.250000
 11
-247.557007
 21
46.000000
  0
LINE
  8
0
  6
CONTINUOUS
 62
7
 10
-247.557007
 20
46.000000
 11
-248.278000
 21
44.750000
  0
LINE
  8
0
  6
CONTINUOUS
 62
7
 10
-249.722000
 20
44.750000
 11
-248.278000
 21
44.750000
  0
LINE
  8
0
  6
CONTINUOUS
 62
7
 10
-250.442993
 20
46.000099
 11
-249.722000
 21
44.750000
  0
LINE
  8
0
  6
CONTINUOUS
 62
7
 10
-249.722000
 20
47.250000
 11
-250.442993
 21
46.000000
  0
LINE
  8
0
  6
CONTINUOUS
 62
7
 10
-248.278000
 20
47.250000
 11
-249.722000
 21
47.250000
  0
LINE
  8
0
  6
CENTER
 62
2
 10
-244.300003
 20
46.000000
 11
-253.699997
 21
46.000000
  0
LINE
  8
0
  6
CENTER
 62
2
 10
-249.000000
 20
41.299999
 11
-249.000000
 21
50.700001
  0
LINE
  8
0
  6
CONTINUOUS
 62
7
 10
-243.500000
 20
50.000000
 11
-243.500000
 21
42.000000
  0
LINE
  8
0
  6
CONTINUOUS
 62
7
 10
-252.500000
 20
42.000000
 11
-252.500000
 21
41.500000
  0
LINE
  8
0
  6
CONTINUOUS
 62
7
 10
-119.500000
 20
14.000000
 11
-110.000000
 21
14.000000
  0
LINE
  8
0
  6
CENTER
 62
2
 10
-117.000000
 20
34.400002
 11
-117.000000
 21
21.600000
  0
LINE
  8
0
  6
CENTER
 62
2
 10
-131.000000
 20
28.000000
 11
-109.000000
 21
28.000000
  0
LINE
  8
0
  6
CONTINUOUS
 62
7
 10
-125.500000
 20
34.000000
 11
-125.500000
 21
22.000000
  0
LINE
  8
0
  6
CONTINUOUS
 62
7
 10
-122.291000
 20
34.000000
 11
-119.500000
 21
34.000000
  0
LINE
  8
0
  6
CONTINUOUS
 62
7
 10
-125.500000
 20
34.000000
 11
-124.709000
 21
34.000000
  0
LINE
  8
0
  6
CONTINUOUS
 62
7
 10
-122.291000
 20
22.000000
 11
-119.500000
 21
22.000000
  0
LINE
  8
0
  6
CONTINUOUS
 62
7
 10
-125.500000
 20
22.000000
 11
-124.709000
 21
22.000000
  0
LINE
  8
0
  6
CONTINUOUS
 62
7
 10
-119.500000
 20
14.000000
 11
-119.500000
 21
22.000000
  0
LINE
  8
0
  6
CONTINUOUS
 62
7
 10
-110.000000
 20
14.000000
 11
-110.000000
 21
42.000000
  0
LINE
  8
0
  6
CONTINUOUS
 62
7
 10
-119.500000
 20
42.000000
 11
-119.500000
 21
34.000000
  0
LINE
  8
0
  6
CONTINUOUS
 62
7
 10
-120.500000
 20
42.000000
 11
-110.000000
 21
42.000000
  0
LINE
  8
0
  6
CONTINUOUS
 62
7
 10
-129.699997
 20
34.700001
 11
-129.699997
 21
21.299999
  0
LINE
  8
0
  6
CONTINUOUS
 62
7
 10
-130.000000
 20
14.500000
 11
-130.000000
 21
21.000000
  0
LINE
  8
0
  6
CONTINUOUS
 62
7
 10
-130.000000
 20
14.500000
 11
-119.500000
 21
14.500000
  0
LINE
  8
0
  6
CONTINUOUS
 62
7
 10
-120.000000
 20
14.500000
 11
-120.000000
 21
22.000000
  0
LINE
  8
0
  6
CONTINUOUS
 62
7
 10
-130.000000
 20
21.000000
 11
-129.699997
 21
21.299999
  0
LINE
  8
0
  6
CONTINUOUS
 62
7
 10
-130.000000
 20
41.500000
 11
-130.000000
 21
35.000000
  0
LINE
  8
0
  6
CONTINUOUS
 62
7
 10
-130.000000
 20
35.000000
 11
-129.699997
 21
34.700001
  0
LINE
  8
0
  6
CONTINUOUS
 62
7
 10
-120.000000
 20
41.500000
 11
-120.000000
 21
34.000000
  0
LINE
  8
0
  6
CONTINUOUS
 62
7
 10
-130.000000
 20
41.500000
 11
-119.500000
 21
41.500000
  0
LINE
  8
0
  6
CONTINUOUS
 62
7
 10
-111.459000
 20
45.500000
 11
-119.541000
 21
45.500000
  0
LINE
  8
0
  6
CONTINUOUS
 62
7
 10
-119.541000
 20
45.500000
 11
-119.541000
 21
42.599998
  0
LINE
  8
0
  6
CONTINUOUS
 62
7
 10
-117.521004
 20
45.500000
 11
-117.521004
 21
42.599998
  0
LINE
  8
0
  6
CONTINUOUS
 62
7
 10
-113.478996
 20
45.500000
 11
-113.478996
 21
42.599998
  0
LINE
  8
0
  6
CONTINUOUS
 62
7
 10
-111.459000
 20
45.500000
 11
-111.459000
 21
42.599998
  0
LINE
  8
0
  6
CONTINUOUS
 62
7
 10
-111.459000
 20
42.599998
 11
-119.541000
 21
42.599998
  0
LINE
  8
0
  6
CONTINUOUS
 62
7
 10
-111.599998
 20
42.599998
 11
-111.599998
 21
42.000000
  0
LINE
  8
0
  6
CONTINUOUS
 62
7
 10
-119.400002
 20
42.599998
 11
-119.400002
 21
42.000000
  0
LINE
  8
0
  6
CENTER
 62
2
 10
-115.500000
 20
46.500000
 11
-115.500000
 21
41.000000
  0
LINE
  8
0
  6
CENTER
 62
2
 10
-112.000000
 20
38.500000
 11
-108.000000
 21
38.500000
  0
LINE
  8
0
  6
CENTER
 62
2
 10
-112.000000
 20
17.500000
 11
-108.000000
 21
17.500000
  0
LINE
  8
0
  6
CENTER
 62
2
 10
-132.000000
 20
38.000000
 11
-128.000000
 21
38.000000
  0
LINE
  8
0
  6
CENTER
 62
2
 10
-132.000000
 20
18.000000
 11
-128.000000
 21
18.000000
  0
LINE
  8
0
  6
CONTINUOUS
 62
7
 10
-110.500000
 20
50.000000
 11
-110.500000
 21
42.000000
  0
LINE
  8
0
  6
CONTINUOUS
 62
7
 10
-110.500000
 20
50.000000
 11
-120.500000
 21
50.000000
  0
LINE
  8
0
  6
CONTINUOUS
 62
7
 10
-120.500000
 20
50.500000
 11
-120.500000
 21
41.500000
  0
LINE
  8
0
  6
CONTINUOUS
 62
7
 10
-128.500000
 20
50.500000
 11
-128.500000
 21
41.500000
  0
LINE
  8
0
  6
CONTINUOUS
 62
7
 10
-128.500000
 20
50.500000
 11
-120.500000
 21
50.500000
  0
LINE
  8
0
  6
CONTINUOUS
 62
7
 10
-129.500000
 20
50.000000
 11
-129.500000
 21
42.000000
  0
LINE
  8
0
  6
CONTINUOUS
 62
7
 10
-128.500000
 20
42.000000
 11
-129.500000
 21
42.000000
  0
LINE
  8
0
  6
CONTINUOUS
 62
7
 10
-128.500000
 20
50.000000
 11
-129.500000
 21
50.000000
  0
LINE
  8
0
  6
CONTINUOUS
 62
7
 10
-15.283300
 20
92.000000
 11
26.716700
 21
92.000000
  0
LINE
  8
0
  6
CONTINUOUS
 62
7
 10
-15.283300
 20
92.000000
 11
-15.283300
 21
73.000000
  0
LINE
  8
0
  6
CONTINUOUS
 62
7
 10
-7.283330
 20
80.000000
 11
-7.283330
 21
73.000000
  0
LINE
  8
0
  6
CENTER
 62
2
 10
-35.583302
 20
78.500000
 11
-3.583310
 21
78.500000
  0
LINE
  8
0
  6
CONTINUOUS
 62
7
 10
-19.283300
 20
74.800003
 11
-15.283300
 21
74.800003
  0
LINE
  8
0
  6
CONTINUOUS
 62
7
 10
-19.283300
 20
82.199997
 11
-19.283300
 21
74.800003
  0
LINE
  8
0
  6
CONTINUOUS
 62
7
 10
-19.283300
 20
82.199997
 11
-15.283300
 21
82.199997
  0
LINE
  8
0
  6
CONTINUOUS
 62
7
 10
-19.283300
 20
79.699997
 11
-15.283300
 21
79.699997
  0
LINE
  8
0
  6
CONTINUOUS
 62
7
 10
-19.283300
 20
80.931099
 11
-15.283300
 21
80.931099
  0
LINE
  8
0
  6
CONTINUOUS
 62
7
 10
-19.283300
 20
77.300003
 11
-15.283300
 21
77.300003
  0
LINE
  8
0
  6
CONTINUOUS
 62
7
 10
-19.283300
 20
76.068901
 11
-15.283300
 21
76.068901
  0
LINE
  8
0
  6
CONTINUOUS
 62
7
 10
-34.583302
 20
76.000000
 11
-34.583302
 21
81.000000
  0
LINE
  8
0
  6
CONTINUOUS
 62
7
 10
-34.583302
 20
81.000000
 11
-19.283300
 21
81.000000
  0
LINE
  8
0
  6
CONTINUOUS
 62
7
 10
-34.583302
 20
76.000000
 11
-19.283300
 21
76.000000
  0
LINE
  8
0
  6
CONTINUOUS
 62
2
 10
-34.583302
 20
76.400002
 11
-19.283300
 21
76.400002
  0
LINE
  8
0
  6
CONTINUOUS
 62
2
 10
-34.583302
 20
80.599998
 11
-19.283300
 21
80.599998
  0
LINE
  8
0
  6
CONTINUOUS
 62
7
 10
-15.283300
 20
73.000000
 11
-7.283330
 21
73.000000
  0
LINE
  8
0
  6
CONTINUOUS
 62
7
 10
25.416700
 20
82.000000
 11
40.916698
 21
82.000000
  0
LINE
  8
0
  6
CONTINUOUS
 62
7
 10
40.916698
 20
74.000000
 11
40.916698
 21
82.000000
  0
LINE
  8
0
  6
CONTINUOUS
 62
7
 10
25.416700
 20
74.000000
 11
40.916698
 21
74.000000
  0
LINE
  8
0
  6
CONTINUOUS
 62
7
 10
26.716700
 20
92.000000
 11
26.716700
 21
83.000000
  0
LINE
  8
0
  6
CONTINUOUS
 62
7
 10
25.416700
 20
74.000000
 11
25.416700
 21
82.000000
  0
LINE
  8
0
  6
CONTINUOUS
 62
7
 10
-4.283330
 20
83.000000
 11
43.216702
 21
83.000000
  0
LINE
  8
0
  6
CONTINUOUS
 62
7
 10
-5.941650
 20
82.500000
 11
41.416698
 21
82.500000
  0
LINE
  8
0
  6
CONTINUOUS
 62
7
 10
-33.783298
 20
76.000000
 11
-33.783298
 21
72.500000
  0
LINE
  8
0
  6
DASHED
 62
2
 10
-20.783300
 20
87.500000
 11
-20.783300
 21
87.199997
  0
LINE
  8
0
  6
DASHED
 62
2
 10
-14.783300
 20
87.500000
 11
-14.783300
 21
87.199997
  0
LINE
  8
0
  6
CONTINUOUS
 62
7
 10
-19.433300
 20
87.500000
 11
-16.133301
 21
87.500000
  0
LINE
  8
0
  6
DASHED
 62
2
 10
-16.133301
 20
87.500000
 11
-14.783300
 21
87.500000
  0
LINE
  8
0
  6
CONTINUOUS
 62
7
 10
40.216702
 20
74.000000
 11
40.216702
 21
72.500000
  0
LINE
  8
0
  6
CONTINUOUS
 62
7
 10
-7.283330
 20
42.000000
 11
-7.283330
 21
50.000000
  0
LINE
  8
0
  6
CONTINUOUS
 62
7
 10
25.416700
 20
50.000000
 11
-15.283300
 21
50.000000
  0
LINE
  8
0
  6
CENTER
 62
2
 10
-3.583310
 20
46.000000
 11
-35.583302
 21
46.000000
  0
LINE
  8
0
  6
CONTINUOUS
 62
7
 10
-34.583302
 20
48.500000
 11
-19.283300
 21
48.500000
  0
LINE
  8
0
  6
CONTINUOUS
 62
2
 10
-34.583302
 20
48.099998
 11
-19.283300
 21
48.099998
  0
LINE
  8
0
  6
CONTINUOUS
 62
2
 10
-34.583302
 20
43.900002
 11
-19.283300
 21
43.900002
  0
LINE
  8
0
  6
CONTINUOUS
 62
7
 10
-34.583302
 20
48.500000
 11
-34.583302
 21
43.500000
  0
LINE
  8
0
  6
CONTINUOUS
 62
7
 10
-34.583302
 20
43.500000
 11
-19.283300
 21
43.500000
  0
LINE
  8
0
  6
CONTINUOUS
 62
7
 10
-15.283300
 20
42.000000
 11
-15.283300
 21
50.000000
  0
LINE
  8
0
  6
CONTINUOUS
 62
7
 10
25.416700
 20
41.500000
 11
25.416700
 21
50.500000
  0
LINE
  8
0
  6
CONTINUOUS
 62
7
 10
-15.283300
 20
49.500000
 11
-19.283300
 21
49.500000
  0
LINE
  8
0
  6
CONTINUOUS
 62
7
 10
-19.283300
 20
49.500000
 11
-19.283300
 21
42.500000
  0
LINE
  8
0
  6
CONTINUOUS
 62
7
 10
-15.283300
 20
48.789299
 11
-19.283300
 21
48.789299
  0
LINE
  8
0
  6
CONTINUOUS
 62
7
 10
-15.283300
 20
46.710800
 11
-19.283300
 21
46.710800
  0
LINE
  8
0
  6
CONTINUOUS
 62
7
 10
-15.283300
 20
45.289299
 11
-19.283300
 21
45.289299
  0
LINE
  8
0
  6
CONTINUOUS
 62
7
 10
-15.283300
 20
43.210800
 11
-19.283300
 21
43.210800
  0
LINE
  8
0
  6
CONTINUOUS
 62
7
 10
-15.283300
 20
42.500000
 11
-19.283300
 21
42.500000
  0
LINE
  8
0
  6
CONTINUOUS
 62
7
 10
40.916698
 20
50.500000
 11
25.416700
 21
50.500000
  0
LINE
  8
0
  6
CONTINUOUS
 62
7
 10
40.916698
 20
41.500000
 11
40.916698
 21
50.500000
  0
LINE
  8
0
  6
CONTINUOUS
 62
7
 10
-25.783300
 20
43.500000
 11
-25.783300
 21
42.599998
  0
LINE
  8
0
  6
CONTINUOUS
 62
7
 10
25.416700
 20
42.000000
 11
-16.133301
 21
42.000000
  0
LINE
  8
0
  6
CENTER
 62
2
 10
37.216702
 20
44.500000
 11
37.216702
 21
41.000000
  0
LINE
  8
0
  6
CENTER
 62
2
 10
-14.283300
 20
-96.500000
 11
-35.583302
 21
-96.500000
  0
LINE
  8
0
  6
CONTINUOUS
 62
7
 10
-34.583302
 20
-99.000000
 11
-19.283300
 21
-99.000000
  0
LINE
  8
0
  6
CONTINUOUS
 62
2
 10
-34.583302
 20
-98.599998
 11
-19.283300
 21
-98.599998
  0
LINE
  8
0
  6
CONTINUOUS
 62
2
 10
-34.583302
 20
-94.400002
 11
-29.283300
 21
-94.400002
  0
LINE
  8
0
  6
CONTINUOUS
 62
7
 10
-34.583302
 20
-99.000000
 11
-34.583302
 21
-94.000000
  0
LINE
  8
0
  6
CONTINUOUS
 62
7
 10
-34.583302
 20
-94.000000
 11
-29.283300
 21
-94.000000
  0
LINE
  8
0
  6
CONTINUOUS
 62
7
 10
-15.283300
 20
-100.000000
 11
-19.283300
 21
-100.000000
  0
LINE
  8
0
  6
CONTINUOUS
 62
7
 10
-19.283300
 20
-100.000000
 11
-19.283300
 21
-93.000000
  0
LINE
  8
0
  6
CONTINUOUS
 62
7
 10
-15.283300
 20
-99.289200
 11
-19.283300
 21
-99.289200
  0
LINE
  8
0
  6
CONTINUOUS
 62
7
 10
-15.283300
 20
-97.210800
 11
-19.283300
 21
-97.210800
  0
LINE
  8
0
  6
CONTINUOUS
 62
7
 10
-15.283300
 20
-95.789200
 11
-19.283300
 21
-95.789200
  0
LINE
  8
0
  6
CONTINUOUS
 62
7
 10
-15.283300
 20
-93.710701
 11
-19.283300
 21
-93.710701
  0
LINE
  8
0
  6
CONTINUOUS
 62
7
 10
-15.283300
 20
-93.000000
 11
-19.283300
 21
-93.000000
  0
LINE
  8
0
  6
CONTINUOUS
 62
7
 10
-15.283300
 20
-92.500000
 11
-15.283300
 21
-100.500000
  0
LINE
  8
0
  6
CONTINUOUS
 62
7
 10
26.716700
 20
-100.500000
 11
-15.283300
 21
-100.500000
  0
LINE
  8
0
  6
CONTINUOUS
 62
7
 10
25.416700
 20
-100.500000
 11
25.416700
 21
-101.000000
  0
LINE
  8
0
  6
CONTINUOUS
 62
7
 10
40.916698
 20
-93.099998
 11
40.916698
 21
-101.000000
  0
LINE
  8
0
  6
CONTINUOUS
 62
7
 10
40.916698
 20
-101.000000
 11
25.416700
 21
-101.000000
  0
LINE
  8
0
  6
CONTINUOUS
 62
7
 10
26.716700
 20
-92.500000
 11
26.716700
 21
-100.500000
  0
LINE
  8
0
  6
CONTINUOUS
 62
7
 10
-22.283300
 20
-94.000000
 11
-19.283300
 21
-94.000000
  0
LINE
  8
0
  6
CONTINUOUS
 62
2
 10
-22.283300
 20
-94.400002
 11
-19.283300
 21
-94.400002
  0
LINE
  8
0
  6
CENTER
 62
2
 10
-172.149994
 20
78.199997
 11
-172.149994
 21
74.199997
  0
LINE
  8
0
  6
CENTER
 62
2
 10
-174.149994
 20
76.199997
 11
-170.149994
 21
76.199997
  0
LINE
  8
0
  6
DASHED
 62
2
 10
-20.783300
 20
-31.500000
 11
-20.783300
 21
-31.200001
  0
LINE
  8
0
  6
DASHED
 62
2
 10
-14.783300
 20
-31.500000
 11
-14.783300
 21
-31.200001
  0
LINE
  8
0
  6
CONTINUOUS
 62
7
 10
-19.433300
 20
-31.500000
 11
-16.133301
 21
-31.500000
  0
LINE
  8
0
  6
DASHED
 62
2
 10
-16.133301
 20
-31.500000
 11
-14.783300
 21
-31.500000
  0
LINE
  8
0
  6
CENTER
 62
2
 10
-186.000000
 20
93.500000
 11
-186.000000
 21
87.500000
  0
LINE
  8
0
  6
DASHED
 62
2
 10
-188.000000
 20
90.900002
 11
-188.000000
 21
88.500000
  0
LINE
  8
0
  6
DASHED
 62
2
 10
-184.000000
 20
90.900002
 11
-184.000000
 21
88.500000
  0
LINE
  8
0
  6
DASHED
 62
2
 10
-188.500000
 20
92.500000
 11
-188.500000
 21
90.900002
  0
LINE
  8
0
  6
DASHED
 62
2
 10
-183.500000
 20
92.500000
 11
-183.500000
 21
90.900002
  0
LINE
  8
0
  6
DASHED
 62
2
 10
-188.500000
 20
90.900002
 11
-183.500000
 21
90.900002
  0
LINE
  8
0
  6
DASHED
 62
2
 10
-184.350006
 20
90.900002
 11
-184.350006
 21
88.500000
  0
LINE
  8
0
  6
DASHED
 62
2
 10
-187.649994
 20
90.900002
 11
-187.649994
 21
88.500000
  0
LINE
  8
0
  6
DASHED
 62
2
 10
-168.000000
 20
92.500000
 11
-168.000000
 21
87.500000
  0
LINE
  8
0
  6
CENTER
 62
2
 10
-166.000000
 20
93.500000
 11
-166.000000
 21
86.000000
  0
LINE
  8
0
  6
DASHED
 62
2
 10
-164.350006
 20
92.500000
 11
-164.350006
 21
87.500000
  0
LINE
  8
0
  6
DASHED
 62
2
 10
-163.000000
 20
87.500000
 11
-163.000000
 21
87.000000
  0
LINE
  8
0
  6
DASHED
 62
2
 10
-164.000000
 20
92.500000
 11
-164.000000
 21
87.500000
  0
LINE
  8
0
  6
DASHED
 62
2
 10
-167.649994
 20
92.500000
 11
-167.649994
 21
87.500000
  0
LINE
  8
0
  6
DASHED
 62
2
 10
-169.000000
 20
87.500000
 11
-163.000000
 21
87.500000
  0
LINE
  8
0
  6
DASHED
 62
2
 10
-169.000000
 20
87.500000
 11
-169.000000
 21
86.992500
  0
LINE
  8
0
  6
CENTER
 62
2
 10
-185.600006
 20
17.500000
 11
-180.399994
 21
17.500000
  0
LINE
  8
0
  6
CENTER
 62
2
 10
-183.000000
 20
20.100000
 11
-183.000000
 21
14.900000
  0
LINE
  8
0
  6
CENTER
 62
2
 10
-186.000000
 20
-37.500000
 11
-186.000000
 21
-31.500000
  0
LINE
  8
0
  6
DASHED
 62
2
 10
-188.000000
 20
-34.900002
 11
-188.000000
 21
-32.500000
  0
LINE
  8
0
  6
DASHED
 62
2
 10
-184.000000
 20
-34.900002
 11
-184.000000
 21
-32.500000
  0
LINE
  8
0
  6
DASHED
 62
2
 10
-188.500000
 20
-36.500000
 11
-188.500000
 21
-34.900002
  0
LINE
  8
0
  6
DASHED
 62
2
 10
-183.500000
 20
-36.500000
 11
-183.500000
 21
-34.900002
  0
LINE
  8
0
  6
DASHED
 62
2
 10
-188.500000
 20
-34.900002
 11
-183.500000
 21
-34.900002
  0
LINE
  8
0
  6
DASHED
 62
2
 10
-184.350006
 20
-34.900002
 11
-184.350006
 21
-32.500000
  0
LINE
  8
0
  6
DASHED
 62
2
 10
-187.649994
 20
-34.900002
 11
-187.649994
 21
-32.500000
  0
LINE
  8
0
  6
DASHED
 62
2
 10
-168.000000
 20
-36.500000
 11
-168.000000
 21
-31.500000
  0
LINE
  8
0
  6
CENTER
 62
2
 10
-166.000000
 20
-37.500000
 11
-166.000000
 21
-30.000000
  0
LINE
  8
0
  6
DASHED
 62
2
 10
-169.000000
 20
-31.500000
 11
-169.000000
 21
-30.992399
  0
LINE
  8
0
  6
DASHED
 62
2
 10
-169.000000
 20
-31.500000
 11
-163.000000
 21
-31.500000
  0
LINE
  8
0
  6
DASHED
 62
2
 10
-163.000000
 20
-31.500000
 11
-163.000000
 21
-31.000000
  0
LINE
  8
0
  6
DASHED
 62
2
 10
-164.000000
 20
-36.500000
 11
-164.000000
 21
-31.500000
  0
LINE
  8
0
  6
DASHED
 62
2
 10
-164.350006
 20
-36.500000
 11
-164.350006
 21
-31.500000
  0
LINE
  8
0
  6
DASHED
 62
2
 10
-167.649994
 20
-36.500000
 11
-167.649994
 21
-31.500000
  0
LINE
  8
0
  6
CENTER
 62
2
 10
173.783005
 20
93.500000
 11
173.783005
 21
87.500000
  0
LINE
  8
0
  6
DASHED
 62
2
 10
171.783005
 20
90.900002
 11
171.783005
 21
88.500000
  0
LINE
  8
0
  6
DASHED
 62
2
 10
175.783005
 20
90.900002
 11
175.783005
 21
88.500000
  0
LINE
  8
0
  6
DASHED
 62
2
 10
171.283005
 20
92.500000
 11
171.283005
 21
90.900002
  0
LINE
  8
0
  6
DASHED
 62
2
 10
176.283005
 20
92.500000
 11
176.283005
 21
90.900002
  0
LINE
  8
0
  6
DASHED
 62
2
 10
171.283005
 20
90.900002
 11
176.283005
 21
90.900002
  0
LINE
  8
0
  6
DASHED
 62
2
 10
172.132996
 20
90.900002
 11
172.132996
 21
88.500000
  0
LINE
  8
0
  6
DASHED
 62
2
 10
175.432999
 20
90.900002
 11
175.432999
 21
88.500000
  0
LINE
  8
0
  6
DASHED
 62
2
 10
221.783005
 20
92.500000
 11
221.783005
 21
87.500000
  0
LINE
  8
0
  6
CENTER
 62
2
 10
223.783005
 20
93.500000
 11
223.783005
 21
86.000000
  0
LINE
  8
0
  6
DASHED
 62
2
 10
220.783005
 20
87.500000
 11
220.783005
 21
86.992500
  0
LINE
  8
0
  6
DASHED
 62
2
 10
220.783005
 20
87.500000
 11
226.783005
 21
87.500000
  0
LINE
  8
0
  6
DASHED
 62
2
 10
226.783005
 20
87.500000
 11
226.783005
 21
87.000000
  0
LINE
  8
0
  6
DASHED
 62
2
 10
225.783005
 20
92.500000
 11
225.783005
 21
87.500000
  0
LINE
  8
0
  6
DASHED
 62
2
 10
225.432999
 20
92.500000
 11
225.432999
 21
87.500000
  0
LINE
  8
0
  6
DASHED
 62
2
 10
222.132996
 20
92.500000
 11
222.132996
 21
87.500000
  0
LINE
  8
0
  6
CENTER
 62
2
 10
186.783005
 20
20.100000
 11
186.783005
 21
14.900000
  0
LINE
  8
0
  6
CENTER
 62
2
 10
184.182999
 20
17.500000
 11
189.382996
 21
17.500000
  0
LINE
  8
0
  6
CENTER
 62
2
 10
173.783005
 20
-37.500000
 11
173.783005
 21
-31.500000
  0
LINE
  8
0
  6
DASHED
 62
2
 10
171.783005
 20
-34.900002
 11
171.783005
 21
-32.500000
  0
LINE
  8
0
  6
DASHED
 62
2
 10
175.783005
 20
-34.900002
 11
175.783005
 21
-32.500000
  0
LINE
  8
0
  6
DASHED
 62
2
 10
171.283005
 20
-36.500000
 11
171.283005
 21
-34.900002
  0
LINE
  8
0
  6
DASHED
 62
2
 10
176.283005
 20
-36.500000
 11
176.283005
 21
-34.900002
  0
LINE
  8
0
  6
DASHED
 62
2
 10
171.283005
 20
-34.900002
 11
176.283005
 21
-34.900002
  0
LINE
  8
0
  6
DASHED
 62
2
 10
172.132996
 20
-34.900002
 11
172.132996
 21
-32.500000
  0
LINE
  8
0
  6
DASHED
 62
2
 10
175.432999
 20
-34.900002
 11
175.432999
 21
-32.500000
  0
LINE
  8
0
  6
DASHED
 62
2
 10
221.783005
 20
-36.500000
 11
221.783005
 21
-31.500000
  0
LINE
  8
0
  6
CENTER
 62
2
 10
223.783005
 20
-37.500000
 11
223.783005
 21
-30.000000
  0
LINE
  8
0
  6
DASHED
 62
2
 10
220.783005
 20
-31.500000
 11
220.783005
 21
-30.992399
  0
LINE
  8
0
  6
DASHED
 62
2
 10
220.783005
 20
-31.500000
 11
226.783005
 21
-31.500000
  0
LINE
  8
0
  6
DASHED
 62
2
 10
226.783005
 20
-31.500000
 11
226.783005
 21
-31.000000
  0
LINE
  8
0
  6
DASHED
 62
2
 10
225.783005
 20
-36.500000
 11
225.783005
 21
-31.500000
  0
LINE
  8
0
  6
DASHED
 62
2
 10
222.132996
 20
-36.500000
 11
222.132996
 21
-31.500000
  0
LINE
  8
0
  6
DASHED
 62
2
 10
225.432999
 20
-36.500000
 11
225.432999
 21
-31.500000
  0
LINE
  8
0
  6
CENTER
 62
2
 10
-5.783330
 20
93.500000
 11
-5.783330
 21
85.500000
  0
LINE
  8
0
  6
DASHED
 62
2
 10
-7.783330
 20
92.500000
 11
-7.783330
 21
86.500000
  0
LINE
  8
0
  6
DASHED
 62
2
 10
-3.783330
 20
92.500000
 11
-3.783330
 21
86.500000
  0
LINE
  8
0
  6
DASHED
 62
2
 10
-7.433320
 20
92.500000
 11
-7.433320
 21
86.500000
  0
LINE
  8
0
  6
DASHED
 62
2
 10
-4.133300
 20
92.500000
 11
-4.133300
 21
86.500000
  0
LINE
  8
0
  6
DASHED
 62
2
 10
27.216700
 20
92.500000
 11
27.216700
 21
87.500000
  0
LINE
  8
0
  6
CENTER
 62
2
 10
29.216700
 20
93.500000
 11
29.216700
 21
86.000000
  0
LINE
  8
0
  6
DASHED
 62
2
 10
31.216700
 20
92.500000
 11
31.216700
 21
87.500000
  0
LINE
  8
0
  6
DASHED
 62
2
 10
27.566700
 20
92.500000
 11
27.566700
 21
87.500000
  0
LINE
  8
0
  6
DASHED
 62
2
 10
30.866699
 20
92.500000
 11
30.866699
 21
87.500000
  0
LINE
  8
0
  6
DASHED
 62
2
 10
26.216700
 20
87.500000
 11
26.216700
 21
87.199997
  0
LINE
  8
0
  6
DASHED
 62
2
 10
26.216700
 20
87.500000
 11
32.216702
 21
87.500000
  0
LINE
  8
0
  6
DASHED
 62
2
 10
32.216702
 20
87.500000
 11
32.216702
 21
87.199997
  0
LINE
  8
0
  6
CENTER
 62
2
 10
-5.383360
 20
17.500000
 11
-0.183350
 21
17.500000
  0
LINE
  8
0
  6
CENTER
 62
2
 10
-2.783360
 20
20.100000
 11
-2.783360
 21
14.900000
  0
LINE
  8
0
  6
CENTER
 62
2
 10
-5.783330
 20
-37.500000
 11
-5.783330
 21
-29.500000
  0
LINE
  8
0
  6
DASHED
 62
2
 10
-7.783330
 20
-36.500000
 11
-7.783330
 21
-30.500000
  0
LINE
  8
0
  6
DASHED
 62
2
 10
-3.783330
 20
-36.500000
 11
-3.783330
 21
-30.500000
  0
LINE
  8
0
  6
DASHED
 62
2
 10
-4.133300
 20
-36.500000
 11
-4.133300
 21
-30.500000
  0
LINE
  8
0
  6
DASHED
 62
2
 10
-7.433320
 20
-36.500000
 11
-7.433320
 21
-30.500000
  0
LINE
  8
0
  6
DASHED
 62
2
 10
27.216700
 20
-36.500000
 11
27.216700
 21
-31.500000
  0
LINE
  8
0
  6
CENTER
 62
2
 10
29.216700
 20
-37.500000
 11
29.216700
 21
-30.200001
  0
LINE
  8
0
  6
DASHED
 62
2
 10
26.216700
 20
-31.500000
 11
26.216700
 21
-31.200001
  0
LINE
  8
0
  6
DASHED
 62
2
 10
26.216700
 20
-31.500000
 11
32.216702
 21
-31.500000
  0
LINE
  8
0
  6
DASHED
 62
2
 10
32.216702
 20
-31.500000
 11
32.216702
 21
-31.200001
  0
LINE
  8
0
  6
DASHED
 62
2
 10
31.216700
 20
-36.500000
 11
31.216700
 21
-31.500000
  0
LINE
  8
0
  6
DASHED
 62
2
 10
30.866699
 20
-36.500000
 11
30.866699
 21
-31.500000
  0
LINE
  8
0
  6
DASHED
 62
2
 10
27.566700
 20
-36.500000
 11
27.566700
 21
-31.500000
  0
LINE
  8
0
  6
DASHED
 62
2
 10
-189.000000
 20
88.500000
 11
-183.000000
 21
88.500000
  0
LINE
  8
0
  6
CONTINUOUS
 62
7
 10
-187.500000
 20
76.000000
 11
-186.300003
 21
76.000000
  0
LINE
  8
0
  6
CONTINUOUS
 62
2
 10
-187.500000
 20
76.400002
 11
-186.300003
 21
76.400002
  0
LINE
  8
0
  6
CONTINUOUS
 62
7
 10
-186.300003
 20
76.000000
 11
-186.300003
 21
81.000000
  0
LINE
  8
0
  6
CONTINUOUS
 62
7
 10
-186.300003
 20
79.949997
 11
-184.800003
 21
79.949997
  0
LINE
  8
0
  6
CONTINUOUS
 62
7
 10
-184.800003
 20
77.050003
 11
-184.800003
 21
79.949997
  0
LINE
  8
0
  6
CONTINUOUS
 62
7
 10
-186.300003
 20
77.050003
 11
-184.800003
 21
77.050003
  0
LINE
  8
0
  6
CONTINUOUS
 62
7
 10
-187.328003
 20
81.000000
 11
-186.300003
 21
81.000000
  0
LINE
  8
0
  6
CONTINUOUS
 62
2
 10
-187.438995
 20
80.599998
 11
-186.300003
 21
80.599998
  0
LINE
  8
0
  6
CONTINUOUS
 62
7
 10
-187.500000
 20
43.500000
 11
-186.300003
 21
43.500000
  0
LINE
  8
0
  6
CONTINUOUS
 62
2
 10
-187.500000
 20
43.900002
 11
-186.300003
 21
43.900002
  0
LINE
  8
0
  6
CONTINUOUS
 62
7
 10
-186.300003
 20
43.500000
 11
-186.300003
 21
48.500000
  0
LINE
  8
0
  6
CONTINUOUS
 62
7
 10
-186.300003
 20
47.450001
 11
-184.800003
 21
47.450001
  0
LINE
  8
0
  6
CONTINUOUS
 62
7
 10
-184.800003
 20
44.549999
 11
-184.800003
 21
47.450001
  0
LINE
  8
0
  6
CONTINUOUS
 62
7
 10
-186.300003
 20
44.549999
 11
-184.800003
 21
44.549999
  0
LINE
  8
0
  6
CONTINUOUS
 62
7
 10
-187.500000
 20
48.500000
 11
-186.300003
 21
48.500000
  0
LINE
  8
0
  6
CONTINUOUS
 62
2
 10
-187.500000
 20
48.099998
 11
-186.300003
 21
48.099998
  0
LINE
  8
0
  6
CONTINUOUS
 62
7
 10
172.283005
 20
76.000000
 11
173.483002
 21
76.000000
  0
LINE
  8
0
  6
CONTINUOUS
 62
2
 10
172.283005
 20
76.400002
 11
173.483002
 21
76.400002
  0
LINE
  8
0
  6
CONTINUOUS
 62
7
 10
173.483002
 20
76.000000
 11
173.483002
 21
81.000000
  0
LINE
  8
0
  6
CONTINUOUS
 62
7
 10
173.483002
 20
79.949997
 11
174.983002
 21
79.949997
  0
LINE
  8
0
  6
CONTINUOUS
 62
7
 10
174.983002
 20
77.050003
 11
174.983002
 21
79.949997
  0
LINE
  8
0
  6
CONTINUOUS
 62
7
 10
173.483002
 20
77.050003
 11
174.983002
 21
77.050003
  0
LINE
  8
0
  6
CONTINUOUS
 62
7
 10
172.455002
 20
81.000000
 11
173.483002
 21
81.000000
  0
LINE
  8
0
  6
CONTINUOUS
 62
2
 10
172.343994
 20
80.599998
 11
173.483002
 21
80.599998
  0
LINE
  8
0
  6
CONTINUOUS
 62
7
 10
172.283005
 20
43.500000
 11
173.483002
 21
43.500000
  0
LINE
  8
0
  6
CONTINUOUS
 62
2
 10
172.283005
 20
43.900002
 11
173.483002
 21
43.900002
  0
LINE
  8
0
  6
CONTINUOUS
 62
7
 10
173.483002
 20
43.500000
 11
173.483002
 21
48.500000
  0
LINE
  8
0
  6
CONTINUOUS
 62
7
 10
173.483002
 20
47.450001
 11
174.983002
 21
47.450001
  0
LINE
  8
0
  6
CONTINUOUS
 62
7
 10
174.983002
 20
44.549999
 11
174.983002
 21
47.450001
  0
LINE
  8
0
  6
CONTINUOUS
 62
7
 10
173.483002
 20
44.549999
 11
174.983002
 21
44.549999
  0
LINE
  8
0
  6
CONTINUOUS
 62
7
 10
172.283005
 20
48.500000
 11
173.483002
 21
48.500000
  0
LINE
  8
0
  6
CONTINUOUS
 62
2
 10
172.283005
 20
48.099998
 11
173.483002
 21
48.099998
  0
LINE
  8
0
  6
CONTINUOUS
 62
7
 10
-7.283330
 20
76.000000
 11
-6.083310
 21
76.000000
  0
LINE
  8
0
  6
CONTINUOUS
 62
2
 10
-7.283330
 20
76.400002
 11
-6.083310
 21
76.400002
  0
LINE
  8
0
  6
CONTINUOUS
 62
7
 10
-6.083310
 20
76.000000
 11
-6.083310
 21
81.000000
  0
LINE
  8
0
  6
CONTINUOUS
 62
7
 10
-6.083310
 20
79.949997
 11
-4.583310
 21
79.949997
  0
LINE
  8
0
  6
CONTINUOUS
 62
7
 10
-4.583310
 20
77.050003
 11
-4.583310
 21
79.949997
  0
LINE
  8
0
  6
CONTINUOUS
 62
7
 10
-6.083310
 20
77.050003
 11
-4.583310
 21
77.050003
  0
LINE
  8
0
  6
CONTINUOUS
 62
7
 10
-7.111760
 20
81.000000
 11
-6.083310
 21
81.000000
  0
LINE
  8
0
  6
CONTINUOUS
 62
2
 10
-7.222720
 20
80.599998
 11
-6.083310
 21
80.599998
  0
LINE
  8
0
  6
CONTINUOUS
 62
7
 10
-7.283330
 20
43.500000
 11
-6.083310
 21
43.500000
  0
LINE
  8
0
  6
CONTINUOUS
 62
2
 10
-7.283330
 20
43.900002
 11
-6.083310
 21
43.900002
  0
LINE
  8
0
  6
CONTINUOUS
 62
7
 10
-6.083310
 20
43.500000
 11
-6.083310
 21
48.500000
  0
LINE
  8
0
  6
CONTINUOUS
 62
7
 10
-6.083310
 20
47.450001
 11
-4.583310
 21
47.450001
  0
LINE
  8
0
  6
CONTINUOUS
 62
7
 10
-4.583310
 20
44.549999
 11
-4.583310
 21
47.450001
  0
LINE
  8
0
  6
CONTINUOUS
 62
7
 10
-6.083310
 20
44.549999
 11
-4.583310
 21
44.549999
  0
LINE
  8
0
  6
CONTINUOUS
 62
7
 10
-7.283330
 20
48.500000
 11
-6.083310
 21
48.500000
  0
LINE
  8
0
  6
CONTINUOUS
 62
2
 10
-7.283330
 20
48.099998
 11
-6.083310
 21
48.099998
  0
LINE
  8
0
  6
CONTINUOUS
 62
7
 10
-93.466698
 20
195.500000
 11
-93.466698
 21
-195.000000
  0
LINE
  8
0
  6
CONTINUOUS
 62
7
 10
94.316704
 20
195.500000
 11
94.316704
 21
-195.000000
  0
CIRCLE
  8
0
  6
CONTINUOUS
 62
2
 10
173.783005
 20
-68.000000
 40
2.000000
  0
CIRCLE
  8
0
  6
CONTINUOUS
 62
7
 10
173.783005
 20
-68.000000
 40
2.500000
  0
CIRCLE
  8
0
  6
CONTINUOUS
 62
2
 10
220.783005
 20
38.000000
 40
1.500000
  0
CIRCLE
  8
0
  6
CONTINUOUS
 62
7
 10
202.783005
 20
38.000000
 40
1.250000
  0
CIRCLE
  8
0
  6
CONTINUOUS
 62
2
 10
202.783005
 20
38.000000
 40
1.500000
  0
CIRCLE
  8
0
  6
CONTINUOUS
 62
7
 10
186.783005
 20
38.500000
 40
1.600000
  0
CIRCLE
  8
0
  6
CONTINUOUS
 62
7
 10
154.783005
 20
38.000000
 40
1.250000
  0
CIRCLE
  8
0
  6
CONTINUOUS
 62
2
 10
154.783005
 20
38.000000
 40
1.500000
  0
CIRCLE
  8
0
  6
CONTINUOUS
 62
7
 10
154.783005
 20
18.000000
 40
1.250000
  0
CIRCLE
  8
0
  6
CONTINUOUS
 62
2
 10
154.783005
 20
18.000000
 40
1.500000
  0
CIRCLE
  8
0
  6
CONTINUOUS
 62
7
 10
220.783005
 20
18.000000
 40
1.250000
  0
CIRCLE
  8
0
  6
CONTINUOUS
 62
2
 10
220.783005
 20
18.000000
 40
1.500000
  0
CIRCLE
  8
0
  6
CONTINUOUS
 62
7
 10
202.783005
 20
18.000000
 40
1.250000
  0
CIRCLE
  8
0
  6
CONTINUOUS
 62
2
 10
202.783005
 20
18.000000
 40
1.500000
  0
CIRCLE
  8
0
  6
CONTINUOUS
 62
7
 10
220.783005
 20
38.000000
 40
1.250000
  0
ARC
  8
0
  6
DASHED
 62
2
 10
161.783005
 20
17.500000
 40
3.000000
 50
303.367004
 51
236.632996
  0
ARC
  8
0
  6
DASHED
 62
2
 10
161.783005
 20
17.500000
 40
1.649990
 50
0.000000
 51
180.000000
  0
ARC
  8
0
  6
DASHED
 62
2
 10
161.783005
 20
38.500000
 40
1.649990
 50
180.000000
 51
0.000000
  0
ARC
  8
0
  6
DASHED
 62
2
 10
161.783005
 20
38.500000
 40
3.000000
 50
123.366997
 51
416.632996
  0
CIRCLE
  8
0
  6
DASHED
 62
2
 10
223.783005
 20
38.500000
 40
3.000000
  0
CIRCLE
  8
0
  6
DASHED
 62
2
 10
223.783005
 20
38.500000
 40
2.000000
  0
CIRCLE
  8
0
  6
DASHED
 62
2
 10
223.783005
 20
38.500000
 40
1.650000
  0
CIRCLE
  8
0
  6
DASHED
 62
2
 10
223.783005
 20
17.500000
 40
3.000000
  0
CIRCLE
  8
0
  6
DASHED
 62
2
 10
223.783005
 20
17.500000
 40
2.000000
  0
CIRCLE
  8
0
  6
DASHED
 62
2
 10
223.783005
 20
17.500000
 40
1.650000
  0
CIRCLE
  8
0
  6
CONTINUOUS
 62
2
 10
117.782997
 20
28.000000
 40
2.000000
  0
CIRCLE
  8
0
  6
CONTINUOUS
 62
7
 10
117.782997
 20
38.000000
 40
3.000000
  0
CIRCLE
  8
0
  6
CONTINUOUS
 62
7
 10
117.782997
 20
28.000000
 40
1.650000
  0
CIRCLE
  8
0
  6
CONTINUOUS
 62
7
 10
108.782997
 20
28.000000
 40
5.000000
  0
CIRCLE
  8
0
  6
CONTINUOUS
 62
7
 10
117.782997
 20
18.000000
 40
3.000000
  0
CIRCLE
  8
0
  6
CONTINUOUS
 62
2
 10
108.782997
 20
18.000000
 40
2.000000
  0
CIRCLE
  8
0
  6
CONTINUOUS
 62
7
 10
108.782997
 20
18.000000
 40
1.650000
  0
CIRCLE
  8
0
  6
CONTINUOUS
 62
2
 10
108.782997
 20
38.000000
 40
2.000000
  0
CIRCLE
  8
0
  6
CONTINUOUS
 62
7
 10
108.782997
 20
38.000000
 40
1.650000
  0
CIRCLE
  8
0
  6
CONTINUOUS
 62
7
 10
267.782990
 20
28.000000
 40
5.400000
  0
ARC
  8
0
  6
CONTINUOUS
 62
7
 10
261.282990
 20
34.599998
 40
1.350000
 50
206.389999
 51
333.614014
  0
ARC
  8
0
  6
CONTINUOUS
 62
7
 10
261.282990
 20
21.400000
 40
1.350000
 50
26.389299
 51
153.613007
  0
ARC
  8
0
  6
CONTINUOUS
 62
7
 10
231.783005
 20
87.000000
 40
4.800000
 50
180.000000
 51
236.442993
  0
ARC
  8
0
  6
CONTINUOUS
 62
7
 10
153.783005
 20
87.000000
 40
4.800000
 50
303.557007
 51
0.000000
  0
CIRCLE
  8
0
  6
CONTINUOUS
 62
2
 10
217.632996
 20
76.199997
 40
1.000000
  0
CIRCLE
  8
0
  6
CONTINUOUS
 62
7
 10
217.632996
 20
76.199997
 40
0.800000
  0
ARC
  8
0
  6
CONTINUOUS
 62
7
 10
161.783005
 20
-68.000000
 40
1.649990
 50
180.000000
 51
0.000000
  0
ARC
  8
0
  6
CONTINUOUS
 62
7
 10
161.783005
 20
-89.000000
 40
1.649990
 50
0.000000
 51
180.000000
  0
CIRCLE
  8
0
  6
CONTINUOUS
 62
7
 10
173.783005
 20
-89.000000
 40
2.500000
  0
CIRCLE
  8
0
  6
CONTINUOUS
 62
7
 10
223.783005
 20
-89.000000
 40
1.650000
  0
CIRCLE
  8
0
  6
CONTINUOUS
 62
2
 10
223.783005
 20
-89.000000
 40
2.000000
  0
CIRCLE
  8
0
  6
CONTINUOUS
 62
7
 10
173.783005
 20
-89.000000
 40
1.650000
  0
CIRCLE
  8
0
  6
CONTINUOUS
 62
2
 10
173.783005
 20
-89.000000
 40
2.000000
  0
CIRCLE
  8
0
  6
CONTINUOUS
 62
7
 10
223.783005
 20
-68.000000
 40
1.650000
  0
CIRCLE
  8
0
  6
CONTINUOUS
 62
2
 10
223.783005
 20
-68.000000
 40
2.000000
  0
CIRCLE
  8
0
  6
CONTINUOUS
 62
7
 10
173.783005
 20
-68.000000
 40
1.650000
  0
ARC
  8
0
  6
CONTINUOUS
 62
7
 10
-17.783300
 20
-68.000000
 40
1.650000
 50
180.000000
 51
0.000000
  0
ARC
  8
0
  6
CONTINUOUS
 62
7
 10
-17.783300
 20
-89.000000
 40
1.650000
 50
0.000000
 51
180.000000
  0
CIRCLE
  8
0
  6
CONTINUOUS
 62
7
 10
29.216700
 20
-89.000000
 40
1.650000
  0
CIRCLE
  8
0
  6
CONTINUOUS
 62
2
 10
29.216700
 20
-89.000000
 40
2.000000
  0
CIRCLE
  8
0
  6
CONTINUOUS
 62
7
 10
-5.783330
 20
-89.000000
 40
1.650000
  0
CIRCLE
  8
0
  6
CONTINUOUS
 62
2
 10
-5.783330
 20
-89.000000
 40
2.000000
  0
CIRCLE
  8
0
  6
CONTINUOUS
 62
7
 10
29.216700
 20
-68.000000
 40
1.650000
  0
CIRCLE
  8
0
  6
CONTINUOUS
 62
2
 10
29.216700
 20
-68.000000
 40
2.000000
  0
CIRCLE
  8
0
  6
CONTINUOUS
 62
7
 10
-5.783330
 20
-68.000000
 40
1.650000
  0
CIRCLE
  8
0
  6
CONTINUOUS
 62
2
 10
-5.783330
 20
-68.000000
 40
2.000000
  0
CIRCLE
  8
0
  6
CONTINUOUS
 62
2
 10
26.216700
 20
38.000000
 40
1.500000
  0
CIRCLE
  8
0
  6
CONTINUOUS
 62
7
 10
-6.783360
 20
38.000000
 40
1.250000
  0
CIRCLE
  8
0
  6
CONTINUOUS
 62
2
 10
-6.783360
 20
38.000000
 40
1.500000
  0
CIRCLE
  8
0
  6
CONTINUOUS
 62
7
 10
-2.783360
 20
38.500000
 40
1.600000
  0
CIRCLE
  8
0
  6
CONTINUOUS
 62
7
 10
-24.783400
 20
38.000000
 40
1.250000
  0
CIRCLE
  8
0
  6
CONTINUOUS
 62
2
 10
-24.783400
 20
38.000000
 40
1.500000
  0
CIRCLE
  8
0
  6
CONTINUOUS
 62
7
 10
-24.783400
 20
18.000000
 40
1.250000
  0
CIRCLE
  8
0
  6
CONTINUOUS
 62
2
 10
-24.783400
 20
18.000000
 40
1.500000
  0
CIRCLE
  8
0
  6
CONTINUOUS
 62
7
 10
26.216700
 20
18.000000
 40
1.250000
  0
CIRCLE
  8
0
  6
CONTINUOUS
 62
2
 10
26.216700
 20
18.000000
 40
1.500000
  0
CIRCLE
  8
0
  6
CONTINUOUS
 62
7
 10
-6.783360
 20
18.000000
 40
1.250000
  0
CIRCLE
  8
0
  6
CONTINUOUS
 62
2
 10
-6.783360
 20
18.000000
 40
1.500000
  0
CIRCLE
  8
0
  6
CONTINUOUS
 62
7
 10
26.216700
 20
38.000000
 40
1.250000
  0
ARC
  8
0
  6
DASHED
 62
2
 10
-17.783300
 20
17.500000
 40
3.000000
 50
303.367004
 51
236.632996
  0
ARC
  8
0
  6
DASHED
 62
2
 10
-17.783300
 20
17.500000
 40
1.650000
 50
0.000000
 51
180.000000
  0
ARC
  8
0
  6
DASHED
 62
2
 10
-17.783300
 20
38.500000
 40
1.650000
 50
180.000000
 51
0.000000
  0
ARC
  8
0
  6
DASHED
 62
2
 10
-17.783300
 20
38.500000
 40
3.000000
 50
123.366997
 51
416.632996
  0
CIRCLE
  8
0
  6
DASHED
 62
2
 10
29.216700
 20
38.500000
 40
3.000000
  0
CIRCLE
  8
0
  6
DASHED
 62
2
 10
29.216700
 20
38.500000
 40
2.000000
  0
CIRCLE
  8
0
  6
DASHED
 62
2
 10
29.216700
 20
38.500000
 40
1.650000
  0
CIRCLE
  8
0
  6
DASHED
 62
2
 10
29.216700
 20
17.500000
 40
3.000000
  0
CIRCLE
  8
0
  6
DASHED
 62
2
 10
29.216700
 20
17.500000
 40
2.000000
  0
CIRCLE
  8
0
  6
DASHED
 62
2
 10
29.216700
 20
17.500000
 40
1.650000
  0
CIRCLE
  8
0
  6
CONTINUOUS
 62
7
 10
8.216670
 20
18.000000
 40
1.250000
  0
CIRCLE
  8
0
  6
CONTINUOUS
 62
2
 10
8.216670
 20
18.000000
 40
1.500000
  0
CIRCLE
  8
0
  6
CONTINUOUS
 62
2
 10
8.216670
 20
38.000000
 40
1.500000
  0
CIRCLE
  8
0
  6
CONTINUOUS
 62
7
 10
8.216670
 20
38.000000
 40
1.250000
  0
ARC
  8
0
  6
CONTINUOUS
 62
7
 10
-25.783300
 20
87.199997
 40
4.800000
 50
298.954987
 51
0.000000
  0
ARC
  8
0
  6
CONTINUOUS
 62
7
 10
37.216702
 20
87.199997
 40
4.800000
 50
180.000000
 51
241.044998
  0
CIRCLE
  8
0
  6
CONTINUOUS
 62
2
 10
153.783005
 20
-31.000000
 40
2.500000
  0
CIRCLE
  8
0
  6
CONTINUOUS
 62
7
 10
153.783005
 20
-31.000000
 40
2.100000
  0
CIRCLE
  8
0
  6
CONTINUOUS
 62
2
 10
231.783005
 20
-31.000000
 40
2.500000
  0
CIRCLE
  8
0
  6
CONTINUOUS
 62
7
 10
231.783005
 20
-31.000000
 40
2.100000
  0
ARC
  8
0
  6
CONTINUOUS
 62
7
 10
153.783005
 20
-31.000000
 40
4.800000
 50
0.000000
 51
56.442600
  0
ARC
  8
0
  6
CONTINUOUS
 62
7
 10
167.783005
 20
-32.500000
 40
3.000000
 50
0.000000
 51
150.000000
  0
CIRCLE
  8
0
  6
CONTINUOUS
 62
2
 10
227.632996
 20
-20.200001
 40
1.000000
  0
CIRCLE
  8
0
  6
CONTINUOUS
 62
7
 10
217.632996
 20
-20.200001
 40
0.750000
  0
CIRCLE
  8
0
  6
CONTINUOUS
 62
7
 10
230.983002
 20
-20.500000
 40
1.250000
  0
CIRCLE
  8
0
  6
CONTINUOUS
 62
2
 10
167.783005
 20
-32.500000
 40
1.500000
  0
CIRCLE
  8
0
  6
CONTINUOUS
 62
2
 10
217.783005
 20
-32.500000
 40
1.500000
  0
CIRCLE
  8
0
  6
CONTINUOUS
 62
2
 10
230.983002
 20
-20.500000
 40
1.500000
  0
ARC
  8
0
  6
CONTINUOUS
 62
7
 10
231.783005
 20
-31.000000
 40
4.800000
 50
123.556999
 51
180.000000
  0
ARC
  8
0
  6
CONTINUOUS
 62
7
 10
217.783005
 20
-32.500000
 40
3.000010
 50
29.999901
 51
180.000000
  0
CIRCLE
  8
0
  6
CONTINUOUS
 62
7
 10
217.783005
 20
-32.500000
 40
1.250000
  0
CIRCLE
  8
0
  6
CONTINUOUS
 62
7
 10
227.632996
 20
-20.200001
 40
0.750000
  0
CIRCLE
  8
0
  6
CONTINUOUS
 62
2
 10
217.632996
 20
-20.200001
 40
1.000000
  0
CIRCLE
  8
0
  6
CONTINUOUS
 62
2
 10
224.483002
 20
-20.500000
 40
1.500000
  0
CIRCLE
  8
0
  6
CONTINUOUS
 62
7
 10
224.483002
 20
-20.500000
 40
1.250000
  0
CIRCLE
  8
0
  6
CONTINUOUS
 62
7
 10
167.783005
 20
-32.500000
 40
1.250000
  0
CIRCLE
  8
0
  6
CONTINUOUS
 62
2
 10
-25.783300
 20
-31.000000
 40
2.500000
  0
CIRCLE
  8
0
  6
CONTINUOUS
 62
7
 10
-25.783300
 20
-31.000000
 40
2.100000
  0
CIRCLE
  8
0
  6
CONTINUOUS
 62
2
 10
37.216702
 20
-31.000000
 40
2.500000
  0
CIRCLE
  8
0
  6
CONTINUOUS
 62
7
 10
37.216702
 20
-31.000000
 40
2.100000
  0
CIRCLE
  8
0
  6
CONTINUOUS
 62
2
 10
33.066700
 20
-20.200001
 40
1.000000
  0
CIRCLE
  8
0
  6
CONTINUOUS
 62
7
 10
23.066700
 20
-20.200001
 40
0.750000
  0
CIRCLE
  8
0
  6
CONTINUOUS
 62
7
 10
36.416698
 20
-20.500000
 40
1.250000
  0
CIRCLE
  8
0
  6
CONTINUOUS
 62
2
 10
-11.783300
 20
-32.500000
 40
1.500000
  0
CIRCLE
  8
0
  6
CONTINUOUS
 62
2
 10
23.216700
 20
-32.500000
 40
1.500000
  0
CIRCLE
  8
0
  6
CONTINUOUS
 62
2
 10
36.416698
 20
-20.500000
 40
1.500000
  0
CIRCLE
  8
0
  6
CONTINUOUS
 62
7
 10
23.216700
 20
-32.500000
 40
1.250000
  0
CIRCLE
  8
0
  6
CONTINUOUS
 62
7
 10
33.066700
 20
-20.200001
 40
0.750000
  0
CIRCLE
  8
0
  6
CONTINUOUS
 62
2
 10
23.066700
 20
-20.200001
 40
1.000000
  0
CIRCLE
  8
0
  6
CONTINUOUS
 62
2
 10
29.916700
 20
-20.500000
 40
1.500000
  0
CIRCLE
  8
0
  6
CONTINUOUS
 62
7
 10
29.916700
 20
-20.500000
 40
1.250000
  0
CIRCLE
  8
0
  6
CONTINUOUS
 62
7
 10
-11.783300
 20
-32.500000
 40
1.250000
  0
ARC
  8
0
  6
CONTINUOUS
 62
7
 10
37.216702
 20
-31.200001
 40
4.800000
 50
118.955002
 51
180.000000
  0
ARC
  8
0
  6
CONTINUOUS
 62
7
 10
23.216700
 20
-32.700001
 40
3.000000
 50
30.000000
 51
132.834000
  0
ARC
  8
0
  6
CONTINUOUS
 62
7
 10
-11.783300
 20
-32.700001
 40
3.000000
 50
47.166500
 51
150.000000
  0
ARC
  8
0
  6
CONTINUOUS
 62
7
 10
-25.783300
 20
-31.200001
 40
4.800000
 50
0.000000
 51
61.044701
  0
ARC
  8
0
  6
CONTINUOUS
 62
7
 10
175.283005
 20
80.000000
 40
3.000000
 50
90.000000
 51
180.000000
  0
ARC
  8
0
  6
CONTINUOUS
 62
7
 10
115.782997
 20
46.000000
 40
3.700000
 50
108.925003
 51
131.074997
  0
ARC
  8
0
  6
CONTINUOUS
 62
7
 10
115.782997
 20
46.000000
 40
3.700000
 50
48.924599
 51
71.075401
  0
ARC
  8
0
  6
CONTINUOUS
 62
7
 10
115.782997
 20
46.000000
 40
3.700000
 50
348.924988
 51
11.075400
  0
ARC
  8
0
  6
CONTINUOUS
 62
7
 10
115.782997
 20
46.000000
 40
3.700000
 50
288.924988
 51
311.075012
  0
ARC
  8
0
  6
CONTINUOUS
 62
7
 10
115.782997
 20
46.000000
 40
3.700000
 50
168.925003
 51
191.074997
  0
ARC
  8
0
  6
CONTINUOUS
 62
7
 10
115.782997
 20
46.000000
 40
3.700000
 50
228.925003
 51
251.074997
  0
CIRCLE
  8
0
  6
CONTINUOUS
 62
7
 10
115.782997
 20
46.000000
 40
2.500000
  0
CIRCLE
  8
0
  6
CONTINUOUS
 62
2
 10
-186.000000
 20
-68.000000
 40
2.000000
  0
CIRCLE
  8
0
  6
CONTINUOUS
 62
7
 10
-186.000000
 20
-68.000000
 40
2.500000
  0
CIRCLE
  8
0
  6
CONTINUOUS
 62
2
 10
-169.000000
 20
38.000000
 40
1.500000
  0
CIRCLE
  8
0
  6
CONTINUOUS
 62
7
 10
-187.000000
 20
38.000000
 40
1.250000
  0
CIRCLE
  8
0
  6
CONTINUOUS
 62
2
 10
-187.000000
 20
38.000000
 40
1.500000
  0
CIRCLE
  8
0
  6
CONTINUOUS
 62
7
 10
-183.000000
 20
38.500000
 40
1.600000
  0
CIRCLE
  8
0
  6
CONTINUOUS
 62
7
 10
-205.000000
 20
38.000000
 40
1.250000
  0
CIRCLE
  8
0
  6
CONTINUOUS
 62
2
 10
-205.000000
 20
38.000000
 40
1.500000
  0
CIRCLE
  8
0
  6
CONTINUOUS
 62
7
 10
-205.000000
 20
18.000000
 40
1.250000
  0
CIRCLE
  8
0
  6
CONTINUOUS
 62
2
 10
-205.000000
 20
18.000000
 40
1.500000
  0
CIRCLE
  8
0
  6
CONTINUOUS
 62
7
 10
-169.000000
 20
18.000000
 40
1.250000
  0
CIRCLE
  8
0
  6
CONTINUOUS
 62
2
 10
-169.000000
 20
18.000000
 40
1.500000
  0
CIRCLE
  8
0
  6
CONTINUOUS
 62
7
 10
-187.000000
 20
18.000000
 40
1.250000
  0
CIRCLE
  8
0
  6
CONTINUOUS
 62
2
 10
-187.000000
 20
18.000000
 40
1.500000
  0
CIRCLE
  8
0
  6
CONTINUOUS
 62
7
 10
-169.000000
 20
38.000000
 40
1.250000
  0
ARC
  8
0
  6
DASHED
 62
2
 10
-198.000000
 20
17.500000
 40
3.000000
 50
303.367004
 51
236.632996
  0
ARC
  8
0
  6
DASHED
 62
2
 10
-198.000000
 20
17.500000
 40
1.649990
 50
0.000000
 51
180.000000
  0
ARC
  8
0
  6
DASHED
 62
2
 10
-198.000000
 20
38.500000
 40
1.649990
 50
180.000000
 51
0.000000
  0
ARC
  8
0
  6
DASHED
 62
2
 10
-198.000000
 20
38.500000
 40
3.000000
 50
123.366997
 51
416.632996
  0
CIRCLE
  8
0
  6
DASHED
 62
2
 10
-166.000000
 20
38.500000
 40
3.000000
  0
CIRCLE
  8
0
  6
DASHED
 62
2
 10
-166.000000
 20
38.500000
 40
2.000000
  0
CIRCLE
  8
0
  6
DASHED
 62
2
 10
-166.000000
 20
38.500000
 40
1.650000
  0
CIRCLE
  8
0
  6
DASHED
 62
2
 10
-166.000000
 20
17.500000
 40
3.000000
  0
CIRCLE
  8
0
  6
DASHED
 62
2
 10
-166.000000
 20
17.500000
 40
2.000000
  0
CIRCLE
  8
0
  6
DASHED
 62
2
 10
-166.000000
 20
17.500000
 40
1.650000
  0
CIRCLE
  8
0
  6
CONTINUOUS
 62
2
 10
-61.783298
 20
28.000000
 40
2.000000
  0
CIRCLE
  8
0
  6
CONTINUOUS
 62
7
 10
-61.783298
 20
38.000000
 40
3.000000
  0
CIRCLE
  8
0
  6
CONTINUOUS
 62
7
 10
-61.783298
 20
28.000000
 40
1.650000
  0
CIRCLE
  8
0
  6
CONTINUOUS
 62
7
 10
-70.783302
 20
28.000000
 40
5.000000
  0
CIRCLE
  8
0
  6
CONTINUOUS
 62
7
 10
-61.783298
 20
18.000000
 40
3.000000
  0
CIRCLE
  8
0
  6
CONTINUOUS
 62
2
 10
-70.783302
 20
18.000000
 40
2.000000
  0
CIRCLE
  8
0
  6
CONTINUOUS
 62
7
 10
-70.783302
 20
18.000000
 40
1.650000
  0
CIRCLE
  8
0
  6
CONTINUOUS
 62
2
 10
-70.783302
 20
38.000000
 40
2.000000
  0
CIRCLE
  8
0
  6
CONTINUOUS
 62
7
 10
-70.783302
 20
38.000000
 40
1.650000
  0
ARC
  8
0
  6
CONTINUOUS
 62
7
 10
-158.000000
 20
87.000000
 40
4.800000
 50
180.000000
 51
236.442993
  0
ARC
  8
0
  6
CONTINUOUS
 62
7
 10
-206.000000
 20
87.000000
 40
4.800000
 50
303.557007
 51
0.000000
  0
CIRCLE
  8
0
  6
CONTINUOUS
 62
2
 10
23.066700
 20
76.199997
 40
1.000000
  0
CIRCLE
  8
0
  6
CONTINUOUS
 62
7
 10
23.066700
 20
76.199997
 40
0.800000
  0
ARC
  8
0
  6
CONTINUOUS
 62
7
 10
-198.000000
 20
-68.000000
 40
1.649990
 50
180.000000
 51
0.000000
  0
ARC
  8
0
  6
CONTINUOUS
 62
7
 10
-198.000000
 20
-89.000000
 40
1.649990
 50
0.000000
 51
180.000000
  0
CIRCLE
  8
0
  6
CONTINUOUS
 62
7
 10
-186.000000
 20
-89.000000
 40
2.500000
  0
CIRCLE
  8
0
  6
CONTINUOUS
 62
7
 10
-166.000000
 20
-89.000000
 40
1.650000
  0
CIRCLE
  8
0
  6
CONTINUOUS
 62
2
 10
-166.000000
 20
-89.000000
 40
2.000000
  0
CIRCLE
  8
0
  6
CONTINUOUS
 62
7
 10
-186.000000
 20
-89.000000
 40
1.650000
  0
CIRCLE
  8
0
  6
CONTINUOUS
 62
2
 10
-186.000000
 20
-89.000000
 40
2.000000
  0
CIRCLE
  8
0
  6
CONTINUOUS
 62
7
 10
-166.000000
 20
-68.000000
 40
1.650000
  0
CIRCLE
  8
0
  6
CONTINUOUS
 62
2
 10
-166.000000
 20
-68.000000
 40
2.000000
  0
CIRCLE
  8
0
  6
CONTINUOUS
 62
7
 10
-186.000000
 20
-68.000000
 40
1.650000
  0
CIRCLE
  8
0
  6
CONTINUOUS
 62
2
 10
-206.000000
 20
-31.000000
 40
2.500000
  0
CIRCLE
  8
0
  6
CONTINUOUS
 62
7
 10
-206.000000
 20
-31.000000
 40
2.100000
  0
CIRCLE
  8
0
  6
CONTINUOUS
 62
2
 10
-158.000000
 20
-31.000000
 40
2.500000
  0
CIRCLE
  8
0
  6
CONTINUOUS
 62
7
 10
-158.000000
 20
-31.000000
 40
2.100000
  0
ARC
  8
0
  6
CONTINUOUS
 62
7
 10
-206.000000
 20
-31.000000
 40
4.800000
 50
0.000000
 51
56.442600
  0
ARC
  8
0
  6
CONTINUOUS
 62
7
 10
-192.000000
 20
-32.500000
 40
3.000000
 50
0.000000
 51
150.000000
  0
CIRCLE
  8
0
  6
CONTINUOUS
 62
2
 10
-162.149994
 20
-20.200001
 40
1.000000
  0
CIRCLE
  8
0
  6
CONTINUOUS
 62
7
 10
-172.149994
 20
-20.200001
 40
0.750000
  0
CIRCLE
  8
0
  6
CONTINUOUS
 62
7
 10
-158.800003
 20
-20.500000
 40
1.250000
  0
CIRCLE
  8
0
  6
CONTINUOUS
 62
2
 10
-192.000000
 20
-32.500000
 40
1.500000
  0
CIRCLE
  8
0
  6
CONTINUOUS
 62
2
 10
-172.000000
 20
-32.500000
 40
1.500000
  0
CIRCLE
  8
0
  6
CONTINUOUS
 62
2
 10
-158.800003
 20
-20.500000
 40
1.500000
  0
ARC
  8
0
  6
CONTINUOUS
 62
7
 10
-158.000000
 20
-31.000000
 40
4.800000
 50
123.556999
 51
180.000000
  0
ARC
  8
0
  6
CONTINUOUS
 62
7
 10
-172.000000
 20
-32.500000
 40
3.000010
 50
29.999901
 51
180.000000
  0
CIRCLE
  8
0
  6
CONTINUOUS
 62
7
 10
-172.000000
 20
-32.500000
 40
1.250000
  0
CIRCLE
  8
0
  6
CONTINUOUS
 62
7
 10
-162.149994
 20
-20.200001
 40
0.750000
  0
CIRCLE
  8
0
  6
CONTINUOUS
 62
2
 10
-172.149994
 20
-20.200001
 40
1.000000
  0
CIRCLE
  8
0
  6
CONTINUOUS
 62
2
 10
-165.300003
 20
-20.500000
 40
1.500000
  0
CIRCLE
  8
0
  6
CONTINUOUS
 62
7
 10
-165.300003
 20
-20.500000
 40
1.250000
  0
CIRCLE
  8
0
  6
CONTINUOUS
 62
7
 10
-192.000000
 20
-32.500000
 40
1.250000
  0
ARC
  8
0
  6
CONTINUOUS
 62
7
 10
-184.500000
 20
80.000000
 40
3.000000
 50
90.000000
 51
180.000000
  0
ARC
  8
0
  6
CONTINUOUS
 62
7
 10
-63.783298
 20
46.000000
 40
3.700000
 50
108.925003
 51
131.074997
  0
ARC
  8
0
  6
CONTINUOUS
 62
7
 10
-63.783298
 20
46.000000
 40
3.700000
 50
48.924702
 51
71.075302
  0
ARC
  8
0
  6
CONTINUOUS
 62
7
 10
-63.783298
 20
46.000000
 40
3.700000
 50
348.924988
 51
11.075400
  0
ARC
  8
0
  6
CONTINUOUS
 62
7
 10
-63.783298
 20
46.000000
 40
3.700000
 50
288.924988
 51
311.075012
  0
ARC
  8
0
  6
CONTINUOUS
 62
7
 10
-63.783298
 20
46.000000
 40
3.700000
 50
168.925003
 51
191.074997
  0
ARC
  8
0
  6
CONTINUOUS
 62
7
 10
-63.783298
 20
46.000000
 40
3.700000
 50
228.925003
 51
251.074997
  0
CIRCLE
  8
0
  6
CONTINUOUS
 62
7
 10
-63.783298
 20
46.000000
 40
2.500000
  0
CIRCLE
  8
0
  6
CONTINUOUS
 62
7
 10
73.216698
 20
28.000000
 40
5.400000
  0
ARC
  8
0
  6
CONTINUOUS
 62
7
 10
66.716698
 20
34.599998
 40
1.350000
 50
206.389999
 51
333.614014
  0
ARC
  8
0
  6
CONTINUOUS
 62
7
 10
66.716698
 20
21.400000
 40
1.350000
 50
26.389099
 51
153.613007
  0
CIRCLE
  8
0
  6
CONTINUOUS
 62
7
 10
172.783005
 20
18.000000
 40
1.250000
  0
CIRCLE
  8
0
  6
CONTINUOUS
 62
2
 10
172.783005
 20
18.000000
 40
1.500000
  0
CIRCLE
  8
0
  6
CONTINUOUS
 62
7
 10
172.783005
 20
38.000000
 40
1.250000
  0
CIRCLE
  8
0
  6
CONTINUOUS
 62
2
 10
172.783005
 20
38.000000
 40
1.500000
  0
CIRCLE
  8
0
  6
CONTINUOUS
 62
2
 10
-247.000000
 20
28.000000
 40
2.000000
  0
CIRCLE
  8
0
  6
CONTINUOUS
 62
7
 10
-247.000000
 20
38.000000
 40
3.000000
  0
CIRCLE
  8
0
  6
CONTINUOUS
 62
7
 10
-247.000000
 20
28.000000
 40
1.650000
  0
CIRCLE
  8
0
  6
CONTINUOUS
 62
7
 10
-256.000000
 20
28.000000
 40
5.000000
  0
CIRCLE
  8
0
  6
CONTINUOUS
 62
7
 10
-247.000000
 20
18.000000
 40
3.000000
  0
CIRCLE
  8
0
  6
CONTINUOUS
 62
2
 10
-256.000000
 20
18.000000
 40
2.000000
  0
CIRCLE
  8
0
  6
CONTINUOUS
 62
7
 10
-256.000000
 20
18.000000
 40
1.650000
  0
CIRCLE
  8
0
  6
CONTINUOUS
 62
2
 10
-256.000000
 20
38.000000
 40
2.000000
  0
CIRCLE
  8
0
  6
CONTINUOUS
 62
7
 10
-256.000000
 20
38.000000
 40
1.650000
  0
ARC
  8
0
  6
CONTINUOUS
 62
7
 10
-249.000000
 20
46.000000
 40
3.700000
 50
108.925003
 51
131.074997
  0
ARC
  8
0
  6
CONTINUOUS
 62
7
 10
-249.000000
 20
46.000000
 40
3.700000
 50
48.924599
 51
71.075401
  0
ARC
  8
0
  6
CONTINUOUS
 62
7
 10
-249.000000
 20
46.000000
 40
3.700000
 50
348.924988
 51
11.075400
  0
ARC
  8
0
  6
CONTINUOUS
 62
7
 10
-249.000000
 20
46.000000
 40
3.700000
 50
288.924988
 51
311.075012
  0
ARC
  8
0
  6
CONTINUOUS
 62
7
 10
-249.000000
 20
46.000000
 40
3.700000
 50
168.925003
 51
191.074997
  0
ARC
  8
0
  6
CONTINUOUS
 62
7
 10
-249.000000
 20
46.000000
 40
3.700000
 50
228.925003
 51
251.074997
  0
CIRCLE
  8
0
  6
CONTINUOUS
 62
7
 10
-249.000000
 20
46.000000
 40
2.500000
  0
CIRCLE
  8
0
  6
CONTINUOUS
 62
7
 10
-117.000000
 20
28.000000
 40
5.400000
  0
ARC
  8
0
  6
CONTINUOUS
 62
7
 10
-123.500000
 20
34.599998
 40
1.350000
 50
206.389999
 51
333.614014
  0
ARC
  8
0
  6
CONTINUOUS
 62
7
 10
-123.500000
 20
21.400000
 40
1.350000
 50
26.389099
 51
153.613007
  0
ARC
  8
0
  6
CONTINUOUS
 62
7
 10
-4.283330
 20
80.000000
 40
3.000000
 50
90.000000
 51
180.000000
  0
CIRCLE
  8
0
  6
CONTINUOUS
 62
2
 10
-172.149994
 20
76.199997
 40
1.000000
  0
CIRCLE
  8
0
  6
CONTINUOUS
 62
7
 10
-172.149994
 20
76.199997
 40
0.800000
  0
CIRCLE
  8
0
  6
CONTINUOUS
 62
7
 10
-183.000000
 20
17.500000
 40
1.600000
  0
CIRCLE
  8
0
  6
CONTINUOUS
 62
7
 10
186.783005
 20
17.500000
 40
1.600000
  0
CIRCLE
  8
0
  6
CONTINUOUS
 62
7
 10
-2.783360
 20
17.500000
 40
1.600000
  0
TEXT
  8
0
 62
7
 10
202.930283
 20
183.925003
 40
6.300000
  1
Ver.1.0
 50
0.000000
 41
1.010330
 51
0.000000
  7
STANDARD
  0
TEXT
  8
0
 62
7
 10
172.714691
 20
-187.250000
 40
9.000000
  1
KOGANEI CORP.
 50
0.000000
 41
0.771524
 51
0.000000
  7
STANDARD
  0
TEXT
  8
0
 62
7
 10
-240.419724
 20
183.925003
 40
6.300000
  1
AP UNIT
 50
0.000000
 41
0.832036
 51
0.000000
  7
STANDARD
  0
TEXT
  8
0
 62
7
 10
106.166611
 20
158.925003
 40
6.300000
  1
MODEL:APU-SD10-45-TP-QS
 50
0.000000
 41
0.774953
 51
0.000000
  7
STANDARD
  0
TEXT
  8
0
 62
7
 10
-269.400391
 20
158.925003
 40
6.300000
  1
MODEL:APU-SD10-15-TP-QS
 50
0.000000
 41
0.787554
 51
0.000000
  7
STANDARD
  0
TEXT
  8
0
 62
7
 10
-81.617088
 20
158.925003
 40
6.300000
  1
MODEL:APU-SD10-30-TP-QS
 50
0.000000
 41
0.781203
 51
0.000000
  7
STANDARD
  0
ENDSEC
  0
EOF
