  0
SECTION
  2
HEADER
  0
ENDSEC
  0
SECTION
  2
TABLES
  0
TABLE
  2
LTYPE
 70
     4
  0
LTYPE
  2
CONTINUOUS
 70
    64
  3
Solid line
 72
    65
 73
     0
 40
0.000000
  0
LTYPE
  2
DASHED
 70
    64
  3
__ __ __ __ __ __ __ __ __ __ __ __ __ __ __
 72
    65
 73
     2
 40
3.500000
 49
2.000000
 49
-1.500000
  0
LTYPE
  2
CENTER
 70
    64
  3
____ _ ____ _ ____ _ ____ _ ____ _ ____ _ ____
 72
    65
 73
     4
 40
17.500000
 49
13.000000
 49
-1.500000
 49
1.500000
 49
-1.500000
  0
LTYPE
  2
PHANTOM
 70
    64
  3
_____ _ _ _____ _ _ _____ _ _ _____ _ _ ____  
 72
    65
 73
     6
 40
15.500000
 49
8.000000
 49
-1.500000
 49
1.500000
 49
-1.500000
 49
1.500000
 49
-1.500000
  0
ENDTAB
  0
TABLE
  2
LAYER
 70
     1
  0
LAYER
  2
0
 70
     0
 62
     7
  6
CONTINUOUS
  0
ENDTAB
  0
TABLE
  2
STYLE
 70
     1
  0
STYLE
  2
STANDARD
 70
     0
 40
0.000000
 41
1.000000
 50
0.000000
 71
     0
 42
0.200000
  3
txt
  4
BIGFONT
  0
ENDTAB
  0
TABLE
  2
VIEW
 70
     0
  0
ENDTAB
  0
ENDSEC
  0
SECTION
  2
BLOCKS
  0
ENDSEC
  0
SECTION
  2
ENTITIES
  0
LINE
  8
0
  6
CONTINUOUS
 62
7
 10
-281.250000
 20
195.500000
 11
282.100006
 21
195.500000
  0
LINE
  8
0
  6
CONTINUOUS
 62
7
 10
-281.250000
 20
195.500000
 11
-281.250000
 21
-195.000000
  0
LINE
  8
0
  6
CONTINUOUS
 62
7
 10
282.100006
 20
195.500000
 11
282.100006
 21
-195.000000
  0
LINE
  8
0
  6
CONTINUOUS
 62
7
 10
-281.250000
 20
-195.000000
 11
282.100006
 21
-195.000000
  0
LINE
  8
0
  6
CONTINUOUS
 62
7
 10
162.100006
 20
-175.000000
 11
162.100006
 21
-195.000000
  0
LINE
  8
0
  6
CONTINUOUS
 62
7
 10
162.100006
 20
-175.000000
 11
282.100006
 21
-175.000000
  0
LINE
  8
0
  6
CONTINUOUS
 62
7
 10
162.100006
 20
175.500000
 11
282.100006
 21
175.500000
  0
LINE
  8
0
  6
CONTINUOUS
 62
7
 10
-281.250000
 20
175.500000
 11
-161.250000
 21
175.500000
  0
LINE
  8
0
  6
CONTINUOUS
 62
7
 10
162.100006
 20
195.500000
 11
162.100006
 21
175.500000
  0
LINE
  8
0
  6
CONTINUOUS
 62
7
 10
-161.250000
 20
195.500000
 11
-161.250000
 21
175.500000
  0
LINE
  8
0
  6
CONTINUOUS
 62
7
 10
-128.100006
 20
-45.000000
 11
-147.899994
 21
-45.000000
  0
LINE
  8
0
  6
CONTINUOUS
 62
7
 10
-122.500000
 20
-44.700001
 11
-128.100006
 21
-44.700001
  0
LINE
  8
0
  6
CONTINUOUS
 62
7
 10
-122.500000
 20
-37.200001
 11
-124.000000
 21
-37.200001
  0
LINE
  8
0
  6
CONTINUOUS
 62
7
 10
-122.500000
 20
-44.700001
 11
-122.500000
 21
-37.200001
  0
LINE
  8
0
  6
CONTINUOUS
 62
7
 10
-147.899994
 20
-44.700001
 11
-153.500000
 21
-44.700001
  0
LINE
  8
0
  6
CONTINUOUS
 62
7
 10
-153.500000
 20
-44.500000
 11
-153.500000
 21
-44.700001
  0
LINE
  8
0
  6
CONTINUOUS
 62
7
 10
-113.000000
 20
-40.500000
 11
-122.500000
 21
-40.500000
  0
LINE
  8
0
  6
CONTINUOUS
 62
7
 10
-162.000000
 20
-40.500000
 11
-173.000000
 21
-40.500000
  0
LINE
  8
0
  6
CONTINUOUS
 62
7
 10
-173.000000
 20
-40.500000
 11
-173.000000
 21
-26.000000
  0
LINE
  8
0
  6
CONTINUOUS
 62
7
 10
-113.000000
 20
-40.500000
 11
-113.000000
 21
-26.000000
  0
LINE
  8
0
  6
CONTINUOUS
 62
7
 10
-113.000000
 20
-26.000000
 11
-173.000000
 21
-26.000000
  0
LINE
  8
0
  6
CONTINUOUS
 62
7
 10
-173.000000
 20
-35.799999
 11
-164.847000
 21
-35.799999
  0
LINE
  8
0
  6
CONTINUOUS
 62
7
 10
-128.100006
 20
-102.000000
 11
-128.100006
 21
-102.500000
  0
LINE
  8
0
  6
CONTINUOUS
 62
7
 10
-147.899994
 20
-45.000000
 11
-147.899994
 21
-44.500000
  0
LINE
  8
0
  6
CONTINUOUS
 62
7
 10
-123.249001
 20
-32.500000
 11
-124.000000
 21
-32.500000
  0
LINE
  8
0
  6
CONTINUOUS
 62
7
 10
-113.000000
 20
-35.799999
 11
-121.153000
 21
-35.799999
  0
LINE
  8
0
  6
CONTINUOUS
 62
7
 10
-162.751007
 20
-32.500000
 11
-162.000000
 21
-32.500000
  0
LINE
  8
0
  6
DASHED
 62
2
 10
-124.000000
 20
-32.500000
 11
-124.000000
 21
-31.000000
  0
LINE
  8
0
  6
DASHED
 62
2
 10
-130.000000
 20
-32.500000
 11
-130.000000
 21
-31.000000
  0
LINE
  8
0
  6
DASHED
 62
2
 10
-128.750000
 20
-31.000000
 11
-128.750000
 21
-26.000000
  0
LINE
  8
0
  6
DASHED
 62
2
 10
-125.250000
 20
-31.000000
 11
-125.250000
 21
-26.000000
  0
LINE
  8
0
  6
DASHED
 62
2
 10
-129.000000
 20
-31.000000
 11
-129.000000
 21
-26.000000
  0
LINE
  8
0
  6
DASHED
 62
2
 10
-125.000000
 20
-31.000000
 11
-125.000000
 21
-26.000000
  0
LINE
  8
0
  6
DASHED
 62
2
 10
-124.000000
 20
-31.000000
 11
-130.000000
 21
-31.000000
  0
LINE
  8
0
  6
CENTER
 62
2
 10
-127.000000
 20
-34.500000
 11
-127.000000
 21
-24.000000
  0
LINE
  8
0
  6
CENTER
 62
2
 10
-159.000000
 20
-34.500000
 11
-159.000000
 21
-24.000000
  0
LINE
  8
0
  6
DASHED
 62
2
 10
-156.000000
 20
-32.500000
 11
-156.000000
 21
-31.000000
  0
LINE
  8
0
  6
DASHED
 62
2
 10
-162.000000
 20
-32.500000
 11
-162.000000
 21
-31.000000
  0
LINE
  8
0
  6
DASHED
 62
2
 10
-160.750000
 20
-31.000000
 11
-160.750000
 21
-26.000000
  0
LINE
  8
0
  6
DASHED
 62
2
 10
-157.250000
 20
-31.000000
 11
-157.250000
 21
-26.000000
  0
LINE
  8
0
  6
DASHED
 62
2
 10
-161.000000
 20
-31.000000
 11
-161.000000
 21
-26.000000
  0
LINE
  8
0
  6
DASHED
 62
2
 10
-157.000000
 20
-31.000000
 11
-157.000000
 21
-26.000000
  0
LINE
  8
0
  6
DASHED
 62
2
 10
-156.000000
 20
-31.000000
 11
-162.000000
 21
-31.000000
  0
LINE
  8
0
  6
CONTINUOUS
 62
7
 10
-128.100006
 20
-62.000000
 11
-147.899994
 21
-62.000000
  0
LINE
  8
0
  6
CONTINUOUS
 62
7
 10
-128.100006
 20
-77.000000
 11
-147.899994
 21
-77.000000
  0
LINE
  8
0
  6
CONTINUOUS
 62
7
 10
-128.100006
 20
-67.000000
 11
-147.899994
 21
-67.000000
  0
LINE
  8
0
  6
CONTINUOUS
 62
7
 10
-122.500000
 20
-62.299999
 11
-128.100006
 21
-62.299999
  0
LINE
  8
0
  6
CONTINUOUS
 62
7
 10
-147.899994
 20
-62.299999
 11
-153.500000
 21
-62.299999
  0
LINE
  8
0
  6
CENTER
 62
2
 10
-111.429001
 20
-72.000000
 11
-175.061996
 21
-72.000000
  0
LINE
  8
0
  6
CONTINUOUS
 62
7
 10
-113.000000
 20
-83.500000
 11
-113.000000
 21
-60.500000
  0
LINE
  8
0
  6
CONTINUOUS
 62
7
 10
-173.000000
 20
-83.500000
 11
-173.000000
 21
-60.500000
  0
LINE
  8
0
  6
CONTINUOUS
 62
7
 10
-113.000000
 20
-67.500000
 11
-122.500000
 21
-67.500000
  0
LINE
  8
0
  6
CONTINUOUS
 62
7
 10
-113.000000
 20
-76.500000
 11
-122.500000
 21
-76.500000
  0
LINE
  8
0
  6
CONTINUOUS
 62
7
 10
-153.500000
 20
-76.500000
 11
-173.000000
 21
-76.500000
  0
LINE
  8
0
  6
CONTINUOUS
 62
7
 10
-153.500000
 20
-67.500000
 11
-173.000000
 21
-67.500000
  0
LINE
  8
0
  6
CENTER
 62
2
 10
-134.000000
 20
-64.500000
 11
-127.000000
 21
-64.500000
  0
LINE
  8
0
  6
CENTER
 62
2
 10
-130.500000
 20
-61.000000
 11
-130.500000
 21
-68.000000
  0
LINE
  8
0
  6
CONTINUOUS
 62
7
 10
-128.100006
 20
-82.000000
 11
-147.899994
 21
-82.000000
  0
LINE
  8
0
  6
CONTINUOUS
 62
7
 10
-122.500000
 20
-81.699997
 11
-122.500000
 21
-62.299999
  0
LINE
  8
0
  6
CONTINUOUS
 62
7
 10
-122.500000
 20
-81.699997
 11
-128.100006
 21
-81.699997
  0
LINE
  8
0
  6
CONTINUOUS
 62
7
 10
-147.899994
 20
-81.699997
 11
-153.500000
 21
-81.699997
  0
LINE
  8
0
  6
CONTINUOUS
 62
7
 10
-128.100006
 20
-62.000000
 11
-128.100006
 21
-82.000000
  0
LINE
  8
0
  6
CONTINUOUS
 62
7
 10
-147.899994
 20
-62.000000
 11
-147.899994
 21
-82.000000
  0
LINE
  8
0
  6
CENTER
 62
2
 10
-149.000000
 20
-64.500000
 11
-142.000000
 21
-64.500000
  0
LINE
  8
0
  6
CENTER
 62
2
 10
-145.500000
 20
-61.000000
 11
-145.500000
 21
-68.000000
  0
LINE
  8
0
  6
CENTER
 62
2
 10
-149.000000
 20
-79.500000
 11
-142.000000
 21
-79.500000
  0
LINE
  8
0
  6
CENTER
 62
2
 10
-134.000000
 20
-79.500000
 11
-127.000000
 21
-79.500000
  0
LINE
  8
0
  6
CENTER
 62
2
 10
-130.500000
 20
-83.000000
 11
-130.500000
 21
-76.000000
  0
LINE
  8
0
  6
CENTER
 62
2
 10
-145.500000
 20
-83.000000
 11
-145.500000
 21
-76.000000
  0
LINE
  8
0
  6
CENTER
 62
2
 10
-164.000000
 20
-80.000000
 11
-154.000000
 21
-80.000000
  0
LINE
  8
0
  6
CENTER
 62
2
 10
-159.000000
 20
-85.000000
 11
-159.000000
 21
-75.000000
  0
LINE
  8
0
  6
CENTER
 62
2
 10
-164.000000
 20
-64.000000
 11
-154.000000
 21
-64.000000
  0
LINE
  8
0
  6
CENTER
 62
2
 10
-159.000000
 20
-59.000000
 11
-159.000000
 21
-69.000000
  0
LINE
  8
0
  6
CENTER
 62
2
 10
-122.000000
 20
-80.000000
 11
-132.000000
 21
-80.000000
  0
LINE
  8
0
  6
CENTER
 62
2
 10
-127.000000
 20
-85.000000
 11
-127.000000
 21
-75.000000
  0
LINE
  8
0
  6
CENTER
 62
2
 10
-127.000000
 20
-59.000000
 11
-127.000000
 21
-69.000000
  0
LINE
  8
0
  6
CENTER
 62
2
 10
-122.000000
 20
-64.000000
 11
-132.000000
 21
-64.000000
  0
LINE
  8
0
  6
CONTINUOUS
 62
7
 10
-153.500000
 20
-62.299999
 11
-153.500000
 21
-81.699997
  0
LINE
  8
0
  6
CONTINUOUS
 62
7
 10
-113.000000
 20
-161.000000
 11
-173.000000
 21
-161.000000
  0
LINE
  8
0
  6
CONTINUOUS
 62
7
 10
-173.000000
 20
-161.000000
 11
-173.000000
 21
-138.000000
  0
LINE
  8
0
  6
CONTINUOUS
 62
7
 10
-113.000000
 20
-138.000000
 11
-173.000000
 21
-138.000000
  0
LINE
  8
0
  6
CONTINUOUS
 62
7
 10
-113.000000
 20
-161.000000
 11
-113.000000
 21
-138.000000
  0
LINE
  8
0
  6
CENTER
 62
2
 10
-111.401001
 20
-149.500000
 11
-175.630005
 21
-149.500000
  0
LINE
  8
0
  6
CENTER
 62
2
 10
-159.000000
 20
-152.500000
 11
-159.000000
 21
-162.500000
  0
LINE
  8
0
  6
CENTER
 62
2
 10
-154.000000
 20
-157.500000
 11
-164.000000
 21
-157.500000
  0
LINE
  8
0
  6
CENTER
 62
2
 10
-159.000000
 20
-146.500000
 11
-159.000000
 21
-136.500000
  0
LINE
  8
0
  6
CENTER
 62
2
 10
-154.000000
 20
-141.500000
 11
-164.000000
 21
-141.500000
  0
LINE
  8
0
  6
CENTER
 62
2
 10
-127.000000
 20
-162.500000
 11
-127.000000
 21
-152.500000
  0
LINE
  8
0
  6
CENTER
 62
2
 10
-122.000000
 20
-157.500000
 11
-132.000000
 21
-157.500000
  0
LINE
  8
0
  6
CENTER
 62
2
 10
-127.000000
 20
-136.500000
 11
-127.000000
 21
-146.500000
  0
LINE
  8
0
  6
CENTER
 62
2
 10
-122.000000
 20
-141.500000
 11
-132.000000
 21
-141.500000
  0
LINE
  8
0
  6
CENTER
 62
2
 10
-166.000000
 20
-140.100006
 11
-166.000000
 21
-154.899994
  0
LINE
  8
0
  6
CENTER
 62
2
 10
-173.399994
 20
-147.500000
 11
-158.600006
 21
-147.500000
  0
LINE
  8
0
  6
CENTER
 62
2
 10
-120.000000
 20
-140.100006
 11
-120.000000
 21
-154.899994
  0
LINE
  8
0
  6
CENTER
 62
2
 10
-112.599998
 20
-147.500000
 11
-127.400002
 21
-147.500000
  0
LINE
  8
0
  6
CONTINUOUS
 62
7
 10
-128.100006
 20
-102.000000
 11
-147.899994
 21
-102.000000
  0
LINE
  8
0
  6
CONTINUOUS
 62
7
 10
-122.500000
 20
-102.300003
 11
-128.100006
 21
-102.300003
  0
LINE
  8
0
  6
CONTINUOUS
 62
7
 10
-122.500000
 20
-102.300003
 11
-122.500000
 21
-102.800003
  0
LINE
  8
0
  6
CONTINUOUS
 62
7
 10
-147.899994
 20
-102.300003
 11
-153.500000
 21
-102.300003
  0
LINE
  8
0
  6
CONTINUOUS
 62
7
 10
-153.500000
 20
-109.800003
 11
-153.500000
 21
-102.300003
  0
LINE
  8
0
  6
CONTINUOUS
 62
7
 10
-113.000000
 20
-106.500000
 11
-114.250000
 21
-106.500000
  0
LINE
  8
0
  6
CONTINUOUS
 62
7
 10
-153.500000
 20
-106.500000
 11
-155.750000
 21
-106.500000
  0
LINE
  8
0
  6
CONTINUOUS
 62
7
 10
-173.000000
 20
-106.500000
 11
-173.000000
 21
-121.000000
  0
LINE
  8
0
  6
CONTINUOUS
 62
7
 10
-113.000000
 20
-106.500000
 11
-113.000000
 21
-121.000000
  0
LINE
  8
0
  6
CONTINUOUS
 62
7
 10
-113.000000
 20
-121.000000
 11
-173.000000
 21
-121.000000
  0
LINE
  8
0
  6
CONTINUOUS
 62
7
 10
-173.000000
 20
-111.199997
 11
-164.847000
 21
-111.199997
  0
LINE
  8
0
  6
CONTINUOUS
 62
7
 10
-128.100006
 20
-102.000000
 11
-128.100006
 21
-102.500000
  0
LINE
  8
0
  6
CONTINUOUS
 62
7
 10
-147.899994
 20
-102.000000
 11
-147.899994
 21
-109.800003
  0
LINE
  8
0
  6
CONTINUOUS
 62
7
 10
-173.000000
 20
-111.199997
 11
-164.847000
 21
-111.199997
  0
LINE
  8
0
  6
CONTINUOUS
 62
7
 10
-162.751007
 20
-114.500000
 11
-162.000000
 21
-114.500000
  0
LINE
  8
0
  6
CENTER
 62
2
 10
-120.000000
 20
-30.500000
 11
-113.000000
 21
-30.500000
  0
LINE
  8
0
  6
CENTER
 62
2
 10
-116.500000
 20
-27.000000
 11
-116.500000
 21
-34.000000
  0
LINE
  8
0
  6
CONTINUOUS
 62
7
 10
-123.249001
 20
-114.500000
 11
-124.000000
 21
-114.500000
  0
LINE
  8
0
  6
CONTINUOUS
 62
7
 10
-113.000000
 20
-111.199997
 11
-121.153000
 21
-111.199997
  0
LINE
  8
0
  6
CENTER
 62
2
 10
-173.000000
 20
-30.500000
 11
-166.000000
 21
-30.500000
  0
LINE
  8
0
  6
CENTER
 62
2
 10
-169.500000
 20
-27.000000
 11
-169.500000
 21
-34.000000
  0
LINE
  8
0
  6
CONTINUOUS
 62
7
 10
-121.153000
 20
-111.199997
 11
-113.000000
 21
-111.199997
  0
LINE
  8
0
  6
CENTER
 62
2
 10
-159.000000
 20
-112.500000
 11
-159.000000
 21
-123.000000
  0
LINE
  8
0
  6
DASHED
 62
2
 10
-156.000000
 20
-114.500000
 11
-156.000000
 21
-116.000000
  0
LINE
  8
0
  6
DASHED
 62
2
 10
-160.750000
 20
-116.000000
 11
-160.750000
 21
-121.000000
  0
LINE
  8
0
  6
DASHED
 62
2
 10
-157.250000
 20
-116.000000
 11
-157.250000
 21
-121.000000
  0
LINE
  8
0
  6
DASHED
 62
2
 10
-161.000000
 20
-116.000000
 11
-161.000000
 21
-121.000000
  0
LINE
  8
0
  6
DASHED
 62
2
 10
-157.000000
 20
-116.000000
 11
-157.000000
 21
-121.000000
  0
LINE
  8
0
  6
DASHED
 62
2
 10
-156.000000
 20
-116.000000
 11
-162.000000
 21
-116.000000
  0
LINE
  8
0
  6
DASHED
 62
2
 10
-130.000000
 20
-114.500000
 11
-130.000000
 21
-116.000000
  0
LINE
  8
0
  6
DASHED
 62
2
 10
-128.750000
 20
-116.000000
 11
-128.750000
 21
-121.000000
  0
LINE
  8
0
  6
DASHED
 62
2
 10
-125.250000
 20
-116.000000
 11
-125.250000
 21
-121.000000
  0
LINE
  8
0
  6
DASHED
 62
2
 10
-129.000000
 20
-116.000000
 11
-129.000000
 21
-121.000000
  0
LINE
  8
0
  6
DASHED
 62
2
 10
-125.000000
 20
-116.000000
 11
-125.000000
 21
-121.000000
  0
LINE
  8
0
  6
DASHED
 62
2
 10
-124.000000
 20
-116.000000
 11
-130.000000
 21
-116.000000
  0
LINE
  8
0
  6
CENTER
 62
2
 10
-127.000000
 20
-112.500000
 11
-127.000000
 21
-123.000000
  0
LINE
  8
0
  6
CENTER
 62
2
 10
39.500000
 20
-101.513000
 11
39.500000
 21
-122.005997
  0
LINE
  8
0
  6
CONTINUOUS
 62
7
 10
35.000000
 20
-108.865997
 11
35.000000
 21
-111.199997
  0
LINE
  8
0
  6
CONTINUOUS
 62
7
 10
44.000000
 20
-108.865997
 11
44.000000
 21
-111.199997
  0
LINE
  8
0
  6
CONTINUOUS
 62
7
 10
29.500000
 20
-102.000000
 11
34.000000
 21
-102.000000
  0
LINE
  8
0
  6
CONTINUOUS
 62
7
 10
29.500000
 20
-102.000000
 11
29.500000
 21
-109.800003
  0
LINE
  8
0
  6
CONTINUOUS
 62
7
 10
29.500000
 20
-109.800003
 11
35.000000
 21
-109.800003
  0
LINE
  8
0
  6
CONTINUOUS
 62
7
 10
34.299999
 20
-102.300003
 11
44.700001
 21
-102.300003
  0
LINE
  8
0
  6
CONTINUOUS
 62
7
 10
44.000000
 20
-109.800003
 11
49.500000
 21
-109.800003
  0
LINE
  8
0
  6
CONTINUOUS
 62
7
 10
44.700100
 20
-102.300003
 11
45.000000
 21
-102.000000
  0
LINE
  8
0
  6
CONTINUOUS
 62
7
 10
34.299999
 20
-102.300003
 11
34.000000
 21
-102.000000
  0
LINE
  8
0
  6
CONTINUOUS
 62
7
 10
45.000000
 20
-102.000000
 11
49.500000
 21
-102.000000
  0
LINE
  8
0
  6
CONTINUOUS
 62
7
 10
35.000000
 20
-106.500000
 11
35.000000
 21
-107.134003
  0
LINE
  8
0
  6
CONTINUOUS
 62
7
 10
44.000000
 20
-106.500000
 11
35.000000
 21
-106.500000
  0
LINE
  8
0
  6
CONTINUOUS
 62
7
 10
44.000000
 20
-106.500000
 11
44.000000
 21
-107.134003
  0
LINE
  8
0
  6
CONTINUOUS
 62
7
 10
28.000000
 20
-121.000000
 11
51.000000
 21
-121.000000
  0
LINE
  8
0
  6
CONTINUOUS
 62
7
 10
28.000000
 20
-111.199997
 11
28.000000
 21
-121.000000
  0
LINE
  8
0
  6
CONTINUOUS
 62
7
 10
51.000000
 20
-102.500000
 11
51.000000
 21
-121.000000
  0
LINE
  8
0
  6
CONTINUOUS
 62
7
 10
51.000000
 20
-111.199997
 11
44.000000
 21
-111.199997
  0
LINE
  8
0
  6
CENTER
 62
2
 10
33.000000
 20
-114.500000
 11
46.000000
 21
-114.500000
  0
LINE
  8
0
  6
CONTINUOUS
 62
7
 10
28.000000
 20
-111.199997
 11
35.000000
 21
-111.199997
  0
LINE
  8
0
  6
CONTINUOUS
 62
7
 10
49.500000
 20
-102.000000
 11
49.500000
 21
-109.800003
  0
LINE
  8
0
  6
CENTER
 62
2
 10
31.500000
 20
-119.000000
 11
31.500000
 21
-123.000000
  0
LINE
  8
0
  6
CENTER
 62
2
 10
47.500000
 20
-119.000000
 11
47.500000
 21
-123.000000
  0
LINE
  8
0
  6
CENTER
 62
2
 10
47.000000
 20
-100.000000
 11
47.000000
 21
-104.000000
  0
LINE
  8
0
  6
CENTER
 62
2
 10
32.000000
 20
-100.000000
 11
32.000000
 21
-104.000000
  0
LINE
  8
0
  6
CENTER
 62
2
 10
-145.500000
 20
-104.000000
 11
-145.500000
 21
-100.000000
  0
LINE
  8
0
  6
CENTER
 62
2
 10
-130.500000
 20
-104.000000
 11
-130.500000
 21
-100.000000
  0
LINE
  8
0
  6
CENTER
 62
2
 10
-145.500000
 20
-47.000000
 11
-145.500000
 21
-43.000000
  0
LINE
  8
0
  6
CENTER
 62
2
 10
-130.500000
 20
-47.000000
 11
-130.500000
 21
-43.000000
  0
LINE
  8
0
  6
CONTINUOUS
 62
7
 10
183.000000
 20
-161.000000
 11
93.000000
 21
-161.000000
  0
LINE
  8
0
  6
CONTINUOUS
 62
7
 10
93.000000
 20
-161.000000
 11
93.000000
 21
-138.000000
  0
LINE
  8
0
  6
CONTINUOUS
 62
7
 10
183.000000
 20
-138.000000
 11
93.000000
 21
-138.000000
  0
LINE
  8
0
  6
CONTINUOUS
 62
7
 10
183.000000
 20
-161.000000
 11
183.000000
 21
-138.000000
  0
LINE
  8
0
  6
CENTER
 62
2
 10
184.598999
 20
-149.500000
 11
90.369797
 21
-149.500000
  0
LINE
  8
0
  6
CENTER
 62
2
 10
108.000000
 20
-152.500000
 11
108.000000
 21
-162.500000
  0
LINE
  8
0
  6
CENTER
 62
2
 10
113.000000
 20
-157.500000
 11
103.000000
 21
-157.500000
  0
LINE
  8
0
  6
CENTER
 62
2
 10
108.000000
 20
-146.500000
 11
108.000000
 21
-136.500000
  0
LINE
  8
0
  6
CENTER
 62
2
 10
113.000000
 20
-141.500000
 11
103.000000
 21
-141.500000
  0
LINE
  8
0
  6
CENTER
 62
2
 10
168.000000
 20
-162.500000
 11
168.000000
 21
-152.500000
  0
LINE
  8
0
  6
CENTER
 62
2
 10
173.000000
 20
-157.500000
 11
163.000000
 21
-157.500000
  0
LINE
  8
0
  6
CENTER
 62
2
 10
168.000000
 20
-136.500000
 11
168.000000
 21
-146.500000
  0
LINE
  8
0
  6
CENTER
 62
2
 10
173.000000
 20
-141.500000
 11
163.000000
 21
-141.500000
  0
LINE
  8
0
  6
CENTER
 62
2
 10
100.000000
 20
-140.100006
 11
100.000000
 21
-154.899994
  0
LINE
  8
0
  6
CENTER
 62
2
 10
92.599998
 20
-147.500000
 11
107.400002
 21
-147.500000
  0
LINE
  8
0
  6
CENTER
 62
2
 10
176.000000
 20
-140.100006
 11
176.000000
 21
-154.899994
  0
LINE
  8
0
  6
CENTER
 62
2
 10
183.399994
 20
-147.500000
 11
168.600006
 21
-147.500000
  0
LINE
  8
0
  6
CONTINUOUS
 62
7
 10
164.899994
 20
-45.000000
 11
131.100006
 21
-45.000000
  0
LINE
  8
0
  6
CONTINUOUS
 62
7
 10
170.500000
 20
-44.700001
 11
164.899994
 21
-44.700001
  0
LINE
  8
0
  6
CONTINUOUS
 62
7
 10
170.500000
 20
-37.200001
 11
168.000000
 21
-37.200001
  0
LINE
  8
0
  6
CONTINUOUS
 62
7
 10
170.500000
 20
-44.700001
 11
170.500000
 21
-37.200001
  0
LINE
  8
0
  6
CONTINUOUS
 62
7
 10
131.100006
 20
-44.700001
 11
125.500000
 21
-44.700001
  0
LINE
  8
0
  6
CONTINUOUS
 62
7
 10
125.500000
 20
-44.500000
 11
125.500000
 21
-44.700001
  0
LINE
  8
0
  6
CONTINUOUS
 62
7
 10
183.000000
 20
-40.500000
 11
170.500000
 21
-40.500000
  0
LINE
  8
0
  6
CONTINUOUS
 62
7
 10
108.000000
 20
-40.500000
 11
93.000000
 21
-40.500000
  0
LINE
  8
0
  6
CONTINUOUS
 62
7
 10
93.000000
 20
-40.500000
 11
93.000000
 21
-26.000000
  0
LINE
  8
0
  6
CONTINUOUS
 62
7
 10
183.000000
 20
-40.500000
 11
183.000000
 21
-26.000000
  0
LINE
  8
0
  6
CONTINUOUS
 62
7
 10
183.000000
 20
-26.000000
 11
93.000000
 21
-26.000000
  0
LINE
  8
0
  6
CONTINUOUS
 62
7
 10
93.000000
 20
-35.799999
 11
102.153000
 21
-35.799999
  0
LINE
  8
0
  6
CONTINUOUS
 62
7
 10
164.899994
 20
-45.000000
 11
164.899994
 21
-44.500000
  0
LINE
  8
0
  6
CONTINUOUS
 62
7
 10
131.100006
 20
-45.000000
 11
131.100006
 21
-44.500000
  0
LINE
  8
0
  6
CONTINUOUS
 62
7
 10
171.751007
 20
-32.500000
 11
168.000000
 21
-32.500000
  0
LINE
  8
0
  6
CONTINUOUS
 62
7
 10
183.000000
 20
-35.799999
 11
173.847000
 21
-35.799999
  0
LINE
  8
0
  6
CONTINUOUS
 62
7
 10
104.249001
 20
-32.500000
 11
108.000000
 21
-32.500000
  0
LINE
  8
0
  6
CENTER
 62
2
 10
185.042999
 20
-72.000000
 11
89.855202
 21
-72.000000
  0
LINE
  8
0
  6
CONTINUOUS
 62
7
 10
183.000000
 20
-83.500000
 11
183.000000
 21
-60.500000
  0
LINE
  8
0
  6
CONTINUOUS
 62
7
 10
183.000000
 20
-67.500000
 11
170.500000
 21
-67.500000
  0
LINE
  8
0
  6
CENTER
 62
2
 10
168.000000
 20
-59.000000
 11
168.000000
 21
-69.000000
  0
LINE
  8
0
  6
CENTER
 62
2
 10
173.000000
 20
-64.000000
 11
163.000000
 21
-64.000000
  0
LINE
  8
0
  6
CONTINUOUS
 62
7
 10
164.899994
 20
-62.000000
 11
131.100006
 21
-62.000000
  0
LINE
  8
0
  6
CONTINUOUS
 62
7
 10
164.899994
 20
-77.000000
 11
131.100006
 21
-77.000000
  0
LINE
  8
0
  6
CONTINUOUS
 62
7
 10
164.899994
 20
-67.000000
 11
131.100006
 21
-67.000000
  0
LINE
  8
0
  6
CONTINUOUS
 62
7
 10
131.100006
 20
-62.299999
 11
125.500000
 21
-62.299999
  0
LINE
  8
0
  6
CENTER
 62
2
 10
143.500000
 20
-79.500000
 11
136.600006
 21
-79.500000
  0
LINE
  8
0
  6
CENTER
 62
2
 10
143.500000
 20
-64.500000
 11
136.600006
 21
-64.500000
  0
LINE
  8
0
  6
CENTER
 62
2
 10
140.000000
 20
-61.000000
 11
140.000000
 21
-68.000000
  0
LINE
  8
0
  6
CENTER
 62
2
 10
152.500000
 20
-64.500000
 11
158.891006
 21
-64.500000
  0
LINE
  8
0
  6
CENTER
 62
2
 10
156.000000
 20
-61.000000
 11
156.000000
 21
-68.000000
  0
LINE
  8
0
  6
CENTER
 62
2
 10
140.000000
 20
-83.000000
 11
140.000000
 21
-76.000000
  0
LINE
  8
0
  6
CONTINUOUS
 62
7
 10
131.100006
 20
-62.000000
 11
131.100006
 21
-82.000000
  0
LINE
  8
0
  6
CENTER
 62
2
 10
152.488007
 20
-79.500000
 11
158.932999
 21
-79.500000
  0
LINE
  8
0
  6
CENTER
 62
2
 10
156.000000
 20
-83.000000
 11
156.000000
 21
-76.000000
  0
LINE
  8
0
  6
CONTINUOUS
 62
7
 10
164.899994
 20
-82.000000
 11
131.100006
 21
-82.000000
  0
LINE
  8
0
  6
CONTINUOUS
 62
7
 10
131.100006
 20
-81.699997
 11
125.500000
 21
-81.699997
  0
LINE
  8
0
  6
CONTINUOUS
 62
7
 10
125.500000
 20
-62.299999
 11
125.500000
 21
-81.699997
  0
LINE
  8
0
  6
CONTINUOUS
 62
7
 10
170.500000
 20
-62.299999
 11
164.899994
 21
-62.299999
  0
LINE
  8
0
  6
CONTINUOUS
 62
7
 10
170.500000
 20
-81.699997
 11
164.899994
 21
-81.699997
  0
LINE
  8
0
  6
CONTINUOUS
 62
7
 10
164.899994
 20
-62.000000
 11
164.899994
 21
-82.000000
  0
LINE
  8
0
  6
CONTINUOUS
 62
7
 10
170.500000
 20
-81.699997
 11
170.500000
 21
-62.299999
  0
LINE
  8
0
  6
CONTINUOUS
 62
7
 10
183.000000
 20
-76.500000
 11
170.500000
 21
-76.500000
  0
LINE
  8
0
  6
CENTER
 62
2
 10
168.000000
 20
-85.000000
 11
168.000000
 21
-75.000000
  0
LINE
  8
0
  6
CENTER
 62
2
 10
173.000000
 20
-80.000000
 11
163.000000
 21
-80.000000
  0
LINE
  8
0
  6
CONTINUOUS
 62
7
 10
93.000000
 20
-67.500000
 11
125.500000
 21
-67.500000
  0
LINE
  8
0
  6
CENTER
 62
2
 10
108.000000
 20
-59.000000
 11
108.000000
 21
-69.000000
  0
LINE
  8
0
  6
CENTER
 62
2
 10
103.000000
 20
-64.000000
 11
113.000000
 21
-64.000000
  0
LINE
  8
0
  6
CONTINUOUS
 62
7
 10
93.000000
 20
-83.500000
 11
93.000000
 21
-60.500000
  0
LINE
  8
0
  6
CONTINUOUS
 62
7
 10
93.000000
 20
-76.500000
 11
125.500000
 21
-76.500000
  0
LINE
  8
0
  6
CENTER
 62
2
 10
108.000000
 20
-85.000000
 11
108.000000
 21
-75.000000
  0
LINE
  8
0
  6
CENTER
 62
2
 10
103.000000
 20
-80.000000
 11
113.000000
 21
-80.000000
  0
LINE
  8
0
  6
CONTINUOUS
 62
7
 10
164.899994
 20
-102.000000
 11
131.100006
 21
-102.000000
  0
LINE
  8
0
  6
CONTINUOUS
 62
7
 10
170.500000
 20
-102.300003
 11
164.899994
 21
-102.300003
  0
LINE
  8
0
  6
CONTINUOUS
 62
7
 10
170.500000
 20
-109.800003
 11
166.500000
 21
-109.800003
  0
LINE
  8
0
  6
CONTINUOUS
 62
7
 10
170.500000
 20
-102.300003
 11
170.500000
 21
-104.000000
  0
LINE
  8
0
  6
CONTINUOUS
 62
7
 10
131.100006
 20
-102.300003
 11
125.500000
 21
-102.300003
  0
LINE
  8
0
  6
CONTINUOUS
 62
7
 10
125.500000
 20
-109.800003
 11
125.500000
 21
-102.300003
  0
LINE
  8
0
  6
CONTINUOUS
 62
7
 10
183.000000
 20
-106.500000
 11
171.750000
 21
-106.500000
  0
LINE
  8
0
  6
CONTINUOUS
 62
7
 10
125.500000
 20
-106.500000
 11
120.250000
 21
-106.500000
  0
LINE
  8
0
  6
CONTINUOUS
 62
7
 10
93.000000
 20
-106.500000
 11
93.000000
 21
-121.000000
  0
LINE
  8
0
  6
CONTINUOUS
 62
7
 10
183.000000
 20
-106.500000
 11
183.000000
 21
-121.000000
  0
LINE
  8
0
  6
CONTINUOUS
 62
7
 10
183.000000
 20
-121.000000
 11
93.000000
 21
-121.000000
  0
LINE
  8
0
  6
CONTINUOUS
 62
7
 10
93.000000
 20
-111.199997
 11
102.153000
 21
-111.199997
  0
LINE
  8
0
  6
CONTINUOUS
 62
7
 10
164.899994
 20
-102.000000
 11
164.899994
 21
-102.800003
  0
LINE
  8
0
  6
CONTINUOUS
 62
7
 10
131.100006
 20
-102.000000
 11
131.100006
 21
-109.800003
  0
LINE
  8
0
  6
CONTINUOUS
 62
7
 10
104.249001
 20
-114.500000
 11
113.500000
 21
-114.500000
  0
LINE
  8
0
  6
CENTER
 62
2
 10
99.000000
 20
-30.500000
 11
106.000000
 21
-30.500000
  0
LINE
  8
0
  6
CONTINUOUS
 62
7
 10
171.751007
 20
-114.500000
 11
162.500000
 21
-114.500000
  0
LINE
  8
0
  6
CENTER
 62
2
 10
102.000000
 20
-27.000000
 11
102.000000
 21
-34.000000
  0
LINE
  8
0
  6
CENTER
 62
2
 10
171.000000
 20
-30.500000
 11
178.000000
 21
-30.500000
  0
LINE
  8
0
  6
CENTER
 62
2
 10
174.000000
 20
-27.000000
 11
174.000000
 21
-34.000000
  0
LINE
  8
0
  6
CONTINUOUS
 62
7
 10
173.847000
 20
-111.199997
 11
183.000000
 21
-111.199997
  0
LINE
  8
0
  6
DASHED
 62
2
 10
111.000000
 20
-31.000000
 11
105.000000
 21
-31.000000
  0
LINE
  8
0
  6
CENTER
 62
2
 10
108.000000
 20
-34.500000
 11
108.000000
 21
-24.000000
  0
LINE
  8
0
  6
DASHED
 62
2
 10
111.000000
 20
-32.500000
 11
111.000000
 21
-31.000000
  0
LINE
  8
0
  6
DASHED
 62
2
 10
105.000000
 20
-32.500000
 11
105.000000
 21
-31.000000
  0
LINE
  8
0
  6
DASHED
 62
2
 10
106.250000
 20
-31.000000
 11
106.250000
 21
-26.000000
  0
LINE
  8
0
  6
DASHED
 62
2
 10
109.750000
 20
-31.000000
 11
109.750000
 21
-26.000000
  0
LINE
  8
0
  6
DASHED
 62
2
 10
106.000000
 20
-31.000000
 11
106.000000
 21
-26.000000
  0
LINE
  8
0
  6
DASHED
 62
2
 10
110.000000
 20
-31.000000
 11
110.000000
 21
-26.000000
  0
LINE
  8
0
  6
DASHED
 62
2
 10
171.000000
 20
-31.000000
 11
165.000000
 21
-31.000000
  0
LINE
  8
0
  6
CENTER
 62
2
 10
168.000000
 20
-34.500000
 11
168.000000
 21
-24.000000
  0
LINE
  8
0
  6
DASHED
 62
2
 10
171.000000
 20
-32.500000
 11
171.000000
 21
-31.000000
  0
LINE
  8
0
  6
DASHED
 62
2
 10
165.000000
 20
-32.500000
 11
165.000000
 21
-31.000000
  0
LINE
  8
0
  6
DASHED
 62
2
 10
166.250000
 20
-31.000000
 11
166.250000
 21
-26.000000
  0
LINE
  8
0
  6
DASHED
 62
2
 10
169.750000
 20
-31.000000
 11
169.750000
 21
-26.000000
  0
LINE
  8
0
  6
DASHED
 62
2
 10
166.000000
 20
-31.000000
 11
166.000000
 21
-26.000000
  0
LINE
  8
0
  6
DASHED
 62
2
 10
170.000000
 20
-31.000000
 11
170.000000
 21
-26.000000
  0
LINE
  8
0
  6
CENTER
 62
2
 10
140.000000
 20
-47.000000
 11
140.000000
 21
-43.000000
  0
LINE
  8
0
  6
CENTER
 62
2
 10
156.000000
 20
-47.000000
 11
156.000000
 21
-43.000000
  0
LINE
  8
0
  6
CENTER
 62
2
 10
140.000000
 20
-104.000000
 11
140.000000
 21
-100.000000
  0
LINE
  8
0
  6
CENTER
 62
2
 10
156.000000
 20
-104.000000
 11
156.000000
 21
-100.000000
  0
LINE
  8
0
  6
DASHED
 62
2
 10
166.000000
 20
-116.000000
 11
166.000000
 21
-121.000000
  0
LINE
  8
0
  6
DASHED
 62
2
 10
111.000000
 20
-116.000000
 11
105.000000
 21
-116.000000
  0
LINE
  8
0
  6
CENTER
 62
2
 10
108.000000
 20
-112.500000
 11
108.000000
 21
-123.000000
  0
LINE
  8
0
  6
DASHED
 62
2
 10
111.000000
 20
-114.500000
 11
111.000000
 21
-116.000000
  0
LINE
  8
0
  6
DASHED
 62
2
 10
105.000000
 20
-114.500000
 11
105.000000
 21
-116.000000
  0
LINE
  8
0
  6
DASHED
 62
2
 10
106.250000
 20
-116.000000
 11
106.250000
 21
-121.000000
  0
LINE
  8
0
  6
DASHED
 62
2
 10
109.750000
 20
-116.000000
 11
109.750000
 21
-121.000000
  0
LINE
  8
0
  6
DASHED
 62
2
 10
106.000000
 20
-116.000000
 11
106.000000
 21
-121.000000
  0
LINE
  8
0
  6
DASHED
 62
2
 10
110.000000
 20
-116.000000
 11
110.000000
 21
-121.000000
  0
LINE
  8
0
  6
DASHED
 62
2
 10
169.750000
 20
-116.000000
 11
169.750000
 21
-121.000000
  0
LINE
  8
0
  6
DASHED
 62
2
 10
170.000000
 20
-116.000000
 11
170.000000
 21
-121.000000
  0
LINE
  8
0
  6
DASHED
 62
2
 10
171.000000
 20
-116.000000
 11
165.000000
 21
-116.000000
  0
LINE
  8
0
  6
CENTER
 62
2
 10
168.000000
 20
-112.500000
 11
168.000000
 21
-123.000000
  0
LINE
  8
0
  6
DASHED
 62
2
 10
171.000000
 20
-114.500000
 11
171.000000
 21
-116.000000
  0
LINE
  8
0
  6
DASHED
 62
2
 10
165.000000
 20
-114.500000
 11
165.000000
 21
-116.000000
  0
LINE
  8
0
  6
DASHED
 62
2
 10
166.250000
 20
-116.000000
 11
166.250000
 21
-121.000000
  0
LINE
  8
0
  6
CONTINUOUS
 62
7
 10
55.000000
 20
-105.056999
 11
56.250000
 21
-105.778000
  0
LINE
  8
0
  6
CONTINUOUS
 62
7
 10
56.250000
 20
-105.778000
 11
56.250000
 21
-107.222000
  0
LINE
  8
0
  6
CONTINUOUS
 62
7
 10
55.000000
 20
-107.943001
 11
56.250000
 21
-107.222000
  0
LINE
  8
0
  6
CONTINUOUS
 62
7
 10
53.750000
 20
-107.222000
 11
55.000000
 21
-107.943001
  0
LINE
  8
0
  6
CONTINUOUS
 62
7
 10
53.750000
 20
-105.778000
 11
53.750000
 21
-107.222000
  0
LINE
  8
0
  6
CONTINUOUS
 62
7
 10
55.000000
 20
-105.056999
 11
53.750000
 21
-105.778000
  0
LINE
  8
0
  6
CONTINUOUS
 62
7
 10
54.289200
 20
-102.869003
 11
52.210800
 21
-104.069000
  0
LINE
  8
0
  6
CENTER
 62
2
 10
55.000000
 20
-101.500000
 11
55.000000
 21
-111.500000
  0
LINE
  8
0
  6
CENTER
 62
2
 10
59.500000
 20
-106.500000
 11
49.500000
 21
-106.500000
  0
LINE
  8
0
  6
CONTINUOUS
 62
7
 10
55.710800
 20
-102.869003
 11
57.789200
 21
-104.069000
  0
LINE
  8
0
  6
CONTINUOUS
 62
7
 10
58.500000
 20
-105.300003
 11
58.500000
 21
-107.699997
  0
LINE
  8
0
  6
CONTINUOUS
 62
7
 10
55.710800
 20
-110.130997
 11
57.789200
 21
-108.931000
  0
LINE
  8
0
  6
CONTINUOUS
 62
7
 10
52.210800
 20
-108.931000
 11
54.289299
 21
-110.130997
  0
LINE
  8
0
  6
CONTINUOUS
 62
7
 10
49.500000
 20
-102.500000
 11
59.000000
 21
-102.500000
  0
LINE
  8
0
  6
CONTINUOUS
 62
7
 10
51.000000
 20
-120.500000
 11
59.000000
 21
-120.500000
  0
LINE
  8
0
  6
CONTINUOUS
 62
7
 10
59.000000
 20
-102.500000
 11
59.000000
 21
-120.500000
  0
LINE
  8
0
  6
CONTINUOUS
 62
7
 10
51.500000
 20
-105.300003
 11
51.500000
 21
-107.699997
  0
LINE
  8
0
  6
CENTER
 62
2
 10
236.500000
 20
-101.513000
 11
236.500000
 21
-122.005997
  0
LINE
  8
0
  6
CONTINUOUS
 62
7
 10
241.000000
 20
-108.865997
 11
241.000000
 21
-111.199997
  0
LINE
  8
0
  6
CONTINUOUS
 62
7
 10
232.000000
 20
-108.865997
 11
232.000000
 21
-111.199997
  0
LINE
  8
0
  6
CONTINUOUS
 62
7
 10
246.500000
 20
-102.000000
 11
242.000000
 21
-102.000000
  0
LINE
  8
0
  6
CONTINUOUS
 62
7
 10
246.500000
 20
-102.000000
 11
246.500000
 21
-109.800003
  0
LINE
  8
0
  6
CONTINUOUS
 62
7
 10
246.500000
 20
-109.800003
 11
241.000000
 21
-109.800003
  0
LINE
  8
0
  6
CONTINUOUS
 62
7
 10
241.699997
 20
-102.300003
 11
231.300003
 21
-102.300003
  0
LINE
  8
0
  6
CONTINUOUS
 62
7
 10
232.000000
 20
-109.800003
 11
226.500000
 21
-109.800003
  0
LINE
  8
0
  6
CONTINUOUS
 62
7
 10
231.300003
 20
-102.300003
 11
231.000000
 21
-102.000000
  0
LINE
  8
0
  6
CONTINUOUS
 62
7
 10
241.699997
 20
-102.300003
 11
242.000000
 21
-102.000000
  0
LINE
  8
0
  6
CONTINUOUS
 62
7
 10
231.000000
 20
-102.000000
 11
226.500000
 21
-102.000000
  0
LINE
  8
0
  6
CONTINUOUS
 62
7
 10
241.000000
 20
-106.500000
 11
241.000000
 21
-107.134003
  0
LINE
  8
0
  6
CONTINUOUS
 62
7
 10
232.000000
 20
-106.500000
 11
241.000000
 21
-106.500000
  0
LINE
  8
0
  6
CONTINUOUS
 62
7
 10
232.000000
 20
-106.500000
 11
232.000000
 21
-107.134003
  0
LINE
  8
0
  6
CONTINUOUS
 62
7
 10
248.000000
 20
-121.000000
 11
225.000000
 21
-121.000000
  0
LINE
  8
0
  6
CONTINUOUS
 62
7
 10
248.000000
 20
-111.199997
 11
248.000000
 21
-121.000000
  0
LINE
  8
0
  6
CONTINUOUS
 62
7
 10
225.000000
 20
-102.500000
 11
225.000000
 21
-121.000000
  0
LINE
  8
0
  6
CONTINUOUS
 62
7
 10
225.000000
 20
-111.199997
 11
232.000000
 21
-111.199997
  0
LINE
  8
0
  6
CENTER
 62
2
 10
243.000000
 20
-114.500000
 11
230.000000
 21
-114.500000
  0
LINE
  8
0
  6
CONTINUOUS
 62
7
 10
248.000000
 20
-111.199997
 11
241.000000
 21
-111.199997
  0
LINE
  8
0
  6
CONTINUOUS
 62
7
 10
226.500000
 20
-102.000000
 11
226.500000
 21
-109.800003
  0
LINE
  8
0
  6
CENTER
 62
2
 10
244.500000
 20
-119.000000
 11
244.500000
 21
-123.000000
  0
LINE
  8
0
  6
CENTER
 62
2
 10
228.500000
 20
-119.000000
 11
228.500000
 21
-123.000000
  0
LINE
  8
0
  6
CENTER
 62
2
 10
229.000000
 20
-100.000000
 11
229.000000
 21
-104.000000
  0
LINE
  8
0
  6
CENTER
 62
2
 10
244.000000
 20
-100.000000
 11
244.000000
 21
-104.000000
  0
LINE
  8
0
  6
CONTINUOUS
 62
7
 10
221.000000
 20
-105.056999
 11
219.750000
 21
-105.778000
  0
LINE
  8
0
  6
CONTINUOUS
 62
7
 10
219.750000
 20
-105.778000
 11
219.750000
 21
-107.222000
  0
LINE
  8
0
  6
CONTINUOUS
 62
7
 10
221.000000
 20
-107.943001
 11
219.750000
 21
-107.222000
  0
LINE
  8
0
  6
CONTINUOUS
 62
7
 10
222.250000
 20
-107.222000
 11
221.000000
 21
-107.943001
  0
LINE
  8
0
  6
CONTINUOUS
 62
7
 10
222.250000
 20
-105.778000
 11
222.250000
 21
-107.222000
  0
LINE
  8
0
  6
CONTINUOUS
 62
7
 10
221.000000
 20
-105.056999
 11
222.250000
 21
-105.778000
  0
LINE
  8
0
  6
CONTINUOUS
 62
7
 10
221.710999
 20
-102.869003
 11
223.789001
 21
-104.069000
  0
LINE
  8
0
  6
CENTER
 62
2
 10
221.000000
 20
-101.500000
 11
221.000000
 21
-111.500000
  0
LINE
  8
0
  6
CENTER
 62
2
 10
216.500000
 20
-106.500000
 11
226.500000
 21
-106.500000
  0
LINE
  8
0
  6
CONTINUOUS
 62
7
 10
220.289001
 20
-102.869003
 11
218.210999
 21
-104.069000
  0
LINE
  8
0
  6
CONTINUOUS
 62
7
 10
217.500000
 20
-105.300003
 11
217.500000
 21
-107.699997
  0
LINE
  8
0
  6
CONTINUOUS
 62
7
 10
220.289001
 20
-110.130997
 11
218.210999
 21
-108.931000
  0
LINE
  8
0
  6
CONTINUOUS
 62
7
 10
223.789001
 20
-108.931000
 11
221.710999
 21
-110.130997
  0
LINE
  8
0
  6
CONTINUOUS
 62
7
 10
226.500000
 20
-102.500000
 11
217.000000
 21
-102.500000
  0
LINE
  8
0
  6
CONTINUOUS
 62
7
 10
225.000000
 20
-120.500000
 11
217.000000
 21
-120.500000
  0
LINE
  8
0
  6
CONTINUOUS
 62
7
 10
217.000000
 20
-102.500000
 11
217.000000
 21
-120.500000
  0
LINE
  8
0
  6
CONTINUOUS
 62
7
 10
224.500000
 20
-105.300003
 11
224.500000
 21
-107.699997
  0
LINE
  8
0
  6
CONTINUOUS
 62
7
 10
-124.000000
 20
-130.000000
 11
-162.000000
 21
-130.000000
  0
LINE
  8
0
  6
CONTINUOUS
 62
7
 10
-120.000000
 20
-131.210999
 11
-124.000000
 21
-131.210999
  0
LINE
  8
0
  6
CONTINUOUS
 62
7
 10
-120.000000
 20
-136.789001
 11
-124.000000
 21
-136.789001
  0
LINE
  8
0
  6
CENTER
 62
2
 10
-160.084000
 20
-134.000000
 11
-174.468994
 21
-134.000000
  0
LINE
  8
0
  6
CONTINUOUS
 62
2
 10
-166.000000
 20
-131.899994
 11
-171.750000
 21
-131.899994
  0
LINE
  8
0
  6
CONTINUOUS
 62
2
 10
-166.000000
 20
-136.100006
 11
-171.750000
 21
-136.100006
  0
LINE
  8
0
  6
CONTINUOUS
 62
7
 10
-166.000000
 20
-136.500000
 11
-171.750000
 21
-136.500000
  0
LINE
  8
0
  6
CONTINUOUS
 62
7
 10
-171.750000
 20
-131.500000
 11
-171.750000
 21
-136.500000
  0
LINE
  8
0
  6
CONTINUOUS
 62
7
 10
-166.000000
 20
-131.500000
 11
-171.750000
 21
-131.500000
  0
LINE
  8
0
  6
CONTINUOUS
 62
7
 10
-162.000000
 20
-138.000000
 11
-162.000000
 21
-130.000000
  0
LINE
  8
0
  6
CONTINUOUS
 62
7
 10
-162.000000
 20
-137.500000
 11
-166.000000
 21
-137.500000
  0
LINE
  8
0
  6
CONTINUOUS
 62
7
 10
-162.000000
 20
-130.500000
 11
-166.000000
 21
-130.500000
  0
LINE
  8
0
  6
CONTINUOUS
 62
7
 10
-166.000000
 20
-137.500000
 11
-166.000000
 21
-130.500000
  0
LINE
  8
0
  6
CONTINUOUS
 62
7
 10
-166.000000
 20
-133.289001
 11
-162.000000
 21
-133.289001
  0
LINE
  8
0
  6
CONTINUOUS
 62
7
 10
-166.000000
 20
-134.710999
 11
-162.000000
 21
-134.710999
  0
LINE
  8
0
  6
CONTINUOUS
 62
7
 10
-166.000000
 20
-131.210999
 11
-162.000000
 21
-131.210999
  0
LINE
  8
0
  6
CONTINUOUS
 62
7
 10
-166.000000
 20
-136.789001
 11
-162.000000
 21
-136.789001
  0
LINE
  8
0
  6
CENTER
 62
2
 10
-125.882004
 20
-134.000000
 11
-111.530998
 21
-134.000000
  0
LINE
  8
0
  6
CONTINUOUS
 62
2
 10
-120.000000
 20
-131.899994
 11
-114.250000
 21
-131.899994
  0
LINE
  8
0
  6
CONTINUOUS
 62
2
 10
-120.000000
 20
-136.100006
 11
-114.250000
 21
-136.100006
  0
LINE
  8
0
  6
CONTINUOUS
 62
7
 10
-120.000000
 20
-136.500000
 11
-114.250000
 21
-136.500000
  0
LINE
  8
0
  6
CONTINUOUS
 62
7
 10
-114.250000
 20
-131.500000
 11
-114.250000
 21
-136.500000
  0
LINE
  8
0
  6
CONTINUOUS
 62
7
 10
-120.000000
 20
-131.500000
 11
-114.250000
 21
-131.500000
  0
LINE
  8
0
  6
CONTINUOUS
 62
7
 10
-124.000000
 20
-138.000000
 11
-124.000000
 21
-130.000000
  0
LINE
  8
0
  6
CONTINUOUS
 62
7
 10
-124.000000
 20
-137.500000
 11
-120.000000
 21
-137.500000
  0
LINE
  8
0
  6
CONTINUOUS
 62
7
 10
-124.000000
 20
-130.500000
 11
-120.000000
 21
-130.500000
  0
LINE
  8
0
  6
CONTINUOUS
 62
7
 10
-120.000000
 20
-137.500000
 11
-120.000000
 21
-130.500000
  0
LINE
  8
0
  6
CONTINUOUS
 62
7
 10
-120.000000
 20
-133.289001
 11
-124.000000
 21
-133.289001
  0
LINE
  8
0
  6
CONTINUOUS
 62
7
 10
-120.000000
 20
-134.710999
 11
-124.000000
 21
-134.710999
  0
LINE
  8
0
  6
CONTINUOUS
 62
7
 10
-114.250000
 20
-43.000000
 11
-114.250000
 21
-40.500000
  0
LINE
  8
0
  6
CONTINUOUS
 62
7
 10
-162.000000
 20
-40.500000
 11
-162.000000
 21
-44.500000
  0
LINE
  8
0
  6
CONTINUOUS
 62
2
 10
-166.000000
 20
-42.599998
 11
-171.750000
 21
-42.599998
  0
LINE
  8
0
  6
CONTINUOUS
 62
7
 10
-166.000000
 20
-40.500000
 11
-166.000000
 21
-44.200001
  0
LINE
  8
0
  6
CONTINUOUS
 62
7
 10
-166.000000
 20
-44.200001
 11
-162.000000
 21
-44.200001
  0
LINE
  8
0
  6
CONTINUOUS
 62
7
 10
-166.000000
 20
-41.700001
 11
-162.000000
 21
-41.700001
  0
LINE
  8
0
  6
CONTINUOUS
 62
7
 10
-162.000000
 20
-42.520699
 11
-166.000000
 21
-42.520699
  0
LINE
  8
0
  6
CONTINUOUS
 62
7
 10
-171.750000
 20
-43.000000
 11
-171.750000
 21
-40.500000
  0
LINE
  8
0
  6
CONTINUOUS
 62
7
 10
-166.000000
 20
-43.000000
 11
-171.750000
 21
-43.000000
  0
LINE
  8
0
  6
CONTINUOUS
 62
7
 10
-120.000000
 20
-43.000000
 11
-114.250000
 21
-43.000000
  0
LINE
  8
0
  6
CONTINUOUS
 62
2
 10
-120.000000
 20
-42.599998
 11
-114.250000
 21
-42.599998
  0
LINE
  8
0
  6
CONTINUOUS
 62
7
 10
-120.000000
 20
-40.500000
 11
-120.000000
 21
-44.200001
  0
LINE
  8
0
  6
CONTINUOUS
 62
7
 10
-120.000000
 20
-44.200001
 11
-122.500000
 21
-44.200001
  0
LINE
  8
0
  6
CONTINUOUS
 62
7
 10
-120.000000
 20
-41.700001
 11
-122.500000
 21
-41.700001
  0
LINE
  8
0
  6
CONTINUOUS
 62
7
 10
-122.500000
 20
-42.520699
 11
-120.000000
 21
-42.520699
  0
LINE
  8
0
  6
CONTINUOUS
 62
7
 10
-113.000000
 20
-83.500000
 11
-130.250000
 21
-83.500000
  0
LINE
  8
0
  6
CENTER
 62
2
 10
-131.352997
 20
-87.500000
 11
-111.530998
 21
-87.500000
  0
LINE
  8
0
  6
CONTINUOUS
 62
2
 10
-120.000000
 20
-85.400002
 11
-114.250000
 21
-85.400002
  0
LINE
  8
0
  6
CONTINUOUS
 62
2
 10
-120.000000
 20
-89.599998
 11
-114.250000
 21
-89.599998
  0
LINE
  8
0
  6
CONTINUOUS
 62
7
 10
-120.000000
 20
-90.000000
 11
-114.250000
 21
-90.000000
  0
LINE
  8
0
  6
CONTINUOUS
 62
7
 10
-114.250000
 20
-85.000000
 11
-114.250000
 21
-90.000000
  0
LINE
  8
0
  6
CONTINUOUS
 62
7
 10
-120.000000
 20
-85.000000
 11
-114.250000
 21
-85.000000
  0
LINE
  8
0
  6
CONTINUOUS
 62
7
 10
-124.000000
 20
-91.500000
 11
-162.000000
 21
-91.500000
  0
LINE
  8
0
  6
CONTINUOUS
 62
7
 10
-157.500000
 20
-91.500000
 11
-157.500000
 21
-83.500000
  0
LINE
  8
0
  6
CONTINUOUS
 62
7
 10
-128.500000
 20
-91.500000
 11
-128.500000
 21
-83.500000
  0
LINE
  8
0
  6
CONTINUOUS
 62
7
 10
-124.000000
 20
-91.500000
 11
-124.000000
 21
-83.500000
  0
LINE
  8
0
  6
CONTINUOUS
 62
7
 10
-130.250000
 20
-91.000000
 11
-145.750000
 21
-91.000000
  0
LINE
  8
0
  6
CONTINUOUS
 62
7
 10
-145.750000
 20
-91.000000
 11
-145.750000
 21
-82.000000
  0
LINE
  8
0
  6
CONTINUOUS
 62
7
 10
-130.250000
 20
-91.000000
 11
-130.250000
 21
-82.000000
  0
LINE
  8
0
  6
CONTINUOUS
 62
7
 10
-124.000000
 20
-91.000000
 11
-120.000000
 21
-91.000000
  0
LINE
  8
0
  6
CONTINUOUS
 62
7
 10
-124.000000
 20
-84.000000
 11
-120.000000
 21
-84.000000
  0
LINE
  8
0
  6
CONTINUOUS
 62
7
 10
-120.000000
 20
-91.000000
 11
-120.000000
 21
-84.000000
  0
LINE
  8
0
  6
CONTINUOUS
 62
7
 10
-120.000000
 20
-86.789200
 11
-124.000000
 21
-86.789200
  0
LINE
  8
0
  6
CONTINUOUS
 62
7
 10
-120.000000
 20
-88.210800
 11
-124.000000
 21
-88.210800
  0
LINE
  8
0
  6
CONTINUOUS
 62
7
 10
-120.000000
 20
-84.710800
 11
-124.000000
 21
-84.710800
  0
LINE
  8
0
  6
CONTINUOUS
 62
7
 10
-120.000000
 20
-90.289200
 11
-124.000000
 21
-90.289200
  0
LINE
  8
0
  6
CENTER
 62
2
 10
-154.647003
 20
-87.500000
 11
-174.468994
 21
-87.500000
  0
LINE
  8
0
  6
CONTINUOUS
 62
2
 10
-166.000000
 20
-85.400002
 11
-171.750000
 21
-85.400002
  0
LINE
  8
0
  6
CONTINUOUS
 62
2
 10
-166.000000
 20
-89.599998
 11
-171.750000
 21
-89.599998
  0
LINE
  8
0
  6
CONTINUOUS
 62
7
 10
-166.000000
 20
-90.000000
 11
-171.750000
 21
-90.000000
  0
LINE
  8
0
  6
CONTINUOUS
 62
7
 10
-171.750000
 20
-85.000000
 11
-171.750000
 21
-90.000000
  0
LINE
  8
0
  6
CONTINUOUS
 62
7
 10
-166.000000
 20
-85.000000
 11
-171.750000
 21
-85.000000
  0
LINE
  8
0
  6
CONTINUOUS
 62
7
 10
-162.000000
 20
-91.500000
 11
-162.000000
 21
-83.500000
  0
LINE
  8
0
  6
CONTINUOUS
 62
7
 10
-162.000000
 20
-91.000000
 11
-166.000000
 21
-91.000000
  0
LINE
  8
0
  6
CONTINUOUS
 62
7
 10
-162.000000
 20
-84.000000
 11
-166.000000
 21
-84.000000
  0
LINE
  8
0
  6
CONTINUOUS
 62
7
 10
-166.000000
 20
-91.000000
 11
-166.000000
 21
-84.000000
  0
LINE
  8
0
  6
CONTINUOUS
 62
7
 10
-166.000000
 20
-86.789200
 11
-162.000000
 21
-86.789200
  0
LINE
  8
0
  6
CONTINUOUS
 62
7
 10
-166.000000
 20
-88.210800
 11
-162.000000
 21
-88.210800
  0
LINE
  8
0
  6
CONTINUOUS
 62
7
 10
-166.000000
 20
-84.710800
 11
-162.000000
 21
-84.710800
  0
LINE
  8
0
  6
CONTINUOUS
 62
7
 10
-166.000000
 20
-90.289200
 11
-162.000000
 21
-90.289200
  0
LINE
  8
0
  6
CONTINUOUS
 62
7
 10
-145.750000
 20
-83.500000
 11
-173.000000
 21
-83.500000
  0
LINE
  8
0
  6
CONTINUOUS
 62
7
 10
-162.000000
 20
-120.500000
 11
-162.000000
 21
-102.500000
  0
LINE
  8
0
  6
CONTINUOUS
 62
7
 10
-162.000000
 20
-120.500000
 11
-124.000000
 21
-120.500000
  0
LINE
  8
0
  6
CONTINUOUS
 62
7
 10
-162.000000
 20
-102.500000
 11
-153.500000
 21
-102.500000
  0
LINE
  8
0
  6
CONTINUOUS
 62
7
 10
-157.500000
 20
-109.500000
 11
-157.500000
 21
-102.500000
  0
LINE
  8
0
  6
CONTINUOUS
 62
7
 10
-155.000000
 20
-112.000000
 11
-131.000000
 21
-112.000000
  0
LINE
  8
0
  6
CONTINUOUS
 62
7
 10
-128.500000
 20
-109.500000
 11
-128.500000
 21
-102.500000
  0
LINE
  8
0
  6
CONTINUOUS
 62
7
 10
-124.000000
 20
-102.500000
 11
-128.500000
 21
-102.500000
  0
LINE
  8
0
  6
CONTINUOUS
 62
7
 10
-124.000000
 20
-120.500000
 11
-124.000000
 21
-102.500000
  0
LINE
  8
0
  6
CONTINUOUS
 62
7
 10
-145.750000
 20
-110.500000
 11
-145.750000
 21
-102.500000
  0
LINE
  8
0
  6
CONTINUOUS
 62
7
 10
-145.750000
 20
-110.500000
 11
-130.250000
 21
-110.500000
  0
LINE
  8
0
  6
CONTINUOUS
 62
7
 10
-130.250000
 20
-110.500000
 11
-130.250000
 21
-102.500000
  0
LINE
  8
0
  6
CONTINUOUS
 62
7
 10
-145.750000
 20
-102.500000
 11
-130.250000
 21
-102.500000
  0
LINE
  8
0
  6
CONTINUOUS
 62
2
 10
-166.000000
 20
-108.599998
 11
-171.750000
 21
-108.599998
  0
LINE
  8
0
  6
CONTINUOUS
 62
7
 10
-166.000000
 20
-109.000000
 11
-171.750000
 21
-109.000000
  0
LINE
  8
0
  6
CONTINUOUS
 62
2
 10
-166.000000
 20
-104.400002
 11
-171.750000
 21
-104.400002
  0
LINE
  8
0
  6
CONTINUOUS
 62
7
 10
-166.000000
 20
-110.199997
 11
-166.000000
 21
-102.800003
  0
LINE
  8
0
  6
CONTINUOUS
 62
7
 10
-166.000000
 20
-110.199997
 11
-162.000000
 21
-110.199997
  0
LINE
  8
0
  6
CONTINUOUS
 62
7
 10
-166.000000
 20
-102.800003
 11
-162.000000
 21
-102.800003
  0
LINE
  8
0
  6
CONTINUOUS
 62
7
 10
-166.000000
 20
-108.521004
 11
-162.000000
 21
-108.521004
  0
LINE
  8
0
  6
CONTINUOUS
 62
7
 10
-162.000000
 20
-107.699997
 11
-166.000000
 21
-107.699997
  0
LINE
  8
0
  6
CONTINUOUS
 62
7
 10
-166.000000
 20
-105.300003
 11
-162.000000
 21
-105.300003
  0
LINE
  8
0
  6
CONTINUOUS
 62
7
 10
-162.000000
 20
-104.478996
 11
-166.000000
 21
-104.478996
  0
LINE
  8
0
  6
CONTINUOUS
 62
7
 10
-171.750000
 20
-104.000000
 11
-171.750000
 21
-109.000000
  0
LINE
  8
0
  6
CONTINUOUS
 62
7
 10
-166.000000
 20
-104.000000
 11
-171.750000
 21
-104.000000
  0
LINE
  8
0
  6
CONTINUOUS
 62
2
 10
-120.000000
 20
-104.400002
 11
-114.250000
 21
-104.400002
  0
LINE
  8
0
  6
CENTER
 62
2
 10
-131.352997
 20
-106.500000
 11
-111.530998
 21
-106.500000
  0
LINE
  8
0
  6
CONTINUOUS
 62
2
 10
-120.000000
 20
-108.599998
 11
-114.250000
 21
-108.599998
  0
LINE
  8
0
  6
CONTINUOUS
 62
7
 10
-120.000000
 20
-109.000000
 11
-114.250000
 21
-109.000000
  0
LINE
  8
0
  6
CONTINUOUS
 62
7
 10
-120.000000
 20
-110.199997
 11
-120.000000
 21
-102.800003
  0
LINE
  8
0
  6
CONTINUOUS
 62
7
 10
-120.000000
 20
-110.199997
 11
-124.000000
 21
-110.199997
  0
LINE
  8
0
  6
CONTINUOUS
 62
7
 10
-120.000000
 20
-108.521004
 11
-124.000000
 21
-108.521004
  0
LINE
  8
0
  6
CONTINUOUS
 62
7
 10
-124.000000
 20
-107.699997
 11
-120.000000
 21
-107.699997
  0
LINE
  8
0
  6
CONTINUOUS
 62
7
 10
-120.000000
 20
-105.300003
 11
-124.000000
 21
-105.300003
  0
LINE
  8
0
  6
CONTINUOUS
 62
7
 10
-124.000000
 20
-104.478996
 11
-120.000000
 21
-104.478996
  0
LINE
  8
0
  6
CONTINUOUS
 62
7
 10
-120.000000
 20
-102.800003
 11
-124.000000
 21
-102.800003
  0
LINE
  8
0
  6
CONTINUOUS
 62
7
 10
-120.000000
 20
-104.000000
 11
-114.250000
 21
-104.000000
  0
LINE
  8
0
  6
CONTINUOUS
 62
7
 10
-114.250000
 20
-104.000000
 11
-114.250000
 21
-109.000000
  0
LINE
  8
0
  6
CENTER
 62
2
 10
-154.647003
 20
-106.500000
 11
-174.468994
 21
-106.500000
  0
LINE
  8
0
  6
CONTINUOUS
 62
7
 10
-145.750000
 20
-109.800003
 11
-153.500000
 21
-109.800003
  0
LINE
  8
0
  6
CONTINUOUS
 62
7
 10
-128.518005
 20
-109.800003
 11
-130.250000
 21
-109.800003
  0
LINE
  8
0
  6
CONTINUOUS
 62
7
 10
-171.750000
 20
-106.500000
 11
-173.000000
 21
-106.500000
  0
LINE
  8
0
  6
CENTER
 62
2
 10
-226.500000
 20
-101.513000
 11
-226.500000
 21
-122.005997
  0
LINE
  8
0
  6
CONTINUOUS
 62
7
 10
-231.000000
 20
-108.865997
 11
-231.000000
 21
-111.199997
  0
LINE
  8
0
  6
CONTINUOUS
 62
7
 10
-222.000000
 20
-108.865997
 11
-222.000000
 21
-111.199997
  0
LINE
  8
0
  6
CONTINUOUS
 62
7
 10
-236.500000
 20
-102.000000
 11
-232.000000
 21
-102.000000
  0
LINE
  8
0
  6
CONTINUOUS
 62
7
 10
-236.500000
 20
-102.000000
 11
-236.500000
 21
-109.800003
  0
LINE
  8
0
  6
CONTINUOUS
 62
7
 10
-236.500000
 20
-109.800003
 11
-231.000000
 21
-109.800003
  0
LINE
  8
0
  6
CONTINUOUS
 62
7
 10
-231.699997
 20
-102.300003
 11
-221.300003
 21
-102.300003
  0
LINE
  8
0
  6
CONTINUOUS
 62
7
 10
-222.000000
 20
-109.800003
 11
-216.500000
 21
-109.800003
  0
LINE
  8
0
  6
CONTINUOUS
 62
7
 10
-221.300003
 20
-102.300003
 11
-221.000000
 21
-102.000000
  0
LINE
  8
0
  6
CONTINUOUS
 62
7
 10
-231.699997
 20
-102.300003
 11
-232.000000
 21
-102.000000
  0
LINE
  8
0
  6
CONTINUOUS
 62
7
 10
-221.000000
 20
-102.000000
 11
-216.500000
 21
-102.000000
  0
LINE
  8
0
  6
CONTINUOUS
 62
7
 10
-231.000000
 20
-106.500000
 11
-231.000000
 21
-107.134003
  0
LINE
  8
0
  6
CONTINUOUS
 62
7
 10
-222.000000
 20
-106.500000
 11
-231.000000
 21
-106.500000
  0
LINE
  8
0
  6
CONTINUOUS
 62
7
 10
-222.000000
 20
-106.500000
 11
-222.000000
 21
-107.134003
  0
LINE
  8
0
  6
CONTINUOUS
 62
7
 10
-238.000000
 20
-121.000000
 11
-215.000000
 21
-121.000000
  0
LINE
  8
0
  6
CONTINUOUS
 62
7
 10
-238.000000
 20
-111.199997
 11
-238.000000
 21
-121.000000
  0
LINE
  8
0
  6
CONTINUOUS
 62
7
 10
-215.000000
 20
-102.500000
 11
-215.000000
 21
-121.000000
  0
LINE
  8
0
  6
CONTINUOUS
 62
7
 10
-215.000000
 20
-111.199997
 11
-222.000000
 21
-111.199997
  0
LINE
  8
0
  6
CENTER
 62
2
 10
-233.000000
 20
-114.500000
 11
-220.000000
 21
-114.500000
  0
LINE
  8
0
  6
CONTINUOUS
 62
7
 10
-238.000000
 20
-111.199997
 11
-231.000000
 21
-111.199997
  0
LINE
  8
0
  6
CONTINUOUS
 62
7
 10
-216.500000
 20
-102.000000
 11
-216.500000
 21
-109.800003
  0
LINE
  8
0
  6
CENTER
 62
2
 10
-234.500000
 20
-119.000000
 11
-234.500000
 21
-123.000000
  0
LINE
  8
0
  6
CENTER
 62
2
 10
-218.500000
 20
-119.000000
 11
-218.500000
 21
-123.000000
  0
LINE
  8
0
  6
CENTER
 62
2
 10
-219.000000
 20
-100.000000
 11
-219.000000
 21
-104.000000
  0
LINE
  8
0
  6
CENTER
 62
2
 10
-234.000000
 20
-100.000000
 11
-234.000000
 21
-104.000000
  0
LINE
  8
0
  6
CONTINUOUS
 62
7
 10
-211.000000
 20
-105.056999
 11
-209.750000
 21
-105.778000
  0
LINE
  8
0
  6
CONTINUOUS
 62
7
 10
-209.750000
 20
-105.778000
 11
-209.750000
 21
-107.222000
  0
LINE
  8
0
  6
CONTINUOUS
 62
7
 10
-211.000000
 20
-107.943001
 11
-209.750000
 21
-107.222000
  0
LINE
  8
0
  6
CONTINUOUS
 62
7
 10
-212.250000
 20
-107.222000
 11
-211.000000
 21
-107.943001
  0
LINE
  8
0
  6
CONTINUOUS
 62
7
 10
-212.250000
 20
-105.778000
 11
-212.250000
 21
-107.222000
  0
LINE
  8
0
  6
CONTINUOUS
 62
7
 10
-211.000000
 20
-105.056999
 11
-212.250000
 21
-105.778000
  0
LINE
  8
0
  6
CONTINUOUS
 62
7
 10
-211.710999
 20
-102.869003
 11
-213.789001
 21
-104.069000
  0
LINE
  8
0
  6
CENTER
 62
2
 10
-211.000000
 20
-101.500000
 11
-211.000000
 21
-111.500000
  0
LINE
  8
0
  6
CENTER
 62
2
 10
-206.500000
 20
-106.500000
 11
-216.500000
 21
-106.500000
  0
LINE
  8
0
  6
CONTINUOUS
 62
7
 10
-210.289001
 20
-102.869003
 11
-208.210999
 21
-104.069000
  0
LINE
  8
0
  6
CONTINUOUS
 62
7
 10
-207.500000
 20
-105.300003
 11
-207.500000
 21
-107.699997
  0
LINE
  8
0
  6
CONTINUOUS
 62
7
 10
-210.289001
 20
-110.130997
 11
-208.210999
 21
-108.931000
  0
LINE
  8
0
  6
CONTINUOUS
 62
7
 10
-213.789001
 20
-108.931000
 11
-211.710999
 21
-110.130997
  0
LINE
  8
0
  6
CONTINUOUS
 62
7
 10
-216.500000
 20
-102.500000
 11
-207.000000
 21
-102.500000
  0
LINE
  8
0
  6
CONTINUOUS
 62
7
 10
-215.000000
 20
-120.500000
 11
-207.000000
 21
-120.500000
  0
LINE
  8
0
  6
CONTINUOUS
 62
7
 10
-207.000000
 20
-102.500000
 11
-207.000000
 21
-120.500000
  0
LINE
  8
0
  6
CONTINUOUS
 62
7
 10
-214.500000
 20
-105.300003
 11
-214.500000
 21
-107.699997
  0
LINE
  8
0
  6
CENTER
 62
2
 10
-59.500000
 20
-101.513000
 11
-59.500000
 21
-122.005997
  0
LINE
  8
0
  6
CONTINUOUS
 62
7
 10
-55.000000
 20
-108.865997
 11
-55.000000
 21
-111.199997
  0
LINE
  8
0
  6
CONTINUOUS
 62
7
 10
-64.000000
 20
-108.865997
 11
-64.000000
 21
-111.199997
  0
LINE
  8
0
  6
CONTINUOUS
 62
7
 10
-49.500000
 20
-102.000000
 11
-54.000000
 21
-102.000000
  0
LINE
  8
0
  6
CONTINUOUS
 62
7
 10
-49.500000
 20
-102.000000
 11
-49.500000
 21
-109.800003
  0
LINE
  8
0
  6
CONTINUOUS
 62
7
 10
-49.500000
 20
-109.800003
 11
-55.000000
 21
-109.800003
  0
LINE
  8
0
  6
CONTINUOUS
 62
7
 10
-54.299999
 20
-102.300003
 11
-64.699997
 21
-102.300003
  0
LINE
  8
0
  6
CONTINUOUS
 62
7
 10
-64.000000
 20
-109.800003
 11
-69.500000
 21
-109.800003
  0
LINE
  8
0
  6
CONTINUOUS
 62
7
 10
-64.700104
 20
-102.300003
 11
-65.000099
 21
-102.000000
  0
LINE
  8
0
  6
CONTINUOUS
 62
7
 10
-54.299999
 20
-102.300003
 11
-54.000000
 21
-102.000000
  0
LINE
  8
0
  6
CONTINUOUS
 62
7
 10
-65.000000
 20
-102.000000
 11
-69.500000
 21
-102.000000
  0
LINE
  8
0
  6
CONTINUOUS
 62
7
 10
-55.000000
 20
-106.500000
 11
-55.000000
 21
-107.134003
  0
LINE
  8
0
  6
CONTINUOUS
 62
7
 10
-64.000000
 20
-106.500000
 11
-55.000000
 21
-106.500000
  0
LINE
  8
0
  6
CONTINUOUS
 62
7
 10
-64.000000
 20
-106.500000
 11
-64.000000
 21
-107.134003
  0
LINE
  8
0
  6
CONTINUOUS
 62
7
 10
-48.000000
 20
-121.000000
 11
-71.000000
 21
-121.000000
  0
LINE
  8
0
  6
CONTINUOUS
 62
7
 10
-48.000000
 20
-111.199997
 11
-48.000000
 21
-121.000000
  0
LINE
  8
0
  6
CONTINUOUS
 62
7
 10
-71.000000
 20
-102.500000
 11
-71.000000
 21
-121.000000
  0
LINE
  8
0
  6
CONTINUOUS
 62
7
 10
-71.000000
 20
-111.199997
 11
-64.000000
 21
-111.199997
  0
LINE
  8
0
  6
CENTER
 62
2
 10
-53.000000
 20
-114.500000
 11
-66.000000
 21
-114.500000
  0
LINE
  8
0
  6
CONTINUOUS
 62
7
 10
-48.000000
 20
-111.199997
 11
-55.000000
 21
-111.199997
  0
LINE
  8
0
  6
CONTINUOUS
 62
7
 10
-69.500000
 20
-102.000000
 11
-69.500000
 21
-109.800003
  0
LINE
  8
0
  6
CENTER
 62
2
 10
-51.500000
 20
-119.000000
 11
-51.500000
 21
-123.000000
  0
LINE
  8
0
  6
CENTER
 62
2
 10
-67.500000
 20
-119.000000
 11
-67.500000
 21
-123.000000
  0
LINE
  8
0
  6
CENTER
 62
2
 10
-67.000000
 20
-100.000000
 11
-67.000000
 21
-104.000000
  0
LINE
  8
0
  6
CENTER
 62
2
 10
-52.000000
 20
-100.000000
 11
-52.000000
 21
-104.000000
  0
LINE
  8
0
  6
CONTINUOUS
 62
7
 10
-75.000000
 20
-105.056999
 11
-76.250000
 21
-105.778000
  0
LINE
  8
0
  6
CONTINUOUS
 62
7
 10
-76.250000
 20
-105.778000
 11
-76.250000
 21
-107.222000
  0
LINE
  8
0
  6
CONTINUOUS
 62
7
 10
-75.000000
 20
-107.943001
 11
-76.250000
 21
-107.222000
  0
LINE
  8
0
  6
CONTINUOUS
 62
7
 10
-73.750000
 20
-107.222000
 11
-75.000000
 21
-107.943001
  0
LINE
  8
0
  6
CONTINUOUS
 62
7
 10
-73.750000
 20
-105.778000
 11
-73.750000
 21
-107.222000
  0
LINE
  8
0
  6
CONTINUOUS
 62
7
 10
-75.000000
 20
-105.056000
 11
-73.750000
 21
-105.778000
  0
LINE
  8
0
  6
CONTINUOUS
 62
7
 10
-74.289200
 20
-102.869003
 11
-72.210800
 21
-104.069000
  0
LINE
  8
0
  6
CENTER
 62
2
 10
-75.000000
 20
-101.500000
 11
-75.000000
 21
-111.500000
  0
LINE
  8
0
  6
CENTER
 62
2
 10
-79.500000
 20
-106.500000
 11
-69.500000
 21
-106.500000
  0
LINE
  8
0
  6
CONTINUOUS
 62
7
 10
-75.710800
 20
-102.869003
 11
-77.789200
 21
-104.069000
  0
LINE
  8
0
  6
CONTINUOUS
 62
7
 10
-78.500000
 20
-105.300003
 11
-78.500000
 21
-107.699997
  0
LINE
  8
0
  6
CONTINUOUS
 62
7
 10
-75.710701
 20
-110.130997
 11
-77.789200
 21
-108.931000
  0
LINE
  8
0
  6
CONTINUOUS
 62
7
 10
-72.210800
 20
-108.931000
 11
-74.289200
 21
-110.130997
  0
LINE
  8
0
  6
CONTINUOUS
 62
7
 10
-69.500000
 20
-102.500000
 11
-79.000000
 21
-102.500000
  0
LINE
  8
0
  6
CONTINUOUS
 62
7
 10
-71.000000
 20
-120.500000
 11
-79.000000
 21
-120.500000
  0
LINE
  8
0
  6
CONTINUOUS
 62
7
 10
-79.000000
 20
-102.500000
 11
-79.000000
 21
-120.500000
  0
LINE
  8
0
  6
CONTINUOUS
 62
7
 10
-71.500000
 20
-105.300003
 11
-71.500000
 21
-107.699997
  0
LINE
  8
0
  6
CENTER
 62
2
 10
115.916000
 20
-134.000000
 11
101.530998
 21
-134.000000
  0
LINE
  8
0
  6
CONTINUOUS
 62
2
 10
109.500000
 20
-131.899994
 11
104.250000
 21
-131.899994
  0
LINE
  8
0
  6
CONTINUOUS
 62
2
 10
109.500000
 20
-136.100006
 11
104.250000
 21
-136.100006
  0
LINE
  8
0
  6
CONTINUOUS
 62
7
 10
109.500000
 20
-136.500000
 11
104.250000
 21
-136.500000
  0
LINE
  8
0
  6
CONTINUOUS
 62
7
 10
104.250000
 20
-131.500000
 11
104.250000
 21
-136.500000
  0
LINE
  8
0
  6
CONTINUOUS
 62
7
 10
109.500000
 20
-131.500000
 11
104.250000
 21
-131.500000
  0
LINE
  8
0
  6
CONTINUOUS
 62
7
 10
113.500000
 20
-138.000000
 11
113.500000
 21
-130.000000
  0
LINE
  8
0
  6
CONTINUOUS
 62
7
 10
113.500000
 20
-137.500000
 11
109.500000
 21
-137.500000
  0
LINE
  8
0
  6
CONTINUOUS
 62
7
 10
113.500000
 20
-130.500000
 11
109.500000
 21
-130.500000
  0
LINE
  8
0
  6
CONTINUOUS
 62
7
 10
109.500000
 20
-137.500000
 11
109.500000
 21
-130.500000
  0
LINE
  8
0
  6
CONTINUOUS
 62
7
 10
109.500000
 20
-133.289001
 11
113.500000
 21
-133.289001
  0
LINE
  8
0
  6
CONTINUOUS
 62
7
 10
109.500000
 20
-134.710999
 11
113.500000
 21
-134.710999
  0
LINE
  8
0
  6
CONTINUOUS
 62
7
 10
109.500000
 20
-131.210999
 11
113.500000
 21
-131.210999
  0
LINE
  8
0
  6
CONTINUOUS
 62
7
 10
109.500000
 20
-136.789001
 11
113.500000
 21
-136.789001
  0
LINE
  8
0
  6
CENTER
 62
2
 10
160.117996
 20
-134.000000
 11
174.468994
 21
-134.000000
  0
LINE
  8
0
  6
CONTINUOUS
 62
2
 10
166.500000
 20
-131.899994
 11
171.750000
 21
-131.899994
  0
LINE
  8
0
  6
CONTINUOUS
 62
2
 10
166.500000
 20
-136.100006
 11
171.750000
 21
-136.100006
  0
LINE
  8
0
  6
CONTINUOUS
 62
7
 10
166.500000
 20
-136.500000
 11
171.750000
 21
-136.500000
  0
LINE
  8
0
  6
CONTINUOUS
 62
7
 10
171.750000
 20
-131.500000
 11
171.750000
 21
-136.500000
  0
LINE
  8
0
  6
CONTINUOUS
 62
7
 10
166.500000
 20
-131.500000
 11
171.750000
 21
-131.500000
  0
LINE
  8
0
  6
CONTINUOUS
 62
7
 10
162.500000
 20
-138.000000
 11
162.500000
 21
-130.000000
  0
LINE
  8
0
  6
CONTINUOUS
 62
7
 10
162.500000
 20
-137.500000
 11
166.500000
 21
-137.500000
  0
LINE
  8
0
  6
CONTINUOUS
 62
7
 10
162.500000
 20
-130.500000
 11
166.500000
 21
-130.500000
  0
LINE
  8
0
  6
CONTINUOUS
 62
7
 10
166.500000
 20
-137.500000
 11
166.500000
 21
-130.500000
  0
LINE
  8
0
  6
CONTINUOUS
 62
7
 10
166.500000
 20
-133.289001
 11
162.500000
 21
-133.289001
  0
LINE
  8
0
  6
CONTINUOUS
 62
7
 10
166.500000
 20
-134.710999
 11
162.500000
 21
-134.710999
  0
LINE
  8
0
  6
CONTINUOUS
 62
7
 10
166.384995
 20
-131.210999
 11
162.500000
 21
-131.210999
  0
LINE
  8
0
  6
CONTINUOUS
 62
7
 10
166.500000
 20
-136.789001
 11
162.500000
 21
-136.789001
  0
LINE
  8
0
  6
CONTINUOUS
 62
7
 10
162.500000
 20
-130.000000
 11
113.500000
 21
-130.000000
  0
LINE
  8
0
  6
CONTINUOUS
 62
7
 10
104.250000
 20
-43.000000
 11
104.250000
 21
-40.500000
  0
LINE
  8
0
  6
CONTINUOUS
 62
2
 10
108.000000
 20
-42.599998
 11
104.250000
 21
-42.599998
  0
LINE
  8
0
  6
CONTINUOUS
 62
7
 10
108.000000
 20
-43.000000
 11
104.250000
 21
-43.000000
  0
LINE
  8
0
  6
CONTINUOUS
 62
7
 10
170.500000
 20
-43.000000
 11
171.750000
 21
-43.000000
  0
LINE
  8
0
  6
CONTINUOUS
 62
7
 10
171.750000
 20
-43.000000
 11
171.750000
 21
-40.500000
  0
LINE
  8
0
  6
CONTINUOUS
 62
2
 10
170.500000
 20
-42.599998
 11
171.750000
 21
-42.599998
  0
LINE
  8
0
  6
CONTINUOUS
 62
7
 10
183.000000
 20
-83.500000
 11
155.750000
 21
-83.500000
  0
LINE
  8
0
  6
CONTINUOUS
 62
7
 10
162.500000
 20
-84.000000
 11
166.500000
 21
-84.000000
  0
LINE
  8
0
  6
CENTER
 62
2
 10
154.647003
 20
-87.500000
 11
174.468994
 21
-87.500000
  0
LINE
  8
0
  6
CONTINUOUS
 62
2
 10
166.500000
 20
-85.400002
 11
171.750000
 21
-85.400002
  0
LINE
  8
0
  6
CONTINUOUS
 62
2
 10
166.500000
 20
-89.599998
 11
171.750000
 21
-89.599998
  0
LINE
  8
0
  6
CONTINUOUS
 62
7
 10
166.500000
 20
-90.000000
 11
171.750000
 21
-90.000000
  0
LINE
  8
0
  6
CONTINUOUS
 62
7
 10
171.750000
 20
-85.000000
 11
171.750000
 21
-90.000000
  0
LINE
  8
0
  6
CONTINUOUS
 62
7
 10
166.500000
 20
-85.000000
 11
171.750000
 21
-85.000000
  0
LINE
  8
0
  6
CONTINUOUS
 62
7
 10
162.500000
 20
-91.500000
 11
113.500000
 21
-91.500000
  0
LINE
  8
0
  6
CONTINUOUS
 62
7
 10
157.500000
 20
-91.500000
 11
157.500000
 21
-83.500000
  0
LINE
  8
0
  6
CONTINUOUS
 62
7
 10
162.500000
 20
-91.500000
 11
162.500000
 21
-83.500000
  0
LINE
  8
0
  6
CONTINUOUS
 62
7
 10
155.750000
 20
-91.000000
 11
140.250000
 21
-91.000000
  0
LINE
  8
0
  6
CONTINUOUS
 62
7
 10
140.250000
 20
-91.000000
 11
140.250000
 21
-82.000000
  0
LINE
  8
0
  6
CONTINUOUS
 62
7
 10
155.750000
 20
-91.000000
 11
155.750000
 21
-82.000000
  0
LINE
  8
0
  6
CONTINUOUS
 62
7
 10
162.500000
 20
-91.000000
 11
166.500000
 21
-91.000000
  0
LINE
  8
0
  6
CONTINUOUS
 62
7
 10
166.500000
 20
-91.000000
 11
166.500000
 21
-84.000000
  0
LINE
  8
0
  6
CONTINUOUS
 62
7
 10
166.500000
 20
-86.789200
 11
162.500000
 21
-86.789200
  0
LINE
  8
0
  6
CONTINUOUS
 62
7
 10
166.500000
 20
-88.210800
 11
162.500000
 21
-88.210800
  0
LINE
  8
0
  6
CONTINUOUS
 62
7
 10
166.500000
 20
-84.710800
 11
162.500000
 21
-84.710800
  0
LINE
  8
0
  6
CONTINUOUS
 62
7
 10
166.500000
 20
-90.289200
 11
162.500000
 21
-90.289200
  0
LINE
  8
0
  6
CONTINUOUS
 62
7
 10
140.250000
 20
-83.500000
 11
93.000000
 21
-83.500000
  0
LINE
  8
0
  6
CONTINUOUS
 62
7
 10
113.500000
 20
-84.000000
 11
109.500000
 21
-84.000000
  0
LINE
  8
0
  6
CENTER
 62
2
 10
121.352997
 20
-87.500000
 11
101.530998
 21
-87.500000
  0
LINE
  8
0
  6
CONTINUOUS
 62
2
 10
109.500000
 20
-85.400002
 11
104.250000
 21
-85.400002
  0
LINE
  8
0
  6
CONTINUOUS
 62
2
 10
109.500000
 20
-89.599998
 11
104.250000
 21
-89.599998
  0
LINE
  8
0
  6
CONTINUOUS
 62
7
 10
109.500000
 20
-90.000000
 11
104.250000
 21
-90.000000
  0
LINE
  8
0
  6
CONTINUOUS
 62
7
 10
104.250000
 20
-85.000000
 11
104.250000
 21
-90.000000
  0
LINE
  8
0
  6
CONTINUOUS
 62
7
 10
109.500000
 20
-85.000000
 11
104.250000
 21
-85.000000
  0
LINE
  8
0
  6
CONTINUOUS
 62
7
 10
118.500000
 20
-91.500000
 11
118.500000
 21
-83.500000
  0
LINE
  8
0
  6
CONTINUOUS
 62
7
 10
113.500000
 20
-91.500000
 11
113.500000
 21
-83.500000
  0
LINE
  8
0
  6
CONTINUOUS
 62
7
 10
113.500000
 20
-91.000000
 11
109.500000
 21
-91.000000
  0
LINE
  8
0
  6
CONTINUOUS
 62
7
 10
109.500000
 20
-91.000000
 11
109.500000
 21
-84.000000
  0
LINE
  8
0
  6
CONTINUOUS
 62
7
 10
109.500000
 20
-86.789200
 11
113.500000
 21
-86.789200
  0
LINE
  8
0
  6
CONTINUOUS
 62
7
 10
109.500000
 20
-88.210800
 11
113.500000
 21
-88.210800
  0
LINE
  8
0
  6
CONTINUOUS
 62
7
 10
109.500000
 20
-84.710800
 11
113.500000
 21
-84.710800
  0
LINE
  8
0
  6
CONTINUOUS
 62
7
 10
109.500000
 20
-90.289200
 11
113.500000
 21
-90.289200
  0
LINE
  8
0
  6
CONTINUOUS
 62
7
 10
170.500000
 20
-109.000000
 11
169.500000
 21
-109.000000
  0
LINE
  8
0
  6
CONTINUOUS
 62
7
 10
140.250000
 20
-110.500000
 11
140.250000
 21
-102.500000
  0
LINE
  8
0
  6
CONTINUOUS
 62
7
 10
140.250000
 20
-110.500000
 11
155.750000
 21
-110.500000
  0
LINE
  8
0
  6
CONTINUOUS
 62
7
 10
140.250000
 20
-102.500000
 11
155.750000
 21
-102.500000
  0
LINE
  8
0
  6
CONTINUOUS
 62
7
 10
157.500000
 20
-102.500000
 11
162.500000
 21
-102.500000
  0
LINE
  8
0
  6
CONTINUOUS
 62
7
 10
155.750000
 20
-110.500000
 11
155.750000
 21
-102.500000
  0
LINE
  8
0
  6
CONTINUOUS
 62
7
 10
113.500000
 20
-120.500000
 11
113.500000
 21
-102.500000
  0
LINE
  8
0
  6
CONTINUOUS
 62
7
 10
113.500000
 20
-120.500000
 11
162.500000
 21
-120.500000
  0
LINE
  8
0
  6
CONTINUOUS
 62
7
 10
108.000000
 20
-102.500000
 11
125.500000
 21
-102.500000
  0
LINE
  8
0
  6
CONTINUOUS
 62
7
 10
118.500000
 20
-109.500000
 11
118.500000
 21
-102.500000
  0
LINE
  8
0
  6
CONTINUOUS
 62
7
 10
121.000000
 20
-112.000000
 11
155.000000
 21
-112.000000
  0
LINE
  8
0
  6
CONTINUOUS
 62
7
 10
157.500000
 20
-109.500000
 11
157.500000
 21
-102.500000
  0
LINE
  8
0
  6
CONTINUOUS
 62
7
 10
162.500000
 20
-102.500000
 11
157.500000
 21
-102.500000
  0
LINE
  8
0
  6
CONTINUOUS
 62
7
 10
162.500000
 20
-120.500000
 11
162.500000
 21
-102.500000
  0
LINE
  8
0
  6
CONTINUOUS
 62
2
 10
109.500000
 20
-108.599998
 11
104.250000
 21
-108.599998
  0
LINE
  8
0
  6
CONTINUOUS
 62
7
 10
109.500000
 20
-109.000000
 11
104.250000
 21
-109.000000
  0
LINE
  8
0
  6
CONTINUOUS
 62
2
 10
109.500000
 20
-104.400002
 11
104.250000
 21
-104.400002
  0
LINE
  8
0
  6
CONTINUOUS
 62
7
 10
109.500000
 20
-110.199997
 11
109.500000
 21
-102.800003
  0
LINE
  8
0
  6
CONTINUOUS
 62
7
 10
109.500000
 20
-110.199997
 11
113.500000
 21
-110.199997
  0
LINE
  8
0
  6
CONTINUOUS
 62
7
 10
109.500000
 20
-102.800003
 11
113.500000
 21
-102.800003
  0
LINE
  8
0
  6
CONTINUOUS
 62
7
 10
109.500000
 20
-108.521004
 11
113.500000
 21
-108.521004
  0
LINE
  8
0
  6
CONTINUOUS
 62
7
 10
113.500000
 20
-107.699997
 11
109.500000
 21
-107.699997
  0
LINE
  8
0
  6
CONTINUOUS
 62
7
 10
109.500000
 20
-105.300003
 11
113.500000
 21
-105.300003
  0
LINE
  8
0
  6
CONTINUOUS
 62
7
 10
113.500000
 20
-104.478996
 11
109.500000
 21
-104.478996
  0
LINE
  8
0
  6
CONTINUOUS
 62
7
 10
109.500000
 20
-104.000000
 11
104.250000
 21
-104.000000
  0
LINE
  8
0
  6
CENTER
 62
2
 10
121.352997
 20
-106.500000
 11
100.835999
 21
-106.500000
  0
LINE
  8
0
  6
CONTINUOUS
 62
7
 10
104.250000
 20
-104.000000
 11
104.250000
 21
-109.000000
  0
LINE
  8
0
  6
CONTINUOUS
 62
7
 10
171.750000
 20
-104.000000
 11
171.750000
 21
-109.000000
  0
LINE
  8
0
  6
CONTINUOUS
 62
2
 10
166.500000
 20
-108.599998
 11
171.750000
 21
-108.599998
  0
LINE
  8
0
  6
CONTINUOUS
 62
7
 10
166.500000
 20
-109.000000
 11
171.750000
 21
-109.000000
  0
LINE
  8
0
  6
CONTINUOUS
 62
2
 10
166.500000
 20
-104.400002
 11
171.750000
 21
-104.400002
  0
LINE
  8
0
  6
CONTINUOUS
 62
7
 10
166.500000
 20
-110.199997
 11
166.500000
 21
-102.800003
  0
LINE
  8
0
  6
CONTINUOUS
 62
7
 10
166.500000
 20
-110.199997
 11
162.500000
 21
-110.199997
  0
LINE
  8
0
  6
CONTINUOUS
 62
7
 10
166.500000
 20
-102.800003
 11
162.500000
 21
-102.800003
  0
LINE
  8
0
  6
CONTINUOUS
 62
7
 10
166.500000
 20
-108.521004
 11
162.500000
 21
-108.521004
  0
LINE
  8
0
  6
CONTINUOUS
 62
7
 10
162.500000
 20
-107.699997
 11
166.500000
 21
-107.699997
  0
LINE
  8
0
  6
CONTINUOUS
 62
7
 10
166.500000
 20
-105.300003
 11
162.500000
 21
-105.300003
  0
LINE
  8
0
  6
CONTINUOUS
 62
7
 10
162.500000
 20
-104.478996
 11
166.500000
 21
-104.478996
  0
LINE
  8
0
  6
CONTINUOUS
 62
7
 10
166.500000
 20
-104.000000
 11
171.750000
 21
-104.000000
  0
LINE
  8
0
  6
CENTER
 62
2
 10
154.647003
 20
-106.500000
 11
175.164001
 21
-106.500000
  0
LINE
  8
0
  6
CONTINUOUS
 62
7
 10
104.250000
 20
-106.500000
 11
93.000000
 21
-106.500000
  0
LINE
  8
0
  6
CONTINUOUS
 62
7
 10
140.250000
 20
-109.800003
 11
125.500000
 21
-109.800003
  0
LINE
  8
0
  6
CONTINUOUS
 62
7
 10
170.500000
 20
-109.000000
 11
170.500000
 21
-109.800003
  0
LINE
  8
0
  6
CONTINUOUS
 62
7
 10
157.481995
 20
-109.800003
 11
155.750000
 21
-109.800003
  0
LINE
  8
0
  6
CENTER
 62
2
 10
-238.600006
 20
-111.599998
 11
-249.000000
 21
-111.599998
  0
LINE
  8
0
  6
CONTINUOUS
 62
7
 10
-247.000000
 20
-102.500000
 11
-247.000000
 21
-120.500000
  0
LINE
  8
0
  6
CONTINUOUS
 62
2
 10
-247.000000
 20
-107.099998
 11
-246.000000
 21
-107.099998
  0
LINE
  8
0
  6
CONTINUOUS
 62
2
 10
-247.000000
 20
-104.500000
 11
-246.000000
 21
-104.500000
  0
LINE
  8
0
  6
CONTINUOUS
 62
7
 10
-247.000000
 20
-102.500000
 11
-239.500000
 21
-102.500000
  0
LINE
  8
0
  6
CONTINUOUS
 62
2
 10
-246.000000
 20
-103.650002
 11
-246.000000
 21
-104.500000
  0
LINE
  8
0
  6
CONTINUOUS
 62
2
 10
-242.199997
 20
-107.949997
 11
-246.000000
 21
-107.949997
  0
LINE
  8
0
  6
CONTINUOUS
 62
2
 10
-240.699997
 20
-105.150002
 11
-240.699997
 21
-106.449997
  0
LINE
  8
0
  6
CONTINUOUS
 62
2
 10
-242.199997
 20
-103.650002
 11
-246.000000
 21
-103.650002
  0
LINE
  8
0
  6
CONTINUOUS
 62
7
 10
-239.500000
 20
-115.000000
 11
-238.000000
 21
-115.000000
  0
LINE
  8
0
  6
CONTINUOUS
 62
7
 10
-247.000000
 20
-120.500000
 11
-238.000000
 21
-120.500000
  0
LINE
  8
0
  6
CONTINUOUS
 62
7
 10
-239.500000
 20
-102.500000
 11
-239.500000
 21
-115.000000
  0
LINE
  8
0
  6
CENTER
 62
2
 10
-238.600006
 20
-105.800003
 11
-249.000000
 21
-105.800003
  0
LINE
  8
0
  6
CONTINUOUS
 62
2
 10
-246.000000
 20
-107.099998
 11
-246.000000
 21
-107.949997
  0
LINE
  8
0
  6
CONTINUOUS
 62
7
 10
-238.600006
 20
-102.800003
 11
-236.500000
 21
-102.800003
  0
LINE
  8
0
  6
CONTINUOUS
 62
7
 10
-238.600006
 20
-102.800003
 11
-238.600006
 21
-113.800003
  0
LINE
  8
0
  6
CONTINUOUS
 62
7
 10
-238.600006
 20
-113.800003
 11
-238.000000
 21
-113.800003
  0
LINE
  8
0
  6
CENTER
 62
2
 10
27.400000
 20
-111.599998
 11
17.000000
 21
-111.599998
  0
LINE
  8
0
  6
CONTINUOUS
 62
7
 10
19.000000
 20
-102.500000
 11
19.000000
 21
-120.500000
  0
LINE
  8
0
  6
CONTINUOUS
 62
2
 10
19.000000
 20
-107.099998
 11
20.000000
 21
-107.099998
  0
LINE
  8
0
  6
CONTINUOUS
 62
2
 10
19.000000
 20
-104.500000
 11
20.000000
 21
-104.500000
  0
LINE
  8
0
  6
CONTINUOUS
 62
7
 10
19.000000
 20
-102.500000
 11
26.500000
 21
-102.500000
  0
LINE
  8
0
  6
CONTINUOUS
 62
2
 10
20.000000
 20
-103.650002
 11
20.000000
 21
-104.500000
  0
LINE
  8
0
  6
CONTINUOUS
 62
2
 10
23.799999
 20
-107.949997
 11
20.000000
 21
-107.949997
  0
LINE
  8
0
  6
CONTINUOUS
 62
2
 10
25.299999
 20
-105.150002
 11
25.299999
 21
-106.449997
  0
LINE
  8
0
  6
CONTINUOUS
 62
2
 10
23.799999
 20
-103.650002
 11
20.000000
 21
-103.650002
  0
LINE
  8
0
  6
CONTINUOUS
 62
7
 10
26.500000
 20
-115.000000
 11
28.000000
 21
-115.000000
  0
LINE
  8
0
  6
CONTINUOUS
 62
7
 10
19.000000
 20
-120.500000
 11
28.000000
 21
-120.500000
  0
LINE
  8
0
  6
CONTINUOUS
 62
7
 10
26.500000
 20
-102.500000
 11
26.500000
 21
-115.000000
  0
LINE
  8
0
  6
CENTER
 62
2
 10
27.400000
 20
-105.800003
 11
17.000000
 21
-105.800003
  0
LINE
  8
0
  6
CONTINUOUS
 62
2
 10
20.000000
 20
-107.099998
 11
20.000000
 21
-107.949997
  0
LINE
  8
0
  6
CONTINUOUS
 62
7
 10
27.400000
 20
-102.800003
 11
29.500000
 21
-102.800003
  0
LINE
  8
0
  6
CONTINUOUS
 62
7
 10
27.400000
 20
-102.800003
 11
27.400000
 21
-113.800003
  0
LINE
  8
0
  6
CONTINUOUS
 62
7
 10
27.400000
 20
-113.800003
 11
28.000000
 21
-113.800003
  0
LINE
  8
0
  6
CONTINUOUS
 62
7
 10
-39.000000
 20
-102.500000
 11
-39.000000
 21
-120.500000
  0
LINE
  8
0
  6
CONTINUOUS
 62
2
 10
-39.000000
 20
-107.099998
 11
-40.000000
 21
-107.099998
  0
LINE
  8
0
  6
CONTINUOUS
 62
2
 10
-39.000000
 20
-104.500000
 11
-40.000000
 21
-104.500000
  0
LINE
  8
0
  6
CONTINUOUS
 62
7
 10
-39.000000
 20
-102.500000
 11
-46.500000
 21
-102.500000
  0
LINE
  8
0
  6
CONTINUOUS
 62
2
 10
-40.000000
 20
-103.650002
 11
-40.000000
 21
-104.500000
  0
LINE
  8
0
  6
CONTINUOUS
 62
2
 10
-43.799999
 20
-107.949997
 11
-40.000000
 21
-107.949997
  0
LINE
  8
0
  6
CONTINUOUS
 62
2
 10
-45.299999
 20
-105.150002
 11
-45.299999
 21
-106.449997
  0
LINE
  8
0
  6
CONTINUOUS
 62
2
 10
-43.799999
 20
-103.650002
 11
-40.000000
 21
-103.650002
  0
LINE
  8
0
  6
CONTINUOUS
 62
7
 10
-46.500000
 20
-115.000000
 11
-48.000000
 21
-115.000000
  0
LINE
  8
0
  6
CONTINUOUS
 62
7
 10
-39.000000
 20
-120.500000
 11
-48.000000
 21
-120.500000
  0
LINE
  8
0
  6
CONTINUOUS
 62
7
 10
-46.500000
 20
-102.500000
 11
-46.500000
 21
-115.000000
  0
LINE
  8
0
  6
CENTER
 62
2
 10
-47.400002
 20
-105.800003
 11
-37.000000
 21
-105.800003
  0
LINE
  8
0
  6
CONTINUOUS
 62
2
 10
-40.000000
 20
-107.099998
 11
-40.000000
 21
-107.949997
  0
LINE
  8
0
  6
CONTINUOUS
 62
7
 10
-47.400002
 20
-102.800003
 11
-49.500000
 21
-102.800003
  0
LINE
  8
0
  6
CONTINUOUS
 62
7
 10
-47.400002
 20
-102.800003
 11
-47.400002
 21
-113.800003
  0
LINE
  8
0
  6
CONTINUOUS
 62
7
 10
-47.400002
 20
-113.800003
 11
-48.000000
 21
-113.800003
  0
LINE
  8
0
  6
CENTER
 62
2
 10
-47.400002
 20
-111.599998
 11
-37.000000
 21
-111.599998
  0
LINE
  8
0
  6
CONTINUOUS
 62
7
 10
257.000000
 20
-102.500000
 11
257.000000
 21
-120.500000
  0
LINE
  8
0
  6
CONTINUOUS
 62
2
 10
257.000000
 20
-107.099998
 11
256.000000
 21
-107.099998
  0
LINE
  8
0
  6
CONTINUOUS
 62
2
 10
257.000000
 20
-104.500000
 11
256.000000
 21
-104.500000
  0
LINE
  8
0
  6
CONTINUOUS
 62
7
 10
257.000000
 20
-102.500000
 11
249.500000
 21
-102.500000
  0
LINE
  8
0
  6
CONTINUOUS
 62
2
 10
256.000000
 20
-103.650002
 11
256.000000
 21
-104.500000
  0
LINE
  8
0
  6
CONTINUOUS
 62
2
 10
252.199997
 20
-107.949997
 11
256.000000
 21
-107.949997
  0
LINE
  8
0
  6
CONTINUOUS
 62
2
 10
250.699997
 20
-105.150002
 11
250.699997
 21
-106.449997
  0
LINE
  8
0
  6
CONTINUOUS
 62
2
 10
252.199997
 20
-103.650002
 11
256.000000
 21
-103.650002
  0
LINE
  8
0
  6
CONTINUOUS
 62
7
 10
249.500000
 20
-115.000000
 11
248.000000
 21
-115.000000
  0
LINE
  8
0
  6
CONTINUOUS
 62
7
 10
257.000000
 20
-120.500000
 11
248.000000
 21
-120.500000
  0
LINE
  8
0
  6
CONTINUOUS
 62
7
 10
249.500000
 20
-102.500000
 11
249.500000
 21
-115.000000
  0
LINE
  8
0
  6
CENTER
 62
2
 10
248.600006
 20
-105.800003
 11
259.000000
 21
-105.800003
  0
LINE
  8
0
  6
CONTINUOUS
 62
2
 10
256.000000
 20
-107.099998
 11
256.000000
 21
-107.949997
  0
LINE
  8
0
  6
CONTINUOUS
 62
7
 10
248.600006
 20
-102.800003
 11
246.500000
 21
-102.800003
  0
LINE
  8
0
  6
CONTINUOUS
 62
7
 10
248.600006
 20
-102.800003
 11
248.600006
 21
-113.800003
  0
LINE
  8
0
  6
CONTINUOUS
 62
7
 10
248.600006
 20
-113.800003
 11
248.000000
 21
-113.800003
  0
LINE
  8
0
  6
CENTER
 62
2
 10
248.600006
 20
-111.599998
 11
259.000000
 21
-111.599998
  0
LINE
  8
0
  6
CONTINUOUS
 62
7
 10
-162.000000
 20
-44.500000
 11
-162.000000
 21
-26.500000
  0
LINE
  8
0
  6
CONTINUOUS
 62
7
 10
-162.000000
 20
-26.500000
 11
-124.000000
 21
-26.500000
  0
LINE
  8
0
  6
CONTINUOUS
 62
7
 10
-124.000000
 20
-44.500000
 11
-124.000000
 21
-26.500000
  0
LINE
  8
0
  6
CONTINUOUS
 62
2
 10
-162.000000
 20
-34.099998
 11
-124.000000
 21
-34.099998
  0
LINE
  8
0
  6
CONTINUOUS
 62
2
 10
-162.000000
 20
-36.700001
 11
-124.000000
 21
-36.700001
  0
LINE
  8
0
  6
CONTINUOUS
 62
2
 10
-162.000000
 20
-39.900002
 11
-124.000000
 21
-39.900002
  0
LINE
  8
0
  6
CONTINUOUS
 62
2
 10
-162.000000
 20
-42.500000
 11
-124.000000
 21
-42.500000
  0
LINE
  8
0
  6
CONTINUOUS
 62
7
 10
-124.000000
 20
-44.500000
 11
-162.000000
 21
-44.500000
  0
LINE
  8
0
  6
CONTINUOUS
 62
7
 10
-162.000000
 20
-170.000000
 11
-162.000000
 21
-161.000000
  0
LINE
  8
0
  6
CONTINUOUS
 62
7
 10
-124.000000
 20
-170.000000
 11
-162.000000
 21
-170.000000
  0
LINE
  8
0
  6
CONTINUOUS
 62
7
 10
-124.000000
 20
-170.000000
 11
-124.000000
 21
-161.000000
  0
LINE
  8
0
  6
CONTINUOUS
 62
7
 10
-141.250000
 20
-60.500000
 11
-173.000000
 21
-60.500000
  0
LINE
  8
0
  6
CONTINUOUS
 62
7
 10
-162.000000
 20
-60.500000
 11
-162.000000
 21
-51.500000
  0
LINE
  8
0
  6
CONTINUOUS
 62
7
 10
-124.000000
 20
-59.000000
 11
-162.000000
 21
-59.000000
  0
LINE
  8
0
  6
CONTINUOUS
 62
7
 10
-124.000000
 20
-51.500000
 11
-162.000000
 21
-51.500000
  0
LINE
  8
0
  6
CONTINUOUS
 62
7
 10
-124.000000
 20
-60.500000
 11
-124.000000
 21
-51.500000
  0
LINE
  8
0
  6
CONTINUOUS
 62
7
 10
-141.250000
 20
-62.000000
 11
-141.250000
 21
-59.900002
  0
LINE
  8
0
  6
CONTINUOUS
 62
7
 10
-134.750000
 20
-59.900002
 11
-141.250000
 21
-59.900002
  0
LINE
  8
0
  6
CONTINUOUS
 62
7
 10
-134.750000
 20
-62.000000
 11
-134.750000
 21
-59.900002
  0
LINE
  8
0
  6
CONTINUOUS
 62
7
 10
-113.000000
 20
-60.500000
 11
-134.750000
 21
-60.500000
  0
LINE
  8
0
  6
CONTINUOUS
 62
7
 10
108.000000
 20
-170.000000
 11
108.000000
 21
-161.000000
  0
LINE
  8
0
  6
CONTINUOUS
 62
7
 10
168.000000
 20
-170.000000
 11
108.000000
 21
-170.000000
  0
LINE
  8
0
  6
CONTINUOUS
 62
7
 10
168.000000
 20
-170.000000
 11
168.000000
 21
-161.000000
  0
LINE
  8
0
  6
CONTINUOUS
 62
7
 10
168.000000
 20
-44.500000
 11
168.000000
 21
-26.500000
  0
LINE
  8
0
  6
CONTINUOUS
 62
7
 10
108.000000
 20
-26.500000
 11
168.000000
 21
-26.500000
  0
LINE
  8
0
  6
CONTINUOUS
 62
7
 10
108.000000
 20
-44.500000
 11
108.000000
 21
-26.500000
  0
LINE
  8
0
  6
CONTINUOUS
 62
7
 10
168.000000
 20
-44.500000
 11
108.000000
 21
-44.500000
  0
LINE
  8
0
  6
CONTINUOUS
 62
2
 10
108.000000
 20
-36.700001
 11
168.000000
 21
-36.700001
  0
LINE
  8
0
  6
CONTINUOUS
 62
2
 10
108.000000
 20
-34.099998
 11
168.000000
 21
-34.099998
  0
LINE
  8
0
  6
CONTINUOUS
 62
2
 10
108.000000
 20
-42.500000
 11
168.000000
 21
-42.500000
  0
LINE
  8
0
  6
CONTINUOUS
 62
2
 10
108.000000
 20
-39.900002
 11
168.000000
 21
-39.900002
  0
LINE
  8
0
  6
CONTINUOUS
 62
7
 10
168.000000
 20
-60.500000
 11
168.000000
 21
-51.500000
  0
LINE
  8
0
  6
CONTINUOUS
 62
7
 10
108.000000
 20
-60.500000
 11
108.000000
 21
-51.500000
  0
LINE
  8
0
  6
CONTINUOUS
 62
7
 10
168.000000
 20
-59.000000
 11
108.000000
 21
-59.000000
  0
LINE
  8
0
  6
CONTINUOUS
 62
7
 10
168.000000
 20
-51.500000
 11
108.000000
 21
-51.500000
  0
LINE
  8
0
  6
CONTINUOUS
 62
7
 10
144.750000
 20
-62.000000
 11
144.750000
 21
-59.900002
  0
LINE
  8
0
  6
CONTINUOUS
 62
7
 10
151.250000
 20
-59.900002
 11
144.750000
 21
-59.900002
  0
LINE
  8
0
  6
CONTINUOUS
 62
7
 10
151.250000
 20
-62.000000
 11
151.250000
 21
-59.900002
  0
LINE
  8
0
  6
CONTINUOUS
 62
7
 10
144.750000
 20
-60.500000
 11
93.000000
 21
-60.500000
  0
LINE
  8
0
  6
CONTINUOUS
 62
7
 10
183.000000
 20
-60.500000
 11
151.250000
 21
-60.500000
  0
LINE
  8
0
  6
CONTINUOUS
 62
7
 10
108.000000
 20
-104.000000
 11
108.000000
 21
-102.500000
  0
LINE
  8
0
  6
CONTINUOUS
 62
7
 10
-128.100006
 20
77.000000
 11
-147.899994
 21
77.000000
  0
LINE
  8
0
  6
CONTINUOUS
 62
7
 10
-122.500000
 20
76.699997
 11
-128.100006
 21
76.699997
  0
LINE
  8
0
  6
CONTINUOUS
 62
7
 10
-122.500000
 20
69.199997
 11
-124.000000
 21
69.199997
  0
LINE
  8
0
  6
CONTINUOUS
 62
7
 10
-122.500000
 20
76.699997
 11
-122.500000
 21
69.199997
  0
LINE
  8
0
  6
CONTINUOUS
 62
7
 10
-147.899994
 20
76.699997
 11
-153.500000
 21
76.699997
  0
LINE
  8
0
  6
CONTINUOUS
 62
7
 10
-153.500000
 20
76.500000
 11
-153.500000
 21
76.699997
  0
LINE
  8
0
  6
CONTINUOUS
 62
7
 10
-113.000000
 20
72.500000
 11
-122.500000
 21
72.500000
  0
LINE
  8
0
  6
CONTINUOUS
 62
7
 10
-162.000000
 20
72.500000
 11
-173.000000
 21
72.500000
  0
LINE
  8
0
  6
CONTINUOUS
 62
7
 10
-173.000000
 20
72.500000
 11
-173.000000
 21
58.000000
  0
LINE
  8
0
  6
CONTINUOUS
 62
7
 10
-113.000000
 20
72.500000
 11
-113.000000
 21
58.000000
  0
LINE
  8
0
  6
CONTINUOUS
 62
7
 10
-113.000000
 20
58.000000
 11
-173.000000
 21
58.000000
  0
LINE
  8
0
  6
CONTINUOUS
 62
7
 10
-173.000000
 20
67.800003
 11
-164.847000
 21
67.800003
  0
LINE
  8
0
  6
CONTINUOUS
 62
7
 10
-128.100006
 20
77.000000
 11
-128.100006
 21
76.500000
  0
LINE
  8
0
  6
CONTINUOUS
 62
7
 10
-147.899994
 20
77.000000
 11
-147.899994
 21
76.500000
  0
LINE
  8
0
  6
CONTINUOUS
 62
7
 10
-123.249001
 20
64.500000
 11
-124.000000
 21
64.500000
  0
LINE
  8
0
  6
CONTINUOUS
 62
7
 10
-113.000000
 20
67.800003
 11
-121.153000
 21
67.800003
  0
LINE
  8
0
  6
CONTINUOUS
 62
7
 10
-162.751007
 20
64.500000
 11
-162.000000
 21
64.500000
  0
LINE
  8
0
  6
DASHED
 62
2
 10
-124.000000
 20
64.500000
 11
-124.000000
 21
63.000000
  0
LINE
  8
0
  6
DASHED
 62
2
 10
-130.000000
 20
64.500000
 11
-130.000000
 21
63.000000
  0
LINE
  8
0
  6
DASHED
 62
2
 10
-128.750000
 20
63.000000
 11
-128.750000
 21
58.000000
  0
LINE
  8
0
  6
DASHED
 62
2
 10
-125.250000
 20
63.000000
 11
-125.250000
 21
58.000000
  0
LINE
  8
0
  6
DASHED
 62
2
 10
-129.000000
 20
63.000000
 11
-129.000000
 21
58.000000
  0
LINE
  8
0
  6
DASHED
 62
2
 10
-125.000000
 20
63.000000
 11
-125.000000
 21
58.000000
  0
LINE
  8
0
  6
DASHED
 62
2
 10
-124.000000
 20
63.000000
 11
-130.000000
 21
63.000000
  0
LINE
  8
0
  6
CENTER
 62
2
 10
-127.000000
 20
66.500000
 11
-127.000000
 21
56.000000
  0
LINE
  8
0
  6
CENTER
 62
2
 10
-159.000000
 20
66.500000
 11
-159.000000
 21
56.000000
  0
LINE
  8
0
  6
DASHED
 62
2
 10
-156.000000
 20
64.500000
 11
-156.000000
 21
63.000000
  0
LINE
  8
0
  6
DASHED
 62
2
 10
-162.000000
 20
64.500000
 11
-162.000000
 21
63.000000
  0
LINE
  8
0
  6
DASHED
 62
2
 10
-160.750000
 20
63.000000
 11
-160.750000
 21
58.000000
  0
LINE
  8
0
  6
DASHED
 62
2
 10
-157.250000
 20
63.000000
 11
-157.250000
 21
58.000000
  0
LINE
  8
0
  6
DASHED
 62
2
 10
-161.000000
 20
63.000000
 11
-161.000000
 21
58.000000
  0
LINE
  8
0
  6
DASHED
 62
2
 10
-157.000000
 20
63.000000
 11
-157.000000
 21
58.000000
  0
LINE
  8
0
  6
DASHED
 62
2
 10
-156.000000
 20
63.000000
 11
-162.000000
 21
63.000000
  0
LINE
  8
0
  6
CONTINUOUS
 62
7
 10
-128.100006
 20
97.000000
 11
-147.899994
 21
97.000000
  0
LINE
  8
0
  6
CONTINUOUS
 62
7
 10
-128.100006
 20
112.000000
 11
-147.899994
 21
112.000000
  0
LINE
  8
0
  6
CONTINUOUS
 62
7
 10
-128.100006
 20
102.000000
 11
-147.899994
 21
102.000000
  0
LINE
  8
0
  6
CONTINUOUS
 62
7
 10
-122.500000
 20
97.300003
 11
-128.100006
 21
97.300003
  0
LINE
  8
0
  6
CONTINUOUS
 62
7
 10
-147.899994
 20
97.300003
 11
-153.500000
 21
97.300003
  0
LINE
  8
0
  6
CENTER
 62
2
 10
-111.429001
 20
107.000000
 11
-175.061996
 21
107.000000
  0
LINE
  8
0
  6
CONTINUOUS
 62
7
 10
-113.000000
 20
118.500000
 11
-113.000000
 21
95.500000
  0
LINE
  8
0
  6
CONTINUOUS
 62
7
 10
-173.000000
 20
118.500000
 11
-173.000000
 21
95.500000
  0
LINE
  8
0
  6
CONTINUOUS
 62
7
 10
-113.000000
 20
102.500000
 11
-122.500000
 21
102.500000
  0
LINE
  8
0
  6
CONTINUOUS
 62
7
 10
-113.000000
 20
111.500000
 11
-122.500000
 21
111.500000
  0
LINE
  8
0
  6
CONTINUOUS
 62
7
 10
-153.500000
 20
111.500000
 11
-173.000000
 21
111.500000
  0
LINE
  8
0
  6
CONTINUOUS
 62
7
 10
-153.500000
 20
102.500000
 11
-173.000000
 21
102.500000
  0
LINE
  8
0
  6
CENTER
 62
2
 10
-134.000000
 20
99.500000
 11
-127.000000
 21
99.500000
  0
LINE
  8
0
  6
CENTER
 62
2
 10
-130.500000
 20
96.000000
 11
-130.500000
 21
103.000000
  0
LINE
  8
0
  6
CONTINUOUS
 62
7
 10
-128.100006
 20
117.000000
 11
-147.899994
 21
117.000000
  0
LINE
  8
0
  6
CONTINUOUS
 62
7
 10
-122.500000
 20
116.699997
 11
-122.500000
 21
97.300003
  0
LINE
  8
0
  6
CONTINUOUS
 62
7
 10
-122.500000
 20
116.699997
 11
-128.100006
 21
116.699997
  0
LINE
  8
0
  6
CONTINUOUS
 62
7
 10
-147.899994
 20
116.699997
 11
-153.500000
 21
116.699997
  0
LINE
  8
0
  6
CONTINUOUS
 62
7
 10
-128.100006
 20
97.000000
 11
-128.100006
 21
117.000000
  0
LINE
  8
0
  6
CONTINUOUS
 62
7
 10
-147.899994
 20
97.000000
 11
-147.899994
 21
117.000000
  0
LINE
  8
0
  6
CENTER
 62
2
 10
-149.000000
 20
99.500000
 11
-142.000000
 21
99.500000
  0
LINE
  8
0
  6
CENTER
 62
2
 10
-145.500000
 20
96.000000
 11
-145.500000
 21
103.000000
  0
LINE
  8
0
  6
CENTER
 62
2
 10
-149.000000
 20
114.500000
 11
-142.000000
 21
114.500000
  0
LINE
  8
0
  6
CENTER
 62
2
 10
-134.000000
 20
114.500000
 11
-127.000000
 21
114.500000
  0
LINE
  8
0
  6
CENTER
 62
2
 10
-130.500000
 20
118.000000
 11
-130.500000
 21
111.000000
  0
LINE
  8
0
  6
CENTER
 62
2
 10
-145.500000
 20
118.000000
 11
-145.500000
 21
111.000000
  0
LINE
  8
0
  6
CENTER
 62
2
 10
-164.000000
 20
115.000000
 11
-154.000000
 21
115.000000
  0
LINE
  8
0
  6
CENTER
 62
2
 10
-159.000000
 20
120.000000
 11
-159.000000
 21
110.000000
  0
LINE
  8
0
  6
CENTER
 62
2
 10
-164.000000
 20
99.000000
 11
-154.000000
 21
99.000000
  0
LINE
  8
0
  6
CENTER
 62
2
 10
-159.000000
 20
94.000000
 11
-159.000000
 21
104.000000
  0
LINE
  8
0
  6
CENTER
 62
2
 10
-122.000000
 20
115.000000
 11
-132.000000
 21
115.000000
  0
LINE
  8
0
  6
CENTER
 62
2
 10
-127.000000
 20
120.000000
 11
-127.000000
 21
110.000000
  0
LINE
  8
0
  6
CENTER
 62
2
 10
-127.000000
 20
94.000000
 11
-127.000000
 21
104.000000
  0
LINE
  8
0
  6
CENTER
 62
2
 10
-122.000000
 20
99.000000
 11
-132.000000
 21
99.000000
  0
LINE
  8
0
  6
CONTINUOUS
 62
7
 10
-153.500000
 20
97.300003
 11
-153.500000
 21
116.699997
  0
LINE
  8
0
  6
CONTINUOUS
 62
7
 10
-113.000000
 20
15.000000
 11
-173.000000
 21
15.000000
  0
LINE
  8
0
  6
CONTINUOUS
 62
7
 10
-173.000000
 20
15.000000
 11
-173.000000
 21
38.000000
  0
LINE
  8
0
  6
CONTINUOUS
 62
7
 10
-113.000000
 20
38.000000
 11
-173.000000
 21
38.000000
  0
LINE
  8
0
  6
CONTINUOUS
 62
7
 10
-113.000000
 20
15.000000
 11
-113.000000
 21
38.000000
  0
LINE
  8
0
  6
CENTER
 62
2
 10
-111.401001
 20
26.500000
 11
-175.630005
 21
26.500000
  0
LINE
  8
0
  6
CENTER
 62
2
 10
-159.000000
 20
23.500000
 11
-159.000000
 21
13.500000
  0
LINE
  8
0
  6
CENTER
 62
2
 10
-154.000000
 20
18.500000
 11
-164.000000
 21
18.500000
  0
LINE
  8
0
  6
CENTER
 62
2
 10
-159.000000
 20
29.500000
 11
-159.000000
 21
39.500000
  0
LINE
  8
0
  6
CENTER
 62
2
 10
-154.000000
 20
34.500000
 11
-164.000000
 21
34.500000
  0
LINE
  8
0
  6
CENTER
 62
2
 10
-127.000000
 20
13.500000
 11
-127.000000
 21
23.500000
  0
LINE
  8
0
  6
CENTER
 62
2
 10
-122.000000
 20
18.500000
 11
-132.000000
 21
18.500000
  0
LINE
  8
0
  6
CENTER
 62
2
 10
-127.000000
 20
39.500000
 11
-127.000000
 21
29.500000
  0
LINE
  8
0
  6
CENTER
 62
2
 10
-122.000000
 20
34.500000
 11
-132.000000
 21
34.500000
  0
LINE
  8
0
  6
CENTER
 62
2
 10
-166.000000
 20
35.900002
 11
-166.000000
 21
21.100000
  0
LINE
  8
0
  6
CENTER
 62
2
 10
-173.399994
 20
28.500000
 11
-158.600006
 21
28.500000
  0
LINE
  8
0
  6
CENTER
 62
2
 10
-120.000000
 20
35.900002
 11
-120.000000
 21
21.100000
  0
LINE
  8
0
  6
CENTER
 62
2
 10
-112.599998
 20
28.500000
 11
-127.400002
 21
28.500000
  0
LINE
  8
0
  6
CONTINUOUS
 62
7
 10
-128.100006
 20
135.000000
 11
-147.899994
 21
135.000000
  0
LINE
  8
0
  6
CONTINUOUS
 62
7
 10
-122.500000
 20
135.300003
 11
-128.100006
 21
135.300003
  0
LINE
  8
0
  6
CONTINUOUS
 62
7
 10
-122.500000
 20
135.300003
 11
-122.500000
 21
135.800003
  0
LINE
  8
0
  6
CONTINUOUS
 62
7
 10
-147.899994
 20
135.300003
 11
-153.500000
 21
135.300003
  0
LINE
  8
0
  6
CONTINUOUS
 62
7
 10
-153.500000
 20
142.800003
 11
-153.500000
 21
135.300003
  0
LINE
  8
0
  6
CONTINUOUS
 62
7
 10
-113.000000
 20
139.500000
 11
-114.250000
 21
139.500000
  0
LINE
  8
0
  6
CONTINUOUS
 62
7
 10
-153.500000
 20
139.500000
 11
-155.750000
 21
139.500000
  0
LINE
  8
0
  6
CONTINUOUS
 62
7
 10
-173.000000
 20
139.500000
 11
-173.000000
 21
154.000000
  0
LINE
  8
0
  6
CONTINUOUS
 62
7
 10
-113.000000
 20
139.500000
 11
-113.000000
 21
154.000000
  0
LINE
  8
0
  6
CONTINUOUS
 62
7
 10
-113.000000
 20
154.000000
 11
-173.000000
 21
154.000000
  0
LINE
  8
0
  6
CONTINUOUS
 62
7
 10
-173.000000
 20
144.199997
 11
-164.847000
 21
144.199997
  0
LINE
  8
0
  6
CONTINUOUS
 62
7
 10
-128.100006
 20
135.000000
 11
-128.100006
 21
135.500000
  0
LINE
  8
0
  6
CONTINUOUS
 62
7
 10
-147.899994
 20
135.000000
 11
-147.899994
 21
142.800003
  0
LINE
  8
0
  6
CONTINUOUS
 62
7
 10
-173.000000
 20
144.199997
 11
-164.847000
 21
144.199997
  0
LINE
  8
0
  6
CONTINUOUS
 62
7
 10
-162.751007
 20
147.500000
 11
-162.000000
 21
147.500000
  0
LINE
  8
0
  6
CENTER
 62
2
 10
-120.000000
 20
149.500000
 11
-113.000000
 21
149.500000
  0
LINE
  8
0
  6
CENTER
 62
2
 10
-116.500000
 20
153.000000
 11
-116.500000
 21
146.000000
  0
LINE
  8
0
  6
CONTINUOUS
 62
7
 10
-123.249001
 20
147.500000
 11
-124.000000
 21
147.500000
  0
LINE
  8
0
  6
CONTINUOUS
 62
7
 10
-113.000000
 20
144.199997
 11
-121.153000
 21
144.199997
  0
LINE
  8
0
  6
CENTER
 62
2
 10
-173.000000
 20
149.500000
 11
-166.000000
 21
149.500000
  0
LINE
  8
0
  6
CENTER
 62
2
 10
-169.500000
 20
153.000000
 11
-169.500000
 21
146.000000
  0
LINE
  8
0
  6
CONTINUOUS
 62
7
 10
-121.153000
 20
144.199997
 11
-113.000000
 21
144.199997
  0
LINE
  8
0
  6
CENTER
 62
2
 10
-159.000000
 20
145.500000
 11
-159.000000
 21
156.000000
  0
LINE
  8
0
  6
DASHED
 62
2
 10
-156.000000
 20
147.500000
 11
-156.000000
 21
149.000000
  0
LINE
  8
0
  6
DASHED
 62
2
 10
-160.750000
 20
149.000000
 11
-160.750000
 21
154.000000
  0
LINE
  8
0
  6
DASHED
 62
2
 10
-157.250000
 20
149.000000
 11
-157.250000
 21
154.000000
  0
LINE
  8
0
  6
DASHED
 62
2
 10
-161.000000
 20
149.000000
 11
-161.000000
 21
154.000000
  0
LINE
  8
0
  6
DASHED
 62
2
 10
-157.000000
 20
149.000000
 11
-157.000000
 21
154.000000
  0
LINE
  8
0
  6
DASHED
 62
2
 10
-156.000000
 20
149.000000
 11
-162.000000
 21
149.000000
  0
LINE
  8
0
  6
DASHED
 62
2
 10
-130.000000
 20
147.500000
 11
-130.000000
 21
149.000000
  0
LINE
  8
0
  6
DASHED
 62
2
 10
-128.750000
 20
149.000000
 11
-128.750000
 21
154.000000
  0
LINE
  8
0
  6
DASHED
 62
2
 10
-125.250000
 20
149.000000
 11
-125.250000
 21
154.000000
  0
LINE
  8
0
  6
DASHED
 62
2
 10
-129.000000
 20
149.000000
 11
-129.000000
 21
154.000000
  0
LINE
  8
0
  6
DASHED
 62
2
 10
-125.000000
 20
149.000000
 11
-125.000000
 21
154.000000
  0
LINE
  8
0
  6
DASHED
 62
2
 10
-124.000000
 20
149.000000
 11
-130.000000
 21
149.000000
  0
LINE
  8
0
  6
CENTER
 62
2
 10
-127.000000
 20
145.500000
 11
-127.000000
 21
156.000000
  0
LINE
  8
0
  6
CENTER
 62
2
 10
38.500000
 20
77.486801
 11
38.500000
 21
56.993599
  0
LINE
  8
0
  6
CONTINUOUS
 62
7
 10
43.000000
 20
70.134003
 11
43.000000
 21
67.800003
  0
LINE
  8
0
  6
CONTINUOUS
 62
7
 10
34.000000
 20
70.134003
 11
34.000000
 21
67.800003
  0
LINE
  8
0
  6
CONTINUOUS
 62
7
 10
48.500000
 20
77.000000
 11
44.000000
 21
77.000000
  0
LINE
  8
0
  6
CONTINUOUS
 62
7
 10
48.500000
 20
77.000000
 11
48.500000
 21
69.199997
  0
LINE
  8
0
  6
CONTINUOUS
 62
7
 10
48.500000
 20
69.199997
 11
43.000000
 21
69.199997
  0
LINE
  8
0
  6
CONTINUOUS
 62
7
 10
43.700001
 20
76.699997
 11
33.299999
 21
76.699997
  0
LINE
  8
0
  6
CONTINUOUS
 62
7
 10
34.000000
 20
69.199997
 11
28.500000
 21
69.199997
  0
LINE
  8
0
  6
CONTINUOUS
 62
7
 10
33.299999
 20
76.700104
 11
33.000099
 21
77.000099
  0
LINE
  8
0
  6
CONTINUOUS
 62
7
 10
43.700001
 20
76.699997
 11
44.000000
 21
77.000000
  0
LINE
  8
0
  6
CONTINUOUS
 62
7
 10
33.000000
 20
77.000000
 11
28.500000
 21
77.000000
  0
LINE
  8
0
  6
CONTINUOUS
 62
7
 10
43.000000
 20
72.500000
 11
43.000000
 21
71.865997
  0
LINE
  8
0
  6
CONTINUOUS
 62
7
 10
34.000000
 20
72.500000
 11
43.000000
 21
72.500000
  0
LINE
  8
0
  6
CONTINUOUS
 62
7
 10
34.000000
 20
72.500000
 11
34.000000
 21
71.865997
  0
LINE
  8
0
  6
CONTINUOUS
 62
7
 10
50.000000
 20
58.000000
 11
27.000000
 21
58.000000
  0
LINE
  8
0
  6
CONTINUOUS
 62
7
 10
50.000000
 20
67.800003
 11
50.000000
 21
58.000000
  0
LINE
  8
0
  6
CONTINUOUS
 62
7
 10
27.000000
 20
76.500000
 11
27.000000
 21
58.000000
  0
LINE
  8
0
  6
CONTINUOUS
 62
7
 10
27.000000
 20
67.800003
 11
34.000000
 21
67.800003
  0
LINE
  8
0
  6
CENTER
 62
2
 10
45.000000
 20
64.500000
 11
32.000000
 21
64.500000
  0
LINE
  8
0
  6
CONTINUOUS
 62
7
 10
50.000000
 20
67.800003
 11
43.000000
 21
67.800003
  0
LINE
  8
0
  6
CONTINUOUS
 62
7
 10
28.500000
 20
77.000000
 11
28.500000
 21
69.199997
  0
LINE
  8
0
  6
CENTER
 62
2
 10
46.500000
 20
60.000000
 11
46.500000
 21
56.000000
  0
LINE
  8
0
  6
CENTER
 62
2
 10
30.500000
 20
60.000000
 11
30.500000
 21
56.000000
  0
LINE
  8
0
  6
CENTER
 62
2
 10
31.000000
 20
79.000000
 11
31.000000
 21
75.000000
  0
LINE
  8
0
  6
CENTER
 62
2
 10
46.000000
 20
79.000000
 11
46.000000
 21
75.000000
  0
LINE
  8
0
  6
CENTER
 62
2
 10
-145.500000
 20
137.000000
 11
-145.500000
 21
133.000000
  0
LINE
  8
0
  6
CENTER
 62
2
 10
-130.500000
 20
137.000000
 11
-130.500000
 21
133.000000
  0
LINE
  8
0
  6
CENTER
 62
2
 10
-145.500000
 20
79.000000
 11
-145.500000
 21
75.000000
  0
LINE
  8
0
  6
CENTER
 62
2
 10
-130.500000
 20
79.000000
 11
-130.500000
 21
75.000000
  0
LINE
  8
0
  6
CONTINUOUS
 62
7
 10
183.000000
 20
15.000000
 11
93.000000
 21
15.000000
  0
LINE
  8
0
  6
CONTINUOUS
 62
7
 10
93.000000
 20
15.000000
 11
93.000000
 21
38.000000
  0
LINE
  8
0
  6
CONTINUOUS
 62
7
 10
183.000000
 20
38.000000
 11
93.000000
 21
38.000000
  0
LINE
  8
0
  6
CONTINUOUS
 62
7
 10
183.000000
 20
15.000000
 11
183.000000
 21
38.000000
  0
LINE
  8
0
  6
CENTER
 62
2
 10
184.598999
 20
26.500000
 11
90.369797
 21
26.500000
  0
LINE
  8
0
  6
CENTER
 62
2
 10
108.000000
 20
23.500000
 11
108.000000
 21
13.500000
  0
LINE
  8
0
  6
CENTER
 62
2
 10
113.000000
 20
18.500000
 11
103.000000
 21
18.500000
  0
LINE
  8
0
  6
CENTER
 62
2
 10
108.000000
 20
29.500000
 11
108.000000
 21
39.500000
  0
LINE
  8
0
  6
CENTER
 62
2
 10
113.000000
 20
34.500000
 11
103.000000
 21
34.500000
  0
LINE
  8
0
  6
CENTER
 62
2
 10
168.000000
 20
13.500000
 11
168.000000
 21
23.500000
  0
LINE
  8
0
  6
CENTER
 62
2
 10
173.000000
 20
18.500000
 11
163.000000
 21
18.500000
  0
LINE
  8
0
  6
CENTER
 62
2
 10
168.000000
 20
39.500000
 11
168.000000
 21
29.500000
  0
LINE
  8
0
  6
CENTER
 62
2
 10
173.000000
 20
34.500000
 11
163.000000
 21
34.500000
  0
LINE
  8
0
  6
CENTER
 62
2
 10
100.000000
 20
35.900002
 11
100.000000
 21
21.100000
  0
LINE
  8
0
  6
CENTER
 62
2
 10
92.599998
 20
28.500000
 11
107.400002
 21
28.500000
  0
LINE
  8
0
  6
CENTER
 62
2
 10
176.000000
 20
35.900002
 11
176.000000
 21
21.100000
  0
LINE
  8
0
  6
CENTER
 62
2
 10
183.399994
 20
28.500000
 11
168.600006
 21
28.500000
  0
LINE
  8
0
  6
CONTINUOUS
 62
7
 10
164.899994
 20
77.000000
 11
131.100006
 21
77.000000
  0
LINE
  8
0
  6
CONTINUOUS
 62
7
 10
170.500000
 20
76.699997
 11
164.899994
 21
76.699997
  0
LINE
  8
0
  6
CONTINUOUS
 62
7
 10
170.500000
 20
69.199997
 11
168.000000
 21
69.199997
  0
LINE
  8
0
  6
CONTINUOUS
 62
7
 10
170.500000
 20
76.699997
 11
170.500000
 21
69.199997
  0
LINE
  8
0
  6
CONTINUOUS
 62
7
 10
131.100006
 20
76.699997
 11
125.500000
 21
76.699997
  0
LINE
  8
0
  6
CONTINUOUS
 62
7
 10
125.500000
 20
76.500000
 11
125.500000
 21
76.699997
  0
LINE
  8
0
  6
CONTINUOUS
 62
7
 10
183.000000
 20
72.500000
 11
170.500000
 21
72.500000
  0
LINE
  8
0
  6
CONTINUOUS
 62
7
 10
108.000000
 20
72.500000
 11
93.000000
 21
72.500000
  0
LINE
  8
0
  6
CONTINUOUS
 62
7
 10
93.000000
 20
72.500000
 11
93.000000
 21
58.000000
  0
LINE
  8
0
  6
CONTINUOUS
 62
7
 10
183.000000
 20
72.500000
 11
183.000000
 21
58.000000
  0
LINE
  8
0
  6
CONTINUOUS
 62
7
 10
183.000000
 20
58.000000
 11
93.000000
 21
58.000000
  0
LINE
  8
0
  6
CONTINUOUS
 62
7
 10
93.000000
 20
67.800003
 11
102.153000
 21
67.800003
  0
LINE
  8
0
  6
CONTINUOUS
 62
7
 10
164.899994
 20
77.000000
 11
164.899994
 21
76.500000
  0
LINE
  8
0
  6
CONTINUOUS
 62
7
 10
131.100006
 20
77.000000
 11
131.100006
 21
76.500000
  0
LINE
  8
0
  6
CONTINUOUS
 62
7
 10
171.751007
 20
64.500000
 11
168.000000
 21
64.500000
  0
LINE
  8
0
  6
CONTINUOUS
 62
7
 10
183.000000
 20
67.800003
 11
173.847000
 21
67.800003
  0
LINE
  8
0
  6
CONTINUOUS
 62
7
 10
104.249001
 20
64.500000
 11
108.000000
 21
64.500000
  0
LINE
  8
0
  6
CENTER
 62
2
 10
185.042999
 20
107.000000
 11
89.855202
 21
107.000000
  0
LINE
  8
0
  6
CONTINUOUS
 62
7
 10
183.000000
 20
118.500000
 11
183.000000
 21
95.500000
  0
LINE
  8
0
  6
CONTINUOUS
 62
7
 10
183.000000
 20
102.500000
 11
170.500000
 21
102.500000
  0
LINE
  8
0
  6
CENTER
 62
2
 10
168.000000
 20
94.000000
 11
168.000000
 21
104.000000
  0
LINE
  8
0
  6
CENTER
 62
2
 10
173.000000
 20
99.000000
 11
163.000000
 21
99.000000
  0
LINE
  8
0
  6
CONTINUOUS
 62
7
 10
164.899994
 20
97.000000
 11
131.100006
 21
97.000000
  0
LINE
  8
0
  6
CONTINUOUS
 62
7
 10
164.899994
 20
112.000000
 11
131.100006
 21
112.000000
  0
LINE
  8
0
  6
CONTINUOUS
 62
7
 10
164.899994
 20
102.000000
 11
131.100006
 21
102.000000
  0
LINE
  8
0
  6
CONTINUOUS
 62
7
 10
131.100006
 20
97.300003
 11
125.500000
 21
97.300003
  0
LINE
  8
0
  6
CENTER
 62
2
 10
143.500000
 20
114.500000
 11
136.600006
 21
114.500000
  0
LINE
  8
0
  6
CENTER
 62
2
 10
143.500000
 20
99.500000
 11
136.600006
 21
99.500000
  0
LINE
  8
0
  6
CENTER
 62
2
 10
140.000000
 20
96.000000
 11
140.000000
 21
103.000000
  0
LINE
  8
0
  6
CENTER
 62
2
 10
152.500000
 20
99.500000
 11
158.891006
 21
99.500000
  0
LINE
  8
0
  6
CENTER
 62
2
 10
156.000000
 20
96.000000
 11
156.000000
 21
103.000000
  0
LINE
  8
0
  6
CENTER
 62
2
 10
140.000000
 20
118.000000
 11
140.000000
 21
111.000000
  0
LINE
  8
0
  6
CONTINUOUS
 62
7
 10
131.100006
 20
97.000000
 11
131.100006
 21
117.000000
  0
LINE
  8
0
  6
CENTER
 62
2
 10
152.488007
 20
114.500000
 11
158.932999
 21
114.500000
  0
LINE
  8
0
  6
CENTER
 62
2
 10
156.000000
 20
118.000000
 11
156.000000
 21
111.000000
  0
LINE
  8
0
  6
CONTINUOUS
 62
7
 10
164.899994
 20
117.000000
 11
131.100006
 21
117.000000
  0
LINE
  8
0
  6
CONTINUOUS
 62
7
 10
131.100006
 20
116.699997
 11
125.500000
 21
116.699997
  0
LINE
  8
0
  6
CONTINUOUS
 62
7
 10
125.500000
 20
97.300003
 11
125.500000
 21
116.699997
  0
LINE
  8
0
  6
CONTINUOUS
 62
7
 10
170.500000
 20
97.300003
 11
164.899994
 21
97.300003
  0
LINE
  8
0
  6
CONTINUOUS
 62
7
 10
170.500000
 20
116.699997
 11
164.899994
 21
116.699997
  0
LINE
  8
0
  6
CONTINUOUS
 62
7
 10
164.899994
 20
97.000000
 11
164.899994
 21
117.000000
  0
LINE
  8
0
  6
CONTINUOUS
 62
7
 10
170.500000
 20
116.699997
 11
170.500000
 21
97.300003
  0
LINE
  8
0
  6
CONTINUOUS
 62
7
 10
183.000000
 20
111.500000
 11
170.500000
 21
111.500000
  0
LINE
  8
0
  6
CENTER
 62
2
 10
168.000000
 20
120.000000
 11
168.000000
 21
110.000000
  0
LINE
  8
0
  6
CENTER
 62
2
 10
173.000000
 20
115.000000
 11
163.000000
 21
115.000000
  0
LINE
  8
0
  6
CONTINUOUS
 62
7
 10
93.000000
 20
102.500000
 11
125.500000
 21
102.500000
  0
LINE
  8
0
  6
CENTER
 62
2
 10
108.000000
 20
94.000000
 11
108.000000
 21
104.000000
  0
LINE
  8
0
  6
CENTER
 62
2
 10
103.000000
 20
99.000000
 11
113.000000
 21
99.000000
  0
LINE
  8
0
  6
CONTINUOUS
 62
7
 10
93.000000
 20
118.500000
 11
93.000000
 21
95.500000
  0
LINE
  8
0
  6
CONTINUOUS
 62
7
 10
93.000000
 20
111.500000
 11
125.500000
 21
111.500000
  0
LINE
  8
0
  6
CENTER
 62
2
 10
108.000000
 20
120.000000
 11
108.000000
 21
110.000000
  0
LINE
  8
0
  6
CENTER
 62
2
 10
103.000000
 20
115.000000
 11
113.000000
 21
115.000000
  0
LINE
  8
0
  6
CONTINUOUS
 62
7
 10
164.899994
 20
135.000000
 11
131.100006
 21
135.000000
  0
LINE
  8
0
  6
CONTINUOUS
 62
7
 10
170.500000
 20
135.300003
 11
164.899994
 21
135.300003
  0
LINE
  8
0
  6
CONTINUOUS
 62
7
 10
170.500000
 20
142.800003
 11
166.500000
 21
142.800003
  0
LINE
  8
0
  6
CONTINUOUS
 62
7
 10
170.500000
 20
135.300003
 11
170.500000
 21
137.000000
  0
LINE
  8
0
  6
CONTINUOUS
 62
7
 10
131.100006
 20
135.300003
 11
125.500000
 21
135.300003
  0
LINE
  8
0
  6
CONTINUOUS
 62
7
 10
125.500000
 20
142.800003
 11
125.500000
 21
135.300003
  0
LINE
  8
0
  6
CONTINUOUS
 62
7
 10
183.000000
 20
139.500000
 11
171.750000
 21
139.500000
  0
LINE
  8
0
  6
CONTINUOUS
 62
7
 10
125.500000
 20
139.500000
 11
120.250000
 21
139.500000
  0
LINE
  8
0
  6
CONTINUOUS
 62
7
 10
93.000000
 20
139.500000
 11
93.000000
 21
154.000000
  0
LINE
  8
0
  6
CONTINUOUS
 62
7
 10
183.000000
 20
139.500000
 11
183.000000
 21
154.000000
  0
LINE
  8
0
  6
CONTINUOUS
 62
7
 10
183.000000
 20
154.000000
 11
93.000000
 21
154.000000
  0
LINE
  8
0
  6
CONTINUOUS
 62
7
 10
93.000000
 20
144.199997
 11
102.153000
 21
144.199997
  0
LINE
  8
0
  6
CONTINUOUS
 62
7
 10
164.899994
 20
135.000000
 11
164.899994
 21
135.800003
  0
LINE
  8
0
  6
CONTINUOUS
 62
7
 10
131.100006
 20
135.000000
 11
131.100006
 21
142.800003
  0
LINE
  8
0
  6
CONTINUOUS
 62
7
 10
104.249001
 20
147.500000
 11
113.500000
 21
147.500000
  0
LINE
  8
0
  6
CENTER
 62
2
 10
99.000000
 20
149.500000
 11
106.000000
 21
149.500000
  0
LINE
  8
0
  6
CONTINUOUS
 62
7
 10
171.751007
 20
147.500000
 11
162.500000
 21
147.500000
  0
LINE
  8
0
  6
CENTER
 62
2
 10
102.000000
 20
153.000000
 11
102.000000
 21
146.000000
  0
LINE
  8
0
  6
CENTER
 62
2
 10
171.000000
 20
149.500000
 11
178.000000
 21
149.500000
  0
LINE
  8
0
  6
CENTER
 62
2
 10
174.000000
 20
153.000000
 11
174.000000
 21
146.000000
  0
LINE
  8
0
  6
CONTINUOUS
 62
7
 10
173.847000
 20
144.199997
 11
183.000000
 21
144.199997
  0
LINE
  8
0
  6
DASHED
 62
2
 10
111.000000
 20
63.000000
 11
105.000000
 21
63.000000
  0
LINE
  8
0
  6
CENTER
 62
2
 10
108.000000
 20
66.500000
 11
108.000000
 21
56.000000
  0
LINE
  8
0
  6
DASHED
 62
2
 10
111.000000
 20
64.500000
 11
111.000000
 21
63.000000
  0
LINE
  8
0
  6
DASHED
 62
2
 10
105.000000
 20
64.500000
 11
105.000000
 21
63.000000
  0
LINE
  8
0
  6
DASHED
 62
2
 10
106.250000
 20
63.000000
 11
106.250000
 21
58.000000
  0
LINE
  8
0
  6
DASHED
 62
2
 10
109.750000
 20
63.000000
 11
109.750000
 21
58.000000
  0
LINE
  8
0
  6
DASHED
 62
2
 10
106.000000
 20
63.000000
 11
106.000000
 21
58.000000
  0
LINE
  8
0
  6
DASHED
 62
2
 10
110.000000
 20
63.000000
 11
110.000000
 21
58.000000
  0
LINE
  8
0
  6
DASHED
 62
2
 10
171.000000
 20
63.000000
 11
165.000000
 21
63.000000
  0
LINE
  8
0
  6
CENTER
 62
2
 10
168.000000
 20
66.500000
 11
168.000000
 21
56.000000
  0
LINE
  8
0
  6
DASHED
 62
2
 10
171.000000
 20
64.500000
 11
171.000000
 21
63.000000
  0
LINE
  8
0
  6
DASHED
 62
2
 10
165.000000
 20
64.500000
 11
165.000000
 21
63.000000
  0
LINE
  8
0
  6
DASHED
 62
2
 10
166.250000
 20
63.000000
 11
166.250000
 21
58.000000
  0
LINE
  8
0
  6
DASHED
 62
2
 10
169.750000
 20
63.000000
 11
169.750000
 21
58.000000
  0
LINE
  8
0
  6
DASHED
 62
2
 10
166.000000
 20
63.000000
 11
166.000000
 21
58.000000
  0
LINE
  8
0
  6
DASHED
 62
2
 10
170.000000
 20
63.000000
 11
170.000000
 21
58.000000
  0
LINE
  8
0
  6
CENTER
 62
2
 10
140.000000
 20
79.000000
 11
140.000000
 21
75.000000
  0
LINE
  8
0
  6
CENTER
 62
2
 10
156.000000
 20
79.000000
 11
156.000000
 21
75.000000
  0
LINE
  8
0
  6
CENTER
 62
2
 10
140.000000
 20
137.000000
 11
140.000000
 21
133.000000
  0
LINE
  8
0
  6
CENTER
 62
2
 10
156.000000
 20
137.000000
 11
156.000000
 21
133.000000
  0
LINE
  8
0
  6
DASHED
 62
2
 10
166.000000
 20
149.000000
 11
166.000000
 21
154.000000
  0
LINE
  8
0
  6
DASHED
 62
2
 10
111.000000
 20
149.000000
 11
105.000000
 21
149.000000
  0
LINE
  8
0
  6
CENTER
 62
2
 10
108.000000
 20
145.500000
 11
108.000000
 21
156.000000
  0
LINE
  8
0
  6
DASHED
 62
2
 10
111.000000
 20
147.500000
 11
111.000000
 21
149.000000
  0
LINE
  8
0
  6
DASHED
 62
2
 10
105.000000
 20
147.500000
 11
105.000000
 21
149.000000
  0
LINE
  8
0
  6
DASHED
 62
2
 10
106.250000
 20
149.000000
 11
106.250000
 21
154.000000
  0
LINE
  8
0
  6
DASHED
 62
2
 10
109.750000
 20
149.000000
 11
109.750000
 21
154.000000
  0
LINE
  8
0
  6
DASHED
 62
2
 10
106.000000
 20
149.000000
 11
106.000000
 21
154.000000
  0
LINE
  8
0
  6
DASHED
 62
2
 10
110.000000
 20
149.000000
 11
110.000000
 21
154.000000
  0
LINE
  8
0
  6
DASHED
 62
2
 10
169.750000
 20
149.000000
 11
169.750000
 21
154.000000
  0
LINE
  8
0
  6
DASHED
 62
2
 10
170.000000
 20
149.000000
 11
170.000000
 21
154.000000
  0
LINE
  8
0
  6
DASHED
 62
2
 10
171.000000
 20
149.000000
 11
165.000000
 21
149.000000
  0
LINE
  8
0
  6
CENTER
 62
2
 10
168.000000
 20
145.500000
 11
168.000000
 21
156.000000
  0
LINE
  8
0
  6
DASHED
 62
2
 10
171.000000
 20
147.500000
 11
171.000000
 21
149.000000
  0
LINE
  8
0
  6
DASHED
 62
2
 10
165.000000
 20
147.500000
 11
165.000000
 21
149.000000
  0
LINE
  8
0
  6
DASHED
 62
2
 10
166.250000
 20
149.000000
 11
166.250000
 21
154.000000
  0
LINE
  8
0
  6
CONTINUOUS
 62
7
 10
23.000000
 20
73.943398
 11
21.750000
 21
73.221703
  0
LINE
  8
0
  6
CONTINUOUS
 62
7
 10
21.750000
 20
73.221703
 11
21.750000
 21
71.778297
  0
LINE
  8
0
  6
CONTINUOUS
 62
7
 10
22.999901
 20
71.056602
 11
21.750000
 21
71.778297
  0
LINE
  8
0
  6
CONTINUOUS
 62
7
 10
24.250000
 20
71.778297
 11
23.000000
 21
71.056602
  0
LINE
  8
0
  6
CONTINUOUS
 62
7
 10
24.250000
 20
73.221703
 11
24.250000
 21
71.778297
  0
LINE
  8
0
  6
CONTINUOUS
 62
7
 10
23.000000
 20
73.943398
 11
24.249901
 21
73.221703
  0
LINE
  8
0
  6
CONTINUOUS
 62
7
 10
23.710699
 20
76.131104
 11
25.789200
 21
74.931099
  0
LINE
  8
0
  6
CENTER
 62
2
 10
23.000000
 20
77.500000
 11
23.000000
 21
67.500000
  0
LINE
  8
0
  6
CENTER
 62
2
 10
18.500000
 20
72.500000
 11
28.500000
 21
72.500000
  0
LINE
  8
0
  6
CONTINUOUS
 62
7
 10
22.289301
 20
76.131104
 11
20.210800
 21
74.931099
  0
LINE
  8
0
  6
CONTINUOUS
 62
7
 10
19.500000
 20
73.699997
 11
19.500000
 21
71.300003
  0
LINE
  8
0
  6
CONTINUOUS
 62
7
 10
22.289200
 20
68.868896
 11
20.210699
 21
70.068901
  0
LINE
  8
0
  6
CONTINUOUS
 62
7
 10
25.789301
 20
70.068901
 11
23.710800
 21
68.868896
  0
LINE
  8
0
  6
CONTINUOUS
 62
7
 10
28.500000
 20
76.500000
 11
19.000000
 21
76.500000
  0
LINE
  8
0
  6
CONTINUOUS
 62
7
 10
27.000000
 20
58.500000
 11
19.000000
 21
58.500000
  0
LINE
  8
0
  6
CONTINUOUS
 62
7
 10
19.000000
 20
76.500000
 11
19.000000
 21
58.500000
  0
LINE
  8
0
  6
CONTINUOUS
 62
7
 10
26.500000
 20
73.699997
 11
26.500000
 21
71.300003
  0
LINE
  8
0
  6
CENTER
 62
2
 10
237.500000
 20
77.486801
 11
237.500000
 21
56.993599
  0
LINE
  8
0
  6
CONTINUOUS
 62
7
 10
233.000000
 20
70.134003
 11
233.000000
 21
67.800003
  0
LINE
  8
0
  6
CONTINUOUS
 62
7
 10
242.000000
 20
70.134003
 11
242.000000
 21
67.800003
  0
LINE
  8
0
  6
CONTINUOUS
 62
7
 10
227.500000
 20
77.000000
 11
232.000000
 21
77.000000
  0
LINE
  8
0
  6
CONTINUOUS
 62
7
 10
227.500000
 20
77.000000
 11
227.500000
 21
69.199997
  0
LINE
  8
0
  6
CONTINUOUS
 62
7
 10
227.500000
 20
69.199997
 11
233.000000
 21
69.199997
  0
LINE
  8
0
  6
CONTINUOUS
 62
7
 10
232.300003
 20
76.699997
 11
242.699997
 21
76.699997
  0
LINE
  8
0
  6
CONTINUOUS
 62
7
 10
242.000000
 20
69.199997
 11
247.500000
 21
69.199997
  0
LINE
  8
0
  6
CONTINUOUS
 62
7
 10
242.699997
 20
76.699997
 11
243.000000
 21
77.000000
  0
LINE
  8
0
  6
CONTINUOUS
 62
7
 10
232.300003
 20
76.700104
 11
232.000000
 21
77.000099
  0
LINE
  8
0
  6
CONTINUOUS
 62
7
 10
243.000000
 20
77.000000
 11
247.500000
 21
77.000000
  0
LINE
  8
0
  6
CONTINUOUS
 62
7
 10
233.000000
 20
72.500000
 11
233.000000
 21
71.865997
  0
LINE
  8
0
  6
CONTINUOUS
 62
7
 10
242.000000
 20
72.500000
 11
233.000000
 21
72.500000
  0
LINE
  8
0
  6
CONTINUOUS
 62
7
 10
242.000000
 20
72.500000
 11
242.000000
 21
71.865997
  0
LINE
  8
0
  6
CONTINUOUS
 62
7
 10
226.000000
 20
58.000000
 11
249.000000
 21
58.000000
  0
LINE
  8
0
  6
CONTINUOUS
 62
7
 10
226.000000
 20
67.800003
 11
226.000000
 21
58.000000
  0
LINE
  8
0
  6
CONTINUOUS
 62
7
 10
249.000000
 20
76.500000
 11
249.000000
 21
58.000000
  0
LINE
  8
0
  6
CONTINUOUS
 62
7
 10
249.000000
 20
67.800003
 11
242.000000
 21
67.800003
  0
LINE
  8
0
  6
CENTER
 62
2
 10
231.000000
 20
64.500000
 11
244.000000
 21
64.500000
  0
LINE
  8
0
  6
CONTINUOUS
 62
7
 10
226.000000
 20
67.800003
 11
233.000000
 21
67.800003
  0
LINE
  8
0
  6
CONTINUOUS
 62
7
 10
247.500000
 20
77.000000
 11
247.500000
 21
69.199997
  0
LINE
  8
0
  6
CENTER
 62
2
 10
229.500000
 20
60.000000
 11
229.500000
 21
56.000000
  0
LINE
  8
0
  6
CENTER
 62
2
 10
245.500000
 20
60.000000
 11
245.500000
 21
56.000000
  0
LINE
  8
0
  6
CENTER
 62
2
 10
245.000000
 20
79.000000
 11
245.000000
 21
75.000000
  0
LINE
  8
0
  6
CENTER
 62
2
 10
230.000000
 20
79.000000
 11
230.000000
 21
75.000000
  0
LINE
  8
0
  6
CONTINUOUS
 62
7
 10
253.000000
 20
73.943298
 11
254.250000
 21
73.221603
  0
LINE
  8
0
  6
CONTINUOUS
 62
7
 10
254.250000
 20
73.221703
 11
254.250000
 21
71.778297
  0
LINE
  8
0
  6
CONTINUOUS
 62
7
 10
253.000000
 20
71.056602
 11
254.250000
 21
71.778297
  0
LINE
  8
0
  6
CONTINUOUS
 62
7
 10
251.750000
 20
71.778297
 11
253.000000
 21
71.056602
  0
LINE
  8
0
  6
CONTINUOUS
 62
7
 10
251.750000
 20
73.221703
 11
251.750000
 21
71.778297
  0
LINE
  8
0
  6
CONTINUOUS
 62
7
 10
253.000000
 20
73.943398
 11
251.750000
 21
73.221703
  0
LINE
  8
0
  6
CONTINUOUS
 62
7
 10
252.289001
 20
76.131104
 11
250.210999
 21
74.931099
  0
LINE
  8
0
  6
CENTER
 62
2
 10
253.000000
 20
77.500000
 11
253.000000
 21
67.500000
  0
LINE
  8
0
  6
CENTER
 62
2
 10
257.500000
 20
72.500000
 11
247.500000
 21
72.500000
  0
LINE
  8
0
  6
CONTINUOUS
 62
7
 10
253.710999
 20
76.130997
 11
255.789001
 21
74.931000
  0
LINE
  8
0
  6
CONTINUOUS
 62
7
 10
256.500000
 20
73.699997
 11
256.500000
 21
71.300003
  0
LINE
  8
0
  6
CONTINUOUS
 62
7
 10
253.710999
 20
68.868896
 11
255.789001
 21
70.068901
  0
LINE
  8
0
  6
CONTINUOUS
 62
7
 10
250.210999
 20
70.068802
 11
252.289001
 21
68.868797
  0
LINE
  8
0
  6
CONTINUOUS
 62
7
 10
247.500000
 20
76.500000
 11
257.000000
 21
76.500000
  0
LINE
  8
0
  6
CONTINUOUS
 62
7
 10
249.000000
 20
58.500000
 11
257.000000
 21
58.500000
  0
LINE
  8
0
  6
CONTINUOUS
 62
7
 10
257.000000
 20
76.500000
 11
257.000000
 21
58.500000
  0
LINE
  8
0
  6
CONTINUOUS
 62
7
 10
249.500000
 20
73.699997
 11
249.500000
 21
71.300003
  0
LINE
  8
0
  6
CONTINUOUS
 62
7
 10
-124.000000
 20
7.000000
 11
-162.000000
 21
7.000000
  0
LINE
  8
0
  6
CONTINUOUS
 62
7
 10
-120.000000
 20
8.210760
 11
-124.000000
 21
8.210760
  0
LINE
  8
0
  6
CONTINUOUS
 62
7
 10
-120.000000
 20
13.789200
 11
-124.000000
 21
13.789200
  0
LINE
  8
0
  6
CENTER
 62
2
 10
-160.084000
 20
11.000000
 11
-174.468994
 21
11.000000
  0
LINE
  8
0
  6
CONTINUOUS
 62
2
 10
-166.000000
 20
8.900020
 11
-171.750000
 21
8.900020
  0
LINE
  8
0
  6
CONTINUOUS
 62
2
 10
-166.000000
 20
13.100000
 11
-171.750000
 21
13.100000
  0
LINE
  8
0
  6
CONTINUOUS
 62
7
 10
-166.000000
 20
13.500000
 11
-171.750000
 21
13.500000
  0
LINE
  8
0
  6
CONTINUOUS
 62
7
 10
-171.750000
 20
8.500000
 11
-171.750000
 21
13.500000
  0
LINE
  8
0
  6
CONTINUOUS
 62
7
 10
-166.000000
 20
8.500000
 11
-171.750000
 21
8.500000
  0
LINE
  8
0
  6
CONTINUOUS
 62
7
 10
-162.000000
 20
15.000000
 11
-162.000000
 21
7.000000
  0
LINE
  8
0
  6
CONTINUOUS
 62
7
 10
-162.000000
 20
14.500000
 11
-166.000000
 21
14.500000
  0
LINE
  8
0
  6
CONTINUOUS
 62
7
 10
-162.000000
 20
7.499990
 11
-166.000000
 21
7.499990
  0
LINE
  8
0
  6
CONTINUOUS
 62
7
 10
-166.000000
 20
14.500000
 11
-166.000000
 21
7.499990
  0
LINE
  8
0
  6
CONTINUOUS
 62
7
 10
-166.000000
 20
10.289200
 11
-162.000000
 21
10.289200
  0
LINE
  8
0
  6
CONTINUOUS
 62
7
 10
-166.000000
 20
11.710800
 11
-162.000000
 21
11.710800
  0
LINE
  8
0
  6
CONTINUOUS
 62
7
 10
-166.000000
 20
8.210760
 11
-162.000000
 21
8.210760
  0
LINE
  8
0
  6
CONTINUOUS
 62
7
 10
-166.000000
 20
13.789200
 11
-162.000000
 21
13.789200
  0
LINE
  8
0
  6
CENTER
 62
2
 10
-125.882004
 20
11.000000
 11
-111.530998
 21
11.000000
  0
LINE
  8
0
  6
CONTINUOUS
 62
2
 10
-120.000000
 20
8.900020
 11
-114.250000
 21
8.900020
  0
LINE
  8
0
  6
CONTINUOUS
 62
2
 10
-120.000000
 20
13.100000
 11
-114.250000
 21
13.100000
  0
LINE
  8
0
  6
CONTINUOUS
 62
7
 10
-120.000000
 20
13.500000
 11
-114.250000
 21
13.500000
  0
LINE
  8
0
  6
CONTINUOUS
 62
7
 10
-114.250000
 20
8.500000
 11
-114.250000
 21
13.500000
  0
LINE
  8
0
  6
CONTINUOUS
 62
7
 10
-120.000000
 20
8.500000
 11
-114.250000
 21
8.500000
  0
LINE
  8
0
  6
CONTINUOUS
 62
7
 10
-124.000000
 20
15.000000
 11
-124.000000
 21
7.000000
  0
LINE
  8
0
  6
CONTINUOUS
 62
7
 10
-124.000000
 20
14.500000
 11
-120.000000
 21
14.500000
  0
LINE
  8
0
  6
CONTINUOUS
 62
7
 10
-124.000000
 20
7.499990
 11
-120.000000
 21
7.499990
  0
LINE
  8
0
  6
CONTINUOUS
 62
7
 10
-120.000000
 20
14.500000
 11
-120.000000
 21
7.499990
  0
LINE
  8
0
  6
CONTINUOUS
 62
7
 10
-120.000000
 20
10.289200
 11
-124.000000
 21
10.289200
  0
LINE
  8
0
  6
CONTINUOUS
 62
7
 10
-120.000000
 20
11.710800
 11
-124.000000
 21
11.710800
  0
LINE
  8
0
  6
CONTINUOUS
 62
7
 10
-114.250000
 20
75.000000
 11
-114.250000
 21
72.500000
  0
LINE
  8
0
  6
CONTINUOUS
 62
7
 10
-162.000000
 20
72.500000
 11
-162.000000
 21
76.500000
  0
LINE
  8
0
  6
CONTINUOUS
 62
2
 10
-166.000000
 20
74.599998
 11
-171.750000
 21
74.599998
  0
LINE
  8
0
  6
CONTINUOUS
 62
7
 10
-166.000000
 20
72.500000
 11
-166.000000
 21
76.199997
  0
LINE
  8
0
  6
CONTINUOUS
 62
7
 10
-166.000000
 20
76.199997
 11
-162.000000
 21
76.199997
  0
LINE
  8
0
  6
CONTINUOUS
 62
7
 10
-166.000000
 20
73.699997
 11
-162.000000
 21
73.699997
  0
LINE
  8
0
  6
CONTINUOUS
 62
7
 10
-162.000000
 20
74.520699
 11
-166.000000
 21
74.520699
  0
LINE
  8
0
  6
CONTINUOUS
 62
7
 10
-171.750000
 20
75.000000
 11
-171.750000
 21
72.500000
  0
LINE
  8
0
  6
CONTINUOUS
 62
7
 10
-166.000000
 20
75.000000
 11
-171.750000
 21
75.000000
  0
LINE
  8
0
  6
CONTINUOUS
 62
7
 10
-120.000000
 20
75.000000
 11
-114.250000
 21
75.000000
  0
LINE
  8
0
  6
CONTINUOUS
 62
2
 10
-120.000000
 20
74.599998
 11
-114.250000
 21
74.599998
  0
LINE
  8
0
  6
CONTINUOUS
 62
7
 10
-120.000000
 20
72.500000
 11
-120.000000
 21
76.199997
  0
LINE
  8
0
  6
CONTINUOUS
 62
7
 10
-120.000000
 20
76.199997
 11
-122.500000
 21
76.199997
  0
LINE
  8
0
  6
CONTINUOUS
 62
7
 10
-120.000000
 20
73.699997
 11
-122.500000
 21
73.699997
  0
LINE
  8
0
  6
CONTINUOUS
 62
7
 10
-122.500000
 20
74.520699
 11
-120.000000
 21
74.520699
  0
LINE
  8
0
  6
CONTINUOUS
 62
7
 10
-113.000000
 20
118.500000
 11
-130.250000
 21
118.500000
  0
LINE
  8
0
  6
CENTER
 62
2
 10
-131.352997
 20
122.500000
 11
-111.530998
 21
122.500000
  0
LINE
  8
0
  6
CONTINUOUS
 62
2
 10
-120.000000
 20
120.400002
 11
-114.250000
 21
120.400002
  0
LINE
  8
0
  6
CONTINUOUS
 62
2
 10
-120.000000
 20
124.599998
 11
-114.250000
 21
124.599998
  0
LINE
  8
0
  6
CONTINUOUS
 62
7
 10
-120.000000
 20
125.000000
 11
-114.250000
 21
125.000000
  0
LINE
  8
0
  6
CONTINUOUS
 62
7
 10
-114.250000
 20
120.000000
 11
-114.250000
 21
125.000000
  0
LINE
  8
0
  6
CONTINUOUS
 62
7
 10
-120.000000
 20
120.000000
 11
-114.250000
 21
120.000000
  0
LINE
  8
0
  6
CONTINUOUS
 62
7
 10
-124.000000
 20
126.500000
 11
-162.000000
 21
126.500000
  0
LINE
  8
0
  6
CONTINUOUS
 62
7
 10
-157.500000
 20
126.500000
 11
-157.500000
 21
118.500000
  0
LINE
  8
0
  6
CONTINUOUS
 62
7
 10
-128.500000
 20
126.500000
 11
-128.500000
 21
118.500000
  0
LINE
  8
0
  6
CONTINUOUS
 62
7
 10
-124.000000
 20
126.500000
 11
-124.000000
 21
118.500000
  0
LINE
  8
0
  6
CONTINUOUS
 62
7
 10
-130.250000
 20
126.000000
 11
-145.750000
 21
126.000000
  0
LINE
  8
0
  6
CONTINUOUS
 62
7
 10
-145.750000
 20
126.000000
 11
-145.750000
 21
117.000000
  0
LINE
  8
0
  6
CONTINUOUS
 62
7
 10
-130.250000
 20
126.000000
 11
-130.250000
 21
117.000000
  0
LINE
  8
0
  6
CONTINUOUS
 62
7
 10
-124.000000
 20
126.000000
 11
-120.000000
 21
126.000000
  0
LINE
  8
0
  6
CONTINUOUS
 62
7
 10
-124.000000
 20
119.000000
 11
-120.000000
 21
119.000000
  0
LINE
  8
0
  6
CONTINUOUS
 62
7
 10
-120.000000
 20
126.000000
 11
-120.000000
 21
119.000000
  0
LINE
  8
0
  6
CONTINUOUS
 62
7
 10
-120.000000
 20
121.789001
 11
-124.000000
 21
121.789001
  0
LINE
  8
0
  6
CONTINUOUS
 62
7
 10
-120.000000
 20
123.210999
 11
-124.000000
 21
123.210999
  0
LINE
  8
0
  6
CONTINUOUS
 62
7
 10
-120.000000
 20
119.710999
 11
-124.000000
 21
119.710999
  0
LINE
  8
0
  6
CONTINUOUS
 62
7
 10
-120.000000
 20
125.289001
 11
-124.000000
 21
125.289001
  0
LINE
  8
0
  6
CENTER
 62
2
 10
-154.647003
 20
122.500000
 11
-174.468994
 21
122.500000
  0
LINE
  8
0
  6
CONTINUOUS
 62
2
 10
-166.000000
 20
120.400002
 11
-171.750000
 21
120.400002
  0
LINE
  8
0
  6
CONTINUOUS
 62
2
 10
-166.000000
 20
124.599998
 11
-171.750000
 21
124.599998
  0
LINE
  8
0
  6
CONTINUOUS
 62
7
 10
-166.000000
 20
125.000000
 11
-171.750000
 21
125.000000
  0
LINE
  8
0
  6
CONTINUOUS
 62
7
 10
-171.750000
 20
120.000000
 11
-171.750000
 21
125.000000
  0
LINE
  8
0
  6
CONTINUOUS
 62
7
 10
-166.000000
 20
120.000000
 11
-171.750000
 21
120.000000
  0
LINE
  8
0
  6
CONTINUOUS
 62
7
 10
-162.000000
 20
126.500000
 11
-162.000000
 21
118.500000
  0
LINE
  8
0
  6
CONTINUOUS
 62
7
 10
-162.000000
 20
126.000000
 11
-166.000000
 21
126.000000
  0
LINE
  8
0
  6
CONTINUOUS
 62
7
 10
-162.000000
 20
119.000000
 11
-166.000000
 21
119.000000
  0
LINE
  8
0
  6
CONTINUOUS
 62
7
 10
-166.000000
 20
126.000000
 11
-166.000000
 21
119.000000
  0
LINE
  8
0
  6
CONTINUOUS
 62
7
 10
-166.000000
 20
121.789001
 11
-162.000000
 21
121.789001
  0
LINE
  8
0
  6
CONTINUOUS
 62
7
 10
-166.000000
 20
123.210999
 11
-162.000000
 21
123.210999
  0
LINE
  8
0
  6
CONTINUOUS
 62
7
 10
-166.000000
 20
119.710999
 11
-162.000000
 21
119.710999
  0
LINE
  8
0
  6
CONTINUOUS
 62
7
 10
-166.000000
 20
125.289001
 11
-162.000000
 21
125.289001
  0
LINE
  8
0
  6
CONTINUOUS
 62
7
 10
-145.750000
 20
118.500000
 11
-173.000000
 21
118.500000
  0
LINE
  8
0
  6
CONTINUOUS
 62
7
 10
-162.000000
 20
153.500000
 11
-162.000000
 21
135.500000
  0
LINE
  8
0
  6
CONTINUOUS
 62
7
 10
-162.000000
 20
153.500000
 11
-124.000000
 21
153.500000
  0
LINE
  8
0
  6
CONTINUOUS
 62
7
 10
-162.000000
 20
135.500000
 11
-153.500000
 21
135.500000
  0
LINE
  8
0
  6
CONTINUOUS
 62
7
 10
-157.500000
 20
142.500000
 11
-157.500000
 21
135.500000
  0
LINE
  8
0
  6
CONTINUOUS
 62
7
 10
-155.000000
 20
145.000000
 11
-131.000000
 21
145.000000
  0
LINE
  8
0
  6
CONTINUOUS
 62
7
 10
-128.500000
 20
142.500000
 11
-128.500000
 21
135.500000
  0
LINE
  8
0
  6
CONTINUOUS
 62
7
 10
-124.000000
 20
135.500000
 11
-128.500000
 21
135.500000
  0
LINE
  8
0
  6
CONTINUOUS
 62
7
 10
-124.000000
 20
153.500000
 11
-124.000000
 21
135.500000
  0
LINE
  8
0
  6
CONTINUOUS
 62
7
 10
-145.750000
 20
143.500000
 11
-145.750000
 21
135.500000
  0
LINE
  8
0
  6
CONTINUOUS
 62
7
 10
-145.750000
 20
143.500000
 11
-130.250000
 21
143.500000
  0
LINE
  8
0
  6
CONTINUOUS
 62
7
 10
-130.250000
 20
143.500000
 11
-130.250000
 21
135.500000
  0
LINE
  8
0
  6
CONTINUOUS
 62
7
 10
-145.750000
 20
135.500000
 11
-130.250000
 21
135.500000
  0
LINE
  8
0
  6
CONTINUOUS
 62
2
 10
-166.000000
 20
141.600006
 11
-171.750000
 21
141.600006
  0
LINE
  8
0
  6
CONTINUOUS
 62
7
 10
-166.000000
 20
142.000000
 11
-171.750000
 21
142.000000
  0
LINE
  8
0
  6
CONTINUOUS
 62
2
 10
-166.000000
 20
137.399994
 11
-171.750000
 21
137.399994
  0
LINE
  8
0
  6
CONTINUOUS
 62
7
 10
-166.000000
 20
143.199997
 11
-166.000000
 21
135.800003
  0
LINE
  8
0
  6
CONTINUOUS
 62
7
 10
-166.000000
 20
143.199997
 11
-162.000000
 21
143.199997
  0
LINE
  8
0
  6
CONTINUOUS
 62
7
 10
-166.000000
 20
135.800003
 11
-162.000000
 21
135.800003
  0
LINE
  8
0
  6
CONTINUOUS
 62
7
 10
-166.000000
 20
141.520996
 11
-162.000000
 21
141.520996
  0
LINE
  8
0
  6
CONTINUOUS
 62
7
 10
-162.000000
 20
140.699997
 11
-166.000000
 21
140.699997
  0
LINE
  8
0
  6
CONTINUOUS
 62
7
 10
-166.000000
 20
138.300003
 11
-162.000000
 21
138.300003
  0
LINE
  8
0
  6
CONTINUOUS
 62
7
 10
-162.000000
 20
137.479004
 11
-166.000000
 21
137.479004
  0
LINE
  8
0
  6
CONTINUOUS
 62
7
 10
-171.750000
 20
137.000000
 11
-171.750000
 21
142.000000
  0
LINE
  8
0
  6
CONTINUOUS
 62
7
 10
-166.000000
 20
137.000000
 11
-171.750000
 21
137.000000
  0
LINE
  8
0
  6
CONTINUOUS
 62
2
 10
-120.000000
 20
137.399994
 11
-114.250000
 21
137.399994
  0
LINE
  8
0
  6
CENTER
 62
2
 10
-131.352997
 20
139.500000
 11
-111.530998
 21
139.500000
  0
LINE
  8
0
  6
CONTINUOUS
 62
2
 10
-120.000000
 20
141.600006
 11
-114.250000
 21
141.600006
  0
LINE
  8
0
  6
CONTINUOUS
 62
7
 10
-120.000000
 20
142.000000
 11
-114.250000
 21
142.000000
  0
LINE
  8
0
  6
CONTINUOUS
 62
7
 10
-120.000000
 20
143.199997
 11
-120.000000
 21
135.800003
  0
LINE
  8
0
  6
CONTINUOUS
 62
7
 10
-120.000000
 20
143.199997
 11
-124.000000
 21
143.199997
  0
LINE
  8
0
  6
CONTINUOUS
 62
7
 10
-120.000000
 20
141.520996
 11
-124.000000
 21
141.520996
  0
LINE
  8
0
  6
CONTINUOUS
 62
7
 10
-124.000000
 20
140.699997
 11
-120.000000
 21
140.699997
  0
LINE
  8
0
  6
CONTINUOUS
 62
7
 10
-120.000000
 20
138.300003
 11
-124.000000
 21
138.300003
  0
LINE
  8
0
  6
CONTINUOUS
 62
7
 10
-124.000000
 20
137.479004
 11
-120.000000
 21
137.479004
  0
LINE
  8
0
  6
CONTINUOUS
 62
7
 10
-120.000000
 20
135.800003
 11
-124.000000
 21
135.800003
  0
LINE
  8
0
  6
CONTINUOUS
 62
7
 10
-120.000000
 20
137.000000
 11
-114.250000
 21
137.000000
  0
LINE
  8
0
  6
CONTINUOUS
 62
7
 10
-114.250000
 20
137.000000
 11
-114.250000
 21
142.000000
  0
LINE
  8
0
  6
CENTER
 62
2
 10
-154.647003
 20
139.500000
 11
-174.468994
 21
139.500000
  0
LINE
  8
0
  6
CONTINUOUS
 62
7
 10
-145.750000
 20
142.800003
 11
-153.500000
 21
142.800003
  0
LINE
  8
0
  6
CONTINUOUS
 62
7
 10
-128.518005
 20
142.800003
 11
-130.250000
 21
142.800003
  0
LINE
  8
0
  6
CONTINUOUS
 62
7
 10
-171.750000
 20
139.500000
 11
-173.000000
 21
139.500000
  0
LINE
  8
0
  6
CENTER
 62
2
 10
-227.500000
 20
77.486801
 11
-227.500000
 21
56.993599
  0
LINE
  8
0
  6
CONTINUOUS
 62
7
 10
-223.000000
 20
70.134003
 11
-223.000000
 21
67.800003
  0
LINE
  8
0
  6
CONTINUOUS
 62
7
 10
-232.000000
 20
70.134003
 11
-232.000000
 21
67.800003
  0
LINE
  8
0
  6
CONTINUOUS
 62
7
 10
-217.500000
 20
77.000000
 11
-222.000000
 21
77.000000
  0
LINE
  8
0
  6
CONTINUOUS
 62
7
 10
-217.500000
 20
77.000000
 11
-217.500000
 21
69.199997
  0
LINE
  8
0
  6
CONTINUOUS
 62
7
 10
-217.500000
 20
69.199997
 11
-223.000000
 21
69.199997
  0
LINE
  8
0
  6
CONTINUOUS
 62
7
 10
-222.300003
 20
76.699997
 11
-232.699997
 21
76.699997
  0
LINE
  8
0
  6
CONTINUOUS
 62
7
 10
-232.000000
 20
69.199997
 11
-237.500000
 21
69.199997
  0
LINE
  8
0
  6
CONTINUOUS
 62
7
 10
-232.699997
 20
76.699997
 11
-233.000000
 21
77.000000
  0
LINE
  8
0
  6
CONTINUOUS
 62
7
 10
-222.300003
 20
76.700104
 11
-222.000000
 21
77.000099
  0
LINE
  8
0
  6
CONTINUOUS
 62
7
 10
-233.000000
 20
77.000000
 11
-237.500000
 21
77.000000
  0
LINE
  8
0
  6
CONTINUOUS
 62
7
 10
-223.000000
 20
72.500000
 11
-223.000000
 21
71.865997
  0
LINE
  8
0
  6
CONTINUOUS
 62
7
 10
-232.000000
 20
72.500000
 11
-223.000000
 21
72.500000
  0
LINE
  8
0
  6
CONTINUOUS
 62
7
 10
-232.000000
 20
72.500000
 11
-232.000000
 21
71.865997
  0
LINE
  8
0
  6
CONTINUOUS
 62
7
 10
-216.000000
 20
58.000000
 11
-239.000000
 21
58.000000
  0
LINE
  8
0
  6
CONTINUOUS
 62
7
 10
-216.000000
 20
67.800003
 11
-216.000000
 21
58.000000
  0
LINE
  8
0
  6
CONTINUOUS
 62
7
 10
-239.000000
 20
76.500000
 11
-239.000000
 21
58.000000
  0
LINE
  8
0
  6
CONTINUOUS
 62
7
 10
-239.000000
 20
67.800003
 11
-232.000000
 21
67.800003
  0
LINE
  8
0
  6
CENTER
 62
2
 10
-221.000000
 20
64.500000
 11
-234.000000
 21
64.500000
  0
LINE
  8
0
  6
CONTINUOUS
 62
7
 10
-216.000000
 20
67.800003
 11
-223.000000
 21
67.800003
  0
LINE
  8
0
  6
CONTINUOUS
 62
7
 10
-237.500000
 20
77.000000
 11
-237.500000
 21
69.199997
  0
LINE
  8
0
  6
CENTER
 62
2
 10
-219.500000
 20
60.000000
 11
-219.500000
 21
56.000000
  0
LINE
  8
0
  6
CENTER
 62
2
 10
-235.500000
 20
60.000000
 11
-235.500000
 21
56.000000
  0
LINE
  8
0
  6
CENTER
 62
2
 10
-235.000000
 20
79.000000
 11
-235.000000
 21
75.000000
  0
LINE
  8
0
  6
CENTER
 62
2
 10
-220.000000
 20
79.000000
 11
-220.000000
 21
75.000000
  0
LINE
  8
0
  6
CONTINUOUS
 62
7
 10
-243.000000
 20
73.943298
 11
-244.250000
 21
73.221603
  0
LINE
  8
0
  6
CONTINUOUS
 62
7
 10
-244.250000
 20
73.221703
 11
-244.250000
 21
71.778297
  0
LINE
  8
0
  6
CONTINUOUS
 62
7
 10
-243.000000
 20
71.056602
 11
-244.250000
 21
71.778297
  0
LINE
  8
0
  6
CONTINUOUS
 62
7
 10
-241.750000
 20
71.778297
 11
-243.000000
 21
71.056602
  0
LINE
  8
0
  6
CONTINUOUS
 62
7
 10
-241.750000
 20
73.221703
 11
-241.750000
 21
71.778297
  0
LINE
  8
0
  6
CONTINUOUS
 62
7
 10
-243.000000
 20
73.943398
 11
-241.750000
 21
73.221703
  0
LINE
  8
0
  6
CONTINUOUS
 62
7
 10
-242.289001
 20
76.131104
 11
-240.210999
 21
74.931099
  0
LINE
  8
0
  6
CENTER
 62
2
 10
-243.000000
 20
77.500000
 11
-243.000000
 21
67.500000
  0
LINE
  8
0
  6
CENTER
 62
2
 10
-247.500000
 20
72.500000
 11
-237.500000
 21
72.500000
  0
LINE
  8
0
  6
CONTINUOUS
 62
7
 10
-243.710999
 20
76.130997
 11
-245.789001
 21
74.930901
  0
LINE
  8
0
  6
CONTINUOUS
 62
7
 10
-246.500000
 20
73.699997
 11
-246.500000
 21
71.300003
  0
LINE
  8
0
  6
CONTINUOUS
 62
7
 10
-243.710999
 20
68.868896
 11
-245.789001
 21
70.068901
  0
LINE
  8
0
  6
CONTINUOUS
 62
7
 10
-240.210999
 20
70.068802
 11
-242.289001
 21
68.868797
  0
LINE
  8
0
  6
CONTINUOUS
 62
7
 10
-237.500000
 20
76.500000
 11
-247.000000
 21
76.500000
  0
LINE
  8
0
  6
CONTINUOUS
 62
7
 10
-239.000000
 20
58.500000
 11
-247.000000
 21
58.500000
  0
LINE
  8
0
  6
CONTINUOUS
 62
7
 10
-247.000000
 20
76.500000
 11
-247.000000
 21
58.500000
  0
LINE
  8
0
  6
CONTINUOUS
 62
7
 10
-239.500000
 20
73.699997
 11
-239.500000
 21
71.300003
  0
LINE
  8
0
  6
CENTER
 62
2
 10
-58.500000
 20
77.486801
 11
-58.500000
 21
56.993599
  0
LINE
  8
0
  6
CONTINUOUS
 62
7
 10
-63.000000
 20
70.134003
 11
-63.000000
 21
67.800003
  0
LINE
  8
0
  6
CONTINUOUS
 62
7
 10
-54.000000
 20
70.134003
 11
-54.000000
 21
67.800003
  0
LINE
  8
0
  6
CONTINUOUS
 62
7
 10
-68.500000
 20
77.000000
 11
-64.000000
 21
77.000000
  0
LINE
  8
0
  6
CONTINUOUS
 62
7
 10
-68.500000
 20
77.000000
 11
-68.500000
 21
69.199997
  0
LINE
  8
0
  6
CONTINUOUS
 62
7
 10
-68.500000
 20
69.199997
 11
-63.000000
 21
69.199997
  0
LINE
  8
0
  6
CONTINUOUS
 62
7
 10
-63.700001
 20
76.699997
 11
-53.299999
 21
76.699997
  0
LINE
  8
0
  6
CONTINUOUS
 62
7
 10
-54.000000
 20
69.199997
 11
-48.500000
 21
69.199997
  0
LINE
  8
0
  6
CONTINUOUS
 62
7
 10
-53.300098
 20
76.700104
 11
-53.000099
 21
77.000099
  0
LINE
  8
0
  6
CONTINUOUS
 62
7
 10
-63.700001
 20
76.699997
 11
-64.000000
 21
77.000000
  0
LINE
  8
0
  6
CONTINUOUS
 62
7
 10
-53.000000
 20
77.000000
 11
-48.500000
 21
77.000000
  0
LINE
  8
0
  6
CONTINUOUS
 62
7
 10
-63.000000
 20
72.500000
 11
-63.000000
 21
71.865997
  0
LINE
  8
0
  6
CONTINUOUS
 62
7
 10
-54.000000
 20
72.500000
 11
-63.000000
 21
72.500000
  0
LINE
  8
0
  6
CONTINUOUS
 62
7
 10
-54.000000
 20
72.500000
 11
-54.000000
 21
71.865997
  0
LINE
  8
0
  6
CONTINUOUS
 62
7
 10
-70.000000
 20
58.000000
 11
-47.000000
 21
58.000000
  0
LINE
  8
0
  6
CONTINUOUS
 62
7
 10
-70.000000
 20
67.800003
 11
-70.000000
 21
58.000000
  0
LINE
  8
0
  6
CONTINUOUS
 62
7
 10
-47.000000
 20
76.500000
 11
-47.000000
 21
58.000000
  0
LINE
  8
0
  6
CONTINUOUS
 62
7
 10
-47.000000
 20
67.800003
 11
-54.000000
 21
67.800003
  0
LINE
  8
0
  6
CENTER
 62
2
 10
-65.000000
 20
64.500000
 11
-52.000000
 21
64.500000
  0
LINE
  8
0
  6
CONTINUOUS
 62
7
 10
-70.000000
 20
67.800003
 11
-63.000000
 21
67.800003
  0
LINE
  8
0
  6
CONTINUOUS
 62
7
 10
-48.500000
 20
77.000000
 11
-48.500000
 21
69.199997
  0
LINE
  8
0
  6
CENTER
 62
2
 10
-66.500000
 20
60.000000
 11
-66.500000
 21
56.000000
  0
LINE
  8
0
  6
CENTER
 62
2
 10
-50.500000
 20
60.000000
 11
-50.500000
 21
56.000000
  0
LINE
  8
0
  6
CENTER
 62
2
 10
-51.000000
 20
79.000000
 11
-51.000000
 21
75.000000
  0
LINE
  8
0
  6
CENTER
 62
2
 10
-66.000000
 20
79.000000
 11
-66.000000
 21
75.000000
  0
LINE
  8
0
  6
CONTINUOUS
 62
7
 10
-43.000000
 20
73.943398
 11
-41.750000
 21
73.221703
  0
LINE
  8
0
  6
CONTINUOUS
 62
7
 10
-41.750000
 20
73.221703
 11
-41.750000
 21
71.778297
  0
LINE
  8
0
  6
CONTINUOUS
 62
7
 10
-43.000000
 20
71.056602
 11
-41.750000
 21
71.778297
  0
LINE
  8
0
  6
CONTINUOUS
 62
7
 10
-44.250000
 20
71.778297
 11
-43.000000
 21
71.056602
  0
LINE
  8
0
  6
CONTINUOUS
 62
7
 10
-44.250000
 20
73.221703
 11
-44.250000
 21
71.778297
  0
LINE
  8
0
  6
CONTINUOUS
 62
7
 10
-42.999901
 20
73.943398
 11
-44.249901
 21
73.221703
  0
LINE
  8
0
  6
CONTINUOUS
 62
7
 10
-43.710701
 20
76.130997
 11
-45.789200
 21
74.931099
  0
LINE
  8
0
  6
CENTER
 62
2
 10
-43.000000
 20
77.500000
 11
-43.000000
 21
67.500000
  0
LINE
  8
0
  6
CENTER
 62
2
 10
-38.500000
 20
72.500000
 11
-48.500000
 21
72.500000
  0
LINE
  8
0
  6
CONTINUOUS
 62
7
 10
-42.289299
 20
76.131104
 11
-40.210800
 21
74.931099
  0
LINE
  8
0
  6
CONTINUOUS
 62
7
 10
-39.500000
 20
73.699997
 11
-39.500000
 21
71.300003
  0
LINE
  8
0
  6
CONTINUOUS
 62
7
 10
-42.289200
 20
68.868896
 11
-40.210701
 21
70.068901
  0
LINE
  8
0
  6
CONTINUOUS
 62
7
 10
-45.789200
 20
70.068901
 11
-43.710800
 21
68.868896
  0
LINE
  8
0
  6
CONTINUOUS
 62
7
 10
-48.500000
 20
76.500000
 11
-39.000000
 21
76.500000
  0
LINE
  8
0
  6
CONTINUOUS
 62
7
 10
-47.000000
 20
58.500000
 11
-39.000000
 21
58.500000
  0
LINE
  8
0
  6
CONTINUOUS
 62
7
 10
-39.000000
 20
76.500000
 11
-39.000000
 21
58.500000
  0
LINE
  8
0
  6
CONTINUOUS
 62
7
 10
-46.500000
 20
73.699997
 11
-46.500000
 21
71.300003
  0
LINE
  8
0
  6
CENTER
 62
2
 10
115.916000
 20
11.000000
 11
101.530998
 21
11.000000
  0
LINE
  8
0
  6
CONTINUOUS
 62
2
 10
109.500000
 20
8.900020
 11
104.250000
 21
8.900020
  0
LINE
  8
0
  6
CONTINUOUS
 62
2
 10
109.500000
 20
13.100000
 11
104.250000
 21
13.100000
  0
LINE
  8
0
  6
CONTINUOUS
 62
7
 10
109.500000
 20
13.500000
 11
104.250000
 21
13.500000
  0
LINE
  8
0
  6
CONTINUOUS
 62
7
 10
104.250000
 20
8.500000
 11
104.250000
 21
13.500000
  0
LINE
  8
0
  6
CONTINUOUS
 62
7
 10
109.500000
 20
8.500000
 11
104.250000
 21
8.500000
  0
LINE
  8
0
  6
CONTINUOUS
 62
7
 10
113.500000
 20
15.000000
 11
113.500000
 21
7.000000
  0
LINE
  8
0
  6
CONTINUOUS
 62
7
 10
113.500000
 20
7.499980
 11
109.500000
 21
7.499980
  0
LINE
  8
0
  6
CONTINUOUS
 62
7
 10
109.500000
 20
14.500000
 11
109.500000
 21
7.499990
  0
LINE
  8
0
  6
CONTINUOUS
 62
7
 10
109.500000
 20
10.289200
 11
113.500000
 21
10.289200
  0
LINE
  8
0
  6
CONTINUOUS
 62
7
 10
109.500000
 20
11.710800
 11
113.500000
 21
11.710800
  0
LINE
  8
0
  6
CONTINUOUS
 62
7
 10
109.500000
 20
8.210760
 11
113.500000
 21
8.210760
  0
LINE
  8
0
  6
CONTINUOUS
 62
7
 10
109.500000
 20
13.789200
 11
113.500000
 21
13.789200
  0
LINE
  8
0
  6
CENTER
 62
2
 10
160.117996
 20
11.000000
 11
174.468994
 21
11.000000
  0
LINE
  8
0
  6
CONTINUOUS
 62
2
 10
166.500000
 20
8.900020
 11
171.750000
 21
8.900020
  0
LINE
  8
0
  6
CONTINUOUS
 62
2
 10
166.500000
 20
13.100000
 11
171.750000
 21
13.100000
  0
LINE
  8
0
  6
CONTINUOUS
 62
7
 10
166.500000
 20
13.500000
 11
171.750000
 21
13.500000
  0
LINE
  8
0
  6
CONTINUOUS
 62
7
 10
171.750000
 20
8.500000
 11
171.750000
 21
13.500000
  0
LINE
  8
0
  6
CONTINUOUS
 62
7
 10
166.500000
 20
8.500000
 11
171.750000
 21
8.500000
  0
LINE
  8
0
  6
CONTINUOUS
 62
7
 10
162.500000
 20
15.000000
 11
162.500000
 21
7.000000
  0
LINE
  8
0
  6
CONTINUOUS
 62
7
 10
162.500000
 20
14.500000
 11
166.500000
 21
14.500000
  0
LINE
  8
0
  6
CONTINUOUS
 62
7
 10
162.500000
 20
7.499990
 11
166.500000
 21
7.499990
  0
LINE
  8
0
  6
CONTINUOUS
 62
7
 10
166.500000
 20
14.500000
 11
166.500000
 21
7.499990
  0
LINE
  8
0
  6
CONTINUOUS
 62
7
 10
166.500000
 20
10.289200
 11
162.500000
 21
10.289200
  0
LINE
  8
0
  6
CONTINUOUS
 62
7
 10
166.500000
 20
11.710800
 11
162.500000
 21
11.710800
  0
LINE
  8
0
  6
CONTINUOUS
 62
7
 10
166.384995
 20
8.210760
 11
162.500000
 21
8.210760
  0
LINE
  8
0
  6
CONTINUOUS
 62
7
 10
166.500000
 20
13.789200
 11
162.500000
 21
13.789200
  0
LINE
  8
0
  6
CONTINUOUS
 62
7
 10
162.500000
 20
7.000000
 11
113.500000
 21
7.000000
  0
LINE
  8
0
  6
CONTINUOUS
 62
7
 10
104.250000
 20
75.000000
 11
104.250000
 21
72.500000
  0
LINE
  8
0
  6
CONTINUOUS
 62
2
 10
108.000000
 20
74.599998
 11
104.250000
 21
74.599998
  0
LINE
  8
0
  6
CONTINUOUS
 62
7
 10
108.000000
 20
75.000000
 11
104.250000
 21
75.000000
  0
LINE
  8
0
  6
CONTINUOUS
 62
7
 10
170.500000
 20
75.000000
 11
171.750000
 21
75.000000
  0
LINE
  8
0
  6
CONTINUOUS
 62
7
 10
171.750000
 20
75.000000
 11
171.750000
 21
72.500000
  0
LINE
  8
0
  6
CONTINUOUS
 62
2
 10
170.500000
 20
74.599998
 11
171.750000
 21
74.599998
  0
LINE
  8
0
  6
CONTINUOUS
 62
7
 10
183.000000
 20
118.500000
 11
155.750000
 21
118.500000
  0
LINE
  8
0
  6
CONTINUOUS
 62
7
 10
162.500000
 20
119.000000
 11
166.500000
 21
119.000000
  0
LINE
  8
0
  6
CENTER
 62
2
 10
154.647003
 20
122.500000
 11
174.468994
 21
122.500000
  0
LINE
  8
0
  6
CONTINUOUS
 62
2
 10
166.500000
 20
120.400002
 11
171.750000
 21
120.400002
  0
LINE
  8
0
  6
CONTINUOUS
 62
2
 10
166.500000
 20
124.599998
 11
171.750000
 21
124.599998
  0
LINE
  8
0
  6
CONTINUOUS
 62
7
 10
166.500000
 20
125.000000
 11
171.750000
 21
125.000000
  0
LINE
  8
0
  6
CONTINUOUS
 62
7
 10
171.750000
 20
120.000000
 11
171.750000
 21
125.000000
  0
LINE
  8
0
  6
CONTINUOUS
 62
7
 10
166.500000
 20
120.000000
 11
171.750000
 21
120.000000
  0
LINE
  8
0
  6
CONTINUOUS
 62
7
 10
162.500000
 20
126.500000
 11
113.500000
 21
126.500000
  0
LINE
  8
0
  6
CONTINUOUS
 62
7
 10
157.500000
 20
126.500000
 11
157.500000
 21
118.500000
  0
LINE
  8
0
  6
CONTINUOUS
 62
7
 10
162.500000
 20
126.500000
 11
162.500000
 21
118.500000
  0
LINE
  8
0
  6
CONTINUOUS
 62
7
 10
155.750000
 20
126.000000
 11
140.250000
 21
126.000000
  0
LINE
  8
0
  6
CONTINUOUS
 62
7
 10
140.250000
 20
126.000000
 11
140.250000
 21
117.000000
  0
LINE
  8
0
  6
CONTINUOUS
 62
7
 10
155.750000
 20
126.000000
 11
155.750000
 21
117.000000
  0
LINE
  8
0
  6
CONTINUOUS
 62
7
 10
162.500000
 20
126.000000
 11
166.500000
 21
126.000000
  0
LINE
  8
0
  6
CONTINUOUS
 62
7
 10
166.500000
 20
126.000000
 11
166.500000
 21
119.000000
  0
LINE
  8
0
  6
CONTINUOUS
 62
7
 10
166.500000
 20
121.789001
 11
162.500000
 21
121.789001
  0
LINE
  8
0
  6
CONTINUOUS
 62
7
 10
166.500000
 20
123.210999
 11
162.500000
 21
123.210999
  0
LINE
  8
0
  6
CONTINUOUS
 62
7
 10
166.500000
 20
119.710999
 11
162.500000
 21
119.710999
  0
LINE
  8
0
  6
CONTINUOUS
 62
7
 10
166.500000
 20
125.289001
 11
162.500000
 21
125.289001
  0
LINE
  8
0
  6
CONTINUOUS
 62
7
 10
140.250000
 20
118.500000
 11
93.000000
 21
118.500000
  0
LINE
  8
0
  6
CONTINUOUS
 62
7
 10
113.500000
 20
119.000000
 11
109.500000
 21
119.000000
  0
LINE
  8
0
  6
CENTER
 62
2
 10
121.352997
 20
122.500000
 11
101.530998
 21
122.500000
  0
LINE
  8
0
  6
CONTINUOUS
 62
2
 10
109.500000
 20
120.400002
 11
104.250000
 21
120.400002
  0
LINE
  8
0
  6
CONTINUOUS
 62
2
 10
109.500000
 20
124.599998
 11
104.250000
 21
124.599998
  0
LINE
  8
0
  6
CONTINUOUS
 62
7
 10
109.500000
 20
125.000000
 11
104.250000
 21
125.000000
  0
LINE
  8
0
  6
CONTINUOUS
 62
7
 10
104.250000
 20
120.000000
 11
104.250000
 21
125.000000
  0
LINE
  8
0
  6
CONTINUOUS
 62
7
 10
109.500000
 20
120.000000
 11
104.250000
 21
120.000000
  0
LINE
  8
0
  6
CONTINUOUS
 62
7
 10
118.500000
 20
126.500000
 11
118.500000
 21
118.500000
  0
LINE
  8
0
  6
CONTINUOUS
 62
7
 10
113.500000
 20
126.500000
 11
113.500000
 21
118.500000
  0
LINE
  8
0
  6
CONTINUOUS
 62
7
 10
113.500000
 20
126.000000
 11
109.500000
 21
126.000000
  0
LINE
  8
0
  6
CONTINUOUS
 62
7
 10
109.500000
 20
126.000000
 11
109.500000
 21
119.000000
  0
LINE
  8
0
  6
CONTINUOUS
 62
7
 10
109.500000
 20
121.789001
 11
113.500000
 21
121.789001
  0
LINE
  8
0
  6
CONTINUOUS
 62
7
 10
109.500000
 20
123.210999
 11
113.500000
 21
123.210999
  0
LINE
  8
0
  6
CONTINUOUS
 62
7
 10
109.500000
 20
119.710999
 11
113.500000
 21
119.710999
  0
LINE
  8
0
  6
CONTINUOUS
 62
7
 10
109.500000
 20
125.289001
 11
113.500000
 21
125.289001
  0
LINE
  8
0
  6
CONTINUOUS
 62
7
 10
170.500000
 20
142.000000
 11
169.500000
 21
142.000000
  0
LINE
  8
0
  6
CONTINUOUS
 62
7
 10
140.250000
 20
143.500000
 11
140.250000
 21
135.500000
  0
LINE
  8
0
  6
CONTINUOUS
 62
7
 10
140.250000
 20
143.500000
 11
155.750000
 21
143.500000
  0
LINE
  8
0
  6
CONTINUOUS
 62
7
 10
140.250000
 20
135.500000
 11
155.750000
 21
135.500000
  0
LINE
  8
0
  6
CONTINUOUS
 62
7
 10
157.500000
 20
135.500000
 11
162.500000
 21
135.500000
  0
LINE
  8
0
  6
CONTINUOUS
 62
7
 10
155.750000
 20
143.500000
 11
155.750000
 21
135.500000
  0
LINE
  8
0
  6
CONTINUOUS
 62
7
 10
113.500000
 20
153.500000
 11
113.500000
 21
135.500000
  0
LINE
  8
0
  6
CONTINUOUS
 62
7
 10
113.500000
 20
153.500000
 11
162.500000
 21
153.500000
  0
LINE
  8
0
  6
CONTINUOUS
 62
7
 10
108.000000
 20
135.500000
 11
125.500000
 21
135.500000
  0
LINE
  8
0
  6
CONTINUOUS
 62
7
 10
118.500000
 20
142.500000
 11
118.500000
 21
135.500000
  0
LINE
  8
0
  6
CONTINUOUS
 62
7
 10
121.000000
 20
145.000000
 11
155.000000
 21
145.000000
  0
LINE
  8
0
  6
CONTINUOUS
 62
7
 10
157.500000
 20
142.500000
 11
157.500000
 21
135.500000
  0
LINE
  8
0
  6
CONTINUOUS
 62
7
 10
162.500000
 20
135.500000
 11
157.500000
 21
135.500000
  0
LINE
  8
0
  6
CONTINUOUS
 62
7
 10
162.500000
 20
153.500000
 11
162.500000
 21
135.500000
  0
LINE
  8
0
  6
CONTINUOUS
 62
2
 10
109.500000
 20
141.600006
 11
104.250000
 21
141.600006
  0
LINE
  8
0
  6
CONTINUOUS
 62
7
 10
109.500000
 20
142.000000
 11
104.250000
 21
142.000000
  0
LINE
  8
0
  6
CONTINUOUS
 62
2
 10
109.500000
 20
137.399994
 11
104.250000
 21
137.399994
  0
LINE
  8
0
  6
CONTINUOUS
 62
7
 10
109.500000
 20
143.199997
 11
109.500000
 21
135.800003
  0
LINE
  8
0
  6
CONTINUOUS
 62
7
 10
109.500000
 20
143.199997
 11
113.500000
 21
143.199997
  0
LINE
  8
0
  6
CONTINUOUS
 62
7
 10
109.500000
 20
135.800003
 11
113.500000
 21
135.800003
  0
LINE
  8
0
  6
CONTINUOUS
 62
7
 10
109.500000
 20
141.520996
 11
113.500000
 21
141.520996
  0
LINE
  8
0
  6
CONTINUOUS
 62
7
 10
113.500000
 20
140.699997
 11
109.500000
 21
140.699997
  0
LINE
  8
0
  6
CONTINUOUS
 62
7
 10
109.500000
 20
138.300003
 11
113.500000
 21
138.300003
  0
LINE
  8
0
  6
CONTINUOUS
 62
7
 10
113.500000
 20
137.479004
 11
109.500000
 21
137.479004
  0
LINE
  8
0
  6
CONTINUOUS
 62
7
 10
109.500000
 20
137.000000
 11
104.250000
 21
137.000000
  0
LINE
  8
0
  6
CENTER
 62
2
 10
121.352997
 20
139.500000
 11
100.835999
 21
139.500000
  0
LINE
  8
0
  6
CONTINUOUS
 62
7
 10
104.250000
 20
137.000000
 11
104.250000
 21
142.000000
  0
LINE
  8
0
  6
CONTINUOUS
 62
7
 10
171.750000
 20
137.000000
 11
171.750000
 21
142.000000
  0
LINE
  8
0
  6
CONTINUOUS
 62
2
 10
166.500000
 20
141.600006
 11
171.750000
 21
141.600006
  0
LINE
  8
0
  6
CONTINUOUS
 62
7
 10
166.500000
 20
142.000000
 11
171.750000
 21
142.000000
  0
LINE
  8
0
  6
CONTINUOUS
 62
2
 10
166.500000
 20
137.399994
 11
171.750000
 21
137.399994
  0
LINE
  8
0
  6
CONTINUOUS
 62
7
 10
166.500000
 20
143.199997
 11
166.500000
 21
135.800003
  0
LINE
  8
0
  6
CONTINUOUS
 62
7
 10
166.500000
 20
143.199997
 11
162.500000
 21
143.199997
  0
LINE
  8
0
  6
CONTINUOUS
 62
7
 10
166.500000
 20
135.800003
 11
162.500000
 21
135.800003
  0
LINE
  8
0
  6
CONTINUOUS
 62
7
 10
166.500000
 20
141.520996
 11
162.500000
 21
141.520996
  0
LINE
  8
0
  6
CONTINUOUS
 62
7
 10
162.500000
 20
140.699997
 11
166.500000
 21
140.699997
  0
LINE
  8
0
  6
CONTINUOUS
 62
7
 10
166.500000
 20
138.300003
 11
162.500000
 21
138.300003
  0
LINE
  8
0
  6
CONTINUOUS
 62
7
 10
162.500000
 20
137.479004
 11
166.500000
 21
137.479004
  0
LINE
  8
0
  6
CONTINUOUS
 62
7
 10
166.500000
 20
137.000000
 11
171.750000
 21
137.000000
  0
LINE
  8
0
  6
CENTER
 62
2
 10
154.647003
 20
139.500000
 11
175.164001
 21
139.500000
  0
LINE
  8
0
  6
CONTINUOUS
 62
7
 10
104.250000
 20
139.500000
 11
93.000000
 21
139.500000
  0
LINE
  8
0
  6
CONTINUOUS
 62
7
 10
140.250000
 20
142.800003
 11
125.500000
 21
142.800003
  0
LINE
  8
0
  6
CONTINUOUS
 62
7
 10
170.500000
 20
142.000000
 11
170.500000
 21
142.800003
  0
LINE
  8
0
  6
CONTINUOUS
 62
7
 10
157.481995
 20
142.800003
 11
155.750000
 21
142.800003
  0
LINE
  8
0
  6
CENTER
 62
2
 10
-215.399994
 20
67.400002
 11
-205.000000
 21
67.400002
  0
LINE
  8
0
  6
CONTINUOUS
 62
7
 10
-207.000000
 20
76.500000
 11
-207.000000
 21
58.500000
  0
LINE
  8
0
  6
CONTINUOUS
 62
2
 10
-207.000000
 20
71.900002
 11
-208.000000
 21
71.900002
  0
LINE
  8
0
  6
CONTINUOUS
 62
2
 10
-207.000000
 20
74.500000
 11
-208.000000
 21
74.500000
  0
LINE
  8
0
  6
CONTINUOUS
 62
7
 10
-207.000000
 20
76.500000
 11
-214.500000
 21
76.500000
  0
LINE
  8
0
  6
CONTINUOUS
 62
2
 10
-208.000000
 20
75.349998
 11
-208.000000
 21
74.500000
  0
LINE
  8
0
  6
CONTINUOUS
 62
2
 10
-211.800003
 20
71.050003
 11
-208.000000
 21
71.050003
  0
LINE
  8
0
  6
CONTINUOUS
 62
2
 10
-213.300003
 20
73.849998
 11
-213.300003
 21
72.550003
  0
LINE
  8
0
  6
CONTINUOUS
 62
2
 10
-211.800003
 20
75.349998
 11
-208.000000
 21
75.349998
  0
LINE
  8
0
  6
CONTINUOUS
 62
7
 10
-214.500000
 20
64.000000
 11
-216.000000
 21
64.000000
  0
LINE
  8
0
  6
CONTINUOUS
 62
7
 10
-207.000000
 20
58.500000
 11
-216.000000
 21
58.500000
  0
LINE
  8
0
  6
CONTINUOUS
 62
7
 10
-214.500000
 20
76.500000
 11
-214.500000
 21
64.000000
  0
LINE
  8
0
  6
CENTER
 62
2
 10
-215.399994
 20
73.199997
 11
-205.000000
 21
73.199997
  0
LINE
  8
0
  6
CONTINUOUS
 62
2
 10
-208.000000
 20
71.900002
 11
-208.000000
 21
71.050003
  0
LINE
  8
0
  6
CONTINUOUS
 62
7
 10
-215.399994
 20
76.199997
 11
-217.500000
 21
76.199997
  0
LINE
  8
0
  6
CONTINUOUS
 62
7
 10
-215.399994
 20
76.199997
 11
-215.399994
 21
65.199997
  0
LINE
  8
0
  6
CONTINUOUS
 62
7
 10
-215.399994
 20
65.199997
 11
-216.000000
 21
65.199997
  0
LINE
  8
0
  6
CENTER
 62
2
 10
50.599998
 20
67.400002
 11
61.000000
 21
67.400002
  0
LINE
  8
0
  6
CONTINUOUS
 62
7
 10
59.000000
 20
76.500000
 11
59.000000
 21
58.500000
  0
LINE
  8
0
  6
CONTINUOUS
 62
2
 10
59.000000
 20
71.900002
 11
58.000000
 21
71.900002
  0
LINE
  8
0
  6
CONTINUOUS
 62
2
 10
59.000000
 20
74.500000
 11
58.000000
 21
74.500000
  0
LINE
  8
0
  6
CONTINUOUS
 62
7
 10
59.000000
 20
76.500000
 11
51.500000
 21
76.500000
  0
LINE
  8
0
  6
CONTINUOUS
 62
2
 10
58.000000
 20
75.349998
 11
58.000000
 21
74.500000
  0
LINE
  8
0
  6
CONTINUOUS
 62
2
 10
54.200001
 20
71.050003
 11
58.000000
 21
71.050003
  0
LINE
  8
0
  6
CONTINUOUS
 62
2
 10
52.700001
 20
73.849998
 11
52.700001
 21
72.550003
  0
LINE
  8
0
  6
CONTINUOUS
 62
2
 10
54.200001
 20
75.349998
 11
58.000000
 21
75.349998
  0
LINE
  8
0
  6
CONTINUOUS
 62
7
 10
51.500000
 20
64.000000
 11
50.000000
 21
64.000000
  0
LINE
  8
0
  6
CONTINUOUS
 62
7
 10
59.000000
 20
58.500000
 11
50.000000
 21
58.500000
  0
LINE
  8
0
  6
CONTINUOUS
 62
7
 10
51.500000
 20
76.500000
 11
51.500000
 21
64.000000
  0
LINE
  8
0
  6
CENTER
 62
2
 10
50.599998
 20
73.199997
 11
61.000000
 21
73.199997
  0
LINE
  8
0
  6
CONTINUOUS
 62
2
 10
58.000000
 20
71.900002
 11
58.000000
 21
71.050003
  0
LINE
  8
0
  6
CONTINUOUS
 62
7
 10
50.599998
 20
76.199997
 11
48.500000
 21
76.199997
  0
LINE
  8
0
  6
CONTINUOUS
 62
7
 10
50.599998
 20
76.199997
 11
50.599998
 21
65.199997
  0
LINE
  8
0
  6
CONTINUOUS
 62
7
 10
50.599998
 20
65.199997
 11
50.000000
 21
65.199997
  0
LINE
  8
0
  6
CONTINUOUS
 62
7
 10
-79.000000
 20
76.500000
 11
-79.000000
 21
58.500000
  0
LINE
  8
0
  6
CONTINUOUS
 62
2
 10
-79.000000
 20
71.900002
 11
-78.000000
 21
71.900002
  0
LINE
  8
0
  6
CONTINUOUS
 62
2
 10
-79.000000
 20
74.500000
 11
-78.000000
 21
74.500000
  0
LINE
  8
0
  6
CONTINUOUS
 62
7
 10
-79.000000
 20
76.500000
 11
-71.500000
 21
76.500000
  0
LINE
  8
0
  6
CONTINUOUS
 62
2
 10
-78.000000
 20
75.349998
 11
-78.000000
 21
74.500000
  0
LINE
  8
0
  6
CONTINUOUS
 62
2
 10
-74.199997
 20
71.050003
 11
-78.000000
 21
71.050003
  0
LINE
  8
0
  6
CONTINUOUS
 62
2
 10
-72.699997
 20
73.849998
 11
-72.699997
 21
72.550003
  0
LINE
  8
0
  6
CONTINUOUS
 62
2
 10
-74.199997
 20
75.349998
 11
-78.000000
 21
75.349998
  0
LINE
  8
0
  6
CONTINUOUS
 62
7
 10
-71.500000
 20
64.000000
 11
-70.000000
 21
64.000000
  0
LINE
  8
0
  6
CONTINUOUS
 62
7
 10
-79.000000
 20
58.500000
 11
-70.000000
 21
58.500000
  0
LINE
  8
0
  6
CONTINUOUS
 62
7
 10
-71.500000
 20
76.500000
 11
-71.500000
 21
64.000000
  0
LINE
  8
0
  6
CENTER
 62
2
 10
-70.599998
 20
73.199997
 11
-81.000000
 21
73.199997
  0
LINE
  8
0
  6
CONTINUOUS
 62
2
 10
-78.000000
 20
71.900002
 11
-78.000000
 21
71.050003
  0
LINE
  8
0
  6
CONTINUOUS
 62
7
 10
-70.599998
 20
76.199997
 11
-68.500000
 21
76.199997
  0
LINE
  8
0
  6
CONTINUOUS
 62
7
 10
-70.599998
 20
76.199997
 11
-70.599998
 21
65.199997
  0
LINE
  8
0
  6
CONTINUOUS
 62
7
 10
-70.599998
 20
65.199997
 11
-70.000000
 21
65.199997
  0
LINE
  8
0
  6
CENTER
 62
2
 10
-70.599998
 20
67.400002
 11
-81.000000
 21
67.400002
  0
LINE
  8
0
  6
CONTINUOUS
 62
7
 10
217.000000
 20
76.500000
 11
217.000000
 21
58.500000
  0
LINE
  8
0
  6
CONTINUOUS
 62
2
 10
217.000000
 20
71.900002
 11
218.000000
 21
71.900002
  0
LINE
  8
0
  6
CONTINUOUS
 62
2
 10
217.000000
 20
74.500000
 11
218.000000
 21
74.500000
  0
LINE
  8
0
  6
CONTINUOUS
 62
7
 10
217.000000
 20
76.500000
 11
224.500000
 21
76.500000
  0
LINE
  8
0
  6
CONTINUOUS
 62
2
 10
218.000000
 20
75.349998
 11
218.000000
 21
74.500000
  0
LINE
  8
0
  6
CONTINUOUS
 62
2
 10
221.800003
 20
71.050003
 11
218.000000
 21
71.050003
  0
LINE
  8
0
  6
CONTINUOUS
 62
2
 10
223.300003
 20
73.849998
 11
223.300003
 21
72.550003
  0
LINE
  8
0
  6
CONTINUOUS
 62
2
 10
221.800003
 20
75.349998
 11
218.000000
 21
75.349998
  0
LINE
  8
0
  6
CONTINUOUS
 62
7
 10
224.500000
 20
64.000000
 11
226.000000
 21
64.000000
  0
LINE
  8
0
  6
CONTINUOUS
 62
7
 10
217.000000
 20
58.500000
 11
226.000000
 21
58.500000
  0
LINE
  8
0
  6
CONTINUOUS
 62
7
 10
224.500000
 20
76.500000
 11
224.500000
 21
64.000000
  0
LINE
  8
0
  6
CENTER
 62
2
 10
225.399994
 20
73.199997
 11
215.000000
 21
73.199997
  0
LINE
  8
0
  6
CONTINUOUS
 62
2
 10
218.000000
 20
71.900002
 11
218.000000
 21
71.050003
  0
LINE
  8
0
  6
CONTINUOUS
 62
7
 10
225.399994
 20
76.199997
 11
227.500000
 21
76.199997
  0
LINE
  8
0
  6
CONTINUOUS
 62
7
 10
225.399994
 20
76.199997
 11
225.399994
 21
65.199997
  0
LINE
  8
0
  6
CONTINUOUS
 62
7
 10
225.399994
 20
65.199997
 11
226.000000
 21
65.199997
  0
LINE
  8
0
  6
CENTER
 62
2
 10
225.399994
 20
67.400002
 11
215.000000
 21
67.400002
  0
LINE
  8
0
  6
CONTINUOUS
 62
7
 10
-162.000000
 20
76.500000
 11
-162.000000
 21
58.500000
  0
LINE
  8
0
  6
CONTINUOUS
 62
7
 10
-162.000000
 20
58.500000
 11
-124.000000
 21
58.500000
  0
LINE
  8
0
  6
CONTINUOUS
 62
7
 10
-124.000000
 20
76.500000
 11
-124.000000
 21
58.500000
  0
LINE
  8
0
  6
CONTINUOUS
 62
2
 10
-162.000000
 20
66.099998
 11
-124.000000
 21
66.099998
  0
LINE
  8
0
  6
CONTINUOUS
 62
2
 10
-162.000000
 20
68.699997
 11
-124.000000
 21
68.699997
  0
LINE
  8
0
  6
CONTINUOUS
 62
2
 10
-162.000000
 20
71.900002
 11
-124.000000
 21
71.900002
  0
LINE
  8
0
  6
CONTINUOUS
 62
2
 10
-162.000000
 20
74.500000
 11
-124.000000
 21
74.500000
  0
LINE
  8
0
  6
CONTINUOUS
 62
7
 10
-124.000000
 20
76.500000
 11
-162.000000
 21
76.500000
  0
LINE
  8
0
  6
CONTINUOUS
 62
7
 10
-162.000000
 20
47.000000
 11
-162.000000
 21
38.000000
  0
LINE
  8
0
  6
CONTINUOUS
 62
7
 10
-124.000000
 20
47.000000
 11
-162.000000
 21
47.000000
  0
LINE
  8
0
  6
CONTINUOUS
 62
7
 10
-124.000000
 20
47.000000
 11
-124.000000
 21
38.000000
  0
LINE
  8
0
  6
CONTINUOUS
 62
7
 10
-141.250000
 20
95.500000
 11
-173.000000
 21
95.500000
  0
LINE
  8
0
  6
CONTINUOUS
 62
7
 10
-162.000000
 20
95.500000
 11
-162.000000
 21
86.500000
  0
LINE
  8
0
  6
CONTINUOUS
 62
7
 10
-124.000000
 20
94.000000
 11
-162.000000
 21
94.000000
  0
LINE
  8
0
  6
CONTINUOUS
 62
7
 10
-124.000000
 20
86.500000
 11
-162.000000
 21
86.500000
  0
LINE
  8
0
  6
CONTINUOUS
 62
7
 10
-124.000000
 20
95.500000
 11
-124.000000
 21
86.500000
  0
LINE
  8
0
  6
CONTINUOUS
 62
7
 10
-141.250000
 20
97.000000
 11
-141.250000
 21
94.900002
  0
LINE
  8
0
  6
CONTINUOUS
 62
7
 10
-134.750000
 20
94.900002
 11
-141.250000
 21
94.900002
  0
LINE
  8
0
  6
CONTINUOUS
 62
7
 10
-134.750000
 20
97.000000
 11
-134.750000
 21
94.900002
  0
LINE
  8
0
  6
CONTINUOUS
 62
7
 10
-113.000000
 20
95.500000
 11
-134.750000
 21
95.500000
  0
LINE
  8
0
  6
CONTINUOUS
 62
7
 10
108.000000
 20
47.000000
 11
108.000000
 21
38.000000
  0
LINE
  8
0
  6
CONTINUOUS
 62
7
 10
168.000000
 20
47.000000
 11
108.000000
 21
47.000000
  0
LINE
  8
0
  6
CONTINUOUS
 62
7
 10
168.000000
 20
47.000000
 11
168.000000
 21
38.000000
  0
LINE
  8
0
  6
CONTINUOUS
 62
7
 10
168.000000
 20
76.500000
 11
168.000000
 21
58.500000
  0
LINE
  8
0
  6
CONTINUOUS
 62
7
 10
108.000000
 20
58.500000
 11
168.000000
 21
58.500000
  0
LINE
  8
0
  6
CONTINUOUS
 62
7
 10
108.000000
 20
76.500000
 11
108.000000
 21
58.500000
  0
LINE
  8
0
  6
CONTINUOUS
 62
7
 10
168.000000
 20
76.500000
 11
108.000000
 21
76.500000
  0
LINE
  8
0
  6
CONTINUOUS
 62
2
 10
108.000000
 20
68.699997
 11
168.000000
 21
68.699997
  0
LINE
  8
0
  6
CONTINUOUS
 62
2
 10
108.000000
 20
66.099998
 11
168.000000
 21
66.099998
  0
LINE
  8
0
  6
CONTINUOUS
 62
2
 10
108.000000
 20
74.500000
 11
168.000000
 21
74.500000
  0
LINE
  8
0
  6
CONTINUOUS
 62
2
 10
108.000000
 20
71.900002
 11
168.000000
 21
71.900002
  0
LINE
  8
0
  6
CONTINUOUS
 62
7
 10
168.000000
 20
95.500000
 11
168.000000
 21
86.500000
  0
LINE
  8
0
  6
CONTINUOUS
 62
7
 10
108.000000
 20
95.500000
 11
108.000000
 21
86.500000
  0
LINE
  8
0
  6
CONTINUOUS
 62
7
 10
168.000000
 20
94.000000
 11
108.000000
 21
94.000000
  0
LINE
  8
0
  6
CONTINUOUS
 62
7
 10
168.000000
 20
86.500000
 11
108.000000
 21
86.500000
  0
LINE
  8
0
  6
CONTINUOUS
 62
7
 10
144.750000
 20
97.000000
 11
144.750000
 21
94.900002
  0
LINE
  8
0
  6
CONTINUOUS
 62
7
 10
151.250000
 20
94.900002
 11
144.750000
 21
94.900002
  0
LINE
  8
0
  6
CONTINUOUS
 62
7
 10
151.250000
 20
97.000000
 11
151.250000
 21
94.900002
  0
LINE
  8
0
  6
CONTINUOUS
 62
7
 10
144.750000
 20
95.500000
 11
93.000000
 21
95.500000
  0
LINE
  8
0
  6
CONTINUOUS
 62
7
 10
183.000000
 20
95.500000
 11
151.250000
 21
95.500000
  0
LINE
  8
0
  6
CONTINUOUS
 62
7
 10
108.000000
 20
137.000000
 11
108.000000
 21
135.500000
  0
LINE
  8
0
  6
CENTER
 62
2
 10
-167.500000
 20
68.000000
 11
-167.500000
 21
59.000000
  0
LINE
  8
0
  6
CENTER
 62
2
 10
-172.000000
 20
63.500000
 11
-163.000000
 21
63.500000
  0
LINE
  8
0
  6
CENTER
 62
2
 10
-118.500000
 20
68.000000
 11
-118.500000
 21
59.000000
  0
LINE
  8
0
  6
CENTER
 62
2
 10
-123.000000
 20
63.500000
 11
-114.000000
 21
63.500000
  0
LINE
  8
0
  6
CENTER
 62
2
 10
98.500000
 20
68.000000
 11
98.500000
 21
59.000000
  0
LINE
  8
0
  6
CENTER
 62
2
 10
94.000000
 20
63.500000
 11
103.000000
 21
63.500000
  0
LINE
  8
0
  6
CENTER
 62
2
 10
177.500000
 20
68.000000
 11
177.500000
 21
59.000000
  0
LINE
  8
0
  6
CENTER
 62
2
 10
173.000000
 20
63.500000
 11
182.000000
 21
63.500000
  0
LINE
  8
0
  6
CENTER
 62
2
 10
-167.500000
 20
-111.000000
 11
-167.500000
 21
-120.000000
  0
LINE
  8
0
  6
CENTER
 62
2
 10
-172.000000
 20
-115.500000
 11
-163.000000
 21
-115.500000
  0
LINE
  8
0
  6
CENTER
 62
2
 10
-118.500000
 20
-111.000000
 11
-118.500000
 21
-120.000000
  0
LINE
  8
0
  6
CENTER
 62
2
 10
-123.000000
 20
-115.500000
 11
-114.000000
 21
-115.500000
  0
LINE
  8
0
  6
CENTER
 62
2
 10
98.500000
 20
-111.000000
 11
98.500000
 21
-120.000000
  0
LINE
  8
0
  6
CENTER
 62
2
 10
94.000000
 20
-115.500000
 11
103.000000
 21
-115.500000
  0
LINE
  8
0
  6
CENTER
 62
2
 10
177.500000
 20
-111.000000
 11
177.500000
 21
-120.000000
  0
LINE
  8
0
  6
CENTER
 62
2
 10
173.000000
 20
-115.500000
 11
182.000000
 21
-115.500000
  0
LINE
  8
0
  6
CONTINUOUS
 62
7
 10
120.250000
 20
140.949997
 11
118.750000
 21
140.949997
  0
LINE
  8
0
  6
CONTINUOUS
 62
7
 10
118.500000
 20
142.000000
 11
118.750000
 21
142.000000
  0
LINE
  8
0
  6
CONTINUOUS
 62
7
 10
118.750000
 20
137.000000
 11
118.750000
 21
142.000000
  0
LINE
  8
0
  6
CONTINUOUS
 62
7
 10
120.250000
 20
138.050003
 11
120.250000
 21
140.949997
  0
LINE
  8
0
  6
CONTINUOUS
 62
7
 10
120.250000
 20
138.050003
 11
118.750000
 21
138.050003
  0
LINE
  8
0
  6
CONTINUOUS
 62
7
 10
118.500000
 20
137.000000
 11
118.750000
 21
137.000000
  0
LINE
  8
0
  6
CONTINUOUS
 62
2
 10
118.500000
 20
141.600006
 11
118.750000
 21
141.600006
  0
LINE
  8
0
  6
CONTINUOUS
 62
2
 10
118.500000
 20
137.399994
 11
118.750000
 21
137.399994
  0
LINE
  8
0
  6
CONTINUOUS
 62
2
 10
157.500000
 20
141.600006
 11
157.250000
 21
141.600006
  0
LINE
  8
0
  6
CONTINUOUS
 62
7
 10
157.500000
 20
137.000000
 11
157.250000
 21
137.000000
  0
LINE
  8
0
  6
CONTINUOUS
 62
2
 10
157.500000
 20
137.399994
 11
157.250000
 21
137.399994
  0
LINE
  8
0
  6
CONTINUOUS
 62
7
 10
157.500000
 20
142.000000
 11
157.250000
 21
142.000000
  0
LINE
  8
0
  6
CONTINUOUS
 62
7
 10
155.750000
 20
140.949997
 11
157.250000
 21
140.949997
  0
LINE
  8
0
  6
CONTINUOUS
 62
7
 10
157.250000
 20
137.000000
 11
157.250000
 21
142.000000
  0
LINE
  8
0
  6
CONTINUOUS
 62
7
 10
155.750000
 20
138.050003
 11
157.250000
 21
138.050003
  0
LINE
  8
0
  6
CONTINUOUS
 62
7
 10
157.500000
 20
125.000000
 11
157.250000
 21
125.000000
  0
LINE
  8
0
  6
CONTINUOUS
 62
7
 10
155.750000
 20
123.949997
 11
157.250000
 21
123.949997
  0
LINE
  8
0
  6
CONTINUOUS
 62
7
 10
157.250000
 20
120.000000
 11
157.250000
 21
125.000000
  0
LINE
  8
0
  6
CONTINUOUS
 62
7
 10
155.750000
 20
121.050003
 11
157.250000
 21
121.050003
  0
LINE
  8
0
  6
CONTINUOUS
 62
7
 10
157.500000
 20
120.000000
 11
157.250000
 21
120.000000
  0
LINE
  8
0
  6
CONTINUOUS
 62
2
 10
157.500000
 20
124.599998
 11
157.250000
 21
124.599998
  0
LINE
  8
0
  6
CONTINUOUS
 62
2
 10
157.500000
 20
120.400002
 11
157.250000
 21
120.400002
  0
LINE
  8
0
  6
CONTINUOUS
 62
7
 10
118.750000
 20
120.000000
 11
118.750000
 21
125.000000
  0
LINE
  8
0
  6
CONTINUOUS
 62
7
 10
120.250000
 20
123.949997
 11
118.750000
 21
123.949997
  0
LINE
  8
0
  6
CONTINUOUS
 62
7
 10
120.250000
 20
121.050003
 11
120.250000
 21
123.949997
  0
LINE
  8
0
  6
CONTINUOUS
 62
7
 10
120.250000
 20
121.050003
 11
118.750000
 21
121.050003
  0
LINE
  8
0
  6
CONTINUOUS
 62
7
 10
118.500000
 20
120.000000
 11
118.750000
 21
120.000000
  0
LINE
  8
0
  6
CONTINUOUS
 62
2
 10
118.500000
 20
124.599998
 11
118.750000
 21
124.599998
  0
LINE
  8
0
  6
CONTINUOUS
 62
2
 10
118.500000
 20
120.400002
 11
118.750000
 21
120.400002
  0
LINE
  8
0
  6
CONTINUOUS
 62
7
 10
118.500000
 20
125.000000
 11
118.750000
 21
125.000000
  0
LINE
  8
0
  6
CONTINUOUS
 62
7
 10
120.250000
 20
-86.050003
 11
118.750000
 21
-86.050003
  0
LINE
  8
0
  6
CONTINUOUS
 62
7
 10
118.500000
 20
-85.000000
 11
118.750000
 21
-85.000000
  0
LINE
  8
0
  6
CONTINUOUS
 62
7
 10
118.750000
 20
-90.000000
 11
118.750000
 21
-85.000000
  0
LINE
  8
0
  6
CONTINUOUS
 62
7
 10
120.250000
 20
-88.949997
 11
120.250000
 21
-86.050003
  0
LINE
  8
0
  6
CONTINUOUS
 62
7
 10
120.250000
 20
-88.949997
 11
118.750000
 21
-88.949997
  0
LINE
  8
0
  6
CONTINUOUS
 62
7
 10
118.500000
 20
-90.000000
 11
118.750000
 21
-90.000000
  0
LINE
  8
0
  6
CONTINUOUS
 62
2
 10
118.500000
 20
-85.400002
 11
118.750000
 21
-85.400002
  0
LINE
  8
0
  6
CONTINUOUS
 62
2
 10
118.500000
 20
-89.599998
 11
118.750000
 21
-89.599998
  0
LINE
  8
0
  6
CONTINUOUS
 62
2
 10
157.500000
 20
-85.400002
 11
157.250000
 21
-85.400002
  0
LINE
  8
0
  6
CONTINUOUS
 62
7
 10
157.500000
 20
-90.000000
 11
157.250000
 21
-90.000000
  0
LINE
  8
0
  6
CONTINUOUS
 62
2
 10
157.500000
 20
-89.599998
 11
157.250000
 21
-89.599998
  0
LINE
  8
0
  6
CONTINUOUS
 62
7
 10
157.500000
 20
-85.000000
 11
157.250000
 21
-85.000000
  0
LINE
  8
0
  6
CONTINUOUS
 62
7
 10
155.750000
 20
-86.050003
 11
157.250000
 21
-86.050003
  0
LINE
  8
0
  6
CONTINUOUS
 62
7
 10
157.250000
 20
-90.000000
 11
157.250000
 21
-85.000000
  0
LINE
  8
0
  6
CONTINUOUS
 62
7
 10
155.750000
 20
-88.949997
 11
157.250000
 21
-88.949997
  0
LINE
  8
0
  6
CONTINUOUS
 62
7
 10
157.500000
 20
-104.000000
 11
157.250000
 21
-104.000000
  0
LINE
  8
0
  6
CONTINUOUS
 62
7
 10
155.750000
 20
-105.050003
 11
157.250000
 21
-105.050003
  0
LINE
  8
0
  6
CONTINUOUS
 62
7
 10
157.250000
 20
-109.000000
 11
157.250000
 21
-104.000000
  0
LINE
  8
0
  6
CONTINUOUS
 62
7
 10
155.750000
 20
-107.949997
 11
157.250000
 21
-107.949997
  0
LINE
  8
0
  6
CONTINUOUS
 62
7
 10
157.500000
 20
-109.000000
 11
157.250000
 21
-109.000000
  0
LINE
  8
0
  6
CONTINUOUS
 62
2
 10
157.500000
 20
-104.400002
 11
157.250000
 21
-104.400002
  0
LINE
  8
0
  6
CONTINUOUS
 62
2
 10
157.500000
 20
-108.599998
 11
157.250000
 21
-108.599998
  0
LINE
  8
0
  6
CONTINUOUS
 62
7
 10
118.750000
 20
-109.000000
 11
118.750000
 21
-104.000000
  0
LINE
  8
0
  6
CONTINUOUS
 62
7
 10
120.250000
 20
-105.050003
 11
118.750000
 21
-105.050003
  0
LINE
  8
0
  6
CONTINUOUS
 62
7
 10
120.250000
 20
-107.949997
 11
120.250000
 21
-105.050003
  0
LINE
  8
0
  6
CONTINUOUS
 62
7
 10
120.250000
 20
-107.949997
 11
118.750000
 21
-107.949997
  0
LINE
  8
0
  6
CONTINUOUS
 62
7
 10
118.500000
 20
-109.000000
 11
118.750000
 21
-109.000000
  0
LINE
  8
0
  6
CONTINUOUS
 62
2
 10
118.500000
 20
-104.400002
 11
118.750000
 21
-104.400002
  0
LINE
  8
0
  6
CONTINUOUS
 62
2
 10
118.500000
 20
-108.599998
 11
118.750000
 21
-108.599998
  0
LINE
  8
0
  6
CONTINUOUS
 62
7
 10
118.500000
 20
-104.000000
 11
118.750000
 21
-104.000000
  0
LINE
  8
0
  6
CONTINUOUS
 62
7
 10
-157.250000
 20
137.000000
 11
-157.250000
 21
142.000000
  0
LINE
  8
0
  6
CONTINUOUS
 62
7
 10
-155.750000
 20
138.050003
 11
-157.250000
 21
138.050003
  0
LINE
  8
0
  6
CONTINUOUS
 62
7
 10
-155.750000
 20
140.949997
 11
-157.250000
 21
140.949997
  0
LINE
  8
0
  6
CONTINUOUS
 62
7
 10
-155.750000
 20
138.050003
 11
-155.750000
 21
140.949997
  0
LINE
  8
0
  6
CONTINUOUS
 62
7
 10
-157.500000
 20
137.000000
 11
-157.250000
 21
137.000000
  0
LINE
  8
0
  6
CONTINUOUS
 62
2
 10
-157.500000
 20
141.600006
 11
-157.250000
 21
141.600006
  0
LINE
  8
0
  6
CONTINUOUS
 62
2
 10
-157.500000
 20
137.399994
 11
-157.250000
 21
137.399994
  0
LINE
  8
0
  6
CONTINUOUS
 62
7
 10
-157.500000
 20
142.000000
 11
-157.250000
 21
142.000000
  0
LINE
  8
0
  6
CONTINUOUS
 62
7
 10
-157.250000
 20
120.000000
 11
-157.250000
 21
125.000000
  0
LINE
  8
0
  6
CONTINUOUS
 62
7
 10
-155.750000
 20
121.050003
 11
-157.250000
 21
121.050003
  0
LINE
  8
0
  6
CONTINUOUS
 62
7
 10
-155.750000
 20
121.050003
 11
-155.750000
 21
123.949997
  0
LINE
  8
0
  6
CONTINUOUS
 62
7
 10
-157.500000
 20
120.000000
 11
-157.250000
 21
120.000000
  0
LINE
  8
0
  6
CONTINUOUS
 62
2
 10
-157.500000
 20
124.599998
 11
-157.250000
 21
124.599998
  0
LINE
  8
0
  6
CONTINUOUS
 62
2
 10
-157.500000
 20
120.400002
 11
-157.250000
 21
120.400002
  0
LINE
  8
0
  6
CONTINUOUS
 62
7
 10
-157.500000
 20
125.000000
 11
-157.250000
 21
125.000000
  0
LINE
  8
0
  6
CONTINUOUS
 62
7
 10
-155.750000
 20
123.949997
 11
-157.250000
 21
123.949997
  0
LINE
  8
0
  6
CONTINUOUS
 62
7
 10
-130.250000
 20
121.050003
 11
-128.750000
 21
121.050003
  0
LINE
  8
0
  6
CONTINUOUS
 62
2
 10
-128.500000
 20
137.399994
 11
-128.750000
 21
137.399994
  0
LINE
  8
0
  6
CONTINUOUS
 62
7
 10
-128.500000
 20
120.000000
 11
-128.750000
 21
120.000000
  0
LINE
  8
0
  6
CONTINUOUS
 62
2
 10
-128.500000
 20
124.599998
 11
-128.750000
 21
124.599998
  0
LINE
  8
0
  6
CONTINUOUS
 62
2
 10
-128.500000
 20
120.400002
 11
-128.750000
 21
120.400002
  0
LINE
  8
0
  6
CONTINUOUS
 62
7
 10
-128.500000
 20
125.000000
 11
-128.750000
 21
125.000000
  0
LINE
  8
0
  6
CONTINUOUS
 62
7
 10
-128.750000
 20
120.000000
 11
-128.750000
 21
125.000000
  0
LINE
  8
0
  6
CONTINUOUS
 62
7
 10
-130.250000
 20
123.949997
 11
-128.750000
 21
123.949997
  0
LINE
  8
0
  6
CONTINUOUS
 62
7
 10
-128.500000
 20
142.000000
 11
-128.750000
 21
142.000000
  0
LINE
  8
0
  6
CONTINUOUS
 62
7
 10
-130.250000
 20
138.050003
 11
-128.750000
 21
138.050003
  0
LINE
  8
0
  6
CONTINUOUS
 62
7
 10
-130.250000
 20
140.949997
 11
-128.750000
 21
140.949997
  0
LINE
  8
0
  6
CONTINUOUS
 62
7
 10
-128.750000
 20
137.000000
 11
-128.750000
 21
142.000000
  0
LINE
  8
0
  6
CONTINUOUS
 62
7
 10
-128.500000
 20
137.000000
 11
-128.750000
 21
137.000000
  0
LINE
  8
0
  6
CONTINUOUS
 62
2
 10
-128.500000
 20
141.600006
 11
-128.750000
 21
141.600006
  0
LINE
  8
0
  6
CONTINUOUS
 62
7
 10
-157.250000
 20
-90.000000
 11
-157.250000
 21
-85.000000
  0
LINE
  8
0
  6
CONTINUOUS
 62
7
 10
-155.750000
 20
-88.949997
 11
-157.250000
 21
-88.949997
  0
LINE
  8
0
  6
CONTINUOUS
 62
7
 10
-155.750000
 20
-86.050003
 11
-157.250000
 21
-86.050003
  0
LINE
  8
0
  6
CONTINUOUS
 62
7
 10
-155.750000
 20
-88.949997
 11
-155.750000
 21
-86.050003
  0
LINE
  8
0
  6
CONTINUOUS
 62
7
 10
-157.500000
 20
-90.000000
 11
-157.250000
 21
-90.000000
  0
LINE
  8
0
  6
CONTINUOUS
 62
2
 10
-157.500000
 20
-85.400002
 11
-157.250000
 21
-85.400002
  0
LINE
  8
0
  6
CONTINUOUS
 62
2
 10
-157.500000
 20
-89.599998
 11
-157.250000
 21
-89.599998
  0
LINE
  8
0
  6
CONTINUOUS
 62
7
 10
-157.500000
 20
-85.000000
 11
-157.250000
 21
-85.000000
  0
LINE
  8
0
  6
CONTINUOUS
 62
7
 10
-157.250000
 20
-109.000000
 11
-157.250000
 21
-104.000000
  0
LINE
  8
0
  6
CONTINUOUS
 62
7
 10
-155.750000
 20
-107.949997
 11
-157.250000
 21
-107.949997
  0
LINE
  8
0
  6
CONTINUOUS
 62
7
 10
-155.750000
 20
-107.949997
 11
-155.750000
 21
-105.050003
  0
LINE
  8
0
  6
CONTINUOUS
 62
7
 10
-157.500000
 20
-109.000000
 11
-157.250000
 21
-109.000000
  0
LINE
  8
0
  6
CONTINUOUS
 62
2
 10
-157.500000
 20
-104.400002
 11
-157.250000
 21
-104.400002
  0
LINE
  8
0
  6
CONTINUOUS
 62
2
 10
-157.500000
 20
-108.599998
 11
-157.250000
 21
-108.599998
  0
LINE
  8
0
  6
CONTINUOUS
 62
7
 10
-157.500000
 20
-104.000000
 11
-157.250000
 21
-104.000000
  0
LINE
  8
0
  6
CONTINUOUS
 62
7
 10
-155.750000
 20
-105.050003
 11
-157.250000
 21
-105.050003
  0
LINE
  8
0
  6
CONTINUOUS
 62
7
 10
-130.250000
 20
-107.949997
 11
-128.750000
 21
-107.949997
  0
LINE
  8
0
  6
CONTINUOUS
 62
2
 10
-128.500000
 20
-89.599998
 11
-128.750000
 21
-89.599998
  0
LINE
  8
0
  6
CONTINUOUS
 62
7
 10
-128.500000
 20
-109.000000
 11
-128.750000
 21
-109.000000
  0
LINE
  8
0
  6
CONTINUOUS
 62
2
 10
-128.500000
 20
-104.400002
 11
-128.750000
 21
-104.400002
  0
LINE
  8
0
  6
CONTINUOUS
 62
2
 10
-128.500000
 20
-108.599998
 11
-128.750000
 21
-108.599998
  0
LINE
  8
0
  6
CONTINUOUS
 62
7
 10
-128.500000
 20
-104.000000
 11
-128.750000
 21
-104.000000
  0
LINE
  8
0
  6
CONTINUOUS
 62
7
 10
-128.750000
 20
-109.000000
 11
-128.750000
 21
-104.000000
  0
LINE
  8
0
  6
CONTINUOUS
 62
7
 10
-130.250000
 20
-105.050003
 11
-128.750000
 21
-105.050003
  0
LINE
  8
0
  6
CONTINUOUS
 62
7
 10
-128.500000
 20
-85.000000
 11
-128.750000
 21
-85.000000
  0
LINE
  8
0
  6
CONTINUOUS
 62
7
 10
-130.250000
 20
-88.949997
 11
-128.750000
 21
-88.949997
  0
LINE
  8
0
  6
CONTINUOUS
 62
7
 10
-130.250000
 20
-86.050003
 11
-128.750000
 21
-86.050003
  0
LINE
  8
0
  6
CONTINUOUS
 62
7
 10
-128.750000
 20
-90.000000
 11
-128.750000
 21
-85.000000
  0
LINE
  8
0
  6
CONTINUOUS
 62
7
 10
-128.500000
 20
-90.000000
 11
-128.750000
 21
-90.000000
  0
LINE
  8
0
  6
CONTINUOUS
 62
2
 10
-128.500000
 20
-85.400002
 11
-128.750000
 21
-85.400002
  0
LINE
  8
0
  6
CONTINUOUS
 62
7
 10
0.424988
 20
195.500000
 11
0.424988
 21
-195.000000
  0
LINE
  8
0
  6
CONTINUOUS
 62
7
 10
-281.250000
 20
0.250000
 11
282.100006
 21
0.250000
  0
LINE
  8
0
  6
CONTINUOUS
 62
7
 10
113.500000
 20
14.500000
 11
109.500000
 21
14.500000
  0
ARC
  8
0
  6
CONTINUOUS
 62
7
 10
121.000000
 20
-109.500000
 40
2.500000
 50
180.000000
 51
270.000000
  0
ARC
  8
0
  6
CONTINUOUS
 62
7
 10
155.000000
 20
-109.500000
 40
2.500000
 50
270.000000
 51
0.000000
  0
ARC
  8
0
  6
CONTINUOUS
 62
7
 10
-75.000000
 20
-106.500000
 40
3.700000
 50
18.924299
 51
41.075199
  0
ARC
  8
0
  6
CONTINUOUS
 62
7
 10
-167.500000
 20
-31.799999
 40
4.800000
 50
303.557007
 51
351.614014
  0
ARC
  8
0
  6
CONTINUOUS
 62
7
 10
-118.500000
 20
-31.799999
 40
4.800000
 50
188.384995
 51
236.442993
  0
CIRCLE
  8
0
  6
CONTINUOUS
 62
7
 10
-130.500000
 20
-64.500000
 40
1.250000
  0
CIRCLE
  8
0
  6
CONTINUOUS
 62
2
 10
-130.500000
 20
-64.500000
 40
1.500000
  0
CIRCLE
  8
0
  6
CONTINUOUS
 62
7
 10
-145.500000
 20
-79.500000
 40
1.250000
  0
CIRCLE
  8
0
  6
CONTINUOUS
 62
7
 10
-145.500000
 20
-64.500000
 40
1.250000
  0
CIRCLE
  8
0
  6
CONTINUOUS
 62
2
 10
-145.500000
 20
-64.500000
 40
1.500000
  0
CIRCLE
  8
0
  6
CONTINUOUS
 62
2
 10
-145.500000
 20
-79.500000
 40
1.500000
  0
CIRCLE
  8
0
  6
CONTINUOUS
 62
7
 10
-130.500000
 20
-79.500000
 40
1.250000
  0
CIRCLE
  8
0
  6
CONTINUOUS
 62
2
 10
-130.500000
 20
-79.500000
 40
1.500000
  0
CIRCLE
  8
0
  6
CONTINUOUS
 62
2
 10
-159.000000
 20
-64.000000
 40
2.000000
  0
CIRCLE
  8
0
  6
CONTINUOUS
 62
7
 10
-159.000000
 20
-64.000000
 40
3.000000
  0
ARC
  8
0
  6
CONTINUOUS
 62
7
 10
-127.000000
 20
-80.000000
 40
3.000000
 50
221.809998
 51
325.481995
  0
CIRCLE
  8
0
  6
CONTINUOUS
 62
7
 10
-159.000000
 20
-80.000000
 40
3.000000
  0
CIRCLE
  8
0
  6
CONTINUOUS
 62
2
 10
-159.000000
 20
-80.000000
 40
2.000000
  0
ARC
  8
0
  6
DASHED
 62
2
 10
-127.000000
 20
-80.000000
 40
3.000000
 50
325.481995
 51
221.809998
  0
CIRCLE
  8
0
  6
DASHED
 62
2
 10
-127.000000
 20
-80.000000
 40
2.000000
  0
CIRCLE
  8
0
  6
DASHED
 62
2
 10
-127.000000
 20
-64.000000
 40
2.000000
  0
ARC
  8
0
  6
CONTINUOUS
 62
7
 10
-127.000000
 20
-64.000000
 40
3.000000
 50
34.518398
 51
138.190002
  0
ARC
  8
0
  6
DASHED
 62
2
 10
-127.000000
 20
-64.000000
 40
3.000000
 50
138.190002
 51
394.518005
  0
CIRCLE
  8
0
  6
CONTINUOUS
 62
2
 10
-159.000000
 20
-157.500000
 40
2.000000
  0
CIRCLE
  8
0
  6
CONTINUOUS
 62
7
 10
-159.000000
 20
-157.500000
 40
1.750000
  0
CIRCLE
  8
0
  6
CONTINUOUS
 62
7
 10
-159.000000
 20
-141.500000
 40
1.750000
  0
CIRCLE
  8
0
  6
CONTINUOUS
 62
7
 10
-127.000000
 20
-157.500000
 40
1.750000
  0
CIRCLE
  8
0
  6
CONTINUOUS
 62
2
 10
-127.000000
 20
-157.500000
 40
2.000000
  0
CIRCLE
  8
0
  6
CONTINUOUS
 62
7
 10
-127.000000
 20
-141.500000
 40
1.750000
  0
CIRCLE
  8
0
  6
CONTINUOUS
 62
2
 10
-127.000000
 20
-141.500000
 40
2.000000
  0
CIRCLE
  8
0
  6
CONTINUOUS
 62
2
 10
-159.000000
 20
-141.500000
 40
2.000000
  0
CIRCLE
  8
0
  6
CONTINUOUS
 62
7
 10
-166.000000
 20
-147.500000
 40
5.900000
  0
CIRCLE
  8
0
  6
CONTINUOUS
 62
7
 10
-120.000000
 20
-147.500000
 40
5.900000
  0
ARC
  8
0
  6
CONTINUOUS
 62
7
 10
-167.500000
 20
-115.199997
 40
4.800000
 50
8.385500
 51
56.442600
  0
CIRCLE
  8
0
  6
CONTINUOUS
 62
7
 10
-116.500000
 20
-30.500000
 40
1.250000
  0
CIRCLE
  8
0
  6
CONTINUOUS
 62
2
 10
-116.500000
 20
-30.500000
 40
1.500000
  0
ARC
  8
0
  6
CONTINUOUS
 62
7
 10
-118.500000
 20
-115.199997
 40
4.800000
 50
123.556999
 51
171.615005
  0
CIRCLE
  8
0
  6
CONTINUOUS
 62
7
 10
-169.500000
 20
-30.500000
 40
1.250000
  0
CIRCLE
  8
0
  6
CONTINUOUS
 62
2
 10
-169.500000
 20
-30.500000
 40
1.500000
  0
ARC
  8
0
  6
CONTINUOUS
 62
7
 10
43.657398
 20
-108.161003
 40
1.200000
 50
79.267097
 51
80.420700
  0
ARC
  8
0
  6
CONTINUOUS
 62
7
 10
34.500000
 20
-108.000000
 40
1.000000
 50
299.997986
 51
59.997898
  0
ARC
  8
0
  6
CONTINUOUS
 62
7
 10
44.500000
 20
-108.000000
 40
0.999998
 50
120.000000
 51
239.998001
  0
CIRCLE
  8
0
  6
CONTINUOUS
 62
7
 10
39.500000
 20
-114.500000
 40
4.450000
  0
CIRCLE
  8
0
  6
CONTINUOUS
 62
2
 10
108.000000
 20
-157.500000
 40
2.000000
  0
CIRCLE
  8
0
  6
CONTINUOUS
 62
7
 10
108.000000
 20
-157.500000
 40
1.750000
  0
CIRCLE
  8
0
  6
CONTINUOUS
 62
7
 10
108.000000
 20
-141.500000
 40
1.750000
  0
CIRCLE
  8
0
  6
CONTINUOUS
 62
7
 10
168.000000
 20
-157.500000
 40
1.750000
  0
CIRCLE
  8
0
  6
CONTINUOUS
 62
2
 10
168.000000
 20
-157.500000
 40
2.000000
  0
CIRCLE
  8
0
  6
CONTINUOUS
 62
7
 10
168.000000
 20
-141.500000
 40
1.750000
  0
CIRCLE
  8
0
  6
CONTINUOUS
 62
2
 10
168.000000
 20
-141.500000
 40
2.000000
  0
CIRCLE
  8
0
  6
CONTINUOUS
 62
2
 10
108.000000
 20
-141.500000
 40
2.000000
  0
CIRCLE
  8
0
  6
CONTINUOUS
 62
7
 10
100.000000
 20
-147.500000
 40
5.900000
  0
CIRCLE
  8
0
  6
CONTINUOUS
 62
7
 10
176.000000
 20
-147.500000
 40
5.900000
  0
ARC
  8
0
  6
CONTINUOUS
 62
7
 10
99.500000
 20
-31.799999
 40
4.800000
 50
303.557007
 51
351.614014
  0
ARC
  8
0
  6
CONTINUOUS
 62
7
 10
176.500000
 20
-31.799999
 40
4.800000
 50
188.384995
 51
236.442993
  0
ARC
  8
0
  6
DASHED
 62
2
 10
168.000000
 20
-64.000000
 40
3.000000
 50
145.481995
 51
326.442993
  0
CIRCLE
  8
0
  6
DASHED
 62
2
 10
168.000000
 20
-64.000000
 40
2.000000
  0
CIRCLE
  8
0
  6
CONTINUOUS
 62
2
 10
156.000000
 20
-79.500000
 40
1.500000
  0
CIRCLE
  8
0
  6
CONTINUOUS
 62
7
 10
140.000000
 20
-64.500000
 40
1.250000
  0
CIRCLE
  8
0
  6
CONTINUOUS
 62
2
 10
140.000000
 20
-64.500000
 40
1.500000
  0
CIRCLE
  8
0
  6
CONTINUOUS
 62
7
 10
156.000000
 20
-64.500000
 40
1.250000
  0
CIRCLE
  8
0
  6
CONTINUOUS
 62
2
 10
156.000000
 20
-64.500000
 40
1.500000
  0
CIRCLE
  8
0
  6
CONTINUOUS
 62
2
 10
140.000000
 20
-79.500000
 40
1.500000
  0
CIRCLE
  8
0
  6
CONTINUOUS
 62
7
 10
140.000000
 20
-79.500000
 40
1.250000
  0
CIRCLE
  8
0
  6
CONTINUOUS
 62
7
 10
156.000000
 20
-79.500000
 40
1.250000
  0
ARC
  8
0
  6
CONTINUOUS
 62
7
 10
168.000000
 20
-80.000000
 40
3.000000
 50
214.518005
 51
33.556702
  0
CIRCLE
  8
0
  6
DASHED
 62
2
 10
168.000000
 20
-80.000000
 40
2.000000
  0
CIRCLE
  8
0
  6
CONTINUOUS
 62
2
 10
108.000000
 20
-80.000000
 40
2.000000
  0
CIRCLE
  8
0
  6
CONTINUOUS
 62
7
 10
108.000000
 20
-64.000000
 40
3.000000
  0
CIRCLE
  8
0
  6
CONTINUOUS
 62
2
 10
108.000000
 20
-64.000000
 40
2.000000
  0
CIRCLE
  8
0
  6
CONTINUOUS
 62
7
 10
108.000000
 20
-80.000000
 40
3.000000
  0
ARC
  8
0
  6
DASHED
 62
2
 10
168.000000
 20
-80.000000
 40
3.000000
 50
33.556702
 51
214.518005
  0
ARC
  8
0
  6
CONTINUOUS
 62
7
 10
168.000000
 20
-64.000000
 40
3.000000
 50
326.442993
 51
145.481995
  0
ARC
  8
0
  6
CONTINUOUS
 62
7
 10
99.500000
 20
-115.199997
 40
4.800000
 50
8.385500
 51
56.442699
  0
CIRCLE
  8
0
  6
CONTINUOUS
 62
2
 10
102.000000
 20
-30.500000
 40
1.500000
  0
ARC
  8
0
  6
CONTINUOUS
 62
7
 10
176.500000
 20
-115.199997
 40
4.800000
 50
123.556999
 51
171.615005
  0
CIRCLE
  8
0
  6
CONTINUOUS
 62
7
 10
102.000000
 20
-30.500000
 40
1.250000
  0
CIRCLE
  8
0
  6
CONTINUOUS
 62
2
 10
174.000000
 20
-30.500000
 40
1.500000
  0
CIRCLE
  8
0
  6
CONTINUOUS
 62
7
 10
174.000000
 20
-30.500000
 40
1.250000
  0
CIRCLE
  8
0
  6
CONTINUOUS
 62
7
 10
55.000000
 20
-106.500000
 40
2.500000
  0
ARC
  8
0
  6
CONTINUOUS
 62
7
 10
55.000000
 20
-106.500000
 40
3.700000
 50
78.924797
 51
101.075996
  0
ARC
  8
0
  6
CONTINUOUS
 62
7
 10
55.000000
 20
-106.500000
 40
3.700000
 50
18.924801
 51
41.075600
  0
ARC
  8
0
  6
CONTINUOUS
 62
7
 10
55.000000
 20
-106.500000
 40
3.700000
 50
318.924988
 51
341.075989
  0
ARC
  8
0
  6
CONTINUOUS
 62
7
 10
55.000000
 20
-106.500000
 40
3.700000
 50
258.924988
 51
281.075989
  0
ARC
  8
0
  6
CONTINUOUS
 62
7
 10
55.000000
 20
-106.500000
 40
3.700000
 50
138.925003
 51
161.076004
  0
ARC
  8
0
  6
CONTINUOUS
 62
7
 10
55.000000
 20
-106.500000
 40
3.700000
 50
198.925003
 51
221.076004
  0
ARC
  8
0
  6
CONTINUOUS
 62
7
 10
221.000000
 20
-106.500000
 40
3.699990
 50
318.924011
 51
341.075012
  0
ARC
  8
0
  6
CONTINUOUS
 62
7
 10
232.343002
 20
-108.161003
 40
1.200000
 50
99.579201
 51
100.733002
  0
ARC
  8
0
  6
CONTINUOUS
 62
7
 10
241.500000
 20
-108.000000
 40
1.000000
 50
120.001999
 51
240.001999
  0
ARC
  8
0
  6
CONTINUOUS
 62
7
 10
231.500000
 20
-108.000000
 40
0.999996
 50
300.001007
 51
60.000099
  0
CIRCLE
  8
0
  6
CONTINUOUS
 62
7
 10
236.500000
 20
-114.500000
 40
4.450000
  0
CIRCLE
  8
0
  6
CONTINUOUS
 62
7
 10
221.000000
 20
-106.500000
 40
2.500000
  0
ARC
  8
0
  6
CONTINUOUS
 62
7
 10
221.000000
 20
-106.500000
 40
3.700000
 50
78.924400
 51
101.074997
  0
ARC
  8
0
  6
CONTINUOUS
 62
7
 10
221.000000
 20
-106.500000
 40
3.699990
 50
138.923996
 51
161.074997
  0
ARC
  8
0
  6
CONTINUOUS
 62
7
 10
221.000000
 20
-106.500000
 40
3.699990
 50
198.923996
 51
221.074997
  0
ARC
  8
0
  6
CONTINUOUS
 62
7
 10
221.000000
 20
-106.500000
 40
3.700000
 50
258.924011
 51
281.075012
  0
ARC
  8
0
  6
CONTINUOUS
 62
7
 10
221.000000
 20
-106.500000
 40
3.699990
 50
18.924400
 51
41.075298
  0
ARC
  8
0
  6
CONTINUOUS
 62
7
 10
-155.000000
 20
-109.500000
 40
2.500000
 50
180.000000
 51
270.000000
  0
ARC
  8
0
  6
CONTINUOUS
 62
7
 10
-131.000000
 20
-109.500000
 40
2.500000
 50
270.000000
 51
0.000000
  0
ARC
  8
0
  6
CONTINUOUS
 62
7
 10
-222.343002
 20
-108.161003
 40
1.200000
 50
79.266998
 51
80.420799
  0
ARC
  8
0
  6
CONTINUOUS
 62
7
 10
-231.500000
 20
-108.000000
 40
1.000000
 50
299.997986
 51
59.998100
  0
ARC
  8
0
  6
CONTINUOUS
 62
7
 10
-221.500000
 20
-108.000000
 40
1.000000
 50
120.000000
 51
239.998993
  0
CIRCLE
  8
0
  6
CONTINUOUS
 62
7
 10
-226.500000
 20
-114.500000
 40
4.450000
  0
CIRCLE
  8
0
  6
CONTINUOUS
 62
7
 10
-211.000000
 20
-106.500000
 40
2.500000
  0
ARC
  8
0
  6
CONTINUOUS
 62
7
 10
-211.000000
 20
-106.500000
 40
3.700000
 50
78.924896
 51
101.075996
  0
ARC
  8
0
  6
CONTINUOUS
 62
7
 10
-211.000000
 20
-106.500000
 40
3.700000
 50
18.924801
 51
41.075600
  0
ARC
  8
0
  6
CONTINUOUS
 62
7
 10
-211.000000
 20
-106.500000
 40
3.700000
 50
318.924988
 51
341.075989
  0
ARC
  8
0
  6
CONTINUOUS
 62
7
 10
-211.000000
 20
-106.500000
 40
3.700000
 50
258.924988
 51
281.075989
  0
ARC
  8
0
  6
CONTINUOUS
 62
7
 10
-211.000000
 20
-106.500000
 40
3.700000
 50
138.925003
 51
161.076004
  0
ARC
  8
0
  6
CONTINUOUS
 62
7
 10
-211.000000
 20
-106.500000
 40
3.700000
 50
198.925003
 51
221.076004
  0
ARC
  8
0
  6
CONTINUOUS
 62
7
 10
-75.000000
 20
-106.500000
 40
3.699990
 50
318.924011
 51
341.075012
  0
ARC
  8
0
  6
CONTINUOUS
 62
7
 10
-63.657398
 20
-108.161003
 40
1.200000
 50
99.579399
 51
100.733002
  0
ARC
  8
0
  6
CONTINUOUS
 62
7
 10
-54.500000
 20
-108.000000
 40
1.000010
 50
120.001999
 51
240.001999
  0
ARC
  8
0
  6
CONTINUOUS
 62
7
 10
-64.500000
 20
-108.000000
 40
1.000000
 50
300.001007
 51
60.000401
  0
CIRCLE
  8
0
  6
CONTINUOUS
 62
7
 10
-59.500000
 20
-114.500000
 40
4.450000
  0
CIRCLE
  8
0
  6
CONTINUOUS
 62
7
 10
-75.000000
 20
-106.500000
 40
2.500000
  0
ARC
  8
0
  6
CONTINUOUS
 62
7
 10
-75.000000
 20
-106.500000
 40
3.700000
 50
78.924400
 51
101.074997
  0
ARC
  8
0
  6
CONTINUOUS
 62
7
 10
-75.000000
 20
-106.500000
 40
3.699990
 50
138.923996
 51
161.074997
  0
ARC
  8
0
  6
CONTINUOUS
 62
7
 10
-75.000000
 20
-106.500000
 40
3.700000
 50
198.923996
 51
221.074997
  0
ARC
  8
0
  6
CONTINUOUS
 62
7
 10
-75.000000
 20
-106.500000
 40
3.700000
 50
258.924011
 51
281.075012
  0
ARC
  8
0
  6
CONTINUOUS
 62
2
 10
-242.199997
 20
-105.150002
 40
1.500000
 50
0.000000
 51
90.000000
  0
ARC
  8
0
  6
CONTINUOUS
 62
2
 10
-242.199997
 20
-106.449997
 40
1.500000
 50
270.000000
 51
0.000000
  0
ARC
  8
0
  6
CONTINUOUS
 62
2
 10
23.799999
 20
-105.150002
 40
1.500000
 50
0.000000
 51
90.000000
  0
ARC
  8
0
  6
CONTINUOUS
 62
2
 10
23.799999
 20
-106.449997
 40
1.500000
 50
270.000000
 51
0.000000
  0
ARC
  8
0
  6
CONTINUOUS
 62
2
 10
-43.799999
 20
-106.449997
 40
1.500000
 50
180.000000
 51
270.000000
  0
ARC
  8
0
  6
CONTINUOUS
 62
2
 10
-43.799999
 20
-105.150002
 40
1.500000
 50
90.000000
 51
180.000000
  0
ARC
  8
0
  6
CONTINUOUS
 62
2
 10
252.199997
 20
-106.449997
 40
1.500000
 50
180.000000
 51
270.000000
  0
ARC
  8
0
  6
CONTINUOUS
 62
2
 10
252.199997
 20
-105.150002
 40
1.500000
 50
90.000000
 51
180.000000
  0
ARC
  8
0
  6
CONTINUOUS
 62
2
 10
221.800003
 20
72.550003
 40
1.500000
 50
270.000000
 51
0.000000
  0
ARC
  8
0
  6
CONTINUOUS
 62
2
 10
221.800003
 20
73.849998
 40
1.500000
 50
0.000000
 51
90.000000
  0
ARC
  8
0
  6
CONTINUOUS
 62
2
 10
-74.199997
 20
73.849998
 40
1.500000
 50
0.000000
 51
90.000000
  0
ARC
  8
0
  6
CONTINUOUS
 62
7
 10
121.000000
 20
142.500000
 40
2.500000
 50
90.000000
 51
180.000000
  0
ARC
  8
0
  6
CONTINUOUS
 62
7
 10
155.000000
 20
142.500000
 40
2.500000
 50
0.000000
 51
90.000000
  0
ARC
  8
0
  6
CONTINUOUS
 62
7
 10
-43.000000
 20
72.500000
 40
3.700000
 50
138.925003
 51
161.076004
  0
ARC
  8
0
  6
CONTINUOUS
 62
7
 10
-167.500000
 20
63.799999
 40
4.800000
 50
8.385500
 51
56.442600
  0
ARC
  8
0
  6
CONTINUOUS
 62
7
 10
-118.500000
 20
63.799999
 40
4.800000
 50
123.556999
 51
171.615005
  0
CIRCLE
  8
0
  6
CONTINUOUS
 62
7
 10
-130.500000
 20
99.500000
 40
1.250000
  0
CIRCLE
  8
0
  6
CONTINUOUS
 62
2
 10
-130.500000
 20
99.500000
 40
1.500000
  0
CIRCLE
  8
0
  6
CONTINUOUS
 62
7
 10
-145.500000
 20
114.500000
 40
1.250000
  0
CIRCLE
  8
0
  6
CONTINUOUS
 62
7
 10
-145.500000
 20
99.500000
 40
1.250000
  0
CIRCLE
  8
0
  6
CONTINUOUS
 62
2
 10
-145.500000
 20
99.500000
 40
1.500000
  0
CIRCLE
  8
0
  6
CONTINUOUS
 62
2
 10
-145.500000
 20
114.500000
 40
1.500000
  0
CIRCLE
  8
0
  6
CONTINUOUS
 62
7
 10
-130.500000
 20
114.500000
 40
1.250000
  0
CIRCLE
  8
0
  6
CONTINUOUS
 62
2
 10
-130.500000
 20
114.500000
 40
1.500000
  0
CIRCLE
  8
0
  6
CONTINUOUS
 62
2
 10
-159.000000
 20
99.000000
 40
2.000000
  0
CIRCLE
  8
0
  6
CONTINUOUS
 62
7
 10
-159.000000
 20
99.000000
 40
3.000000
  0
ARC
  8
0
  6
CONTINUOUS
 62
7
 10
-127.000000
 20
115.000000
 40
3.000000
 50
34.518398
 51
138.190002
  0
CIRCLE
  8
0
  6
CONTINUOUS
 62
7
 10
-159.000000
 20
115.000000
 40
3.000000
  0
CIRCLE
  8
0
  6
CONTINUOUS
 62
2
 10
-159.000000
 20
115.000000
 40
2.000000
  0
ARC
  8
0
  6
DASHED
 62
2
 10
-127.000000
 20
115.000000
 40
3.000000
 50
138.190002
 51
394.518005
  0
CIRCLE
  8
0
  6
DASHED
 62
2
 10
-127.000000
 20
115.000000
 40
2.000000
  0
CIRCLE
  8
0
  6
DASHED
 62
2
 10
-127.000000
 20
99.000000
 40
2.000000
  0
ARC
  8
0
  6
CONTINUOUS
 62
7
 10
-127.000000
 20
99.000000
 40
3.000000
 50
221.809998
 51
325.481995
  0
ARC
  8
0
  6
DASHED
 62
2
 10
-127.000000
 20
99.000000
 40
3.000000
 50
325.481995
 51
221.809998
  0
CIRCLE
  8
0
  6
CONTINUOUS
 62
2
 10
-159.000000
 20
18.500000
 40
2.000000
  0
CIRCLE
  8
0
  6
CONTINUOUS
 62
7
 10
-159.000000
 20
18.500000
 40
1.750000
  0
CIRCLE
  8
0
  6
CONTINUOUS
 62
7
 10
-159.000000
 20
34.500000
 40
1.750000
  0
CIRCLE
  8
0
  6
CONTINUOUS
 62
7
 10
-127.000000
 20
18.500000
 40
1.750000
  0
CIRCLE
  8
0
  6
CONTINUOUS
 62
2
 10
-127.000000
 20
18.500000
 40
2.000000
  0
CIRCLE
  8
0
  6
CONTINUOUS
 62
7
 10
-127.000000
 20
34.500000
 40
1.750000
  0
CIRCLE
  8
0
  6
CONTINUOUS
 62
2
 10
-127.000000
 20
34.500000
 40
2.000000
  0
CIRCLE
  8
0
  6
CONTINUOUS
 62
2
 10
-159.000000
 20
34.500000
 40
2.000000
  0
CIRCLE
  8
0
  6
CONTINUOUS
 62
7
 10
-166.000000
 20
28.500000
 40
5.900000
  0
CIRCLE
  8
0
  6
CONTINUOUS
 62
7
 10
-120.000000
 20
28.500000
 40
5.900000
  0
ARC
  8
0
  6
CONTINUOUS
 62
7
 10
-167.500000
 20
148.199997
 40
4.800000
 50
303.557007
 51
351.614014
  0
CIRCLE
  8
0
  6
CONTINUOUS
 62
7
 10
-116.500000
 20
149.500000
 40
1.250000
  0
CIRCLE
  8
0
  6
CONTINUOUS
 62
2
 10
-116.500000
 20
149.500000
 40
1.500000
  0
ARC
  8
0
  6
CONTINUOUS
 62
7
 10
-118.500000
 20
148.199997
 40
4.800000
 50
188.384995
 51
236.442993
  0
CIRCLE
  8
0
  6
CONTINUOUS
 62
7
 10
-169.500000
 20
149.500000
 40
1.250000
  0
CIRCLE
  8
0
  6
CONTINUOUS
 62
2
 10
-169.500000
 20
149.500000
 40
1.500000
  0
ARC
  8
0
  6
CONTINUOUS
 62
7
 10
34.342602
 20
70.839203
 40
1.200000
 50
99.579399
 51
100.733002
  0
ARC
  8
0
  6
CONTINUOUS
 62
7
 10
43.500000
 20
71.000000
 40
1.000010
 50
120.001999
 51
240.001999
  0
ARC
  8
0
  6
CONTINUOUS
 62
7
 10
33.500000
 20
71.000000
 40
1.000000
 50
300.001007
 51
60.000401
  0
CIRCLE
  8
0
  6
CONTINUOUS
 62
7
 10
38.500000
 20
64.500000
 40
4.450000
  0
CIRCLE
  8
0
  6
CONTINUOUS
 62
2
 10
108.000000
 20
18.500000
 40
2.000000
  0
CIRCLE
  8
0
  6
CONTINUOUS
 62
7
 10
108.000000
 20
18.500000
 40
1.750000
  0
CIRCLE
  8
0
  6
CONTINUOUS
 62
7
 10
108.000000
 20
34.500000
 40
1.750000
  0
CIRCLE
  8
0
  6
CONTINUOUS
 62
7
 10
168.000000
 20
18.500000
 40
1.750000
  0
CIRCLE
  8
0
  6
CONTINUOUS
 62
2
 10
168.000000
 20
18.500000
 40
2.000000
  0
CIRCLE
  8
0
  6
CONTINUOUS
 62
7
 10
168.000000
 20
34.500000
 40
1.750000
  0
CIRCLE
  8
0
  6
CONTINUOUS
 62
2
 10
168.000000
 20
34.500000
 40
2.000000
  0
CIRCLE
  8
0
  6
CONTINUOUS
 62
2
 10
108.000000
 20
34.500000
 40
2.000000
  0
CIRCLE
  8
0
  6
CONTINUOUS
 62
7
 10
100.000000
 20
28.500000
 40
5.900000
  0
CIRCLE
  8
0
  6
CONTINUOUS
 62
7
 10
176.000000
 20
28.500000
 40
5.900000
  0
ARC
  8
0
  6
CONTINUOUS
 62
7
 10
99.500000
 20
63.799999
 40
4.800000
 50
8.385500
 51
56.442699
  0
ARC
  8
0
  6
CONTINUOUS
 62
7
 10
176.500000
 20
63.799999
 40
4.800000
 50
123.556999
 51
171.615005
  0
ARC
  8
0
  6
DASHED
 62
2
 10
168.000000
 20
99.000000
 40
3.000000
 50
33.556702
 51
214.518005
  0
CIRCLE
  8
0
  6
DASHED
 62
2
 10
168.000000
 20
99.000000
 40
2.000000
  0
CIRCLE
  8
0
  6
CONTINUOUS
 62
2
 10
156.000000
 20
114.500000
 40
1.500000
  0
CIRCLE
  8
0
  6
CONTINUOUS
 62
7
 10
140.000000
 20
99.500000
 40
1.250000
  0
CIRCLE
  8
0
  6
CONTINUOUS
 62
2
 10
140.000000
 20
99.500000
 40
1.500000
  0
CIRCLE
  8
0
  6
CONTINUOUS
 62
7
 10
156.000000
 20
99.500000
 40
1.250000
  0
CIRCLE
  8
0
  6
CONTINUOUS
 62
2
 10
156.000000
 20
99.500000
 40
1.500000
  0
CIRCLE
  8
0
  6
CONTINUOUS
 62
2
 10
140.000000
 20
114.500000
 40
1.500000
  0
CIRCLE
  8
0
  6
CONTINUOUS
 62
7
 10
140.000000
 20
114.500000
 40
1.250000
  0
CIRCLE
  8
0
  6
CONTINUOUS
 62
7
 10
156.000000
 20
114.500000
 40
1.250000
  0
ARC
  8
0
  6
CONTINUOUS
 62
7
 10
168.000000
 20
115.000000
 40
3.000000
 50
326.442993
 51
145.481995
  0
CIRCLE
  8
0
  6
DASHED
 62
2
 10
168.000000
 20
115.000000
 40
2.000000
  0
CIRCLE
  8
0
  6
CONTINUOUS
 62
2
 10
108.000000
 20
115.000000
 40
2.000000
  0
CIRCLE
  8
0
  6
CONTINUOUS
 62
7
 10
108.000000
 20
99.000000
 40
3.000000
  0
CIRCLE
  8
0
  6
CONTINUOUS
 62
2
 10
108.000000
 20
99.000000
 40
2.000000
  0
CIRCLE
  8
0
  6
CONTINUOUS
 62
7
 10
108.000000
 20
115.000000
 40
3.000000
  0
ARC
  8
0
  6
DASHED
 62
2
 10
168.000000
 20
115.000000
 40
3.000000
 50
145.481995
 51
326.442993
  0
ARC
  8
0
  6
CONTINUOUS
 62
7
 10
168.000000
 20
99.000000
 40
3.000000
 50
214.518005
 51
33.556702
  0
ARC
  8
0
  6
CONTINUOUS
 62
7
 10
99.500000
 20
148.199997
 40
4.800000
 50
303.557007
 51
351.614014
  0
CIRCLE
  8
0
  6
CONTINUOUS
 62
2
 10
102.000000
 20
149.500000
 40
1.500000
  0
ARC
  8
0
  6
CONTINUOUS
 62
7
 10
176.500000
 20
148.199997
 40
4.800000
 50
188.384995
 51
236.442993
  0
CIRCLE
  8
0
  6
CONTINUOUS
 62
7
 10
102.000000
 20
149.500000
 40
1.250000
  0
CIRCLE
  8
0
  6
CONTINUOUS
 62
2
 10
174.000000
 20
149.500000
 40
1.500000
  0
CIRCLE
  8
0
  6
CONTINUOUS
 62
7
 10
174.000000
 20
149.500000
 40
1.250000
  0
CIRCLE
  8
0
  6
CONTINUOUS
 62
7
 10
23.000000
 20
72.500000
 40
2.500000
  0
ARC
  8
0
  6
CONTINUOUS
 62
7
 10
23.000000
 20
72.500000
 40
3.700000
 50
78.924400
 51
101.074997
  0
ARC
  8
0
  6
CONTINUOUS
 62
7
 10
23.000000
 20
72.500000
 40
3.700000
 50
138.923996
 51
161.074997
  0
ARC
  8
0
  6
CONTINUOUS
 62
7
 10
23.000000
 20
72.500000
 40
3.700000
 50
198.923996
 51
221.074997
  0
ARC
  8
0
  6
CONTINUOUS
 62
7
 10
23.000000
 20
72.500000
 40
3.700000
 50
258.924011
 51
281.075012
  0
ARC
  8
0
  6
CONTINUOUS
 62
7
 10
23.000000
 20
72.500000
 40
3.700000
 50
18.924299
 51
41.075199
  0
ARC
  8
0
  6
CONTINUOUS
 62
7
 10
23.000000
 20
72.500000
 40
3.700000
 50
318.924011
 51
341.075012
  0
ARC
  8
0
  6
CONTINUOUS
 62
7
 10
253.000000
 20
72.500000
 40
3.700000
 50
198.925003
 51
221.076004
  0
ARC
  8
0
  6
CONTINUOUS
 62
7
 10
241.656998
 20
70.839203
 40
1.200000
 50
79.266998
 51
80.420799
  0
ARC
  8
0
  6
CONTINUOUS
 62
7
 10
232.500000
 20
71.000000
 40
1.000000
 50
299.997986
 51
59.998100
  0
ARC
  8
0
  6
CONTINUOUS
 62
7
 10
242.500000
 20
71.000000
 40
1.000000
 50
120.000000
 51
239.998993
  0
CIRCLE
  8
0
  6
CONTINUOUS
 62
7
 10
237.500000
 20
64.500000
 40
4.450000
  0
CIRCLE
  8
0
  6
CONTINUOUS
 62
7
 10
253.000000
 20
72.500000
 40
2.500000
  0
ARC
  8
0
  6
CONTINUOUS
 62
7
 10
253.000000
 20
72.500000
 40
3.700000
 50
78.924896
 51
101.075996
  0
ARC
  8
0
  6
CONTINUOUS
 62
7
 10
253.000000
 20
72.500000
 40
3.700000
 50
18.924801
 51
41.075600
  0
ARC
  8
0
  6
CONTINUOUS
 62
7
 10
253.000000
 20
72.500000
 40
3.700000
 50
318.924988
 51
341.075989
  0
ARC
  8
0
  6
CONTINUOUS
 62
7
 10
253.000000
 20
72.500000
 40
3.700000
 50
258.924988
 51
281.075989
  0
ARC
  8
0
  6
CONTINUOUS
 62
7
 10
253.000000
 20
72.500000
 40
3.700000
 50
138.925003
 51
161.076004
  0
ARC
  8
0
  6
CONTINUOUS
 62
7
 10
-155.000000
 20
142.500000
 40
2.500000
 50
90.000000
 51
180.000000
  0
ARC
  8
0
  6
CONTINUOUS
 62
7
 10
-131.000000
 20
142.500000
 40
2.500000
 50
0.000000
 51
90.000000
  0
ARC
  8
0
  6
CONTINUOUS
 62
7
 10
-231.656998
 20
70.839203
 40
1.200000
 50
99.579201
 51
100.733002
  0
ARC
  8
0
  6
CONTINUOUS
 62
7
 10
-222.500000
 20
71.000000
 40
1.000000
 50
120.001999
 51
240.001999
  0
ARC
  8
0
  6
CONTINUOUS
 62
7
 10
-232.500000
 20
71.000000
 40
0.999996
 50
300.001007
 51
60.000099
  0
CIRCLE
  8
0
  6
CONTINUOUS
 62
7
 10
-227.500000
 20
64.500000
 40
4.450000
  0
CIRCLE
  8
0
  6
CONTINUOUS
 62
7
 10
-243.000000
 20
72.500000
 40
2.500000
  0
ARC
  8
0
  6
CONTINUOUS
 62
7
 10
-243.000000
 20
72.500000
 40
3.700000
 50
78.924400
 51
101.074997
  0
ARC
  8
0
  6
CONTINUOUS
 62
7
 10
-243.000000
 20
72.500000
 40
3.699990
 50
138.923996
 51
161.074997
  0
ARC
  8
0
  6
CONTINUOUS
 62
7
 10
-243.000000
 20
72.500000
 40
3.699990
 50
198.923996
 51
221.074997
  0
ARC
  8
0
  6
CONTINUOUS
 62
7
 10
-243.000000
 20
72.500000
 40
3.700000
 50
258.924011
 51
281.075012
  0
ARC
  8
0
  6
CONTINUOUS
 62
7
 10
-243.000000
 20
72.500000
 40
3.699990
 50
18.924400
 51
41.075298
  0
ARC
  8
0
  6
CONTINUOUS
 62
7
 10
-243.000000
 20
72.500000
 40
3.699990
 50
318.924011
 51
341.075012
  0
ARC
  8
0
  6
CONTINUOUS
 62
7
 10
-43.000000
 20
72.500000
 40
3.700000
 50
198.925003
 51
221.076004
  0
ARC
  8
0
  6
CONTINUOUS
 62
7
 10
-54.342602
 20
70.839203
 40
1.200000
 50
79.267097
 51
80.420700
  0
ARC
  8
0
  6
CONTINUOUS
 62
7
 10
-63.500000
 20
71.000000
 40
1.000000
 50
299.997986
 51
59.997898
  0
ARC
  8
0
  6
CONTINUOUS
 62
7
 10
-53.500000
 20
71.000000
 40
0.999998
 50
120.000000
 51
239.998001
  0
CIRCLE
  8
0
  6
CONTINUOUS
 62
7
 10
-58.500000
 20
64.500000
 40
4.450000
  0
CIRCLE
  8
0
  6
CONTINUOUS
 62
7
 10
-43.000000
 20
72.500000
 40
2.500000
  0
ARC
  8
0
  6
CONTINUOUS
 62
7
 10
-43.000000
 20
72.500000
 40
3.700000
 50
78.924797
 51
101.075996
  0
ARC
  8
0
  6
CONTINUOUS
 62
7
 10
-43.000000
 20
72.500000
 40
3.700000
 50
18.924801
 51
41.075600
  0
ARC
  8
0
  6
CONTINUOUS
 62
7
 10
-43.000000
 20
72.500000
 40
3.700000
 50
318.924988
 51
341.075989
  0
ARC
  8
0
  6
CONTINUOUS
 62
7
 10
-43.000000
 20
72.500000
 40
3.700000
 50
258.924988
 51
281.075989
  0
ARC
  8
0
  6
CONTINUOUS
 62
2
 10
-211.800003
 20
73.849998
 40
1.500000
 50
90.000000
 51
180.000000
  0
ARC
  8
0
  6
CONTINUOUS
 62
2
 10
-211.800003
 20
72.550003
 40
1.500000
 50
180.000000
 51
270.000000
  0
ARC
  8
0
  6
CONTINUOUS
 62
2
 10
54.200001
 20
73.849998
 40
1.500000
 50
90.000000
 51
180.000000
  0
ARC
  8
0
  6
CONTINUOUS
 62
2
 10
54.200001
 20
72.550003
 40
1.500000
 50
180.000000
 51
270.000000
  0
ARC
  8
0
  6
CONTINUOUS
 62
2
 10
-74.199997
 20
72.550003
 40
1.500000
 50
270.000000
 51
0.000000
  0
CIRCLE
  8
0
  6
CONTINUOUS
 62
2
 10
-167.500000
 20
63.500000
 40
2.500000
  0
CIRCLE
  8
0
  6
CONTINUOUS
 62
7
 10
-167.500000
 20
63.500000
 40
2.100000
  0
CIRCLE
  8
0
  6
CONTINUOUS
 62
2
 10
-118.500000
 20
63.500000
 40
2.500000
  0
CIRCLE
  8
0
  6
CONTINUOUS
 62
7
 10
-118.500000
 20
63.500000
 40
2.100000
  0
CIRCLE
  8
0
  6
CONTINUOUS
 62
2
 10
98.500000
 20
63.500000
 40
2.500000
  0
CIRCLE
  8
0
  6
CONTINUOUS
 62
7
 10
98.500000
 20
63.500000
 40
2.100000
  0
CIRCLE
  8
0
  6
CONTINUOUS
 62
2
 10
177.500000
 20
63.500000
 40
2.500000
  0
CIRCLE
  8
0
  6
CONTINUOUS
 62
7
 10
177.500000
 20
63.500000
 40
2.100000
  0
CIRCLE
  8
0
  6
CONTINUOUS
 62
2
 10
-167.500000
 20
-115.500000
 40
2.500000
  0
CIRCLE
  8
0
  6
CONTINUOUS
 62
7
 10
-167.500000
 20
-115.500000
 40
2.100000
  0
CIRCLE
  8
0
  6
CONTINUOUS
 62
2
 10
-118.500000
 20
-115.500000
 40
2.500000
  0
CIRCLE
  8
0
  6
CONTINUOUS
 62
7
 10
-118.500000
 20
-115.500000
 40
2.100000
  0
CIRCLE
  8
0
  6
CONTINUOUS
 62
2
 10
98.500000
 20
-115.500000
 40
2.500000
  0
CIRCLE
  8
0
  6
CONTINUOUS
 62
7
 10
98.500000
 20
-115.500000
 40
2.100000
  0
CIRCLE
  8
0
  6
CONTINUOUS
 62
2
 10
177.500000
 20
-115.500000
 40
2.500000
  0
CIRCLE
  8
0
  6
CONTINUOUS
 62
7
 10
177.500000
 20
-115.500000
 40
2.100000
  0
CIRCLE
  8
0
  6
CONTINUOUS
 62
7
 10
108.000000
 20
99.000000
 40
1.650000
  0
CIRCLE
  8
0
  6
CONTINUOUS
 62
7
 10
108.000000
 20
115.000000
 40
1.650000
  0
CIRCLE
  8
0
  6
DASHED
 62
2
 10
168.000000
 20
115.000000
 40
1.650000
  0
CIRCLE
  8
0
  6
DASHED
 62
2
 10
168.000000
 20
99.000000
 40
1.650000
  0
CIRCLE
  8
0
  6
CONTINUOUS
 62
7
 10
108.000000
 20
-80.000000
 40
1.650000
  0
CIRCLE
  8
0
  6
CONTINUOUS
 62
7
 10
108.000000
 20
-64.000000
 40
1.650000
  0
CIRCLE
  8
0
  6
DASHED
 62
2
 10
168.000000
 20
-64.000000
 40
1.650000
  0
CIRCLE
  8
0
  6
DASHED
 62
2
 10
168.000000
 20
-80.000000
 40
1.650000
  0
CIRCLE
  8
0
  6
CONTINUOUS
 62
7
 10
-159.000000
 20
115.000000
 40
1.650000
  0
CIRCLE
  8
0
  6
CONTINUOUS
 62
7
 10
-159.000000
 20
99.000000
 40
1.650000
  0
CIRCLE
  8
0
  6
DASHED
 62
2
 10
-127.000000
 20
99.000000
 40
1.650000
  0
CIRCLE
  8
0
  6
DASHED
 62
2
 10
-127.000000
 20
115.000000
 40
1.650000
  0
CIRCLE
  8
0
  6
CONTINUOUS
 62
7
 10
-159.000000
 20
-64.000000
 40
1.650000
  0
CIRCLE
  8
0
  6
CONTINUOUS
 62
7
 10
-159.000000
 20
-80.000000
 40
1.650000
  0
CIRCLE
  8
0
  6
DASHED
 62
2
 10
-127.000000
 20
-80.000000
 40
1.650000
  0
CIRCLE
  8
0
  6
DASHED
 62
2
 10
-127.000000
 20
-64.000000
 40
1.650000
  0
TEXT
  8
0
 62
7
 10
202.930283
 20
183.925003
 40
6.300000
  1
Ver.1.0
 50
0.000000
 41
1.010330
 51
0.000000
  7
STANDARD
  0
TEXT
  8
0
 62
7
 10
172.714691
 20
-187.250000
 40
9.000000
  1
KOGANEI CORP.
 50
0.000000
 41
0.771524
 51
0.000000
  7
STANDARD
  0
TEXT
  8
0
 62
7
 10
-243.569717
 20
183.925003
 40
6.300000
  1
AP TABLE
 50
0.000000
 41
0.775607
 51
0.000000
  7
STANDARD
  0
TEXT
  8
0
 62
7
 10
12.274609
 20
-11.325001
 40
6.300000
  1
MODEL:APTS-GT8-20-TPQT-R***
 50
0.000000
 41
0.755061
 51
0.000000
  7
STANDARD
  0
TEXT
  8
0
 62
7
 10
-269.400391
 20
-11.325001
 40
6.300000
  1
MODEL:APTS-GT8-10-TPQT-R***
 50
0.000000
 41
0.765196
 51
0.000000
  7
STANDARD
  0
TEXT
  8
0
 62
7
 10
-269.400391
 20
163.925003
 40
6.300000
  1
MODEL:APTS-SD8-10-TPQT-R***
 50
0.000000
 41
0.765196
 51
0.000000
  7
STANDARD
  0
TEXT
  8
0
 62
7
 10
12.274609
 20
163.925003
 40
6.300000
  1
MODEL:APTS-SD8-20-TPQT-R***
 50
0.000000
 41
0.755061
 51
0.000000
  7
STANDARD
  0
ENDSEC
  0
EOF
