  0
SECTION
  2
HEADER
  0
ENDSEC
  0
SECTION
  2
TABLES
  0
TABLE
  2
LTYPE
 70
     4
  0
LTYPE
  2
CONTINUOUS
 70
    64
  3
Solid line
 72
    65
 73
     0
 40
0.000000
  0
LTYPE
  2
DASHED
 70
    64
  3
__ __ __ __ __ __ __ __ __ __ __ __ __ __ __
 72
    65
 73
     2
 40
3.500000
 49
2.000000
 49
-1.500000
  0
LTYPE
  2
CENTER
 70
    64
  3
____ _ ____ _ ____ _ ____ _ ____ _ ____ _ ____
 72
    65
 73
     4
 40
17.500000
 49
13.000000
 49
-1.500000
 49
1.500000
 49
-1.500000
  0
LTYPE
  2
PHANTOM
 70
    64
  3
_____ _ _ _____ _ _ _____ _ _ _____ _ _ ____  
 72
    65
 73
     6
 40
15.500000
 49
8.000000
 49
-1.500000
 49
1.500000
 49
-1.500000
 49
1.500000
 49
-1.500000
  0
ENDTAB
  0
TABLE
  2
LAYER
 70
     1
  0
LAYER
  2
0
 70
     0
 62
     7
  6
CONTINUOUS
  0
ENDTAB
  0
TABLE
  2
STYLE
 70
     1
  0
STYLE
  2
STANDARD
 70
     0
 40
0.000000
 41
1.000000
 50
0.000000
 71
     0
 42
0.200000
  3
txt
  4
BIGFONT
  0
ENDTAB
  0
TABLE
  2
VIEW
 70
     0
  0
ENDTAB
  0
ENDSEC
  0
SECTION
  2
BLOCKS
  0
ENDSEC
  0
SECTION
  2
ENTITIES
  0
LINE
  8
0
  6
CONTINUOUS
 62
7
 10
-281.250000
 20
195.500000
 11
282.100006
 21
195.500000
  0
LINE
  8
0
  6
CONTINUOUS
 62
7
 10
-281.250000
 20
195.500000
 11
-281.250000
 21
-195.000000
  0
LINE
  8
0
  6
CONTINUOUS
 62
7
 10
282.100006
 20
195.500000
 11
282.100006
 21
-195.000000
  0
LINE
  8
0
  6
CONTINUOUS
 62
7
 10
-281.250000
 20
-195.000000
 11
282.100006
 21
-195.000000
  0
LINE
  8
0
  6
CONTINUOUS
 62
7
 10
162.100006
 20
-175.000000
 11
162.100006
 21
-195.000000
  0
LINE
  8
0
  6
CONTINUOUS
 62
7
 10
162.100006
 20
-175.000000
 11
282.100006
 21
-175.000000
  0
LINE
  8
0
  6
CONTINUOUS
 62
7
 10
162.100006
 20
175.500000
 11
282.100006
 21
175.500000
  0
LINE
  8
0
  6
CONTINUOUS
 62
7
 10
-281.250000
 20
175.500000
 11
-161.250000
 21
175.500000
  0
LINE
  8
0
  6
CONTINUOUS
 62
7
 10
162.100006
 20
195.500000
 11
162.100006
 21
175.500000
  0
LINE
  8
0
  6
CONTINUOUS
 62
7
 10
-161.250000
 20
195.500000
 11
-161.250000
 21
175.500000
  0
LINE
  8
0
  6
CONTINUOUS
 62
7
 10
168.000000
 20
35.500000
 11
132.000000
 21
35.500000
  0
LINE
  8
0
  6
CONTINUOUS
 62
7
 10
132.000000
 20
35.500000
 11
132.000000
 21
8.499990
  0
LINE
  8
0
  6
CONTINUOUS
 62
7
 10
168.000000
 20
8.499990
 11
132.000000
 21
8.499990
  0
LINE
  8
0
  6
CONTINUOUS
 62
7
 10
168.000000
 20
35.500000
 11
168.000000
 21
8.499990
  0
LINE
  8
0
  6
CONTINUOUS
 62
7
 10
95.000000
 20
28.000000
 11
125.500000
 21
28.000000
  0
LINE
  8
0
  6
CONTINUOUS
 62
7
 10
174.500000
 20
28.000000
 11
185.000000
 21
28.000000
  0
LINE
  8
0
  6
CONTINUOUS
 62
7
 10
95.000000
 20
16.000000
 11
125.500000
 21
16.000000
  0
LINE
  8
0
  6
CONTINUOUS
 62
7
 10
174.500000
 20
16.000000
 11
185.000000
 21
16.000000
  0
LINE
  8
0
  6
CONTINUOUS
 62
7
 10
168.000000
 20
15.000000
 11
132.000000
 21
15.000000
  0
LINE
  8
0
  6
CONTINUOUS
 62
7
 10
168.000000
 20
29.000000
 11
132.000000
 21
29.000000
  0
LINE
  8
0
  6
CONTINUOUS
 62
7
 10
174.500000
 20
35.299999
 11
168.000000
 21
35.299999
  0
LINE
  8
0
  6
CONTINUOUS
 62
7
 10
174.500000
 20
8.699990
 11
174.500000
 21
35.299999
  0
LINE
  8
0
  6
CONTINUOUS
 62
7
 10
174.500000
 20
8.699990
 11
168.000000
 21
8.699990
  0
LINE
  8
0
  6
CONTINUOUS
 62
7
 10
185.000000
 20
36.000000
 11
158.000000
 21
36.000000
  0
LINE
  8
0
  6
CONTINUOUS
 62
7
 10
185.000000
 20
7.999990
 11
95.000000
 21
7.999990
  0
LINE
  8
0
  6
CONTINUOUS
 62
7
 10
95.000000
 20
36.000000
 11
95.000000
 21
7.999990
  0
LINE
  8
0
  6
CONTINUOUS
 62
7
 10
185.000000
 20
36.000000
 11
185.000000
 21
7.999990
  0
LINE
  8
0
  6
CONTINUOUS
 62
7
 10
125.500000
 20
68.000000
 11
125.500000
 21
73.000000
  0
LINE
  8
0
  6
CONTINUOUS
 62
7
 10
132.000000
 20
67.500000
 11
168.000000
 21
67.500000
  0
LINE
  8
0
  6
CONTINUOUS
 62
7
 10
132.000000
 20
67.500000
 11
132.000000
 21
77.500000
  0
LINE
  8
0
  6
CONTINUOUS
 62
7
 10
107.000000
 20
68.000000
 11
132.000000
 21
68.000000
  0
LINE
  8
0
  6
CONTINUOUS
 62
7
 10
174.500000
 20
68.000000
 11
174.500000
 21
70.000000
  0
LINE
  8
0
  6
CONTINUOUS
 62
7
 10
168.000000
 20
67.500000
 11
168.000000
 21
68.000000
  0
LINE
  8
0
  6
CONTINUOUS
 62
7
 10
174.500000
 20
68.000000
 11
168.000000
 21
68.000000
  0
LINE
  8
0
  6
CONTINUOUS
 62
7
 10
122.000000
 20
72.000000
 11
125.500000
 21
72.000000
  0
LINE
  8
0
  6
CONTINUOUS
 62
7
 10
95.000000
 20
87.500000
 11
95.000000
 21
78.000000
  0
LINE
  8
0
  6
CONTINUOUS
 62
7
 10
185.000000
 20
87.500000
 11
185.000000
 21
78.000000
  0
LINE
  8
0
  6
CONTINUOUS
 62
7
 10
95.000000
 20
87.500000
 11
185.000000
 21
87.500000
  0
LINE
  8
0
  6
CONTINUOUS
 62
7
 10
174.199997
 20
82.000000
 11
170.000000
 21
82.000000
  0
LINE
  8
0
  6
CONTINUOUS
 62
7
 10
95.000000
 20
78.000000
 11
103.653000
 21
78.000000
  0
LINE
  8
0
  6
CONTINUOUS
 62
7
 10
110.000000
 20
82.000000
 11
105.800003
 21
82.000000
  0
LINE
  8
0
  6
CONTINUOUS
 62
7
 10
125.500000
 20
77.500000
 11
158.000000
 21
77.500000
  0
LINE
  8
0
  6
CONTINUOUS
 62
7
 10
125.500000
 20
8.699990
 11
125.500000
 21
35.299999
  0
LINE
  8
0
  6
CONTINUOUS
 62
7
 10
125.500000
 20
8.699990
 11
132.000000
 21
8.699990
  0
LINE
  8
0
  6
CONTINUOUS
 62
7
 10
125.500000
 20
35.299999
 11
132.000000
 21
35.299999
  0
LINE
  8
0
  6
CONTINUOUS
 62
7
 10
176.347000
 20
78.000000
 11
185.000000
 21
78.000000
  0
LINE
  8
0
  6
CENTER
 62
2
 10
109.000000
 20
37.500000
 11
109.000000
 21
27.500000
  0
LINE
  8
0
  6
CENTER
 62
2
 10
104.000000
 20
32.500000
 11
114.000000
 21
32.500000
  0
LINE
  8
0
  6
CENTER
 62
2
 10
109.000000
 20
16.500000
 11
109.000000
 21
6.499990
  0
LINE
  8
0
  6
CENTER
 62
2
 10
104.000000
 20
11.500000
 11
114.000000
 21
11.500000
  0
LINE
  8
0
  6
CENTER
 62
2
 10
135.000000
 20
35.500000
 11
135.000000
 21
28.500000
  0
LINE
  8
0
  6
CENTER
 62
2
 10
131.500000
 20
32.000000
 11
138.500000
 21
32.000000
  0
LINE
  8
0
  6
CENTER
 62
2
 10
150.000000
 20
35.500000
 11
150.000000
 21
28.500000
  0
LINE
  8
0
  6
CENTER
 62
2
 10
146.500000
 20
32.000000
 11
153.500000
 21
32.000000
  0
LINE
  8
0
  6
CENTER
 62
2
 10
165.000000
 20
35.500000
 11
165.000000
 21
28.500000
  0
LINE
  8
0
  6
CENTER
 62
2
 10
161.500000
 20
32.000000
 11
168.500000
 21
32.000000
  0
LINE
  8
0
  6
CENTER
 62
2
 10
171.000000
 20
37.500000
 11
171.000000
 21
27.500000
  0
LINE
  8
0
  6
CENTER
 62
2
 10
166.000000
 20
32.500000
 11
176.000000
 21
32.500000
  0
LINE
  8
0
  6
CENTER
 62
2
 10
171.000000
 20
16.500000
 11
171.000000
 21
6.499990
  0
LINE
  8
0
  6
CENTER
 62
2
 10
166.000000
 20
11.500000
 11
176.000000
 21
11.500000
  0
LINE
  8
0
  6
CENTER
 62
2
 10
165.000000
 20
15.500000
 11
165.000000
 21
8.499990
  0
LINE
  8
0
  6
CENTER
 62
2
 10
161.500000
 20
12.000000
 11
168.500000
 21
12.000000
  0
LINE
  8
0
  6
CENTER
 62
2
 10
93.000000
 20
22.000000
 11
187.000000
 21
22.000000
  0
LINE
  8
0
  6
CENTER
 62
2
 10
150.000000
 20
15.500000
 11
150.000000
 21
8.499990
  0
LINE
  8
0
  6
CENTER
 62
2
 10
146.500000
 20
12.000000
 11
153.500000
 21
12.000000
  0
LINE
  8
0
  6
CENTER
 62
2
 10
135.000000
 20
15.500000
 11
135.000000
 21
8.499990
  0
LINE
  8
0
  6
CENTER
 62
2
 10
131.500000
 20
12.000000
 11
138.500000
 21
12.000000
  0
LINE
  8
0
  6
DASHED
 62
2
 10
111.000000
 20
82.500000
 11
111.000000
 21
87.500000
  0
LINE
  8
0
  6
DASHED
 62
2
 10
110.650002
 20
82.500000
 11
110.650002
 21
87.500000
  0
LINE
  8
0
  6
DASHED
 62
2
 10
112.000000
 20
82.500000
 11
106.000000
 21
82.500000
  0
LINE
  8
0
  6
CENTER
 62
2
 10
109.000000
 20
80.000000
 11
109.000000
 21
89.500000
  0
LINE
  8
0
  6
DASHED
 62
2
 10
107.349998
 20
82.500000
 11
107.349998
 21
87.500000
  0
LINE
  8
0
  6
DASHED
 62
2
 10
107.000000
 20
82.500000
 11
107.000000
 21
87.500000
  0
LINE
  8
0
  6
DASHED
 62
2
 10
106.000000
 20
82.000000
 11
106.000000
 21
82.500000
  0
LINE
  8
0
  6
DASHED
 62
2
 10
112.000000
 20
82.000000
 11
112.000000
 21
82.500000
  0
LINE
  8
0
  6
DASHED
 62
2
 10
173.000000
 20
82.500000
 11
173.000000
 21
87.500000
  0
LINE
  8
0
  6
DASHED
 62
2
 10
172.649994
 20
82.500000
 11
172.649994
 21
87.500000
  0
LINE
  8
0
  6
DASHED
 62
2
 10
174.000000
 20
82.500000
 11
168.000000
 21
82.500000
  0
LINE
  8
0
  6
CENTER
 62
2
 10
171.000000
 20
80.000000
 11
171.000000
 21
89.500000
  0
LINE
  8
0
  6
DASHED
 62
2
 10
169.350006
 20
82.500000
 11
169.350006
 21
87.500000
  0
LINE
  8
0
  6
DASHED
 62
2
 10
169.000000
 20
82.500000
 11
169.000000
 21
87.500000
  0
LINE
  8
0
  6
DASHED
 62
2
 10
168.000000
 20
82.000000
 11
168.000000
 21
82.500000
  0
LINE
  8
0
  6
DASHED
 62
2
 10
174.000000
 20
82.000000
 11
174.000000
 21
82.500000
  0
LINE
  8
0
  6
CENTER
 62
2
 10
135.000000
 20
65.500000
 11
135.000000
 21
69.500000
  0
LINE
  8
0
  6
CENTER
 62
2
 10
150.000000
 20
65.500000
 11
150.000000
 21
69.500000
  0
LINE
  8
0
  6
CENTER
 62
2
 10
165.000000
 20
65.500000
 11
165.000000
 21
69.500000
  0
LINE
  8
0
  6
CONTINUOUS
 62
7
 10
185.000000
 20
-90.000000
 11
95.000000
 21
-90.000000
  0
LINE
  8
0
  6
CONTINUOUS
 62
7
 10
95.000000
 20
-90.000000
 11
95.000000
 21
-62.000000
  0
LINE
  8
0
  6
CONTINUOUS
 62
7
 10
185.000000
 20
-62.000000
 11
95.000000
 21
-62.000000
  0
LINE
  8
0
  6
CONTINUOUS
 62
7
 10
185.000000
 20
-90.000000
 11
185.000000
 21
-62.000000
  0
LINE
  8
0
  6
CENTER
 62
2
 10
109.000000
 20
-61.500000
 11
109.000000
 21
-69.500000
  0
LINE
  8
0
  6
CENTER
 62
2
 10
105.000000
 20
-65.500000
 11
113.000000
 21
-65.500000
  0
LINE
  8
0
  6
CENTER
 62
2
 10
102.500000
 20
-64.599998
 11
102.500000
 21
-80.400002
  0
LINE
  8
0
  6
CENTER
 62
2
 10
94.599998
 20
-72.500000
 11
110.400002
 21
-72.500000
  0
LINE
  8
0
  6
CENTER
 62
2
 10
109.000000
 20
-82.500000
 11
109.000000
 21
-90.500000
  0
LINE
  8
0
  6
CENTER
 62
2
 10
105.000000
 20
-86.500000
 11
113.000000
 21
-86.500000
  0
LINE
  8
0
  6
CENTER
 62
2
 10
171.000000
 20
-82.500000
 11
171.000000
 21
-90.500000
  0
LINE
  8
0
  6
CENTER
 62
2
 10
167.000000
 20
-86.500000
 11
175.000000
 21
-86.500000
  0
LINE
  8
0
  6
CENTER
 62
2
 10
171.000000
 20
-61.500000
 11
171.000000
 21
-69.500000
  0
LINE
  8
0
  6
CENTER
 62
2
 10
167.000000
 20
-65.500000
 11
175.000000
 21
-65.500000
  0
LINE
  8
0
  6
CENTER
 62
2
 10
177.500000
 20
-64.599998
 11
177.500000
 21
-80.400002
  0
LINE
  8
0
  6
CENTER
 62
2
 10
169.600006
 20
-72.500000
 11
185.399994
 21
-72.500000
  0
LINE
  8
0
  6
CENTER
 62
2
 10
93.000000
 20
-76.000000
 11
187.000000
 21
-76.000000
  0
LINE
  8
0
  6
CENTER
 62
2
 10
-107.702003
 20
22.000000
 11
-173.587006
 21
22.000000
  0
LINE
  8
0
  6
CONTINUOUS
 62
7
 10
-124.500000
 20
35.500000
 11
-145.500000
 21
35.500000
  0
LINE
  8
0
  6
CONTINUOUS
 62
7
 10
-145.500000
 20
35.500000
 11
-145.500000
 21
8.500000
  0
LINE
  8
0
  6
CONTINUOUS
 62
7
 10
-124.500000
 20
8.500000
 11
-145.500000
 21
8.500000
  0
LINE
  8
0
  6
CONTINUOUS
 62
7
 10
-124.500000
 20
35.500000
 11
-124.500000
 21
8.500000
  0
LINE
  8
0
  6
CONTINUOUS
 62
7
 10
-170.000000
 20
28.000000
 11
-152.000000
 21
28.000000
  0
LINE
  8
0
  6
CONTINUOUS
 62
7
 10
-118.000000
 20
28.000000
 11
-110.000000
 21
28.000000
  0
LINE
  8
0
  6
CONTINUOUS
 62
7
 10
-170.000000
 20
16.000000
 11
-152.000000
 21
16.000000
  0
LINE
  8
0
  6
CONTINUOUS
 62
7
 10
-118.000000
 20
16.000000
 11
-110.000000
 21
16.000000
  0
LINE
  8
0
  6
CONTINUOUS
 62
7
 10
-124.500000
 20
15.000000
 11
-145.500000
 21
15.000000
  0
LINE
  8
0
  6
CONTINUOUS
 62
7
 10
-124.500000
 20
29.000000
 11
-145.500000
 21
29.000000
  0
LINE
  8
0
  6
CONTINUOUS
 62
7
 10
-118.000000
 20
35.299999
 11
-124.500000
 21
35.299999
  0
LINE
  8
0
  6
CONTINUOUS
 62
7
 10
-118.000000
 20
8.700000
 11
-118.000000
 21
35.299999
  0
LINE
  8
0
  6
CONTINUOUS
 62
7
 10
-118.000000
 20
8.700000
 11
-124.500000
 21
8.700000
  0
LINE
  8
0
  6
CONTINUOUS
 62
7
 10
-110.000000
 20
8.000000
 11
-170.000000
 21
8.000000
  0
LINE
  8
0
  6
CONTINUOUS
 62
7
 10
-170.000000
 20
48.000000
 11
-170.000000
 21
8.000000
  0
LINE
  8
0
  6
CONTINUOUS
 62
7
 10
-110.000000
 20
48.000000
 11
-110.000000
 21
8.000000
  0
LINE
  8
0
  6
CENTER
 62
2
 10
-156.000000
 20
16.535299
 11
-156.000000
 21
7.000000
  0
LINE
  8
0
  6
CENTER
 62
2
 10
-156.000000
 20
27.500000
 11
-156.000000
 21
36.500000
  0
LINE
  8
0
  6
CENTER
 62
2
 10
-142.500000
 20
28.500000
 11
-142.500000
 21
35.500000
  0
LINE
  8
0
  6
CENTER
 62
2
 10
-159.500000
 20
32.500000
 11
-151.584000
 21
32.500000
  0
LINE
  8
0
  6
CENTER
 62
2
 10
-142.500000
 20
15.500000
 11
-142.500000
 21
8.500000
  0
LINE
  8
0
  6
CENTER
 62
2
 10
-159.500000
 20
11.500000
 11
-151.584000
 21
11.500000
  0
LINE
  8
0
  6
CENTER
 62
2
 10
-124.000000
 20
27.500000
 11
-124.000000
 21
36.500000
  0
LINE
  8
0
  6
CENTER
 62
2
 10
-120.500000
 20
32.500000
 11
-128.399994
 21
32.500000
  0
LINE
  8
0
  6
CENTER
 62
2
 10
-127.500000
 20
28.500000
 11
-127.500000
 21
35.500000
  0
LINE
  8
0
  6
CENTER
 62
2
 10
-120.500000
 20
11.500000
 11
-127.822998
 21
11.500000
  0
LINE
  8
0
  6
CENTER
 62
2
 10
-127.500000
 20
15.500000
 11
-127.500000
 21
8.500000
  0
LINE
  8
0
  6
CENTER
 62
2
 10
-124.000000
 20
16.535299
 11
-124.000000
 21
7.000000
  0
LINE
  8
0
  6
CENTER
 62
2
 10
-145.500000
 20
12.000000
 11
-139.000000
 21
12.000000
  0
LINE
  8
0
  6
CENTER
 62
2
 10
-145.500000
 20
32.000000
 11
-139.000000
 21
32.000000
  0
LINE
  8
0
  6
CENTER
 62
2
 10
-124.500000
 20
32.000000
 11
-131.000000
 21
32.000000
  0
LINE
  8
0
  6
CENTER
 62
2
 10
-124.500000
 20
12.000000
 11
-131.000000
 21
12.000000
  0
LINE
  8
0
  6
CONTINUOUS
 62
7
 10
-152.000000
 20
8.700000
 11
-152.000000
 21
35.299999
  0
LINE
  8
0
  6
CONTINUOUS
 62
7
 10
-152.000000
 20
35.299999
 11
-145.500000
 21
35.299999
  0
LINE
  8
0
  6
CONTINUOUS
 62
7
 10
-152.000000
 20
8.700000
 11
-145.500000
 21
8.700000
  0
LINE
  8
0
  6
DASHED
 62
2
 10
-159.000000
 20
82.500000
 11
-153.000000
 21
82.500000
  0
LINE
  8
0
  6
CENTER
 62
2
 10
-156.000000
 20
80.000000
 11
-156.000000
 21
89.500000
  0
LINE
  8
0
  6
DASHED
 62
2
 10
-159.000000
 20
82.000000
 11
-159.000000
 21
82.500000
  0
LINE
  8
0
  6
DASHED
 62
2
 10
-158.000000
 20
82.500000
 11
-158.000000
 21
87.500000
  0
LINE
  8
0
  6
DASHED
 62
2
 10
-154.000000
 20
82.500000
 11
-154.000000
 21
87.500000
  0
LINE
  8
0
  6
DASHED
 62
2
 10
-154.350006
 20
82.500000
 11
-154.350006
 21
87.500000
  0
LINE
  8
0
  6
DASHED
 62
2
 10
-157.649994
 20
82.500000
 11
-157.649994
 21
87.500000
  0
LINE
  8
0
  6
DASHED
 62
2
 10
-127.000000
 20
82.500000
 11
-121.000000
 21
82.500000
  0
LINE
  8
0
  6
CENTER
 62
2
 10
-124.000000
 20
80.000000
 11
-124.000000
 21
89.500000
  0
LINE
  8
0
  6
DASHED
 62
2
 10
-126.000000
 20
82.500000
 11
-126.000000
 21
87.500000
  0
LINE
  8
0
  6
DASHED
 62
2
 10
-122.000000
 20
82.500000
 11
-122.000000
 21
87.500000
  0
LINE
  8
0
  6
DASHED
 62
2
 10
-122.349998
 20
82.500000
 11
-122.349998
 21
87.500000
  0
LINE
  8
0
  6
DASHED
 62
2
 10
-125.650002
 20
82.500000
 11
-125.650002
 21
87.500000
  0
LINE
  8
0
  6
DASHED
 62
2
 10
-127.000000
 20
82.000000
 11
-127.000000
 21
82.500000
  0
LINE
  8
0
  6
DASHED
 62
2
 10
-153.000000
 20
82.000000
 11
-153.000000
 21
82.500000
  0
LINE
  8
0
  6
DASHED
 62
2
 10
-121.000000
 20
82.000000
 11
-121.000000
 21
82.500000
  0
LINE
  8
0
  6
CONTINUOUS
 62
7
 10
-110.000000
 20
-62.000000
 11
-170.000000
 21
-62.000000
  0
LINE
  8
0
  6
CENTER
 62
2
 10
-107.366997
 20
-76.000000
 11
-174.000000
 21
-76.000000
  0
LINE
  8
0
  6
CENTER
 62
2
 10
-162.500000
 20
-64.599998
 11
-162.500000
 21
-80.400002
  0
LINE
  8
0
  6
CENTER
 62
2
 10
-170.399994
 20
-72.500000
 11
-154.600006
 21
-72.500000
  0
LINE
  8
0
  6
CENTER
 62
2
 10
-156.000000
 20
-61.500000
 11
-156.000000
 21
-69.500000
  0
LINE
  8
0
  6
CENTER
 62
2
 10
-160.000000
 20
-65.500000
 11
-152.000000
 21
-65.500000
  0
LINE
  8
0
  6
CENTER
 62
2
 10
-124.000000
 20
-61.500000
 11
-124.000000
 21
-69.500000
  0
LINE
  8
0
  6
CENTER
 62
2
 10
-128.000000
 20
-65.500000
 11
-120.000000
 21
-65.500000
  0
LINE
  8
0
  6
CENTER
 62
2
 10
-117.500000
 20
-64.599998
 11
-117.500000
 21
-80.400002
  0
LINE
  8
0
  6
CENTER
 62
2
 10
-125.400002
 20
-72.500000
 11
-109.599998
 21
-72.500000
  0
LINE
  8
0
  6
CENTER
 62
2
 10
-124.000000
 20
-82.500000
 11
-124.000000
 21
-90.500000
  0
LINE
  8
0
  6
CENTER
 62
2
 10
-128.000000
 20
-86.500000
 11
-120.000000
 21
-86.500000
  0
LINE
  8
0
  6
CENTER
 62
2
 10
-156.000000
 20
-82.500000
 11
-156.000000
 21
-90.500000
  0
LINE
  8
0
  6
CENTER
 62
2
 10
-160.000000
 20
-86.500000
 11
-152.000000
 21
-86.500000
  0
LINE
  8
0
  6
CONTINUOUS
 62
7
 10
-145.500000
 20
67.500000
 11
-124.500000
 21
67.500000
  0
LINE
  8
0
  6
CONTINUOUS
 62
7
 10
-110.000000
 20
87.500000
 11
-110.000000
 21
68.000000
  0
LINE
  8
0
  6
CONTINUOUS
 62
7
 10
-170.000000
 20
87.500000
 11
-110.000000
 21
87.500000
  0
LINE
  8
0
  6
CONTINUOUS
 62
7
 10
-152.000000
 20
77.500000
 11
-127.000000
 21
77.500000
  0
LINE
  8
0
  6
CONTINUOUS
 62
7
 10
-170.000000
 20
87.500000
 11
-170.000000
 21
68.000000
  0
LINE
  8
0
  6
CONTINUOUS
 62
7
 10
-152.000000
 20
77.500000
 11
-152.000000
 21
75.000000
  0
LINE
  8
0
  6
CONTINUOUS
 62
7
 10
-158.000000
 20
68.000000
 11
-145.500000
 21
68.000000
  0
LINE
  8
0
  6
CONTINUOUS
 62
7
 10
-145.500000
 20
77.500000
 11
-145.500000
 21
67.500000
  0
LINE
  8
0
  6
CONTINUOUS
 62
7
 10
-124.500000
 20
68.500000
 11
-124.500000
 21
67.500000
  0
LINE
  8
0
  6
CONTINUOUS
 62
7
 10
-124.500000
 20
68.000000
 11
-118.000000
 21
68.000000
  0
LINE
  8
0
  6
CONTINUOUS
 62
7
 10
-143.000000
 20
76.000000
 11
-143.000000
 21
68.000000
  0
LINE
  8
0
  6
CONTINUOUS
 62
7
 10
-127.000000
 20
68.000000
 11
-143.000000
 21
68.000000
  0
LINE
  8
0
  6
CONTINUOUS
 62
7
 10
-127.000000
 20
79.500000
 11
-127.000000
 21
68.000000
  0
LINE
  8
0
  6
CONTINUOUS
 62
7
 10
-118.000000
 20
70.000000
 11
-118.000000
 21
68.000000
  0
LINE
  8
0
  6
CONTINUOUS
 62
7
 10
-153.000000
 20
72.000000
 11
-152.000000
 21
72.000000
  0
LINE
  8
0
  6
CENTER
 62
2
 10
-128.199997
 20
74.000000
 11
-94.000000
 21
74.000000
  0
LINE
  8
0
  6
CONTINUOUS
 62
7
 10
-163.000000
 20
80.000000
 11
-117.000000
 21
80.000000
  0
LINE
  8
0
  6
CONTINUOUS
 62
7
 10
-108.000000
 20
76.397903
 11
-110.000000
 21
76.397903
  0
LINE
  8
0
  6
CONTINUOUS
 62
7
 10
-121.000000
 20
79.500000
 11
-127.000000
 21
79.500000
  0
LINE
  8
0
  6
CONTINUOUS
 62
7
 10
-121.000000
 20
68.500000
 11
-127.000000
 21
68.500000
  0
LINE
  8
0
  6
CONTINUOUS
 62
7
 10
-121.000000
 20
68.500000
 11
-121.000000
 21
79.500000
  0
LINE
  8
0
  6
CONTINUOUS
 62
7
 10
-108.000000
 20
68.000000
 11
-110.000000
 21
68.000000
  0
LINE
  8
0
  6
CONTINUOUS
 62
7
 10
-108.000000
 20
68.000000
 11
-108.000000
 21
80.000000
  0
LINE
  8
0
  6
CONTINUOUS
 62
7
 10
-108.000000
 20
70.435799
 11
-110.000000
 21
70.435799
  0
LINE
  8
0
  6
CONTINUOUS
 62
7
 10
-108.000000
 20
77.564201
 11
-110.000000
 21
77.564201
  0
LINE
  8
0
  6
CONTINUOUS
 62
7
 10
-108.000000
 20
71.602097
 11
-110.000000
 21
71.602097
  0
LINE
  8
0
  6
CONTINUOUS
 62
7
 10
-108.000000
 20
80.000000
 11
-110.000000
 21
80.000000
  0
LINE
  8
0
  6
CONTINUOUS
 62
7
 10
-153.000000
 20
79.500000
 11
-153.000000
 21
68.500000
  0
LINE
  8
0
  6
CONTINUOUS
 62
7
 10
-172.000000
 20
71.602097
 11
-170.000000
 21
71.602097
  0
LINE
  8
0
  6
CONTINUOUS
 62
7
 10
-159.000000
 20
68.500000
 11
-153.000000
 21
68.500000
  0
LINE
  8
0
  6
CONTINUOUS
 62
7
 10
-159.000000
 20
79.500000
 11
-153.000000
 21
79.500000
  0
LINE
  8
0
  6
CONTINUOUS
 62
7
 10
-159.000000
 20
79.500000
 11
-159.000000
 21
68.500000
  0
LINE
  8
0
  6
CONTINUOUS
 62
7
 10
-172.000000
 20
80.000000
 11
-170.000000
 21
80.000000
  0
LINE
  8
0
  6
CONTINUOUS
 62
7
 10
-172.000000
 20
80.000000
 11
-172.000000
 21
68.000000
  0
LINE
  8
0
  6
CONTINUOUS
 62
7
 10
-180.199997
 20
70.000000
 11
-172.000000
 21
70.000000
  0
LINE
  8
0
  6
CONTINUOUS
 62
7
 10
-172.000000
 20
77.564201
 11
-170.000000
 21
77.564201
  0
LINE
  8
0
  6
CONTINUOUS
 62
7
 10
-172.000000
 20
70.435799
 11
-170.000000
 21
70.435799
  0
LINE
  8
0
  6
CONTINUOUS
 62
7
 10
-172.000000
 20
76.397903
 11
-170.000000
 21
76.397903
  0
LINE
  8
0
  6
CONTINUOUS
 62
7
 10
-172.000000
 20
68.000000
 11
-165.000000
 21
68.000000
  0
LINE
  8
0
  6
CONTINUOUS
 62
7
 10
-149.000000
 20
75.000000
 11
-149.000000
 21
73.000000
  0
LINE
  8
0
  6
CENTER
 62
2
 10
-148.000000
 20
74.000000
 11
-186.000000
 21
74.000000
  0
LINE
  8
0
  6
CONTINUOUS
 62
7
 10
-149.000000
 20
75.000000
 11
-153.000000
 21
75.000000
  0
LINE
  8
0
  6
CONTINUOUS
 62
7
 10
-149.000000
 20
73.000000
 11
-153.000000
 21
73.000000
  0
LINE
  8
0
  6
CONTINUOUS
 62
7
 10
-152.000000
 20
73.000000
 11
-152.000000
 21
68.000000
  0
LINE
  8
0
  6
CONTINUOUS
 62
7
 10
-115.000000
 20
68.000000
 11
-110.000000
 21
68.000000
  0
LINE
  8
0
  6
CONTINUOUS
 62
7
 10
-165.000000
 20
68.000000
 11
-165.000000
 21
78.000000
  0
LINE
  8
0
  6
CONTINUOUS
 62
7
 10
-115.000000
 20
68.000000
 11
-115.000000
 21
78.000000
  0
LINE
  8
0
  6
CONTINUOUS
 62
7
 10
-127.000000
 20
76.000000
 11
-143.000000
 21
76.000000
  0
LINE
  8
0
  6
CONTINUOUS
 62
7
 10
-185.000000
 20
77.300003
 11
-185.000000
 21
74.750000
  0
LINE
  8
0
  6
CONTINUOUS
 62
7
 10
-184.000000
 20
77.300003
 11
-185.000000
 21
77.300003
  0
LINE
  8
0
  6
CONTINUOUS
 62
7
 10
-184.000000
 20
74.750000
 11
-185.000000
 21
74.750000
  0
LINE
  8
0
  6
CONTINUOUS
 62
7
 10
-184.000000
 20
73.250000
 11
-185.000000
 21
73.250000
  0
LINE
  8
0
  6
CONTINUOUS
 62
7
 10
-185.000000
 20
73.250000
 11
-185.000000
 21
70.699997
  0
LINE
  8
0
  6
CONTINUOUS
 62
7
 10
-159.000000
 20
78.000000
 11
-165.000000
 21
78.000000
  0
LINE
  8
0
  6
CONTINUOUS
 62
7
 10
-159.000000
 20
70.000000
 11
-165.000000
 21
70.000000
  0
LINE
  8
0
  6
CONTINUOUS
 62
2
 10
-159.000000
 20
70.699997
 11
-165.000000
 21
70.699997
  0
LINE
  8
0
  6
CONTINUOUS
 62
2
 10
-159.000000
 20
77.300003
 11
-165.000000
 21
77.300003
  0
LINE
  8
0
  6
CONTINUOUS
 62
7
 10
-172.000000
 20
70.000000
 11
-184.000000
 21
70.000000
  0
LINE
  8
0
  6
CONTINUOUS
 62
2
 10
-172.000000
 20
70.699997
 11
-184.000000
 21
70.699997
  0
LINE
  8
0
  6
CONTINUOUS
 62
2
 10
-172.000000
 20
77.300003
 11
-184.000000
 21
77.300003
  0
LINE
  8
0
  6
CONTINUOUS
 62
7
 10
-172.000000
 20
78.000000
 11
-184.000000
 21
78.000000
  0
LINE
  8
0
  6
CONTINUOUS
 62
7
 10
-95.000000
 20
70.699997
 11
-95.000000
 21
73.250000
  0
LINE
  8
0
  6
CONTINUOUS
 62
7
 10
-96.000000
 20
70.699997
 11
-95.000000
 21
70.699997
  0
LINE
  8
0
  6
CONTINUOUS
 62
7
 10
-96.000000
 20
70.000000
 11
-96.000000
 21
78.000000
  0
LINE
  8
0
  6
CONTINUOUS
 62
7
 10
-96.000000
 20
73.250000
 11
-95.000000
 21
73.250000
  0
LINE
  8
0
  6
CONTINUOUS
 62
7
 10
-96.000000
 20
74.750000
 11
-95.000000
 21
74.750000
  0
LINE
  8
0
  6
CONTINUOUS
 62
7
 10
-95.000000
 20
74.750000
 11
-95.000000
 21
77.300003
  0
LINE
  8
0
  6
CONTINUOUS
 62
7
 10
-96.000000
 20
77.300003
 11
-95.000000
 21
77.300003
  0
LINE
  8
0
  6
CONTINUOUS
 62
7
 10
-121.000000
 20
70.000000
 11
-115.000000
 21
70.000000
  0
LINE
  8
0
  6
CONTINUOUS
 62
7
 10
-121.000000
 20
78.000000
 11
-115.000000
 21
78.000000
  0
LINE
  8
0
  6
CONTINUOUS
 62
2
 10
-121.000000
 20
77.300003
 11
-115.000000
 21
77.300003
  0
LINE
  8
0
  6
CONTINUOUS
 62
2
 10
-121.000000
 20
70.699997
 11
-115.000000
 21
70.699997
  0
LINE
  8
0
  6
CONTINUOUS
 62
7
 10
-108.000000
 20
70.000000
 11
-96.000000
 21
70.000000
  0
LINE
  8
0
  6
CONTINUOUS
 62
2
 10
-108.000000
 20
70.699997
 11
-96.000000
 21
70.699997
  0
LINE
  8
0
  6
CONTINUOUS
 62
2
 10
-108.000000
 20
77.300003
 11
-96.000000
 21
77.300003
  0
LINE
  8
0
  6
CONTINUOUS
 62
7
 10
-108.000000
 20
78.000000
 11
-96.000000
 21
78.000000
  0
LINE
  8
0
  6
CONTINUOUS
 62
7
 10
-184.000000
 20
78.000000
 11
-184.000000
 21
70.000000
  0
LINE
  8
0
  6
CONTINUOUS
 62
7
 10
-184.000000
 20
70.699997
 11
-185.000000
 21
70.699997
  0
LINE
  8
0
  6
CONTINUOUS
 62
7
 10
-127.000000
 20
43.500000
 11
-143.000000
 21
43.500000
  0
LINE
  8
0
  6
CONTINUOUS
 62
7
 10
-143.000000
 20
36.000000
 11
-170.000000
 21
36.000000
  0
LINE
  8
0
  6
CONTINUOUS
 62
7
 10
-143.000000
 20
35.500000
 11
-143.000000
 21
43.500000
  0
LINE
  8
0
  6
CONTINUOUS
 62
7
 10
-127.000000
 20
35.500000
 11
-127.000000
 21
47.500000
  0
LINE
  8
0
  6
CONTINUOUS
 62
7
 10
-110.000000
 20
36.000000
 11
-127.000000
 21
36.000000
  0
LINE
  8
0
  6
CONTINUOUS
 62
7
 10
-110.000000
 20
48.000000
 11
-170.000000
 21
48.000000
  0
LINE
  8
0
  6
CONTINUOUS
 62
7
 10
-115.000000
 20
48.000000
 11
-115.000000
 21
36.000000
  0
LINE
  8
0
  6
CONTINUOUS
 62
7
 10
-165.000000
 20
48.000000
 11
-165.000000
 21
36.000000
  0
LINE
  8
0
  6
CENTER
 62
2
 10
-93.851898
 20
42.000000
 11
-129.000000
 21
42.000000
  0
LINE
  8
0
  6
CONTINUOUS
 62
7
 10
-170.000000
 20
36.500000
 11
-172.000000
 21
36.500000
  0
LINE
  8
0
  6
CONTINUOUS
 62
7
 10
-172.000000
 20
47.500000
 11
-172.000000
 21
36.500000
  0
LINE
  8
0
  6
CONTINUOUS
 62
7
 10
-170.000000
 20
47.500000
 11
-172.000000
 21
47.500000
  0
LINE
  8
0
  6
CONTINUOUS
 62
7
 10
-170.000000
 20
42.673302
 11
-172.000000
 21
42.673302
  0
LINE
  8
0
  6
CONTINUOUS
 62
7
 10
-170.000000
 20
41.326698
 11
-172.000000
 21
41.326698
  0
LINE
  8
0
  6
CONTINUOUS
 62
7
 10
-170.000000
 20
46.826698
 11
-172.000000
 21
46.826698
  0
LINE
  8
0
  6
CONTINUOUS
 62
7
 10
-170.000000
 20
37.173302
 11
-172.000000
 21
37.173302
  0
LINE
  8
0
  6
CONTINUOUS
 62
7
 10
-110.000000
 20
47.500000
 11
-108.000000
 21
47.500000
  0
LINE
  8
0
  6
CONTINUOUS
 62
7
 10
-108.000000
 20
36.500000
 11
-108.000000
 21
47.500000
  0
LINE
  8
0
  6
CONTINUOUS
 62
7
 10
-110.000000
 20
36.500000
 11
-108.000000
 21
36.500000
  0
LINE
  8
0
  6
CONTINUOUS
 62
7
 10
-110.000000
 20
41.326698
 11
-108.000000
 21
41.326698
  0
LINE
  8
0
  6
CONTINUOUS
 62
7
 10
-110.000000
 20
42.673302
 11
-108.000000
 21
42.673302
  0
LINE
  8
0
  6
CONTINUOUS
 62
7
 10
-110.000000
 20
37.173302
 11
-108.000000
 21
37.173302
  0
LINE
  8
0
  6
CONTINUOUS
 62
7
 10
-110.000000
 20
46.826698
 11
-108.000000
 21
46.826698
  0
LINE
  8
0
  6
CONTINUOUS
 62
7
 10
-121.000000
 20
47.500000
 11
-127.000000
 21
47.500000
  0
LINE
  8
0
  6
CONTINUOUS
 62
7
 10
-95.000000
 20
38.700001
 11
-95.000000
 21
45.299999
  0
LINE
  8
0
  6
CONTINUOUS
 62
7
 10
-96.000000
 20
38.700001
 11
-95.000000
 21
38.700001
  0
LINE
  8
0
  6
CONTINUOUS
 62
7
 10
-96.000000
 20
38.000000
 11
-96.000000
 21
46.000000
  0
LINE
  8
0
  6
CONTINUOUS
 62
7
 10
-96.000000
 20
45.299999
 11
-95.000000
 21
45.299999
  0
LINE
  8
0
  6
CONTINUOUS
 62
7
 10
-108.000000
 20
38.000000
 11
-96.000000
 21
38.000000
  0
LINE
  8
0
  6
CONTINUOUS
 62
2
 10
-108.000000
 20
38.700001
 11
-96.000000
 21
38.700001
  0
LINE
  8
0
  6
CONTINUOUS
 62
2
 10
-108.000000
 20
45.299999
 11
-96.000000
 21
45.299999
  0
LINE
  8
0
  6
CONTINUOUS
 62
7
 10
-108.000000
 20
46.000000
 11
-96.000000
 21
46.000000
  0
LINE
  8
0
  6
CONTINUOUS
 62
7
 10
-121.000000
 20
46.000000
 11
-115.000000
 21
46.000000
  0
LINE
  8
0
  6
CONTINUOUS
 62
2
 10
-121.000000
 20
45.299999
 11
-115.000000
 21
45.299999
  0
LINE
  8
0
  6
CONTINUOUS
 62
2
 10
-121.000000
 20
38.700001
 11
-115.000000
 21
38.700001
  0
LINE
  8
0
  6
CONTINUOUS
 62
7
 10
-121.000000
 20
38.000000
 11
-115.000000
 21
38.000000
  0
LINE
  8
0
  6
CONTINUOUS
 62
7
 10
-121.000000
 20
36.500000
 11
-121.000000
 21
47.500000
  0
LINE
  8
0
  6
CONTINUOUS
 62
7
 10
-121.000000
 20
36.500000
 11
-127.000000
 21
36.500000
  0
LINE
  8
0
  6
CONTINUOUS
 62
7
 10
-180.199997
 20
38.000000
 11
-172.000000
 21
38.000000
  0
LINE
  8
0
  6
CONTINUOUS
 62
7
 10
-159.000000
 20
47.500000
 11
-153.000000
 21
47.500000
  0
LINE
  8
0
  6
CONTINUOUS
 62
7
 10
-185.000000
 20
45.299999
 11
-185.000000
 21
38.700001
  0
LINE
  8
0
  6
CONTINUOUS
 62
7
 10
-184.000000
 20
45.299999
 11
-185.000000
 21
45.299999
  0
LINE
  8
0
  6
CONTINUOUS
 62
7
 10
-184.000000
 20
46.000000
 11
-184.000000
 21
38.000000
  0
LINE
  8
0
  6
CONTINUOUS
 62
7
 10
-184.000000
 20
38.700001
 11
-185.000000
 21
38.700001
  0
LINE
  8
0
  6
CONTINUOUS
 62
7
 10
-172.000000
 20
38.000000
 11
-184.000000
 21
38.000000
  0
LINE
  8
0
  6
CONTINUOUS
 62
2
 10
-172.000000
 20
38.700001
 11
-184.000000
 21
38.700001
  0
LINE
  8
0
  6
CONTINUOUS
 62
2
 10
-172.000000
 20
45.299999
 11
-184.000000
 21
45.299999
  0
LINE
  8
0
  6
CONTINUOUS
 62
7
 10
-172.000000
 20
46.000000
 11
-184.000000
 21
46.000000
  0
LINE
  8
0
  6
CONTINUOUS
 62
7
 10
-159.000000
 20
46.000000
 11
-165.000000
 21
46.000000
  0
LINE
  8
0
  6
CONTINUOUS
 62
2
 10
-159.000000
 20
45.299999
 11
-165.000000
 21
45.299999
  0
LINE
  8
0
  6
CONTINUOUS
 62
7
 10
-159.000000
 20
47.500000
 11
-159.000000
 21
36.500000
  0
LINE
  8
0
  6
CONTINUOUS
 62
2
 10
-159.000000
 20
38.700001
 11
-165.000000
 21
38.700001
  0
LINE
  8
0
  6
CONTINUOUS
 62
7
 10
-159.000000
 20
38.000000
 11
-165.000000
 21
38.000000
  0
LINE
  8
0
  6
CONTINUOUS
 62
7
 10
-159.000000
 20
36.500000
 11
-153.000000
 21
36.500000
  0
LINE
  8
0
  6
CONTINUOUS
 62
7
 10
-153.000000
 20
47.500000
 11
-153.000000
 21
36.500000
  0
LINE
  8
0
  6
CONTINUOUS
 62
7
 10
-149.000000
 20
41.000000
 11
-153.000000
 21
41.000000
  0
LINE
  8
0
  6
CONTINUOUS
 62
7
 10
-149.000000
 20
43.000000
 11
-149.000000
 21
41.000000
  0
LINE
  8
0
  6
CONTINUOUS
 62
7
 10
-149.000000
 20
43.000000
 11
-153.000000
 21
43.000000
  0
LINE
  8
0
  6
CENTER
 62
2
 10
-147.000000
 20
42.000000
 11
-185.919006
 21
42.000000
  0
LINE
  8
0
  6
CONTINUOUS
 62
7
 10
-172.000000
 20
-21.102100
 11
-170.000000
 21
-21.102100
  0
LINE
  8
0
  6
CONTINUOUS
 62
7
 10
-172.000000
 20
-29.500000
 11
-170.000000
 21
-29.500000
  0
LINE
  8
0
  6
CONTINUOUS
 62
7
 10
-172.000000
 20
-29.500000
 11
-172.000000
 21
-17.500000
  0
LINE
  8
0
  6
CONTINUOUS
 62
7
 10
-180.199997
 20
-19.500000
 11
-172.000000
 21
-19.500000
  0
LINE
  8
0
  6
CONTINUOUS
 62
7
 10
-172.000000
 20
-27.064199
 11
-170.000000
 21
-27.064199
  0
LINE
  8
0
  6
CONTINUOUS
 62
7
 10
-172.000000
 20
-19.935801
 11
-170.000000
 21
-19.935801
  0
LINE
  8
0
  6
CONTINUOUS
 62
7
 10
-172.000000
 20
-25.897900
 11
-170.000000
 21
-25.897900
  0
LINE
  8
0
  6
CONTINUOUS
 62
7
 10
-172.000000
 20
-17.500000
 11
-170.000000
 21
-17.500000
  0
LINE
  8
0
  6
CENTER
 62
2
 10
-168.570999
 20
-23.500000
 11
-186.000000
 21
-23.500000
  0
LINE
  8
0
  6
CONTINUOUS
 62
7
 10
-185.000000
 20
-26.799999
 11
-185.000000
 21
-24.250000
  0
LINE
  8
0
  6
CONTINUOUS
 62
7
 10
-184.000000
 20
-26.799999
 11
-185.000000
 21
-26.799999
  0
LINE
  8
0
  6
CONTINUOUS
 62
7
 10
-184.000000
 20
-27.500000
 11
-184.000000
 21
-19.500000
  0
LINE
  8
0
  6
CONTINUOUS
 62
7
 10
-184.000000
 20
-24.250000
 11
-185.000000
 21
-24.250000
  0
LINE
  8
0
  6
CONTINUOUS
 62
7
 10
-184.000000
 20
-22.750000
 11
-185.000000
 21
-22.750000
  0
LINE
  8
0
  6
CONTINUOUS
 62
7
 10
-185.000000
 20
-22.750000
 11
-185.000000
 21
-20.200001
  0
LINE
  8
0
  6
CONTINUOUS
 62
7
 10
-184.000000
 20
-20.200001
 11
-185.000000
 21
-20.200001
  0
LINE
  8
0
  6
CONTINUOUS
 62
7
 10
-172.000000
 20
-19.500000
 11
-184.000000
 21
-19.500000
  0
LINE
  8
0
  6
CONTINUOUS
 62
2
 10
-172.000000
 20
-20.200001
 11
-184.000000
 21
-20.200001
  0
LINE
  8
0
  6
CONTINUOUS
 62
2
 10
-172.000000
 20
-26.799999
 11
-184.000000
 21
-26.799999
  0
LINE
  8
0
  6
CONTINUOUS
 62
7
 10
-172.000000
 20
-27.500000
 11
-184.000000
 21
-27.500000
  0
LINE
  8
0
  6
CONTINUOUS
 62
7
 10
-165.000000
 20
-17.500000
 11
-165.000000
 21
-21.500000
  0
LINE
  8
0
  6
CONTINUOUS
 62
7
 10
-170.000000
 20
-17.500000
 11
-165.000000
 21
-17.500000
  0
LINE
  8
0
  6
CONTINUOUS
 62
7
 10
-159.000000
 20
-19.500000
 11
-165.000000
 21
-19.500000
  0
LINE
  8
0
  6
CONTINUOUS
 62
2
 10
-159.000000
 20
-20.200001
 11
-165.000000
 21
-20.200001
  0
LINE
  8
0
  6
CONTINUOUS
 62
7
 10
-159.000000
 20
-21.500000
 11
-159.000000
 21
-18.000000
  0
LINE
  8
0
  6
CONTINUOUS
 62
7
 10
-159.000000
 20
-18.000000
 11
-158.000000
 21
-18.000000
  0
LINE
  8
0
  6
CENTER
 62
2
 10
-111.721001
 20
-23.500000
 11
-94.000000
 21
-23.500000
  0
LINE
  8
0
  6
CONTINUOUS
 62
7
 10
-108.000000
 20
-25.897900
 11
-110.000000
 21
-25.897900
  0
LINE
  8
0
  6
CONTINUOUS
 62
7
 10
-108.000000
 20
-17.500000
 11
-110.000000
 21
-17.500000
  0
LINE
  8
0
  6
CONTINUOUS
 62
7
 10
-108.000000
 20
-17.500000
 11
-108.000000
 21
-29.500000
  0
LINE
  8
0
  6
CONTINUOUS
 62
7
 10
-108.000000
 20
-19.935801
 11
-110.000000
 21
-19.935801
  0
LINE
  8
0
  6
CONTINUOUS
 62
7
 10
-108.000000
 20
-27.064199
 11
-110.000000
 21
-27.064199
  0
LINE
  8
0
  6
CONTINUOUS
 62
7
 10
-108.000000
 20
-21.102100
 11
-110.000000
 21
-21.102100
  0
LINE
  8
0
  6
CONTINUOUS
 62
7
 10
-108.000000
 20
-29.500000
 11
-110.000000
 21
-29.500000
  0
LINE
  8
0
  6
CONTINUOUS
 62
7
 10
-95.000000
 20
-20.200001
 11
-95.000000
 21
-22.750000
  0
LINE
  8
0
  6
CONTINUOUS
 62
7
 10
-96.000000
 20
-20.200001
 11
-95.000000
 21
-20.200001
  0
LINE
  8
0
  6
CONTINUOUS
 62
7
 10
-96.000000
 20
-19.500000
 11
-96.000000
 21
-27.500000
  0
LINE
  8
0
  6
CONTINUOUS
 62
7
 10
-96.000000
 20
-22.750000
 11
-95.000000
 21
-22.750000
  0
LINE
  8
0
  6
CONTINUOUS
 62
7
 10
-96.000000
 20
-24.250000
 11
-95.000000
 21
-24.250000
  0
LINE
  8
0
  6
CONTINUOUS
 62
7
 10
-95.000000
 20
-24.250000
 11
-95.000000
 21
-26.799999
  0
LINE
  8
0
  6
CONTINUOUS
 62
7
 10
-96.000000
 20
-26.799999
 11
-95.000000
 21
-26.799999
  0
LINE
  8
0
  6
CONTINUOUS
 62
7
 10
-108.000000
 20
-19.500000
 11
-96.000000
 21
-19.500000
  0
LINE
  8
0
  6
CONTINUOUS
 62
2
 10
-108.000000
 20
-26.799999
 11
-96.000000
 21
-26.799999
  0
LINE
  8
0
  6
CONTINUOUS
 62
7
 10
-108.000000
 20
-27.500000
 11
-96.000000
 21
-27.500000
  0
LINE
  8
0
  6
CONTINUOUS
 62
2
 10
-108.000000
 20
-20.200001
 11
-96.000000
 21
-20.200001
  0
LINE
  8
0
  6
CONTINUOUS
 62
2
 10
-118.000000
 20
-20.200001
 11
-115.000000
 21
-20.200001
  0
LINE
  8
0
  6
CONTINUOUS
 62
7
 10
-118.000000
 20
-19.500000
 11
-115.000000
 21
-19.500000
  0
LINE
  8
0
  6
CONTINUOUS
 62
7
 10
-115.000000
 20
-17.500000
 11
-115.000000
 21
-21.500000
  0
LINE
  8
0
  6
CONTINUOUS
 62
7
 10
-115.000000
 20
-17.500000
 11
-110.000000
 21
-17.500000
  0
LINE
  8
0
  6
CONTINUOUS
 62
7
 10
-110.000000
 20
-90.000000
 11
-170.000000
 21
-90.000000
  0
LINE
  8
0
  6
CONTINUOUS
 62
7
 10
-172.000000
 20
-100.000000
 11
-184.000000
 21
-100.000000
  0
LINE
  8
0
  6
CONTINUOUS
 62
7
 10
-170.000000
 20
-102.000000
 11
-110.000000
 21
-102.000000
  0
LINE
  8
0
  6
CENTER
 62
2
 10
-186.147995
 20
-96.000000
 11
-168.509995
 21
-96.000000
  0
LINE
  8
0
  6
CONTINUOUS
 62
7
 10
-170.000000
 20
-101.500000
 11
-172.000000
 21
-101.500000
  0
LINE
  8
0
  6
CONTINUOUS
 62
7
 10
-172.000000
 20
-90.500000
 11
-172.000000
 21
-101.500000
  0
LINE
  8
0
  6
CONTINUOUS
 62
7
 10
-170.000000
 20
-90.500000
 11
-172.000000
 21
-90.500000
  0
LINE
  8
0
  6
CONTINUOUS
 62
7
 10
-170.000000
 20
-95.326698
 11
-172.000000
 21
-95.326698
  0
LINE
  8
0
  6
CONTINUOUS
 62
7
 10
-170.000000
 20
-96.673302
 11
-172.000000
 21
-96.673302
  0
LINE
  8
0
  6
CONTINUOUS
 62
7
 10
-170.000000
 20
-91.173302
 11
-172.000000
 21
-91.173302
  0
LINE
  8
0
  6
CONTINUOUS
 62
7
 10
-170.000000
 20
-100.827003
 11
-172.000000
 21
-100.827003
  0
LINE
  8
0
  6
CONTINUOUS
 62
7
 10
-185.000000
 20
-92.699997
 11
-185.000000
 21
-99.300003
  0
LINE
  8
0
  6
CONTINUOUS
 62
7
 10
-184.000000
 20
-92.699997
 11
-185.000000
 21
-92.699997
  0
LINE
  8
0
  6
CONTINUOUS
 62
7
 10
-184.000000
 20
-92.000000
 11
-184.000000
 21
-100.000000
  0
LINE
  8
0
  6
CONTINUOUS
 62
7
 10
-184.000000
 20
-99.300003
 11
-185.000000
 21
-99.300003
  0
LINE
  8
0
  6
CONTINUOUS
 62
7
 10
-172.000000
 20
-92.000000
 11
-184.000000
 21
-92.000000
  0
LINE
  8
0
  6
CONTINUOUS
 62
2
 10
-172.000000
 20
-92.699997
 11
-184.000000
 21
-92.699997
  0
LINE
  8
0
  6
CONTINUOUS
 62
2
 10
-172.000000
 20
-99.300003
 11
-184.000000
 21
-99.300003
  0
LINE
  8
0
  6
CONTINUOUS
 62
7
 10
-170.000000
 20
-102.000000
 11
-170.000000
 21
-62.000000
  0
LINE
  8
0
  6
CONTINUOUS
 62
7
 10
-110.000000
 20
-102.000000
 11
-110.000000
 21
-62.000000
  0
LINE
  8
0
  6
CONTINUOUS
 62
7
 10
-110.000000
 20
-90.500000
 11
-108.000000
 21
-90.500000
  0
LINE
  8
0
  6
CONTINUOUS
 62
7
 10
-108.000000
 20
-101.500000
 11
-108.000000
 21
-90.500000
  0
LINE
  8
0
  6
CONTINUOUS
 62
7
 10
-110.000000
 20
-101.500000
 11
-108.000000
 21
-101.500000
  0
LINE
  8
0
  6
CONTINUOUS
 62
7
 10
-110.000000
 20
-96.673302
 11
-108.000000
 21
-96.673302
  0
LINE
  8
0
  6
CONTINUOUS
 62
7
 10
-110.000000
 20
-95.326698
 11
-108.000000
 21
-95.326698
  0
LINE
  8
0
  6
CONTINUOUS
 62
7
 10
-110.000000
 20
-100.827003
 11
-108.000000
 21
-100.827003
  0
LINE
  8
0
  6
CONTINUOUS
 62
7
 10
-110.000000
 20
-91.173302
 11
-108.000000
 21
-91.173302
  0
LINE
  8
0
  6
CONTINUOUS
 62
7
 10
-99.800003
 20
-92.000000
 11
-108.000000
 21
-92.000000
  0
LINE
  8
0
  6
CONTINUOUS
 62
7
 10
-95.000000
 20
-99.300003
 11
-95.000000
 21
-92.699997
  0
LINE
  8
0
  6
CONTINUOUS
 62
7
 10
-96.000000
 20
-99.300003
 11
-95.000000
 21
-99.300003
  0
LINE
  8
0
  6
CONTINUOUS
 62
7
 10
-96.000000
 20
-100.000000
 11
-96.000000
 21
-92.000000
  0
LINE
  8
0
  6
CONTINUOUS
 62
7
 10
-96.000000
 20
-92.699997
 11
-95.000000
 21
-92.699997
  0
LINE
  8
0
  6
CONTINUOUS
 62
7
 10
-108.000000
 20
-92.000000
 11
-96.000000
 21
-92.000000
  0
LINE
  8
0
  6
CONTINUOUS
 62
2
 10
-108.000000
 20
-92.699997
 11
-96.000099
 21
-92.699997
  0
LINE
  8
0
  6
CONTINUOUS
 62
2
 10
-108.000000
 20
-99.300003
 11
-96.000000
 21
-99.300003
  0
LINE
  8
0
  6
CONTINUOUS
 62
7
 10
-108.000000
 20
-100.000000
 11
-96.000000
 21
-100.000000
  0
LINE
  8
0
  6
CENTER
 62
2
 10
-111.541000
 20
-96.000000
 11
-94.080803
 21
-96.000000
  0
LINE
  8
0
  6
CONTINUOUS
 62
2
 10
172.000000
 20
-99.300003
 11
189.000000
 21
-99.300003
  0
LINE
  8
0
  6
CONTINUOUS
 62
7
 10
172.000000
 20
-100.000000
 11
189.000000
 21
-100.000000
  0
LINE
  8
0
  6
CENTER
 62
2
 10
168.459000
 20
-96.000000
 11
190.919006
 21
-96.000000
  0
LINE
  8
0
  6
CONTINUOUS
 62
7
 10
108.000000
 20
-100.000000
 11
91.000000
 21
-100.000000
  0
LINE
  8
0
  6
CONTINUOUS
 62
7
 10
110.000000
 20
-102.000000
 11
170.000000
 21
-102.000000
  0
LINE
  8
0
  6
CENTER
 62
2
 10
88.851898
 20
-96.000000
 11
111.489998
 21
-96.000000
  0
LINE
  8
0
  6
CONTINUOUS
 62
7
 10
110.000000
 20
-101.500000
 11
108.000000
 21
-101.500000
  0
LINE
  8
0
  6
CONTINUOUS
 62
7
 10
108.000000
 20
-90.500000
 11
108.000000
 21
-101.500000
  0
LINE
  8
0
  6
CONTINUOUS
 62
7
 10
110.000000
 20
-90.500000
 11
108.000000
 21
-90.500000
  0
LINE
  8
0
  6
CONTINUOUS
 62
7
 10
110.000000
 20
-95.326698
 11
108.000000
 21
-95.326698
  0
LINE
  8
0
  6
CONTINUOUS
 62
7
 10
110.000000
 20
-96.673401
 11
108.000000
 21
-96.673401
  0
LINE
  8
0
  6
CONTINUOUS
 62
7
 10
110.000000
 20
-91.173401
 11
108.000000
 21
-91.173401
  0
LINE
  8
0
  6
CONTINUOUS
 62
7
 10
110.000000
 20
-100.827003
 11
108.000000
 21
-100.827003
  0
LINE
  8
0
  6
CONTINUOUS
 62
7
 10
90.000000
 20
-92.699997
 11
90.000000
 21
-99.300003
  0
LINE
  8
0
  6
CONTINUOUS
 62
7
 10
91.000000
 20
-92.699997
 11
90.000000
 21
-92.699997
  0
LINE
  8
0
  6
CONTINUOUS
 62
7
 10
91.000000
 20
-92.000000
 11
91.000000
 21
-100.000000
  0
LINE
  8
0
  6
CONTINUOUS
 62
7
 10
91.000000
 20
-99.300003
 11
90.000000
 21
-99.300003
  0
LINE
  8
0
  6
CONTINUOUS
 62
7
 10
108.000000
 20
-92.000000
 11
91.000000
 21
-92.000000
  0
LINE
  8
0
  6
CONTINUOUS
 62
2
 10
108.000000
 20
-92.699997
 11
91.000000
 21
-92.699997
  0
LINE
  8
0
  6
CONTINUOUS
 62
2
 10
108.000000
 20
-99.300003
 11
91.000000
 21
-99.300003
  0
LINE
  8
0
  6
CONTINUOUS
 62
7
 10
110.000000
 20
-102.000000
 11
110.000000
 21
-90.000000
  0
LINE
  8
0
  6
CONTINUOUS
 62
7
 10
170.000000
 20
-102.000000
 11
170.000000
 21
-90.000000
  0
LINE
  8
0
  6
CONTINUOUS
 62
7
 10
170.000000
 20
-90.500000
 11
172.000000
 21
-90.500000
  0
LINE
  8
0
  6
CONTINUOUS
 62
7
 10
172.000000
 20
-101.500000
 11
172.000000
 21
-90.500000
  0
LINE
  8
0
  6
CONTINUOUS
 62
7
 10
170.000000
 20
-101.500000
 11
172.000000
 21
-101.500000
  0
LINE
  8
0
  6
CONTINUOUS
 62
7
 10
170.000000
 20
-96.673401
 11
172.000000
 21
-96.673401
  0
LINE
  8
0
  6
CONTINUOUS
 62
7
 10
170.000000
 20
-95.326698
 11
172.000000
 21
-95.326698
  0
LINE
  8
0
  6
CONTINUOUS
 62
7
 10
170.000000
 20
-100.827003
 11
172.000000
 21
-100.827003
  0
LINE
  8
0
  6
CONTINUOUS
 62
7
 10
170.000000
 20
-91.173302
 11
172.000000
 21
-91.173302
  0
LINE
  8
0
  6
CONTINUOUS
 62
7
 10
185.199997
 20
-92.000000
 11
172.000000
 21
-92.000000
  0
LINE
  8
0
  6
CONTINUOUS
 62
7
 10
190.000000
 20
-99.300003
 11
190.000000
 21
-92.699997
  0
LINE
  8
0
  6
CONTINUOUS
 62
7
 10
189.000000
 20
-99.300003
 11
190.000000
 21
-99.300003
  0
LINE
  8
0
  6
CONTINUOUS
 62
7
 10
189.000000
 20
-100.000000
 11
189.000000
 21
-92.000000
  0
LINE
  8
0
  6
CONTINUOUS
 62
7
 10
189.000000
 20
-92.699997
 11
190.000000
 21
-92.699997
  0
LINE
  8
0
  6
CONTINUOUS
 62
7
 10
172.000000
 20
-92.000000
 11
189.000000
 21
-92.000000
  0
LINE
  8
0
  6
CONTINUOUS
 62
2
 10
172.000000
 20
-92.699997
 11
189.000000
 21
-92.699997
  0
LINE
  8
0
  6
CONTINUOUS
 62
7
 10
170.000000
 20
87.000000
 11
170.000000
 21
68.000000
  0
LINE
  8
0
  6
CONTINUOUS
 62
7
 10
110.000000
 20
87.000000
 11
110.000000
 21
68.000000
  0
LINE
  8
0
  6
CONTINUOUS
 62
7
 10
142.000000
 20
76.000000
 11
142.000000
 21
68.000000
  0
LINE
  8
0
  6
CONTINUOUS
 62
7
 10
158.000000
 20
68.000000
 11
142.000000
 21
68.000000
  0
LINE
  8
0
  6
CONTINUOUS
 62
7
 10
158.000000
 20
79.500000
 11
158.000000
 21
68.000000
  0
LINE
  8
0
  6
CENTER
 62
2
 10
156.800003
 20
74.000000
 11
191.000000
 21
74.000000
  0
LINE
  8
0
  6
CONTINUOUS
 62
7
 10
172.000000
 20
76.397903
 11
170.000000
 21
76.397903
  0
LINE
  8
0
  6
CONTINUOUS
 62
7
 10
164.000000
 20
79.500000
 11
158.000000
 21
79.500000
  0
LINE
  8
0
  6
CONTINUOUS
 62
7
 10
164.000000
 20
68.500000
 11
158.000000
 21
68.500000
  0
LINE
  8
0
  6
CONTINUOUS
 62
7
 10
164.000000
 20
68.500000
 11
164.000000
 21
79.500000
  0
LINE
  8
0
  6
CONTINUOUS
 62
7
 10
172.000000
 20
68.000000
 11
170.000000
 21
68.000000
  0
LINE
  8
0
  6
CONTINUOUS
 62
7
 10
172.000000
 20
68.000000
 11
172.000000
 21
80.000000
  0
LINE
  8
0
  6
CONTINUOUS
 62
7
 10
172.000000
 20
70.435799
 11
170.000000
 21
70.435799
  0
LINE
  8
0
  6
CONTINUOUS
 62
7
 10
172.000000
 20
77.564201
 11
170.000000
 21
77.564201
  0
LINE
  8
0
  6
CONTINUOUS
 62
7
 10
172.000000
 20
71.602097
 11
170.000000
 21
71.602097
  0
LINE
  8
0
  6
CONTINUOUS
 62
7
 10
172.000000
 20
80.000000
 11
170.000000
 21
80.000000
  0
LINE
  8
0
  6
CONTINUOUS
 62
7
 10
122.000000
 20
79.500000
 11
122.000000
 21
68.500000
  0
LINE
  8
0
  6
CONTINUOUS
 62
7
 10
108.000000
 20
71.602097
 11
110.000000
 21
71.602097
  0
LINE
  8
0
  6
CONTINUOUS
 62
7
 10
116.000000
 20
68.500000
 11
122.000000
 21
68.500000
  0
LINE
  8
0
  6
CONTINUOUS
 62
7
 10
116.000000
 20
79.500000
 11
122.000000
 21
79.500000
  0
LINE
  8
0
  6
CONTINUOUS
 62
7
 10
116.000000
 20
79.500000
 11
116.000000
 21
68.500000
  0
LINE
  8
0
  6
CONTINUOUS
 62
7
 10
108.000000
 20
80.000000
 11
110.000000
 21
80.000000
  0
LINE
  8
0
  6
CONTINUOUS
 62
7
 10
108.000000
 20
80.000000
 11
108.000000
 21
68.000000
  0
LINE
  8
0
  6
CONTINUOUS
 62
7
 10
94.800003
 20
70.000000
 11
108.000000
 21
70.000000
  0
LINE
  8
0
  6
CONTINUOUS
 62
7
 10
108.000000
 20
77.564201
 11
110.000000
 21
77.564201
  0
LINE
  8
0
  6
CONTINUOUS
 62
7
 10
108.000000
 20
70.435799
 11
110.000000
 21
70.435799
  0
LINE
  8
0
  6
CONTINUOUS
 62
7
 10
108.000000
 20
76.397903
 11
110.000000
 21
76.397903
  0
LINE
  8
0
  6
CONTINUOUS
 62
7
 10
126.000000
 20
75.000000
 11
126.000000
 21
73.000000
  0
LINE
  8
0
  6
CENTER
 62
2
 10
127.000000
 20
74.000000
 11
89.000000
 21
74.000000
  0
LINE
  8
0
  6
CONTINUOUS
 62
7
 10
126.000000
 20
75.000000
 11
122.000000
 21
75.000000
  0
LINE
  8
0
  6
CONTINUOUS
 62
7
 10
126.000000
 20
73.000000
 11
122.000000
 21
73.000000
  0
LINE
  8
0
  6
CONTINUOUS
 62
7
 10
165.000000
 20
68.000000
 11
170.000000
 21
68.000000
  0
LINE
  8
0
  6
CONTINUOUS
 62
7
 10
115.000000
 20
68.000000
 11
115.000000
 21
78.000000
  0
LINE
  8
0
  6
CONTINUOUS
 62
7
 10
165.000000
 20
68.000000
 11
165.000000
 21
78.000000
  0
LINE
  8
0
  6
CONTINUOUS
 62
7
 10
158.000000
 20
76.000000
 11
142.000000
 21
76.000000
  0
LINE
  8
0
  6
CONTINUOUS
 62
7
 10
90.000000
 20
77.300003
 11
90.000000
 21
74.750000
  0
LINE
  8
0
  6
CONTINUOUS
 62
7
 10
91.000000
 20
77.300003
 11
90.000000
 21
77.300003
  0
LINE
  8
0
  6
CONTINUOUS
 62
7
 10
91.000000
 20
74.750000
 11
90.000000
 21
74.750000
  0
LINE
  8
0
  6
CONTINUOUS
 62
7
 10
91.000000
 20
73.250000
 11
90.000000
 21
73.250000
  0
LINE
  8
0
  6
CONTINUOUS
 62
7
 10
90.000000
 20
73.250000
 11
90.000000
 21
70.699997
  0
LINE
  8
0
  6
CONTINUOUS
 62
7
 10
116.000000
 20
78.000000
 11
115.000000
 21
78.000000
  0
LINE
  8
0
  6
CONTINUOUS
 62
7
 10
116.000000
 20
70.000000
 11
115.000000
 21
70.000000
  0
LINE
  8
0
  6
CONTINUOUS
 62
2
 10
116.000000
 20
70.699997
 11
115.000000
 21
70.699997
  0
LINE
  8
0
  6
CONTINUOUS
 62
2
 10
116.000000
 20
77.300003
 11
115.000000
 21
77.300003
  0
LINE
  8
0
  6
CONTINUOUS
 62
7
 10
108.000000
 20
70.000000
 11
91.000000
 21
70.000000
  0
LINE
  8
0
  6
CONTINUOUS
 62
2
 10
108.000000
 20
70.699997
 11
91.000000
 21
70.699997
  0
LINE
  8
0
  6
CONTINUOUS
 62
2
 10
108.000000
 20
77.300003
 11
91.000000
 21
77.300003
  0
LINE
  8
0
  6
CONTINUOUS
 62
7
 10
108.000000
 20
78.000000
 11
91.000000
 21
78.000000
  0
LINE
  8
0
  6
CONTINUOUS
 62
7
 10
190.000000
 20
70.699997
 11
190.000000
 21
73.250000
  0
LINE
  8
0
  6
CONTINUOUS
 62
7
 10
189.000000
 20
70.699997
 11
190.000000
 21
70.699997
  0
LINE
  8
0
  6
CONTINUOUS
 62
7
 10
189.000000
 20
70.000000
 11
189.000000
 21
78.000000
  0
LINE
  8
0
  6
CONTINUOUS
 62
7
 10
189.000000
 20
73.250000
 11
190.000000
 21
73.250000
  0
LINE
  8
0
  6
CONTINUOUS
 62
7
 10
189.000000
 20
74.750000
 11
190.000000
 21
74.750000
  0
LINE
  8
0
  6
CONTINUOUS
 62
7
 10
190.000000
 20
74.750000
 11
190.000000
 21
77.300003
  0
LINE
  8
0
  6
CONTINUOUS
 62
7
 10
189.000000
 20
77.300003
 11
190.000000
 21
77.300003
  0
LINE
  8
0
  6
CONTINUOUS
 62
7
 10
164.000000
 20
70.000000
 11
165.000000
 21
70.000000
  0
LINE
  8
0
  6
CONTINUOUS
 62
7
 10
164.000000
 20
78.000000
 11
165.000000
 21
78.000000
  0
LINE
  8
0
  6
CONTINUOUS
 62
2
 10
164.000000
 20
77.300003
 11
165.000000
 21
77.300003
  0
LINE
  8
0
  6
CONTINUOUS
 62
2
 10
164.000000
 20
70.699997
 11
165.000000
 21
70.699997
  0
LINE
  8
0
  6
CONTINUOUS
 62
7
 10
172.000000
 20
70.000000
 11
189.000000
 21
70.000000
  0
LINE
  8
0
  6
CONTINUOUS
 62
2
 10
172.000000
 20
70.699997
 11
189.000000
 21
70.699997
  0
LINE
  8
0
  6
CONTINUOUS
 62
2
 10
172.000000
 20
77.300003
 11
189.000000
 21
77.300003
  0
LINE
  8
0
  6
CONTINUOUS
 62
7
 10
172.000000
 20
78.000000
 11
189.000000
 21
78.000000
  0
LINE
  8
0
  6
CONTINUOUS
 62
7
 10
91.000000
 20
78.000000
 11
91.000000
 21
70.000000
  0
LINE
  8
0
  6
CONTINUOUS
 62
7
 10
91.000000
 20
70.699997
 11
90.000000
 21
70.699997
  0
LINE
  8
0
  6
CONTINUOUS
 62
7
 10
117.000000
 20
80.000000
 11
163.000000
 21
80.000000
  0
LINE
  8
0
  6
CONTINUOUS
 62
7
 10
125.500000
 20
75.000000
 11
125.500000
 21
77.500000
  0
LINE
  8
0
  6
CONTINUOUS
 62
7
 10
-170.000000
 20
87.000000
 11
-110.000000
 21
87.000000
  0
LINE
  8
0
  6
CONTINUOUS
 62
7
 10
110.000000
 20
87.000000
 11
170.000000
 21
87.000000
  0
LINE
  8
0
  6
CONTINUOUS
 62
7
 10
110.000000
 20
48.000000
 11
110.000000
 21
36.000000
  0
LINE
  8
0
  6
CONTINUOUS
 62
7
 10
170.000000
 20
48.000000
 11
170.000000
 21
36.000000
  0
LINE
  8
0
  6
CONTINUOUS
 62
7
 10
158.000000
 20
43.500000
 11
142.000000
 21
43.500000
  0
LINE
  8
0
  6
CONTINUOUS
 62
7
 10
142.000000
 20
35.500000
 11
142.000000
 21
43.500000
  0
LINE
  8
0
  6
CONTINUOUS
 62
7
 10
158.000000
 20
35.500000
 11
158.000000
 21
47.500000
  0
LINE
  8
0
  6
CONTINUOUS
 62
7
 10
170.000000
 20
48.000000
 11
110.000000
 21
48.000000
  0
LINE
  8
0
  6
CONTINUOUS
 62
7
 10
165.000000
 20
48.000000
 11
165.000000
 21
36.000000
  0
LINE
  8
0
  6
CONTINUOUS
 62
7
 10
115.000000
 20
48.000000
 11
115.000000
 21
36.000000
  0
LINE
  8
0
  6
CENTER
 62
2
 10
191.147995
 20
42.000000
 11
156.000000
 21
42.000000
  0
LINE
  8
0
  6
CONTINUOUS
 62
7
 10
110.000000
 20
36.500000
 11
108.000000
 21
36.500000
  0
LINE
  8
0
  6
CONTINUOUS
 62
7
 10
108.000000
 20
47.500000
 11
108.000000
 21
36.500000
  0
LINE
  8
0
  6
CONTINUOUS
 62
7
 10
110.000000
 20
47.500000
 11
108.000000
 21
47.500000
  0
LINE
  8
0
  6
CONTINUOUS
 62
7
 10
110.000000
 20
42.673302
 11
108.000000
 21
42.673302
  0
LINE
  8
0
  6
CONTINUOUS
 62
7
 10
110.000000
 20
41.326599
 11
108.000000
 21
41.326599
  0
LINE
  8
0
  6
CONTINUOUS
 62
7
 10
110.000000
 20
46.826599
 11
108.000000
 21
46.826599
  0
LINE
  8
0
  6
CONTINUOUS
 62
7
 10
110.000000
 20
37.173302
 11
108.000000
 21
37.173302
  0
LINE
  8
0
  6
CONTINUOUS
 62
7
 10
170.000000
 20
47.500000
 11
172.000000
 21
47.500000
  0
LINE
  8
0
  6
CONTINUOUS
 62
7
 10
172.000000
 20
36.500000
 11
172.000000
 21
47.500000
  0
LINE
  8
0
  6
CONTINUOUS
 62
7
 10
170.000000
 20
36.500000
 11
172.000000
 21
36.500000
  0
LINE
  8
0
  6
CONTINUOUS
 62
7
 10
170.000000
 20
41.326599
 11
172.000000
 21
41.326599
  0
LINE
  8
0
  6
CONTINUOUS
 62
7
 10
170.000000
 20
42.673302
 11
172.000000
 21
42.673302
  0
LINE
  8
0
  6
CONTINUOUS
 62
7
 10
170.000000
 20
37.173302
 11
172.000000
 21
37.173302
  0
LINE
  8
0
  6
CONTINUOUS
 62
7
 10
170.000000
 20
46.826698
 11
172.000000
 21
46.826698
  0
LINE
  8
0
  6
CONTINUOUS
 62
7
 10
164.000000
 20
47.500000
 11
158.000000
 21
47.500000
  0
LINE
  8
0
  6
CONTINUOUS
 62
7
 10
190.000000
 20
38.700001
 11
190.000000
 21
45.299999
  0
LINE
  8
0
  6
CONTINUOUS
 62
7
 10
189.000000
 20
38.700001
 11
190.000000
 21
38.700001
  0
LINE
  8
0
  6
CONTINUOUS
 62
7
 10
189.000000
 20
38.000000
 11
189.000000
 21
46.000000
  0
LINE
  8
0
  6
CONTINUOUS
 62
7
 10
189.000000
 20
45.299999
 11
190.000000
 21
45.299999
  0
LINE
  8
0
  6
CONTINUOUS
 62
7
 10
172.000000
 20
38.000000
 11
189.000000
 21
38.000000
  0
LINE
  8
0
  6
CONTINUOUS
 62
2
 10
172.000000
 20
38.700001
 11
189.000000
 21
38.700001
  0
LINE
  8
0
  6
CONTINUOUS
 62
2
 10
172.000000
 20
45.299999
 11
189.000000
 21
45.299999
  0
LINE
  8
0
  6
CONTINUOUS
 62
7
 10
172.000000
 20
46.000000
 11
189.000000
 21
46.000000
  0
LINE
  8
0
  6
CONTINUOUS
 62
7
 10
164.000000
 20
46.000000
 11
165.000000
 21
46.000000
  0
LINE
  8
0
  6
CONTINUOUS
 62
2
 10
164.000000
 20
45.299999
 11
165.000000
 21
45.299999
  0
LINE
  8
0
  6
CONTINUOUS
 62
2
 10
164.000000
 20
38.700001
 11
165.000000
 21
38.700001
  0
LINE
  8
0
  6
CONTINUOUS
 62
7
 10
164.000000
 20
38.000000
 11
165.000000
 21
38.000000
  0
LINE
  8
0
  6
CONTINUOUS
 62
7
 10
164.000000
 20
36.500000
 11
164.000000
 21
47.500000
  0
LINE
  8
0
  6
CONTINUOUS
 62
7
 10
164.000000
 20
36.500000
 11
158.000000
 21
36.500000
  0
LINE
  8
0
  6
CONTINUOUS
 62
7
 10
94.800003
 20
38.000000
 11
108.000000
 21
38.000000
  0
LINE
  8
0
  6
CONTINUOUS
 62
7
 10
116.000000
 20
47.500000
 11
122.000000
 21
47.500000
  0
LINE
  8
0
  6
CONTINUOUS
 62
7
 10
90.000000
 20
45.299999
 11
90.000000
 21
38.700001
  0
LINE
  8
0
  6
CONTINUOUS
 62
7
 10
91.000000
 20
45.299999
 11
90.000000
 21
45.299999
  0
LINE
  8
0
  6
CONTINUOUS
 62
7
 10
91.000000
 20
46.000000
 11
91.000000
 21
38.000000
  0
LINE
  8
0
  6
CONTINUOUS
 62
7
 10
91.000000
 20
38.700001
 11
90.000000
 21
38.700001
  0
LINE
  8
0
  6
CONTINUOUS
 62
7
 10
108.000000
 20
38.000000
 11
91.000000
 21
38.000000
  0
LINE
  8
0
  6
CONTINUOUS
 62
2
 10
108.000000
 20
38.700001
 11
91.000000
 21
38.700001
  0
LINE
  8
0
  6
CONTINUOUS
 62
2
 10
108.000000
 20
45.299999
 11
91.000000
 21
45.299999
  0
LINE
  8
0
  6
CONTINUOUS
 62
7
 10
108.000000
 20
46.000000
 11
91.000000
 21
46.000000
  0
LINE
  8
0
  6
CONTINUOUS
 62
7
 10
116.000000
 20
46.000000
 11
115.000000
 21
46.000000
  0
LINE
  8
0
  6
CONTINUOUS
 62
2
 10
116.000000
 20
45.299999
 11
115.000000
 21
45.299999
  0
LINE
  8
0
  6
CONTINUOUS
 62
7
 10
116.000000
 20
47.500000
 11
116.000000
 21
36.500000
  0
LINE
  8
0
  6
CONTINUOUS
 62
2
 10
116.000000
 20
38.700001
 11
115.000000
 21
38.700001
  0
LINE
  8
0
  6
CONTINUOUS
 62
7
 10
116.000000
 20
38.000000
 11
115.000000
 21
38.000000
  0
LINE
  8
0
  6
CONTINUOUS
 62
7
 10
116.000000
 20
36.500000
 11
122.000000
 21
36.500000
  0
LINE
  8
0
  6
CONTINUOUS
 62
7
 10
122.000000
 20
47.500000
 11
122.000000
 21
36.500000
  0
LINE
  8
0
  6
CONTINUOUS
 62
7
 10
126.000000
 20
41.000000
 11
122.000000
 21
41.000000
  0
LINE
  8
0
  6
CONTINUOUS
 62
7
 10
126.000000
 20
43.000000
 11
126.000000
 21
41.000000
  0
LINE
  8
0
  6
CONTINUOUS
 62
7
 10
126.000000
 20
43.000000
 11
122.000000
 21
43.000000
  0
LINE
  8
0
  6
CENTER
 62
2
 10
128.000000
 20
42.000000
 11
89.080803
 21
42.000000
  0
LINE
  8
0
  6
CONTINUOUS
 62
7
 10
142.000000
 20
36.000000
 11
95.000000
 21
36.000000
  0
LINE
  8
0
  6
CENTER
 62
2
 10
111.429001
 20
-23.500000
 11
89.000000
 21
-23.500000
  0
LINE
  8
0
  6
CONTINUOUS
 62
7
 10
90.000000
 20
-26.799999
 11
90.000000
 21
-24.250000
  0
LINE
  8
0
  6
CONTINUOUS
 62
7
 10
91.000000
 20
-26.799999
 11
90.000000
 21
-26.799999
  0
LINE
  8
0
  6
CONTINUOUS
 62
7
 10
91.000000
 20
-27.500000
 11
91.000000
 21
-19.500000
  0
LINE
  8
0
  6
CONTINUOUS
 62
7
 10
91.000000
 20
-24.250000
 11
90.000000
 21
-24.250000
  0
LINE
  8
0
  6
CONTINUOUS
 62
7
 10
91.000000
 20
-22.750000
 11
90.000000
 21
-22.750000
  0
LINE
  8
0
  6
CONTINUOUS
 62
7
 10
90.000000
 20
-22.750000
 11
90.000000
 21
-20.200001
  0
LINE
  8
0
  6
CONTINUOUS
 62
7
 10
91.000000
 20
-20.200001
 11
90.000000
 21
-20.200001
  0
LINE
  8
0
  6
CONTINUOUS
 62
7
 10
107.000000
 20
-19.500000
 11
91.000000
 21
-19.500000
  0
LINE
  8
0
  6
CONTINUOUS
 62
2
 10
107.000000
 20
-20.200001
 11
91.000000
 21
-20.200001
  0
LINE
  8
0
  6
CONTINUOUS
 62
2
 10
95.000000
 20
-26.799999
 11
91.000000
 21
-26.799999
  0
LINE
  8
0
  6
CONTINUOUS
 62
7
 10
95.000000
 20
-27.500000
 11
91.000000
 21
-27.500000
  0
LINE
  8
0
  6
CENTER
 62
2
 10
168.279007
 20
-23.500000
 11
191.000000
 21
-23.500000
  0
LINE
  8
0
  6
CONTINUOUS
 62
7
 10
190.000000
 20
-20.200001
 11
190.000000
 21
-22.750000
  0
LINE
  8
0
  6
CONTINUOUS
 62
7
 10
189.000000
 20
-20.200001
 11
190.000000
 21
-20.200001
  0
LINE
  8
0
  6
CONTINUOUS
 62
7
 10
189.000000
 20
-19.500000
 11
189.000000
 21
-27.500000
  0
LINE
  8
0
  6
CONTINUOUS
 62
7
 10
189.000000
 20
-22.750000
 11
190.000000
 21
-22.750000
  0
LINE
  8
0
  6
CONTINUOUS
 62
7
 10
189.000000
 20
-24.250000
 11
190.000000
 21
-24.250000
  0
LINE
  8
0
  6
CONTINUOUS
 62
7
 10
190.000000
 20
-24.250000
 11
190.000000
 21
-26.799999
  0
LINE
  8
0
  6
CONTINUOUS
 62
7
 10
189.000000
 20
-26.799999
 11
190.000000
 21
-26.799999
  0
LINE
  8
0
  6
CONTINUOUS
 62
7
 10
174.500000
 20
-19.500000
 11
189.000000
 21
-19.500000
  0
LINE
  8
0
  6
CONTINUOUS
 62
2
 10
185.000000
 20
-26.799999
 11
189.000000
 21
-26.799999
  0
LINE
  8
0
  6
CONTINUOUS
 62
7
 10
185.000000
 20
-27.500000
 11
189.000000
 21
-27.500000
  0
LINE
  8
0
  6
CONTINUOUS
 62
2
 10
174.500000
 20
-20.200001
 11
189.000000
 21
-20.200001
  0
LINE
  8
0
  6
CONTINUOUS
 62
7
 10
45.000000
 20
-21.500000
 11
57.000000
 21
-21.500000
  0
LINE
  8
0
  6
CONTINUOUS
 62
7
 10
45.000000
 20
-24.709299
 11
45.000000
 21
-27.500000
  0
LINE
  8
0
  6
CONTINUOUS
 62
7
 10
45.000000
 20
-21.500000
 11
45.000000
 21
-22.290701
  0
LINE
  8
0
  6
CONTINUOUS
 62
7
 10
37.500000
 20
-17.000000
 11
44.000000
 21
-17.000000
  0
LINE
  8
0
  6
CONTINUOUS
 62
7
 10
37.500000
 20
-27.000000
 11
45.000000
 21
-27.000000
  0
LINE
  8
0
  6
CONTINUOUS
 62
7
 10
44.299999
 20
-17.299999
 11
57.700001
 21
-17.299999
  0
LINE
  8
0
  6
CONTINUOUS
 62
7
 10
57.000000
 20
-24.709299
 11
57.000000
 21
-27.500000
  0
LINE
  8
0
  6
CONTINUOUS
 62
7
 10
57.000000
 20
-21.500000
 11
57.000000
 21
-22.290701
  0
LINE
  8
0
  6
CONTINUOUS
 62
7
 10
64.500000
 20
-17.000000
 11
58.000000
 21
-17.000000
  0
LINE
  8
0
  6
CONTINUOUS
 62
7
 10
64.500000
 20
-17.000000
 11
64.500000
 21
-27.000000
  0
LINE
  8
0
  6
CONTINUOUS
 62
7
 10
64.500000
 20
-27.000000
 11
57.000000
 21
-27.000000
  0
LINE
  8
0
  6
CONTINUOUS
 62
7
 10
37.500000
 20
-17.000000
 11
37.500000
 21
-27.000000
  0
LINE
  8
0
  6
CONTINUOUS
 62
7
 10
44.000000
 20
-17.000000
 11
44.299999
 21
-17.299999
  0
LINE
  8
0
  6
CONTINUOUS
 62
7
 10
58.000000
 20
-17.000000
 11
57.700001
 21
-17.299999
  0
LINE
  8
0
  6
CONTINUOUS
 62
7
 10
65.000000
 20
-27.500000
 11
57.000000
 21
-27.500000
  0
LINE
  8
0
  6
CONTINUOUS
 62
7
 10
65.000000
 20
-37.000000
 11
37.000000
 21
-37.000000
  0
LINE
  8
0
  6
CONTINUOUS
 62
7
 10
37.000000
 20
-27.500000
 11
45.000000
 21
-27.500000
  0
LINE
  8
0
  6
CONTINUOUS
 62
7
 10
65.000000
 20
-27.500000
 11
65.000000
 21
-37.000000
  0
LINE
  8
0
  6
CENTER
 62
2
 10
42.000000
 20
-29.500000
 11
42.000000
 21
-36.500000
  0
LINE
  8
0
  6
CENTER
 62
2
 10
38.500000
 20
-33.000000
 11
45.500000
 21
-33.000000
  0
LINE
  8
0
  6
CENTER
 62
2
 10
51.000000
 20
-15.000000
 11
51.000000
 21
-39.000000
  0
LINE
  8
0
  6
CENTER
 62
2
 10
43.599998
 20
-30.000000
 11
58.400002
 21
-30.000000
  0
LINE
  8
0
  6
CENTER
 62
2
 10
41.000000
 20
-15.000000
 11
41.000000
 21
-19.000000
  0
LINE
  8
0
  6
CENTER
 62
2
 10
61.000000
 20
-15.000000
 11
61.000000
 21
-19.000000
  0
LINE
  8
0
  6
CENTER
 62
2
 10
61.500000
 20
-35.000000
 11
61.500000
 21
-39.000000
  0
LINE
  8
0
  6
CENTER
 62
2
 10
40.500000
 20
-35.000000
 11
40.500000
 21
-39.000000
  0
LINE
  8
0
  6
CONTINUOUS
 62
7
 10
25.000000
 20
-36.500000
 11
37.000000
 21
-36.500000
  0
LINE
  8
0
  6
CONTINUOUS
 62
7
 10
25.000000
 20
-17.500000
 11
37.500000
 21
-17.500000
  0
LINE
  8
0
  6
CONTINUOUS
 62
7
 10
25.000000
 20
-36.500000
 11
25.000000
 21
-17.500000
  0
LINE
  8
0
  6
CENTER
 62
2
 10
31.000000
 20
-16.500000
 11
31.000000
 21
-30.500000
  0
LINE
  8
0
  6
CENTER
 62
2
 10
38.000000
 20
-23.500000
 11
24.000000
 21
-23.500000
  0
LINE
  8
0
  6
CONTINUOUS
 62
7
 10
31.673300
 20
-29.462099
 11
35.826698
 21
-27.064199
  0
LINE
  8
0
  6
CONTINUOUS
 62
7
 10
26.173300
 20
-27.064199
 11
30.326700
 21
-29.462099
  0
LINE
  8
0
  6
CONTINUOUS
 62
7
 10
25.500000
 20
-21.102100
 11
25.500000
 21
-25.897900
  0
LINE
  8
0
  6
CONTINUOUS
 62
7
 10
30.326700
 20
-17.537901
 11
26.173300
 21
-19.935801
  0
LINE
  8
0
  6
CONTINUOUS
 62
7
 10
35.826698
 20
-19.935801
 11
31.673300
 21
-17.537901
  0
LINE
  8
0
  6
CONTINUOUS
 62
7
 10
36.500000
 20
-21.102100
 11
36.500000
 21
-25.897900
  0
LINE
  8
0
  6
CONTINUOUS
 62
7
 10
32.636299
 20
-24.250000
 11
34.929001
 21
-24.250000
  0
LINE
  8
0
  6
CONTINUOUS
 62
7
 10
32.636299
 20
-22.750000
 11
34.929001
 21
-22.750000
  0
LINE
  8
0
  6
CONTINUOUS
 62
7
 10
27.070999
 20
-22.750000
 11
29.363701
 21
-22.750000
  0
LINE
  8
0
  6
CONTINUOUS
 62
7
 10
27.070999
 20
-24.250000
 11
29.363701
 21
-24.250000
  0
LINE
  8
0
  6
CONTINUOUS
 62
7
 10
37.000000
 20
-17.500000
 11
37.000000
 21
-37.000000
  0
LINE
  8
0
  6
CENTER
 62
2
 10
-142.500000
 20
69.500000
 11
-142.500000
 21
65.500000
  0
LINE
  8
0
  6
CENTER
 62
2
 10
-127.500000
 20
69.500000
 11
-127.500000
 21
65.500000
  0
LINE
  8
0
  6
CONTINUOUS
 62
7
 10
75.000000
 20
-36.500000
 11
65.000000
 21
-36.500000
  0
LINE
  8
0
  6
CONTINUOUS
 62
2
 10
74.000000
 20
-18.850000
 11
74.000000
 21
-19.700001
  0
LINE
  8
0
  6
CONTINUOUS
 62
7
 10
75.000000
 20
-17.500000
 11
75.000000
 21
-36.500000
  0
LINE
  8
0
  6
CONTINUOUS
 62
7
 10
75.000000
 20
-17.500000
 11
67.500000
 21
-17.500000
  0
LINE
  8
0
  6
CONTINUOUS
 62
7
 10
67.500000
 20
-17.500000
 11
67.500000
 21
-30.000000
  0
LINE
  8
0
  6
CONTINUOUS
 62
7
 10
66.500000
 20
-18.500000
 11
66.500000
 21
-29.500000
  0
LINE
  8
0
  6
CONTINUOUS
 62
7
 10
66.500000
 20
-18.500000
 11
64.500000
 21
-18.500000
  0
LINE
  8
0
  6
CONTINUOUS
 62
7
 10
66.500000
 20
-29.500000
 11
65.000000
 21
-29.500000
  0
LINE
  8
0
  6
CONTINUOUS
 62
7
 10
67.500000
 20
-30.000000
 11
65.000000
 21
-30.000000
  0
LINE
  8
0
  6
CONTINUOUS
 62
2
 10
74.000000
 20
-18.850000
 11
70.199997
 21
-18.850000
  0
LINE
  8
0
  6
CONTINUOUS
 62
2
 10
68.699997
 20
-20.350000
 11
68.699997
 21
-21.650000
  0
LINE
  8
0
  6
CONTINUOUS
 62
2
 10
74.000000
 20
-23.150000
 11
70.199997
 21
-23.150000
  0
LINE
  8
0
  6
CONTINUOUS
 62
2
 10
75.000000
 20
-22.299999
 11
74.000000
 21
-22.299999
  0
LINE
  8
0
  6
CONTINUOUS
 62
2
 10
75.000000
 20
-19.700001
 11
74.000000
 21
-19.700001
  0
LINE
  8
0
  6
CONTINUOUS
 62
2
 10
74.000000
 20
-22.299999
 11
74.000000
 21
-23.150000
  0
LINE
  8
0
  6
CENTER
 62
2
 10
77.000000
 20
-21.000000
 11
66.699997
 21
-21.000000
  0
LINE
  8
0
  6
CENTER
 62
2
 10
77.000000
 20
-27.000000
 11
66.699997
 21
-27.000000
  0
LINE
  8
0
  6
CONTINUOUS
 62
7
 10
235.000000
 20
-21.500000
 11
223.000000
 21
-21.500000
  0
LINE
  8
0
  6
CONTINUOUS
 62
7
 10
235.000000
 20
-24.709299
 11
235.000000
 21
-27.500000
  0
LINE
  8
0
  6
CONTINUOUS
 62
7
 10
235.000000
 20
-21.500000
 11
235.000000
 21
-22.290701
  0
LINE
  8
0
  6
CONTINUOUS
 62
7
 10
242.500000
 20
-17.000000
 11
236.000000
 21
-17.000000
  0
LINE
  8
0
  6
CONTINUOUS
 62
7
 10
242.500000
 20
-27.000000
 11
235.000000
 21
-27.000000
  0
LINE
  8
0
  6
CONTINUOUS
 62
7
 10
235.699997
 20
-17.299999
 11
222.300003
 21
-17.299999
  0
LINE
  8
0
  6
CONTINUOUS
 62
7
 10
223.000000
 20
-24.709299
 11
223.000000
 21
-27.500000
  0
LINE
  8
0
  6
CONTINUOUS
 62
7
 10
223.000000
 20
-21.500000
 11
223.000000
 21
-22.290701
  0
LINE
  8
0
  6
CONTINUOUS
 62
7
 10
215.500000
 20
-17.000000
 11
222.000000
 21
-17.000000
  0
LINE
  8
0
  6
CONTINUOUS
 62
7
 10
215.500000
 20
-17.000000
 11
215.500000
 21
-27.000000
  0
LINE
  8
0
  6
CONTINUOUS
 62
7
 10
215.500000
 20
-27.000000
 11
223.000000
 21
-27.000000
  0
LINE
  8
0
  6
CONTINUOUS
 62
7
 10
242.500000
 20
-17.000000
 11
242.500000
 21
-27.000000
  0
LINE
  8
0
  6
CONTINUOUS
 62
7
 10
236.000000
 20
-17.000000
 11
235.699997
 21
-17.299999
  0
LINE
  8
0
  6
CONTINUOUS
 62
7
 10
222.000000
 20
-17.000099
 11
222.300003
 21
-17.300100
  0
LINE
  8
0
  6
CONTINUOUS
 62
7
 10
215.000000
 20
-27.500000
 11
223.000000
 21
-27.500000
  0
LINE
  8
0
  6
CONTINUOUS
 62
7
 10
215.000000
 20
-37.000000
 11
243.000000
 21
-37.000000
  0
LINE
  8
0
  6
CONTINUOUS
 62
7
 10
243.000000
 20
-27.500000
 11
235.000000
 21
-27.500000
  0
LINE
  8
0
  6
CONTINUOUS
 62
7
 10
215.000000
 20
-27.500000
 11
215.000000
 21
-37.000000
  0
LINE
  8
0
  6
CENTER
 62
2
 10
238.000000
 20
-29.500000
 11
238.000000
 21
-36.500000
  0
LINE
  8
0
  6
CENTER
 62
2
 10
241.500000
 20
-33.000000
 11
234.500000
 21
-33.000000
  0
LINE
  8
0
  6
CENTER
 62
2
 10
229.000000
 20
-15.000000
 11
229.000000
 21
-39.000000
  0
LINE
  8
0
  6
CENTER
 62
2
 10
236.399994
 20
-30.000000
 11
221.600006
 21
-30.000000
  0
LINE
  8
0
  6
CENTER
 62
2
 10
239.000000
 20
-15.000000
 11
239.000000
 21
-19.000000
  0
LINE
  8
0
  6
CENTER
 62
2
 10
219.000000
 20
-15.000000
 11
219.000000
 21
-19.000000
  0
LINE
  8
0
  6
CENTER
 62
2
 10
218.500000
 20
-35.000000
 11
218.500000
 21
-39.000000
  0
LINE
  8
0
  6
CENTER
 62
2
 10
239.500000
 20
-35.000000
 11
239.500000
 21
-39.000000
  0
LINE
  8
0
  6
CONTINUOUS
 62
7
 10
255.000000
 20
-36.500000
 11
243.000000
 21
-36.500000
  0
LINE
  8
0
  6
CONTINUOUS
 62
7
 10
255.000000
 20
-17.500000
 11
242.500000
 21
-17.500000
  0
LINE
  8
0
  6
CONTINUOUS
 62
7
 10
255.000000
 20
-36.500000
 11
255.000000
 21
-17.500000
  0
LINE
  8
0
  6
CENTER
 62
2
 10
249.000000
 20
-16.500000
 11
249.000000
 21
-30.500000
  0
LINE
  8
0
  6
CENTER
 62
2
 10
242.000000
 20
-23.500000
 11
256.000000
 21
-23.500000
  0
LINE
  8
0
  6
CONTINUOUS
 62
7
 10
248.326996
 20
-29.462099
 11
244.173004
 21
-27.064199
  0
LINE
  8
0
  6
CONTINUOUS
 62
7
 10
253.826996
 20
-27.064199
 11
249.673004
 21
-29.462099
  0
LINE
  8
0
  6
CONTINUOUS
 62
7
 10
254.500000
 20
-21.102100
 11
254.500000
 21
-25.897900
  0
LINE
  8
0
  6
CONTINUOUS
 62
7
 10
249.673004
 20
-17.537901
 11
253.826996
 21
-19.935801
  0
LINE
  8
0
  6
CONTINUOUS
 62
7
 10
244.173004
 20
-19.935801
 11
248.326996
 21
-17.537901
  0
LINE
  8
0
  6
CONTINUOUS
 62
7
 10
243.500000
 20
-21.102100
 11
243.500000
 21
-25.897900
  0
LINE
  8
0
  6
CONTINUOUS
 62
7
 10
247.363998
 20
-24.250000
 11
245.070999
 21
-24.250000
  0
LINE
  8
0
  6
CONTINUOUS
 62
7
 10
247.363998
 20
-22.750000
 11
245.070999
 21
-22.750000
  0
LINE
  8
0
  6
CONTINUOUS
 62
7
 10
252.929001
 20
-22.750000
 11
250.636002
 21
-22.750000
  0
LINE
  8
0
  6
CONTINUOUS
 62
7
 10
252.929001
 20
-24.250000
 11
250.636002
 21
-24.250000
  0
LINE
  8
0
  6
CONTINUOUS
 62
7
 10
243.000000
 20
-17.500000
 11
243.000000
 21
-37.000000
  0
LINE
  8
0
  6
CONTINUOUS
 62
7
 10
205.000000
 20
-36.500000
 11
215.000000
 21
-36.500000
  0
LINE
  8
0
  6
CONTINUOUS
 62
2
 10
206.000000
 20
-18.850000
 11
206.000000
 21
-19.700001
  0
LINE
  8
0
  6
CONTINUOUS
 62
7
 10
205.000000
 20
-17.500000
 11
205.000000
 21
-36.500000
  0
LINE
  8
0
  6
CONTINUOUS
 62
7
 10
205.000000
 20
-17.500000
 11
212.500000
 21
-17.500000
  0
LINE
  8
0
  6
CONTINUOUS
 62
7
 10
212.500000
 20
-17.500000
 11
212.500000
 21
-30.000000
  0
LINE
  8
0
  6
CONTINUOUS
 62
7
 10
213.500000
 20
-18.500000
 11
213.500000
 21
-29.500000
  0
LINE
  8
0
  6
CONTINUOUS
 62
7
 10
213.500000
 20
-18.500000
 11
215.500000
 21
-18.500000
  0
LINE
  8
0
  6
CONTINUOUS
 62
7
 10
213.500000
 20
-29.500000
 11
215.000000
 21
-29.500000
  0
LINE
  8
0
  6
CONTINUOUS
 62
7
 10
212.500000
 20
-30.000000
 11
215.000000
 21
-30.000000
  0
LINE
  8
0
  6
CONTINUOUS
 62
2
 10
206.000000
 20
-18.850000
 11
209.800003
 21
-18.850000
  0
LINE
  8
0
  6
CONTINUOUS
 62
2
 10
211.300003
 20
-20.350000
 11
211.300003
 21
-21.650000
  0
LINE
  8
0
  6
CONTINUOUS
 62
2
 10
206.000000
 20
-23.150000
 11
209.800003
 21
-23.150000
  0
LINE
  8
0
  6
CONTINUOUS
 62
2
 10
205.000000
 20
-22.299999
 11
206.000000
 21
-22.299999
  0
LINE
  8
0
  6
CONTINUOUS
 62
2
 10
205.000000
 20
-19.700001
 11
206.000000
 21
-19.700001
  0
LINE
  8
0
  6
CONTINUOUS
 62
2
 10
206.000000
 20
-22.299999
 11
206.000000
 21
-23.150000
  0
LINE
  8
0
  6
CENTER
 62
2
 10
203.000000
 20
-21.000000
 11
213.300003
 21
-21.000000
  0
LINE
  8
0
  6
CENTER
 62
2
 10
203.000000
 20
-27.000000
 11
213.300003
 21
-27.000000
  0
LINE
  8
0
  6
CONTINUOUS
 62
7
 10
-145.500000
 20
-17.000000
 11
-124.500000
 21
-17.000000
  0
LINE
  8
0
  6
CONTINUOUS
 62
7
 10
-145.500000
 20
-17.000000
 11
-145.500000
 21
-17.500000
  0
LINE
  8
0
  6
CONTINUOUS
 62
7
 10
-118.000000
 20
-17.500000
 11
-118.000000
 21
-27.000000
  0
LINE
  8
0
  6
CONTINUOUS
 62
7
 10
-124.500000
 20
-17.000000
 11
-124.500000
 21
-17.500000
  0
LINE
  8
0
  6
CONTINUOUS
 62
7
 10
-170.000000
 20
-21.500000
 11
-158.000000
 21
-21.500000
  0
LINE
  8
0
  6
CONTINUOUS
 62
7
 10
-118.000000
 20
-21.500000
 11
-110.000000
 21
-21.500000
  0
LINE
  8
0
  6
CONTINUOUS
 62
7
 10
-170.000000
 20
-37.000000
 11
-170.000000
 21
-17.500000
  0
LINE
  8
0
  6
CONTINUOUS
 62
7
 10
-110.000000
 20
-37.000000
 11
-110.000000
 21
-17.500000
  0
LINE
  8
0
  6
CONTINUOUS
 62
7
 10
-170.000000
 20
-37.000000
 11
-110.000000
 21
-37.000000
  0
LINE
  8
0
  6
CONTINUOUS
 62
7
 10
-120.800003
 20
-31.500000
 11
-122.000000
 21
-31.500000
  0
LINE
  8
0
  6
CONTINUOUS
 62
7
 10
-170.000000
 20
-27.500000
 11
-161.347000
 21
-27.500000
  0
LINE
  8
0
  6
CONTINUOUS
 62
7
 10
-158.000000
 20
-31.500000
 11
-159.199997
 21
-31.500000
  0
LINE
  8
0
  6
CONTINUOUS
 62
7
 10
-122.000000
 20
-27.000000
 11
-118.000000
 21
-27.000000
  0
LINE
  8
0
  6
CONTINUOUS
 62
7
 10
-118.653000
 20
-27.500000
 11
-110.000000
 21
-27.500000
  0
LINE
  8
0
  6
DASHED
 62
2
 10
-127.000000
 20
-32.000000
 11
-121.000000
 21
-32.000000
  0
LINE
  8
0
  6
CENTER
 62
2
 10
-124.000000
 20
-29.500000
 11
-124.000000
 21
-39.000000
  0
LINE
  8
0
  6
DASHED
 62
2
 10
-127.000000
 20
-31.500000
 11
-127.000000
 21
-32.000000
  0
LINE
  8
0
  6
DASHED
 62
2
 10
-153.000000
 20
-31.500000
 11
-153.000000
 21
-32.000000
  0
LINE
  8
0
  6
DASHED
 62
2
 10
-126.000000
 20
-32.000000
 11
-126.000000
 21
-37.000000
  0
LINE
  8
0
  6
DASHED
 62
2
 10
-122.000000
 20
-32.000000
 11
-122.000000
 21
-37.000000
  0
LINE
  8
0
  6
DASHED
 62
2
 10
-122.349998
 20
-32.000000
 11
-122.349998
 21
-37.000000
  0
LINE
  8
0
  6
DASHED
 62
2
 10
-125.650002
 20
-32.000000
 11
-125.650002
 21
-37.000000
  0
LINE
  8
0
  6
DASHED
 62
2
 10
-159.000000
 20
-32.000000
 11
-153.000000
 21
-32.000000
  0
LINE
  8
0
  6
CENTER
 62
2
 10
-156.000000
 20
-29.500000
 11
-156.000000
 21
-39.000000
  0
LINE
  8
0
  6
DASHED
 62
2
 10
-159.000000
 20
-31.500000
 11
-159.000000
 21
-32.000000
  0
LINE
  8
0
  6
DASHED
 62
2
 10
-158.000000
 20
-32.000000
 11
-158.000000
 21
-37.000000
  0
LINE
  8
0
  6
DASHED
 62
2
 10
-154.000000
 20
-32.000000
 11
-154.000000
 21
-37.000000
  0
LINE
  8
0
  6
DASHED
 62
2
 10
-154.350006
 20
-32.000000
 11
-154.350006
 21
-37.000000
  0
LINE
  8
0
  6
DASHED
 62
2
 10
-157.649994
 20
-32.000000
 11
-157.649994
 21
-37.000000
  0
LINE
  8
0
  6
DASHED
 62
2
 10
-121.000000
 20
-31.500000
 11
-121.000000
 21
-32.000000
  0
LINE
  8
0
  6
CENTER
 62
2
 10
-142.500000
 20
-15.000000
 11
-142.500000
 21
-19.000000
  0
LINE
  8
0
  6
CENTER
 62
2
 10
-127.500000
 20
-15.000000
 11
-127.500000
 21
-19.000000
  0
LINE
  8
0
  6
CONTINUOUS
 62
2
 10
-122.000000
 20
-25.700001
 11
-158.000000
 21
-25.700001
  0
LINE
  8
0
  6
CONTINUOUS
 62
2
 10
-122.000000
 20
-22.299999
 11
-158.000000
 21
-22.299999
  0
LINE
  8
0
  6
CONTINUOUS
 62
2
 10
-122.000000
 20
-19.700001
 11
-158.000000
 21
-19.700001
  0
LINE
  8
0
  6
CONTINUOUS
 62
2
 10
-122.000000
 20
-28.299999
 11
-158.000000
 21
-28.299999
  0
LINE
  8
0
  6
CONTINUOUS
 62
7
 10
-158.000000
 20
-17.500000
 11
-158.000000
 21
-36.500000
  0
LINE
  8
0
  6
CONTINUOUS
 62
7
 10
-118.000000
 20
-17.500000
 11
-158.000000
 21
-17.500000
  0
LINE
  8
0
  6
CONTINUOUS
 62
7
 10
-122.000000
 20
-17.500000
 11
-122.000000
 21
-36.500000
  0
LINE
  8
0
  6
CONTINUOUS
 62
7
 10
-158.000000
 20
-36.500000
 11
-122.000000
 21
-36.500000
  0
LINE
  8
0
  6
CONTINUOUS
 62
7
 10
-158.000000
 20
8.000000
 11
-158.000000
 21
-2.000000
  0
LINE
  8
0
  6
CONTINUOUS
 62
7
 10
-122.000000
 20
5.500000
 11
-158.000000
 21
5.500000
  0
LINE
  8
0
  6
CONTINUOUS
 62
7
 10
-138.250000
 20
8.000000
 11
-138.250000
 21
6.500000
  0
LINE
  8
0
  6
CONTINUOUS
 62
7
 10
-131.750000
 20
6.500000
 11
-138.250000
 21
6.500000
  0
LINE
  8
0
  6
CONTINUOUS
 62
7
 10
-131.750000
 20
8.000000
 11
-131.750000
 21
6.500000
  0
LINE
  8
0
  6
CONTINUOUS
 62
7
 10
-122.000000
 20
8.000000
 11
-122.000000
 21
-2.000000
  0
LINE
  8
0
  6
CONTINUOUS
 62
7
 10
-122.000000
 20
-2.000000
 11
-158.000000
 21
-2.000000
  0
LINE
  8
0
  6
CONTINUOUS
 62
7
 10
-122.000000
 20
-52.000000
 11
-158.000000
 21
-52.000000
  0
LINE
  8
0
  6
CONTINUOUS
 62
7
 10
-158.000000
 20
-52.000000
 11
-158.000000
 21
-62.000000
  0
LINE
  8
0
  6
CONTINUOUS
 62
7
 10
-122.000000
 20
-52.000000
 11
-122.000000
 21
-62.000000
  0
LINE
  8
0
  6
CONTINUOUS
 62
7
 10
-158.000000
 20
68.500000
 11
-158.000000
 21
68.000000
  0
LINE
  8
0
  6
CONTINUOUS
 62
7
 10
-230.000000
 20
-21.500000
 11
-218.000000
 21
-21.500000
  0
LINE
  8
0
  6
CONTINUOUS
 62
7
 10
-230.000000
 20
-24.709299
 11
-230.000000
 21
-27.500000
  0
LINE
  8
0
  6
CONTINUOUS
 62
7
 10
-230.000000
 20
-21.500000
 11
-230.000000
 21
-22.290701
  0
LINE
  8
0
  6
CONTINUOUS
 62
7
 10
-237.500000
 20
-17.000000
 11
-231.000000
 21
-17.000000
  0
LINE
  8
0
  6
CONTINUOUS
 62
7
 10
-237.500000
 20
-27.000000
 11
-230.000000
 21
-27.000000
  0
LINE
  8
0
  6
CONTINUOUS
 62
7
 10
-230.699997
 20
-17.299999
 11
-217.300003
 21
-17.299999
  0
LINE
  8
0
  6
CONTINUOUS
 62
7
 10
-218.000000
 20
-24.709299
 11
-218.000000
 21
-27.500000
  0
LINE
  8
0
  6
CONTINUOUS
 62
7
 10
-218.000000
 20
-21.500000
 11
-218.000000
 21
-22.290701
  0
LINE
  8
0
  6
CONTINUOUS
 62
7
 10
-210.500000
 20
-17.000000
 11
-217.000000
 21
-17.000000
  0
LINE
  8
0
  6
CONTINUOUS
 62
7
 10
-210.500000
 20
-17.000000
 11
-210.500000
 21
-27.000000
  0
LINE
  8
0
  6
CONTINUOUS
 62
7
 10
-210.500000
 20
-27.000000
 11
-218.000000
 21
-27.000000
  0
LINE
  8
0
  6
CONTINUOUS
 62
7
 10
-237.500000
 20
-17.000000
 11
-237.500000
 21
-27.000000
  0
LINE
  8
0
  6
CONTINUOUS
 62
7
 10
-231.000000
 20
-17.000000
 11
-230.699997
 21
-17.299999
  0
LINE
  8
0
  6
CONTINUOUS
 62
7
 10
-217.000000
 20
-17.000000
 11
-217.300003
 21
-17.299999
  0
LINE
  8
0
  6
CONTINUOUS
 62
7
 10
-210.000000
 20
-27.500000
 11
-218.000000
 21
-27.500000
  0
LINE
  8
0
  6
CONTINUOUS
 62
7
 10
-210.000000
 20
-37.000000
 11
-238.000000
 21
-37.000000
  0
LINE
  8
0
  6
CONTINUOUS
 62
7
 10
-238.000000
 20
-27.500000
 11
-230.000000
 21
-27.500000
  0
LINE
  8
0
  6
CONTINUOUS
 62
7
 10
-210.000000
 20
-27.500000
 11
-210.000000
 21
-37.000000
  0
LINE
  8
0
  6
CENTER
 62
2
 10
-233.000000
 20
-29.500000
 11
-233.000000
 21
-36.500000
  0
LINE
  8
0
  6
CENTER
 62
2
 10
-236.500000
 20
-33.000000
 11
-229.500000
 21
-33.000000
  0
LINE
  8
0
  6
CENTER
 62
2
 10
-224.000000
 20
-15.000000
 11
-224.000000
 21
-39.000000
  0
LINE
  8
0
  6
CENTER
 62
2
 10
-231.399994
 20
-30.000000
 11
-216.600006
 21
-30.000000
  0
LINE
  8
0
  6
CENTER
 62
2
 10
-234.000000
 20
-15.000000
 11
-234.000000
 21
-19.000000
  0
LINE
  8
0
  6
CENTER
 62
2
 10
-214.000000
 20
-15.000000
 11
-214.000000
 21
-19.000000
  0
LINE
  8
0
  6
CENTER
 62
2
 10
-213.500000
 20
-35.000000
 11
-213.500000
 21
-39.000000
  0
LINE
  8
0
  6
CENTER
 62
2
 10
-234.500000
 20
-35.000000
 11
-234.500000
 21
-39.000000
  0
LINE
  8
0
  6
CONTINUOUS
 62
7
 10
-250.000000
 20
-36.500000
 11
-238.000000
 21
-36.500000
  0
LINE
  8
0
  6
CONTINUOUS
 62
7
 10
-250.000000
 20
-17.500000
 11
-237.500000
 21
-17.500000
  0
LINE
  8
0
  6
CONTINUOUS
 62
7
 10
-250.000000
 20
-36.500000
 11
-250.000000
 21
-17.500000
  0
LINE
  8
0
  6
CENTER
 62
2
 10
-244.000000
 20
-16.500000
 11
-244.000000
 21
-30.500000
  0
LINE
  8
0
  6
CENTER
 62
2
 10
-237.000000
 20
-23.500000
 11
-251.000000
 21
-23.500000
  0
LINE
  8
0
  6
CONTINUOUS
 62
7
 10
-243.326996
 20
-29.462099
 11
-239.173004
 21
-27.064199
  0
LINE
  8
0
  6
CONTINUOUS
 62
7
 10
-248.826996
 20
-27.064199
 11
-244.673004
 21
-29.462099
  0
LINE
  8
0
  6
CONTINUOUS
 62
7
 10
-249.500000
 20
-21.102100
 11
-249.500000
 21
-25.897900
  0
LINE
  8
0
  6
CONTINUOUS
 62
7
 10
-244.673004
 20
-17.537901
 11
-248.826996
 21
-19.935801
  0
LINE
  8
0
  6
CONTINUOUS
 62
7
 10
-239.173004
 20
-19.935801
 11
-243.326996
 21
-17.537901
  0
LINE
  8
0
  6
CONTINUOUS
 62
7
 10
-238.500000
 20
-21.102100
 11
-238.500000
 21
-25.897900
  0
LINE
  8
0
  6
CONTINUOUS
 62
7
 10
-242.363998
 20
-24.250000
 11
-240.070999
 21
-24.250000
  0
LINE
  8
0
  6
CONTINUOUS
 62
7
 10
-242.363998
 20
-22.750000
 11
-240.070999
 21
-22.750000
  0
LINE
  8
0
  6
CONTINUOUS
 62
7
 10
-247.929001
 20
-22.750000
 11
-245.636002
 21
-22.750000
  0
LINE
  8
0
  6
CONTINUOUS
 62
7
 10
-247.929001
 20
-24.250000
 11
-245.636002
 21
-24.250000
  0
LINE
  8
0
  6
CONTINUOUS
 62
7
 10
30.292900
 20
-24.207100
 11
31.707100
 21
-22.792900
  0
LINE
  8
0
  6
CONTINUOUS
 62
7
 10
-238.000000
 20
-17.500000
 11
-238.000000
 21
-37.000000
  0
LINE
  8
0
  6
CONTINUOUS
 62
7
 10
-200.000000
 20
-36.500000
 11
-210.000000
 21
-36.500000
  0
LINE
  8
0
  6
CONTINUOUS
 62
2
 10
-201.000000
 20
-18.850000
 11
-201.000000
 21
-19.700001
  0
LINE
  8
0
  6
CONTINUOUS
 62
7
 10
-200.000000
 20
-17.500000
 11
-200.000000
 21
-36.500000
  0
LINE
  8
0
  6
CONTINUOUS
 62
7
 10
-200.000000
 20
-17.500000
 11
-207.500000
 21
-17.500000
  0
LINE
  8
0
  6
CONTINUOUS
 62
7
 10
-207.500000
 20
-17.500000
 11
-207.500000
 21
-30.000000
  0
LINE
  8
0
  6
CONTINUOUS
 62
7
 10
-208.500000
 20
-18.500000
 11
-208.500000
 21
-29.500000
  0
LINE
  8
0
  6
CONTINUOUS
 62
7
 10
-208.500000
 20
-18.500000
 11
-210.500000
 21
-18.500000
  0
LINE
  8
0
  6
CONTINUOUS
 62
7
 10
-208.500000
 20
-29.500000
 11
-210.000000
 21
-29.500000
  0
LINE
  8
0
  6
CONTINUOUS
 62
7
 10
-207.500000
 20
-30.000000
 11
-210.000000
 21
-30.000000
  0
LINE
  8
0
  6
CONTINUOUS
 62
2
 10
-201.000000
 20
-18.850000
 11
-204.800003
 21
-18.850000
  0
LINE
  8
0
  6
CONTINUOUS
 62
2
 10
-206.300003
 20
-20.350000
 11
-206.300003
 21
-21.650000
  0
LINE
  8
0
  6
CONTINUOUS
 62
2
 10
-201.000000
 20
-23.150000
 11
-204.800003
 21
-23.150000
  0
LINE
  8
0
  6
CONTINUOUS
 62
2
 10
-200.000000
 20
-22.299999
 11
-201.000000
 21
-22.299999
  0
LINE
  8
0
  6
CONTINUOUS
 62
2
 10
-200.000000
 20
-19.700001
 11
-201.000000
 21
-19.700001
  0
LINE
  8
0
  6
CONTINUOUS
 62
2
 10
-201.000000
 20
-22.299999
 11
-201.000000
 21
-23.150000
  0
LINE
  8
0
  6
CENTER
 62
2
 10
-198.000000
 20
-21.000000
 11
-208.300003
 21
-21.000000
  0
LINE
  8
0
  6
CENTER
 62
2
 10
-198.000000
 20
-27.000000
 11
-208.300003
 21
-27.000000
  0
LINE
  8
0
  6
CONTINUOUS
 62
7
 10
-50.000000
 20
-21.500000
 11
-62.000000
 21
-21.500000
  0
LINE
  8
0
  6
CONTINUOUS
 62
7
 10
-50.000000
 20
-24.709299
 11
-50.000000
 21
-27.500000
  0
LINE
  8
0
  6
CONTINUOUS
 62
7
 10
-50.000000
 20
-21.500000
 11
-50.000000
 21
-22.290701
  0
LINE
  8
0
  6
CONTINUOUS
 62
7
 10
-42.500000
 20
-17.000000
 11
-49.000000
 21
-17.000000
  0
LINE
  8
0
  6
CONTINUOUS
 62
7
 10
-42.500000
 20
-27.000000
 11
-50.000000
 21
-27.000000
  0
LINE
  8
0
  6
CONTINUOUS
 62
7
 10
-49.299999
 20
-17.299999
 11
-62.700001
 21
-17.299999
  0
LINE
  8
0
  6
CONTINUOUS
 62
7
 10
-62.000000
 20
-24.709299
 11
-62.000000
 21
-27.500000
  0
LINE
  8
0
  6
CONTINUOUS
 62
7
 10
-62.000000
 20
-21.500000
 11
-62.000000
 21
-22.290701
  0
LINE
  8
0
  6
CONTINUOUS
 62
7
 10
-69.500000
 20
-17.000000
 11
-63.000000
 21
-17.000000
  0
LINE
  8
0
  6
CONTINUOUS
 62
7
 10
-69.500000
 20
-17.000000
 11
-69.500000
 21
-27.000000
  0
LINE
  8
0
  6
CONTINUOUS
 62
7
 10
-69.500000
 20
-27.000000
 11
-62.000000
 21
-27.000000
  0
LINE
  8
0
  6
CONTINUOUS
 62
7
 10
-42.500000
 20
-17.000000
 11
-42.500000
 21
-27.000000
  0
LINE
  8
0
  6
CONTINUOUS
 62
7
 10
-49.000000
 20
-17.000000
 11
-49.299999
 21
-17.299999
  0
LINE
  8
0
  6
CONTINUOUS
 62
7
 10
-63.000000
 20
-17.000000
 11
-62.700001
 21
-17.299999
  0
LINE
  8
0
  6
CONTINUOUS
 62
7
 10
-70.000000
 20
-27.500000
 11
-62.000000
 21
-27.500000
  0
LINE
  8
0
  6
CONTINUOUS
 62
7
 10
-70.000000
 20
-37.000000
 11
-42.000000
 21
-37.000000
  0
LINE
  8
0
  6
CONTINUOUS
 62
7
 10
-42.000000
 20
-27.500000
 11
-50.000000
 21
-27.500000
  0
LINE
  8
0
  6
CONTINUOUS
 62
7
 10
-70.000000
 20
-27.500000
 11
-70.000000
 21
-37.000000
  0
LINE
  8
0
  6
CENTER
 62
2
 10
-47.000000
 20
-29.500000
 11
-47.000000
 21
-36.500000
  0
LINE
  8
0
  6
CENTER
 62
2
 10
-43.500000
 20
-33.000000
 11
-50.500000
 21
-33.000000
  0
LINE
  8
0
  6
CENTER
 62
2
 10
-56.000000
 20
-15.000000
 11
-56.000000
 21
-39.000000
  0
LINE
  8
0
  6
CENTER
 62
2
 10
-48.599998
 20
-30.000000
 11
-63.400002
 21
-30.000000
  0
LINE
  8
0
  6
CENTER
 62
2
 10
-46.000000
 20
-15.000000
 11
-46.000000
 21
-19.000000
  0
LINE
  8
0
  6
CENTER
 62
2
 10
-66.000000
 20
-15.000000
 11
-66.000000
 21
-19.000000
  0
LINE
  8
0
  6
CENTER
 62
2
 10
-66.500000
 20
-35.000000
 11
-66.500000
 21
-39.000000
  0
LINE
  8
0
  6
CENTER
 62
2
 10
-45.500000
 20
-35.000000
 11
-45.500000
 21
-39.000000
  0
LINE
  8
0
  6
CONTINUOUS
 62
7
 10
-30.000000
 20
-36.500000
 11
-42.000000
 21
-36.500000
  0
LINE
  8
0
  6
CONTINUOUS
 62
7
 10
-30.000000
 20
-17.500000
 11
-42.500000
 21
-17.500000
  0
LINE
  8
0
  6
CONTINUOUS
 62
7
 10
-30.000000
 20
-36.500000
 11
-30.000000
 21
-17.500000
  0
LINE
  8
0
  6
CENTER
 62
2
 10
-36.000000
 20
-16.500000
 11
-36.000000
 21
-30.500000
  0
LINE
  8
0
  6
CENTER
 62
2
 10
-43.000000
 20
-23.500000
 11
-29.000000
 21
-23.500000
  0
LINE
  8
0
  6
CONTINUOUS
 62
7
 10
-36.673401
 20
-29.462099
 11
-40.826698
 21
-27.064199
  0
LINE
  8
0
  6
CONTINUOUS
 62
7
 10
-31.173401
 20
-27.064199
 11
-35.326698
 21
-29.462099
  0
LINE
  8
0
  6
CONTINUOUS
 62
7
 10
-30.500000
 20
-21.102100
 11
-30.500000
 21
-25.897900
  0
LINE
  8
0
  6
CONTINUOUS
 62
7
 10
-35.326698
 20
-17.537901
 11
-31.173401
 21
-19.935801
  0
LINE
  8
0
  6
CONTINUOUS
 62
7
 10
-40.826698
 20
-19.935801
 11
-36.673401
 21
-17.537901
  0
LINE
  8
0
  6
CONTINUOUS
 62
7
 10
-41.500000
 20
-21.102100
 11
-41.500000
 21
-25.897900
  0
LINE
  8
0
  6
CONTINUOUS
 62
7
 10
-37.636398
 20
-24.250000
 11
-39.929100
 21
-24.250000
  0
LINE
  8
0
  6
CONTINUOUS
 62
7
 10
-37.636398
 20
-22.750000
 11
-39.929100
 21
-22.750000
  0
LINE
  8
0
  6
CONTINUOUS
 62
7
 10
-32.070999
 20
-22.750000
 11
-34.363701
 21
-22.750000
  0
LINE
  8
0
  6
CONTINUOUS
 62
7
 10
-32.070999
 20
-24.250000
 11
-34.363701
 21
-24.250000
  0
LINE
  8
0
  6
CONTINUOUS
 62
7
 10
-42.000000
 20
-17.500000
 11
-42.000000
 21
-37.000000
  0
LINE
  8
0
  6
CONTINUOUS
 62
7
 10
-80.000000
 20
-36.500000
 11
-70.000000
 21
-36.500000
  0
LINE
  8
0
  6
CONTINUOUS
 62
2
 10
-79.000000
 20
-18.850000
 11
-79.000000
 21
-19.700001
  0
LINE
  8
0
  6
CONTINUOUS
 62
7
 10
-80.000000
 20
-17.500000
 11
-80.000000
 21
-36.500000
  0
LINE
  8
0
  6
CONTINUOUS
 62
7
 10
-80.000000
 20
-17.500000
 11
-72.500000
 21
-17.500000
  0
LINE
  8
0
  6
CONTINUOUS
 62
7
 10
-72.500000
 20
-17.500000
 11
-72.500000
 21
-30.000000
  0
LINE
  8
0
  6
CONTINUOUS
 62
7
 10
-71.500000
 20
-18.500000
 11
-71.500000
 21
-29.500000
  0
LINE
  8
0
  6
CONTINUOUS
 62
7
 10
-71.500000
 20
-18.500000
 11
-69.500000
 21
-18.500000
  0
LINE
  8
0
  6
CONTINUOUS
 62
7
 10
-71.500000
 20
-29.500000
 11
-70.000000
 21
-29.500000
  0
LINE
  8
0
  6
CONTINUOUS
 62
7
 10
-72.500000
 20
-30.000000
 11
-70.000000
 21
-30.000000
  0
LINE
  8
0
  6
CONTINUOUS
 62
2
 10
-79.000000
 20
-18.850000
 11
-75.199997
 21
-18.850000
  0
LINE
  8
0
  6
CONTINUOUS
 62
2
 10
-73.699997
 20
-20.350000
 11
-73.699997
 21
-21.650000
  0
LINE
  8
0
  6
CONTINUOUS
 62
2
 10
-79.000000
 20
-23.150000
 11
-75.199997
 21
-23.150000
  0
LINE
  8
0
  6
CONTINUOUS
 62
2
 10
-80.000000
 20
-22.299999
 11
-79.000000
 21
-22.299999
  0
LINE
  8
0
  6
CONTINUOUS
 62
2
 10
-80.000000
 20
-19.700001
 11
-79.000000
 21
-19.700001
  0
LINE
  8
0
  6
CONTINUOUS
 62
2
 10
-79.000000
 20
-22.299999
 11
-79.000000
 21
-23.150000
  0
LINE
  8
0
  6
CENTER
 62
2
 10
-82.000000
 20
-21.000000
 11
-71.699997
 21
-21.000000
  0
LINE
  8
0
  6
CENTER
 62
2
 10
-82.000000
 20
-27.000000
 11
-71.699997
 21
-27.000000
  0
LINE
  8
0
  6
CONTINUOUS
 62
7
 10
132.000000
 20
-17.000000
 11
168.000000
 21
-17.000000
  0
LINE
  8
0
  6
CONTINUOUS
 62
7
 10
132.000000
 20
-17.000000
 11
132.000000
 21
-17.500000
  0
LINE
  8
0
  6
CONTINUOUS
 62
7
 10
125.500000
 20
-17.500000
 11
132.000000
 21
-17.500000
  0
LINE
  8
0
  6
CONTINUOUS
 62
7
 10
174.500000
 20
-17.500000
 11
174.500000
 21
-27.000000
  0
LINE
  8
0
  6
CONTINUOUS
 62
7
 10
168.000000
 20
-17.000000
 11
168.000000
 21
-17.500000
  0
LINE
  8
0
  6
CONTINUOUS
 62
7
 10
174.500000
 20
-17.500000
 11
168.000000
 21
-17.500000
  0
LINE
  8
0
  6
CONTINUOUS
 62
7
 10
95.000000
 20
-21.500000
 11
107.000000
 21
-21.500000
  0
LINE
  8
0
  6
CONTINUOUS
 62
7
 10
174.500000
 20
-21.500000
 11
185.000000
 21
-21.500000
  0
LINE
  8
0
  6
CONTINUOUS
 62
7
 10
95.000000
 20
-37.000000
 11
95.000000
 21
-21.500000
  0
LINE
  8
0
  6
CONTINUOUS
 62
7
 10
185.000000
 20
-37.000000
 11
185.000000
 21
-21.500000
  0
LINE
  8
0
  6
CONTINUOUS
 62
7
 10
95.000000
 20
-37.000000
 11
185.000000
 21
-37.000000
  0
LINE
  8
0
  6
CONTINUOUS
 62
7
 10
174.199997
 20
-31.500000
 11
173.000000
 21
-31.500000
  0
LINE
  8
0
  6
CONTINUOUS
 62
7
 10
95.000000
 20
-27.500000
 11
103.653000
 21
-27.500000
  0
LINE
  8
0
  6
CONTINUOUS
 62
7
 10
107.000000
 20
-31.500000
 11
105.800003
 21
-31.500000
  0
LINE
  8
0
  6
CONTINUOUS
 62
7
 10
173.000000
 20
-27.000000
 11
174.500000
 21
-27.000000
  0
LINE
  8
0
  6
CONTINUOUS
 62
7
 10
176.347000
 20
-27.500000
 11
185.000000
 21
-27.500000
  0
LINE
  8
0
  6
DASHED
 62
2
 10
107.000000
 20
-32.000000
 11
107.000000
 21
-37.000000
  0
LINE
  8
0
  6
DASHED
 62
2
 10
107.349998
 20
-32.000000
 11
107.349998
 21
-37.000000
  0
LINE
  8
0
  6
DASHED
 62
2
 10
106.000000
 20
-32.000000
 11
112.000000
 21
-32.000000
  0
LINE
  8
0
  6
CENTER
 62
2
 10
109.000000
 20
-29.500000
 11
109.000000
 21
-39.000000
  0
LINE
  8
0
  6
DASHED
 62
2
 10
110.650002
 20
-32.000000
 11
110.650002
 21
-37.000000
  0
LINE
  8
0
  6
DASHED
 62
2
 10
111.000000
 20
-32.000000
 11
111.000000
 21
-37.000000
  0
LINE
  8
0
  6
DASHED
 62
2
 10
112.000000
 20
-31.500000
 11
112.000000
 21
-32.000000
  0
LINE
  8
0
  6
DASHED
 62
2
 10
106.000000
 20
-31.500000
 11
106.000000
 21
-32.000000
  0
LINE
  8
0
  6
DASHED
 62
2
 10
169.000000
 20
-32.000000
 11
169.000000
 21
-37.000000
  0
LINE
  8
0
  6
DASHED
 62
2
 10
169.350006
 20
-32.000000
 11
169.350006
 21
-37.000000
  0
LINE
  8
0
  6
DASHED
 62
2
 10
168.000000
 20
-32.000000
 11
174.000000
 21
-32.000000
  0
LINE
  8
0
  6
CENTER
 62
2
 10
171.000000
 20
-29.500000
 11
171.000000
 21
-39.000000
  0
LINE
  8
0
  6
DASHED
 62
2
 10
172.649994
 20
-32.000000
 11
172.649994
 21
-37.000000
  0
LINE
  8
0
  6
DASHED
 62
2
 10
173.000000
 20
-32.000000
 11
173.000000
 21
-37.000000
  0
LINE
  8
0
  6
DASHED
 62
2
 10
174.000000
 20
-31.500000
 11
174.000000
 21
-32.000000
  0
LINE
  8
0
  6
DASHED
 62
2
 10
168.000000
 20
-31.500000
 11
168.000000
 21
-32.000000
  0
LINE
  8
0
  6
CENTER
 62
2
 10
135.000000
 20
-15.000000
 11
135.000000
 21
-19.000000
  0
LINE
  8
0
  6
CENTER
 62
2
 10
150.000000
 20
-15.000000
 11
150.000000
 21
-19.000000
  0
LINE
  8
0
  6
CENTER
 62
2
 10
165.000000
 20
-15.000000
 11
165.000000
 21
-19.000000
  0
LINE
  8
0
  6
CONTINUOUS
 62
7
 10
107.000000
 20
-17.500000
 11
107.000000
 21
-36.500000
  0
LINE
  8
0
  6
CONTINUOUS
 62
7
 10
107.000000
 20
-36.500000
 11
173.000000
 21
-36.500000
  0
LINE
  8
0
  6
CONTINUOUS
 62
2
 10
107.000000
 20
-28.299999
 11
173.000000
 21
-28.299999
  0
LINE
  8
0
  6
CONTINUOUS
 62
2
 10
107.000000
 20
-25.700001
 11
173.000000
 21
-25.700001
  0
LINE
  8
0
  6
CONTINUOUS
 62
2
 10
107.000000
 20
-22.299999
 11
173.000000
 21
-22.299999
  0
LINE
  8
0
  6
CONTINUOUS
 62
2
 10
107.000000
 20
-19.700001
 11
173.000000
 21
-19.700001
  0
LINE
  8
0
  6
CONTINUOUS
 62
7
 10
174.500000
 20
-17.500000
 11
107.000000
 21
-17.500000
  0
LINE
  8
0
  6
CONTINUOUS
 62
7
 10
173.000000
 20
-17.500000
 11
173.000000
 21
-36.500000
  0
LINE
  8
0
  6
CONTINUOUS
 62
7
 10
173.000000
 20
7.999990
 11
173.000000
 21
-2.000010
  0
LINE
  8
0
  6
CONTINUOUS
 62
7
 10
173.000000
 20
-2.000010
 11
107.000000
 21
-2.000010
  0
LINE
  8
0
  6
CONTINUOUS
 62
7
 10
173.000000
 20
5.499990
 11
107.000000
 21
5.499990
  0
LINE
  8
0
  6
CONTINUOUS
 62
7
 10
153.250000
 20
6.499990
 11
146.750000
 21
6.499990
  0
LINE
  8
0
  6
CONTINUOUS
 62
7
 10
146.750000
 20
7.999990
 11
146.750000
 21
6.499990
  0
LINE
  8
0
  6
CONTINUOUS
 62
7
 10
153.250000
 20
7.999990
 11
153.250000
 21
6.499990
  0
LINE
  8
0
  6
CONTINUOUS
 62
7
 10
107.000000
 20
7.999990
 11
107.000000
 21
-2.000010
  0
LINE
  8
0
  6
CONTINUOUS
 62
7
 10
107.000000
 20
-52.000000
 11
107.000000
 21
-62.000000
  0
LINE
  8
0
  6
CONTINUOUS
 62
7
 10
173.000000
 20
-52.000000
 11
173.000000
 21
-62.000000
  0
LINE
  8
0
  6
CONTINUOUS
 62
7
 10
173.000000
 20
-52.000000
 11
107.000000
 21
-52.000000
  0
LINE
  8
0
  6
CONTINUOUS
 62
7
 10
107.000000
 20
70.000000
 11
107.000000
 21
68.000000
  0
LINE
  8
0
  6
CENTER
 62
2
 10
-168.500000
 20
-31.500000
 11
-159.500000
 21
-31.500000
  0
LINE
  8
0
  6
CENTER
 62
2
 10
-164.000000
 20
-27.000000
 11
-164.000000
 21
-36.000000
  0
LINE
  8
0
  6
CENTER
 62
2
 10
-120.500000
 20
-31.500000
 11
-111.500000
 21
-31.500000
  0
LINE
  8
0
  6
CENTER
 62
2
 10
-116.000000
 20
-27.000000
 11
-116.000000
 21
-36.000000
  0
LINE
  8
0
  6
CENTER
 62
2
 10
96.500000
 20
-31.500000
 11
105.500000
 21
-31.500000
  0
LINE
  8
0
  6
CENTER
 62
2
 10
101.000000
 20
-27.000000
 11
101.000000
 21
-36.000000
  0
LINE
  8
0
  6
CENTER
 62
2
 10
174.500000
 20
-31.500000
 11
183.500000
 21
-31.500000
  0
LINE
  8
0
  6
CENTER
 62
2
 10
179.000000
 20
-27.000000
 11
179.000000
 21
-36.000000
  0
LINE
  8
0
  6
CONTINUOUS
 62
7
 10
30.292900
 20
-22.792900
 11
31.707100
 21
-24.207100
  0
LINE
  8
0
  6
CONTINUOUS
 62
7
 10
-244.707001
 20
-22.792900
 11
-243.292999
 21
-24.207100
  0
LINE
  8
0
  6
CONTINUOUS
 62
7
 10
-244.707001
 20
-24.207100
 11
-243.292999
 21
-22.792801
  0
LINE
  8
0
  6
CONTINUOUS
 62
7
 10
-36.707100
 20
-22.792900
 11
-35.292900
 21
-24.207100
  0
LINE
  8
0
  6
CONTINUOUS
 62
7
 10
-36.707100
 20
-24.207100
 11
-35.292900
 21
-22.792900
  0
LINE
  8
0
  6
CONTINUOUS
 62
7
 10
248.292999
 20
-22.792801
 11
249.707001
 21
-24.207001
  0
LINE
  8
0
  6
CONTINUOUS
 62
7
 10
248.292999
 20
-24.207199
 11
249.707001
 21
-22.792999
  0
LINE
  8
0
  6
CONTINUOUS
 62
7
 10
0.424988
 20
195.500000
 11
0.424988
 21
-195.000000
  0
CIRCLE
  8
0
  6
CONTINUOUS
 62
7
 10
109.000000
 20
11.500000
 40
1.650000
  0
CIRCLE
  8
0
  6
CONTINUOUS
 62
2
 10
109.000000
 20
11.500000
 40
2.000000
  0
CIRCLE
  8
0
  6
CONTINUOUS
 62
2
 10
109.000000
 20
32.500000
 40
2.000000
  0
CIRCLE
  8
0
  6
CONTINUOUS
 62
7
 10
109.000000
 20
32.500000
 40
1.650000
  0
CIRCLE
  8
0
  6
CONTINUOUS
 62
7
 10
150.000000
 20
32.000000
 40
1.250000
  0
CIRCLE
  8
0
  6
CONTINUOUS
 62
2
 10
150.000000
 20
32.000000
 40
1.500000
  0
CIRCLE
  8
0
  6
CONTINUOUS
 62
7
 10
150.000000
 20
12.000000
 40
1.250000
  0
CIRCLE
  8
0
  6
CONTINUOUS
 62
2
 10
150.000000
 20
12.000000
 40
1.500000
  0
CIRCLE
  8
0
  6
DASHED
 62
2
 10
171.000000
 20
32.500000
 40
1.650000
  0
CIRCLE
  8
0
  6
DASHED
 62
2
 10
171.000000
 20
32.500000
 40
2.000000
  0
CIRCLE
  8
0
  6
CONTINUOUS
 62
7
 10
165.000000
 20
32.000000
 40
1.250000
  0
CIRCLE
  8
0
  6
CONTINUOUS
 62
2
 10
165.000000
 20
32.000000
 40
1.500000
  0
CIRCLE
  8
0
  6
CONTINUOUS
 62
7
 10
165.000000
 20
12.000000
 40
1.250000
  0
CIRCLE
  8
0
  6
CONTINUOUS
 62
2
 10
165.000000
 20
12.000000
 40
1.500000
  0
CIRCLE
  8
0
  6
DASHED
 62
2
 10
171.000000
 20
11.500000
 40
1.650000
  0
CIRCLE
  8
0
  6
DASHED
 62
2
 10
171.000000
 20
11.500000
 40
2.000000
  0
CIRCLE
  8
0
  6
CONTINUOUS
 62
7
 10
135.000000
 20
32.000000
 40
1.250000
  0
CIRCLE
  8
0
  6
CONTINUOUS
 62
2
 10
135.000000
 20
32.000000
 40
1.500000
  0
CIRCLE
  8
0
  6
CONTINUOUS
 62
7
 10
135.000000
 20
12.000000
 40
1.250000
  0
CIRCLE
  8
0
  6
CONTINUOUS
 62
2
 10
135.000000
 20
12.000000
 40
1.500000
  0
ARC
  8
0
  6
CONTINUOUS
 62
7
 10
101.000000
 20
82.000000
 40
4.800000
 50
303.557007
 51
0.000000
  0
ARC
  8
0
  6
CONTINUOUS
 62
7
 10
179.000000
 20
82.000000
 40
4.800000
 50
180.000000
 51
236.442993
  0
CIRCLE
  8
0
  6
CONTINUOUS
 62
7
 10
109.000000
 20
32.500000
 40
3.000000
  0
CIRCLE
  8
0
  6
CONTINUOUS
 62
7
 10
109.000000
 20
11.500000
 40
3.000000
  0
CIRCLE
  8
0
  6
DASHED
 62
2
 10
171.000000
 20
11.500000
 40
3.000000
  0
CIRCLE
  8
0
  6
DASHED
 62
2
 10
171.000000
 20
32.500000
 40
3.000000
  0
CIRCLE
  8
0
  6
CONTINUOUS
 62
2
 10
109.000000
 20
-65.500000
 40
2.000000
  0
CIRCLE
  8
0
  6
CONTINUOUS
 62
7
 10
109.000000
 20
-86.500000
 40
1.650000
  0
CIRCLE
  8
0
  6
CONTINUOUS
 62
2
 10
109.000000
 20
-86.500000
 40
2.000000
  0
CIRCLE
  8
0
  6
CONTINUOUS
 62
7
 10
109.000000
 20
-65.500000
 40
1.650000
  0
CIRCLE
  8
0
  6
CONTINUOUS
 62
7
 10
171.000000
 20
-86.500000
 40
1.650000
  0
CIRCLE
  8
0
  6
CONTINUOUS
 62
2
 10
171.000000
 20
-86.500000
 40
2.000000
  0
CIRCLE
  8
0
  6
CONTINUOUS
 62
7
 10
171.000000
 20
-65.500000
 40
1.650000
  0
CIRCLE
  8
0
  6
CONTINUOUS
 62
2
 10
171.000000
 20
-65.500000
 40
2.000000
  0
CIRCLE
  8
0
  6
CONTINUOUS
 62
7
 10
177.500000
 20
-72.500000
 40
5.900000
  0
CIRCLE
  8
0
  6
CONTINUOUS
 62
7
 10
102.500000
 20
-72.500000
 40
5.900000
  0
CIRCLE
  8
0
  6
CONTINUOUS
 62
7
 10
-156.000000
 20
11.500000
 40
1.650000
  0
CIRCLE
  8
0
  6
CONTINUOUS
 62
2
 10
-156.000000
 20
11.500000
 40
2.000000
  0
CIRCLE
  8
0
  6
CONTINUOUS
 62
2
 10
-156.000000
 20
32.500000
 40
2.000000
  0
CIRCLE
  8
0
  6
CONTINUOUS
 62
7
 10
-156.000000
 20
32.500000
 40
1.650000
  0
CIRCLE
  8
0
  6
CONTINUOUS
 62
7
 10
-142.500000
 20
32.000000
 40
1.250000
  0
CIRCLE
  8
0
  6
CONTINUOUS
 62
2
 10
-142.500000
 20
32.000000
 40
1.500000
  0
CIRCLE
  8
0
  6
CONTINUOUS
 62
7
 10
-142.500000
 20
12.000000
 40
1.250000
  0
CIRCLE
  8
0
  6
CONTINUOUS
 62
2
 10
-142.500000
 20
12.000000
 40
1.500000
  0
CIRCLE
  8
0
  6
CONTINUOUS
 62
7
 10
-127.500000
 20
32.000000
 40
1.250000
  0
CIRCLE
  8
0
  6
CONTINUOUS
 62
2
 10
-127.500000
 20
32.000000
 40
1.500000
  0
CIRCLE
  8
0
  6
CONTINUOUS
 62
7
 10
-127.500000
 20
12.000000
 40
1.250000
  0
CIRCLE
  8
0
  6
CONTINUOUS
 62
2
 10
-127.500000
 20
12.000000
 40
1.500000
  0
CIRCLE
  8
0
  6
CONTINUOUS
 62
7
 10
-156.000000
 20
11.500000
 40
3.000000
  0
CIRCLE
  8
0
  6
CONTINUOUS
 62
7
 10
-156.000000
 20
32.500000
 40
3.000000
  0
CIRCLE
  8
0
  6
DASHED
 62
2
 10
-124.000000
 20
32.500000
 40
3.000000
  0
CIRCLE
  8
0
  6
DASHED
 62
2
 10
-124.000000
 20
11.500000
 40
3.000000
  0
CIRCLE
  8
0
  6
DASHED
 62
2
 10
-124.000000
 20
32.500000
 40
1.650000
  0
CIRCLE
  8
0
  6
DASHED
 62
2
 10
-124.000000
 20
32.500000
 40
2.000000
  0
CIRCLE
  8
0
  6
DASHED
 62
2
 10
-124.000000
 20
11.500000
 40
2.000000
  0
CIRCLE
  8
0
  6
DASHED
 62
2
 10
-124.000000
 20
11.500000
 40
1.650000
  0
CIRCLE
  8
0
  6
CONTINUOUS
 62
2
 10
-156.000000
 20
-65.500000
 40
2.000000
  0
CIRCLE
  8
0
  6
CONTINUOUS
 62
7
 10
-156.000000
 20
-86.500000
 40
1.650000
  0
CIRCLE
  8
0
  6
CONTINUOUS
 62
2
 10
-156.000000
 20
-86.500000
 40
2.000000
  0
CIRCLE
  8
0
  6
CONTINUOUS
 62
7
 10
-156.000000
 20
-65.500000
 40
1.650000
  0
CIRCLE
  8
0
  6
CONTINUOUS
 62
7
 10
-124.000000
 20
-86.500000
 40
1.650000
  0
CIRCLE
  8
0
  6
CONTINUOUS
 62
2
 10
-124.000000
 20
-86.500000
 40
2.000000
  0
CIRCLE
  8
0
  6
CONTINUOUS
 62
7
 10
-124.000000
 20
-65.500000
 40
1.650000
  0
CIRCLE
  8
0
  6
CONTINUOUS
 62
2
 10
-124.000000
 20
-65.500000
 40
2.000000
  0
CIRCLE
  8
0
  6
CONTINUOUS
 62
7
 10
-117.500000
 20
-72.500000
 40
5.900000
  0
CIRCLE
  8
0
  6
CONTINUOUS
 62
7
 10
-162.500000
 20
-72.500000
 40
5.900000
  0
ARC
  8
0
  6
CONTINUOUS
 62
7
 10
-116.000000
 20
82.000000
 40
4.800000
 50
204.623993
 51
236.442993
  0
ARC
  8
0
  6
CONTINUOUS
 62
7
 10
-164.000000
 20
82.000000
 40
4.800000
 50
303.557007
 51
335.376007
  0
ARC
  8
0
  6
CONTINUOUS
 62
7
 10
-163.000000
 20
78.000000
 40
2.000000
 50
90.000000
 51
180.000000
  0
ARC
  8
0
  6
CONTINUOUS
 62
7
 10
-117.000000
 20
78.000000
 40
2.000000
 50
0.000000
 51
90.000000
  0
ARC
  8
0
  6
CONTINUOUS
 62
7
 10
117.000000
 20
78.000000
 40
2.000000
 50
90.000000
 51
180.000000
  0
ARC
  8
0
  6
CONTINUOUS
 62
7
 10
163.000000
 20
78.000000
 40
2.000000
 50
0.000000
 51
90.000000
  0
CIRCLE
  8
0
  6
CONTINUOUS
 62
7
 10
51.000000
 20
-30.000000
 40
5.400000
  0
ARC
  8
0
  6
CONTINUOUS
 62
7
 10
57.599998
 20
-23.500000
 40
1.350000
 50
116.387001
 51
243.610992
  0
ARC
  8
0
  6
CONTINUOUS
 62
7
 10
44.400002
 20
-23.500000
 40
1.350000
 50
296.385986
 51
63.610001
  0
CIRCLE
  8
0
  6
CONTINUOUS
 62
2
 10
42.000000
 20
-33.000000
 40
1.500000
  0
CIRCLE
  8
0
  6
CONTINUOUS
 62
7
 10
42.000000
 20
-33.000000
 40
1.250000
  0
CIRCLE
  8
0
  6
CONTINUOUS
 62
7
 10
31.000000
 20
-23.500000
 40
4.000000
  0
ARC
  8
0
  6
CONTINUOUS
 62
7
 10
31.000000
 20
-23.500000
 40
6.000000
 50
143.556000
 51
156.444000
  0
ARC
  8
0
  6
CONTINUOUS
 62
7
 10
31.000000
 20
-23.500000
 40
6.000000
 50
23.556499
 51
36.443501
  0
ARC
  8
0
  6
CONTINUOUS
 62
7
 10
31.000000
 20
-23.500000
 40
6.000000
 50
83.556503
 51
96.443604
  0
ARC
  8
0
  6
CONTINUOUS
 62
7
 10
31.000000
 20
-23.500000
 40
6.000000
 50
203.556000
 51
216.444000
  0
ARC
  8
0
  6
CONTINUOUS
 62
7
 10
31.000000
 20
-23.500000
 40
6.000000
 50
323.556000
 51
336.444000
  0
CIRCLE
  8
0
  6
CONTINUOUS
 62
7
 10
31.000000
 20
-23.500000
 40
1.800000
  0
ARC
  8
0
  6
CONTINUOUS
 62
7
 10
31.000000
 20
-23.500000
 40
6.000000
 50
263.556000
 51
276.444000
  0
ARC
  8
0
  6
CONTINUOUS
 62
2
 10
70.199997
 20
-20.350000
 40
1.500000
 50
90.000000
 51
180.000000
  0
ARC
  8
0
  6
CONTINUOUS
 62
2
 10
70.199997
 20
-21.650000
 40
1.500000
 50
180.000000
 51
270.000000
  0
ARC
  8
0
  6
CONTINUOUS
 62
2
 10
209.800003
 20
-21.650000
 40
1.500000
 50
270.000000
 51
0.000000
  0
CIRCLE
  8
0
  6
CONTINUOUS
 62
7
 10
229.000000
 20
-30.000000
 40
5.400000
  0
ARC
  8
0
  6
CONTINUOUS
 62
7
 10
222.399994
 20
-23.500000
 40
1.350000
 50
296.389008
 51
63.612598
  0
ARC
  8
0
  6
CONTINUOUS
 62
7
 10
235.600006
 20
-23.500000
 40
1.350000
 50
116.389999
 51
243.613007
  0
CIRCLE
  8
0
  6
CONTINUOUS
 62
2
 10
238.000000
 20
-33.000000
 40
1.500000
  0
CIRCLE
  8
0
  6
CONTINUOUS
 62
7
 10
238.000000
 20
-33.000000
 40
1.250000
  0
CIRCLE
  8
0
  6
CONTINUOUS
 62
7
 10
249.000000
 20
-23.500000
 40
4.000000
  0
ARC
  8
0
  6
CONTINUOUS
 62
7
 10
249.000000
 20
-23.500000
 40
6.000000
 50
23.556499
 51
36.443501
  0
ARC
  8
0
  6
CONTINUOUS
 62
7
 10
249.000000
 20
-23.500000
 40
6.000000
 50
143.557007
 51
156.444000
  0
ARC
  8
0
  6
CONTINUOUS
 62
7
 10
249.000000
 20
-23.500000
 40
6.000000
 50
83.556503
 51
96.443497
  0
ARC
  8
0
  6
CONTINUOUS
 62
7
 10
249.000000
 20
-23.500000
 40
6.000000
 50
323.556000
 51
336.444000
  0
ARC
  8
0
  6
CONTINUOUS
 62
7
 10
249.000000
 20
-23.500000
 40
6.000000
 50
203.556000
 51
216.442993
  0
CIRCLE
  8
0
  6
CONTINUOUS
 62
7
 10
249.000000
 20
-23.500000
 40
1.800000
  0
ARC
  8
0
  6
CONTINUOUS
 62
7
 10
249.000000
 20
-23.500000
 40
6.000000
 50
263.556000
 51
276.442993
  0
ARC
  8
0
  6
CONTINUOUS
 62
2
 10
209.800003
 20
-20.350000
 40
1.500000
 50
0.000000
 51
90.000000
  0
ARC
  8
0
  6
CONTINUOUS
 62
7
 10
-164.000000
 20
-31.500000
 40
4.800000
 50
0.000000
 51
56.442600
  0
ARC
  8
0
  6
CONTINUOUS
 62
7
 10
-116.000000
 20
-31.500000
 40
4.800000
 50
123.556999
 51
180.000000
  0
CIRCLE
  8
0
  6
CONTINUOUS
 62
7
 10
-224.000000
 20
-30.000000
 40
5.400000
  0
ARC
  8
0
  6
CONTINUOUS
 62
7
 10
-217.399994
 20
-23.500000
 40
1.350000
 50
116.387001
 51
243.610992
  0
ARC
  8
0
  6
CONTINUOUS
 62
7
 10
-230.600006
 20
-23.500000
 40
1.350010
 50
296.386993
 51
63.609798
  0
CIRCLE
  8
0
  6
CONTINUOUS
 62
2
 10
-233.000000
 20
-33.000000
 40
1.500000
  0
CIRCLE
  8
0
  6
CONTINUOUS
 62
7
 10
-233.000000
 20
-33.000000
 40
1.250000
  0
CIRCLE
  8
0
  6
CONTINUOUS
 62
7
 10
-244.000000
 20
-23.500000
 40
4.000000
  0
ARC
  8
0
  6
CONTINUOUS
 62
7
 10
-244.000000
 20
-23.500000
 40
6.000000
 50
143.557007
 51
156.444000
  0
ARC
  8
0
  6
CONTINUOUS
 62
7
 10
-244.000000
 20
-23.500000
 40
6.000000
 50
23.556499
 51
36.443501
  0
ARC
  8
0
  6
CONTINUOUS
 62
7
 10
-244.000000
 20
-23.500000
 40
6.000000
 50
83.556503
 51
96.443497
  0
ARC
  8
0
  6
CONTINUOUS
 62
7
 10
-244.000000
 20
-23.500000
 40
6.000000
 50
203.556000
 51
216.442993
  0
ARC
  8
0
  6
CONTINUOUS
 62
7
 10
-244.000000
 20
-23.500000
 40
6.000000
 50
323.556000
 51
336.444000
  0
CIRCLE
  8
0
  6
CONTINUOUS
 62
7
 10
-244.000000
 20
-23.500000
 40
1.800000
  0
ARC
  8
0
  6
CONTINUOUS
 62
7
 10
-244.000000
 20
-23.500000
 40
6.000000
 50
263.556000
 51
276.442993
  0
ARC
  8
0
  6
CONTINUOUS
 62
2
 10
-204.800003
 20
-20.350000
 40
1.500000
 50
90.000000
 51
180.000000
  0
ARC
  8
0
  6
CONTINUOUS
 62
2
 10
-204.800003
 20
-21.650000
 40
1.500000
 50
180.000000
 51
270.000000
  0
ARC
  8
0
  6
CONTINUOUS
 62
2
 10
-75.199997
 20
-21.650000
 40
1.500000
 50
270.000000
 51
0.000000
  0
CIRCLE
  8
0
  6
CONTINUOUS
 62
7
 10
-56.000000
 20
-30.000000
 40
5.400000
  0
ARC
  8
0
  6
CONTINUOUS
 62
7
 10
-62.599998
 20
-23.500000
 40
1.350000
 50
296.389008
 51
63.612598
  0
ARC
  8
0
  6
CONTINUOUS
 62
7
 10
-49.400002
 20
-23.500000
 40
1.350000
 50
116.389999
 51
243.613998
  0
CIRCLE
  8
0
  6
CONTINUOUS
 62
2
 10
-47.000000
 20
-33.000000
 40
1.500000
  0
CIRCLE
  8
0
  6
CONTINUOUS
 62
7
 10
-47.000000
 20
-33.000000
 40
1.250000
  0
CIRCLE
  8
0
  6
CONTINUOUS
 62
7
 10
-36.000000
 20
-23.500000
 40
4.000000
  0
ARC
  8
0
  6
CONTINUOUS
 62
7
 10
-36.000000
 20
-23.500000
 40
6.000000
 50
23.556499
 51
36.443501
  0
ARC
  8
0
  6
CONTINUOUS
 62
7
 10
-36.000000
 20
-23.500000
 40
6.000000
 50
143.556000
 51
156.444000
  0
ARC
  8
0
  6
CONTINUOUS
 62
7
 10
-36.000000
 20
-23.500000
 40
6.000000
 50
83.556503
 51
96.443604
  0
ARC
  8
0
  6
CONTINUOUS
 62
7
 10
-36.000000
 20
-23.500000
 40
6.000000
 50
323.556000
 51
336.444000
  0
ARC
  8
0
  6
CONTINUOUS
 62
7
 10
-36.000000
 20
-23.500000
 40
6.000000
 50
203.556000
 51
216.444000
  0
CIRCLE
  8
0
  6
CONTINUOUS
 62
7
 10
-36.000000
 20
-23.500000
 40
1.800000
  0
ARC
  8
0
  6
CONTINUOUS
 62
7
 10
-36.000000
 20
-23.500000
 40
6.000000
 50
263.556000
 51
276.444000
  0
ARC
  8
0
  6
CONTINUOUS
 62
2
 10
-75.199997
 20
-20.350000
 40
1.500000
 50
0.000000
 51
90.000000
  0
ARC
  8
0
  6
CONTINUOUS
 62
7
 10
101.000000
 20
-31.500000
 40
4.800000
 50
0.000000
 51
56.442699
  0
ARC
  8
0
  6
CONTINUOUS
 62
7
 10
179.000000
 20
-31.500000
 40
4.800000
 50
123.556999
 51
180.000000
  0
CIRCLE
  8
0
  6
CONTINUOUS
 62
7
 10
-164.000000
 20
-31.500000
 40
2.100000
  0
CIRCLE
  8
0
  6
CONTINUOUS
 62
2
 10
-164.000000
 20
-31.500000
 40
2.500000
  0
CIRCLE
  8
0
  6
CONTINUOUS
 62
7
 10
-116.000000
 20
-31.500000
 40
2.100000
  0
CIRCLE
  8
0
  6
CONTINUOUS
 62
2
 10
-116.000000
 20
-31.500000
 40
2.500000
  0
CIRCLE
  8
0
  6
CONTINUOUS
 62
7
 10
101.000000
 20
-31.500000
 40
2.100000
  0
CIRCLE
  8
0
  6
CONTINUOUS
 62
2
 10
101.000000
 20
-31.500000
 40
2.500000
  0
CIRCLE
  8
0
  6
CONTINUOUS
 62
7
 10
179.000000
 20
-31.500000
 40
2.100000
  0
CIRCLE
  8
0
  6
CONTINUOUS
 62
2
 10
179.000000
 20
-31.500000
 40
2.500000
  0
TEXT
  8
0
 62
7
 10
202.930283
 20
183.925003
 40
6.300000
  1
Ver.1.0
 50
0.000000
 41
1.010330
 51
0.000000
  7
STANDARD
  0
TEXT
  8
0
 62
7
 10
172.714691
 20
-187.250000
 40
9.000000
  1
KOGANEI CORP.
 50
0.000000
 41
0.771524
 51
0.000000
  7
STANDARD
  0
TEXT
  8
0
 62
7
 10
-243.569717
 20
183.925003
 40
6.300000
  1
AP TABLE
 50
0.000000
 41
0.775607
 51
0.000000
  7
STANDARD
  0
TEXT
  8
0
 62
7
 10
12.274609
 20
158.925003
 40
6.300000
  1
MODEL:APTS-SD10-20-TPQZ-R***
 50
0.000000
 41
0.768185
 51
0.000000
  7
STANDARD
  0
TEXT
  8
0
 62
7
 10
-269.400391
 20
158.925003
 40
6.300000
  1
MODEL:APTS-SD10-10-TPQZ-R***
 50
0.000000
 41
0.778292
 51
0.000000
  7
STANDARD
  0
ENDSEC
  0
EOF
