  0
SECTION
  2
HEADER
  0
ENDSEC
  0
SECTION
  2
TABLES
  0
TABLE
  2
LTYPE
 70
     4
  0
LTYPE
  2
CONTINUOUS
 70
    64
  3
Solid line
 72
    65
 73
     0
 40
0.000000
  0
LTYPE
  2
DASHED
 70
    64
  3
__ __ __ __ __ __ __ __ __ __ __ __ __ __ __
 72
    65
 73
     2
 40
3.500000
 49
2.000000
 49
-1.500000
  0
LTYPE
  2
CENTER
 70
    64
  3
____ _ ____ _ ____ _ ____ _ ____ _ ____ _ ____
 72
    65
 73
     4
 40
17.500000
 49
13.000000
 49
-1.500000
 49
1.500000
 49
-1.500000
  0
LTYPE
  2
PHANTOM
 70
    64
  3
_____ _ _ _____ _ _ _____ _ _ _____ _ _ ____  
 72
    65
 73
     6
 40
15.500000
 49
8.000000
 49
-1.500000
 49
1.500000
 49
-1.500000
 49
1.500000
 49
-1.500000
  0
ENDTAB
  0
TABLE
  2
LAYER
 70
     1
  0
LAYER
  2
0
 70
     0
 62
     7
  6
CONTINUOUS
  0
ENDTAB
  0
TABLE
  2
STYLE
 70
     1
  0
STYLE
  2
STANDARD
 70
     0
 40
0.000000
 41
1.000000
 50
0.000000
 71
     0
 42
0.200000
  3
txt
  4
BIGFONT
  0
ENDTAB
  0
TABLE
  2
VIEW
 70
     0
  0
ENDTAB
  0
ENDSEC
  0
SECTION
  2
BLOCKS
  0
ENDSEC
  0
SECTION
  2
ENTITIES
  0
LINE
  8
0
  6
CONTINUOUS
 62
7
 10
-281.250000
 20
195.500000
 11
282.100006
 21
195.500000
  0
LINE
  8
0
  6
CONTINUOUS
 62
7
 10
-281.250000
 20
195.500000
 11
-281.250000
 21
-195.000000
  0
LINE
  8
0
  6
CONTINUOUS
 62
7
 10
282.100006
 20
195.500000
 11
282.100006
 21
-195.000000
  0
LINE
  8
0
  6
CONTINUOUS
 62
7
 10
-281.250000
 20
-195.000000
 11
282.100006
 21
-195.000000
  0
LINE
  8
0
  6
CONTINUOUS
 62
7
 10
162.100006
 20
-175.000000
 11
162.100006
 21
-195.000000
  0
LINE
  8
0
  6
CONTINUOUS
 62
7
 10
162.100006
 20
-175.000000
 11
282.100006
 21
-175.000000
  0
LINE
  8
0
  6
CONTINUOUS
 62
7
 10
162.100006
 20
175.500000
 11
282.100006
 21
175.500000
  0
LINE
  8
0
  6
CONTINUOUS
 62
7
 10
-281.250000
 20
175.500000
 11
-161.250000
 21
175.500000
  0
LINE
  8
0
  6
CONTINUOUS
 62
7
 10
162.100006
 20
195.500000
 11
162.100006
 21
175.500000
  0
LINE
  8
0
  6
CONTINUOUS
 62
7
 10
-161.250000
 20
195.500000
 11
-161.250000
 21
175.500000
  0
LINE
  8
0
  6
CENTER
 62
2
 10
79.000000
 20
-103.513000
 11
79.000000
 21
-124.005997
  0
LINE
  8
0
  6
CONTINUOUS
 62
7
 10
83.500000
 20
-110.865997
 11
83.500000
 21
-113.199997
  0
LINE
  8
0
  6
CONTINUOUS
 62
7
 10
74.500000
 20
-110.865997
 11
74.500000
 21
-113.199997
  0
LINE
  8
0
  6
CONTINUOUS
 62
7
 10
89.000000
 20
-104.000000
 11
84.500000
 21
-104.000000
  0
LINE
  8
0
  6
CONTINUOUS
 62
7
 10
89.000000
 20
-104.000000
 11
89.000000
 21
-111.800003
  0
LINE
  8
0
  6
CONTINUOUS
 62
7
 10
89.000000
 20
-111.800003
 11
83.500000
 21
-111.800003
  0
LINE
  8
0
  6
CONTINUOUS
 62
7
 10
84.199997
 20
-104.300003
 11
73.800003
 21
-104.300003
  0
LINE
  8
0
  6
CONTINUOUS
 62
7
 10
74.500000
 20
-111.800003
 11
69.000000
 21
-111.800003
  0
LINE
  8
0
  6
CONTINUOUS
 62
7
 10
73.800003
 20
-104.300003
 11
73.500000
 21
-104.000000
  0
LINE
  8
0
  6
CONTINUOUS
 62
7
 10
84.200104
 20
-104.300003
 11
84.500099
 21
-104.000000
  0
LINE
  8
0
  6
CONTINUOUS
 62
7
 10
73.500000
 20
-104.000000
 11
69.000000
 21
-104.000000
  0
LINE
  8
0
  6
CONTINUOUS
 62
7
 10
83.500000
 20
-108.500000
 11
83.500000
 21
-109.134003
  0
LINE
  8
0
  6
CONTINUOUS
 62
7
 10
74.500000
 20
-108.500000
 11
83.500000
 21
-108.500000
  0
LINE
  8
0
  6
CONTINUOUS
 62
7
 10
74.500000
 20
-108.500000
 11
74.500000
 21
-109.134003
  0
LINE
  8
0
  6
CONTINUOUS
 62
7
 10
90.500000
 20
-123.000000
 11
67.500000
 21
-123.000000
  0
LINE
  8
0
  6
CONTINUOUS
 62
7
 10
90.500000
 20
-113.199997
 11
90.500000
 21
-123.000000
  0
LINE
  8
0
  6
CONTINUOUS
 62
7
 10
67.500000
 20
-113.199997
 11
67.500000
 21
-123.000000
  0
LINE
  8
0
  6
CONTINUOUS
 62
7
 10
67.500000
 20
-113.199997
 11
74.500000
 21
-113.199997
  0
LINE
  8
0
  6
CENTER
 62
2
 10
85.500000
 20
-116.500000
 11
72.500000
 21
-116.500000
  0
LINE
  8
0
  6
CONTINUOUS
 62
7
 10
90.500000
 20
-113.199997
 11
83.500000
 21
-113.199997
  0
LINE
  8
0
  6
CONTINUOUS
 62
7
 10
69.000000
 20
-104.000000
 11
69.000000
 21
-111.800003
  0
LINE
  8
0
  6
CENTER
 62
2
 10
87.000000
 20
-121.000000
 11
87.000000
 21
-125.000000
  0
LINE
  8
0
  6
CENTER
 62
2
 10
71.000000
 20
-121.000000
 11
71.000000
 21
-125.000000
  0
LINE
  8
0
  6
CENTER
 62
2
 10
71.500000
 20
-102.000000
 11
71.500000
 21
-106.000000
  0
LINE
  8
0
  6
CENTER
 62
2
 10
86.500000
 20
-102.000000
 11
86.500000
 21
-106.000000
  0
LINE
  8
0
  6
CENTER
 62
2
 10
217.000000
 20
-103.513000
 11
217.000000
 21
-124.005997
  0
LINE
  8
0
  6
CONTINUOUS
 62
7
 10
221.500000
 20
-110.865997
 11
221.500000
 21
-113.199997
  0
LINE
  8
0
  6
CONTINUOUS
 62
7
 10
212.500000
 20
-110.865997
 11
212.500000
 21
-113.199997
  0
LINE
  8
0
  6
CONTINUOUS
 62
7
 10
227.000000
 20
-104.000000
 11
222.500000
 21
-104.000000
  0
LINE
  8
0
  6
CONTINUOUS
 62
7
 10
227.000000
 20
-104.000000
 11
227.000000
 21
-111.800003
  0
LINE
  8
0
  6
CONTINUOUS
 62
7
 10
227.000000
 20
-111.800003
 11
221.500000
 21
-111.800003
  0
LINE
  8
0
  6
CONTINUOUS
 62
7
 10
222.199997
 20
-104.300003
 11
211.800003
 21
-104.300003
  0
LINE
  8
0
  6
CONTINUOUS
 62
7
 10
212.500000
 20
-111.800003
 11
207.000000
 21
-111.800003
  0
LINE
  8
0
  6
CONTINUOUS
 62
7
 10
211.800003
 20
-104.300003
 11
211.500000
 21
-104.000000
  0
LINE
  8
0
  6
CONTINUOUS
 62
7
 10
222.199997
 20
-104.300003
 11
222.500000
 21
-104.000000
  0
LINE
  8
0
  6
CONTINUOUS
 62
7
 10
211.500000
 20
-104.000000
 11
207.000000
 21
-104.000000
  0
LINE
  8
0
  6
CONTINUOUS
 62
7
 10
221.500000
 20
-108.500000
 11
221.500000
 21
-109.134003
  0
LINE
  8
0
  6
CONTINUOUS
 62
7
 10
212.500000
 20
-108.500000
 11
221.500000
 21
-108.500000
  0
LINE
  8
0
  6
CONTINUOUS
 62
7
 10
212.500000
 20
-108.500000
 11
212.500000
 21
-109.134003
  0
LINE
  8
0
  6
CONTINUOUS
 62
7
 10
228.500000
 20
-123.000000
 11
205.500000
 21
-123.000000
  0
LINE
  8
0
  6
CONTINUOUS
 62
7
 10
228.500000
 20
-113.199997
 11
228.500000
 21
-123.000000
  0
LINE
  8
0
  6
CONTINUOUS
 62
7
 10
205.500000
 20
-113.199997
 11
205.500000
 21
-123.000000
  0
LINE
  8
0
  6
CONTINUOUS
 62
7
 10
205.500000
 20
-113.199997
 11
212.500000
 21
-113.199997
  0
LINE
  8
0
  6
CENTER
 62
2
 10
223.500000
 20
-116.500000
 11
210.500000
 21
-116.500000
  0
LINE
  8
0
  6
CONTINUOUS
 62
7
 10
228.500000
 20
-113.199997
 11
221.500000
 21
-113.199997
  0
LINE
  8
0
  6
CONTINUOUS
 62
7
 10
207.000000
 20
-104.000000
 11
207.000000
 21
-111.800003
  0
LINE
  8
0
  6
CENTER
 62
2
 10
225.000000
 20
-121.000000
 11
225.000000
 21
-125.000000
  0
LINE
  8
0
  6
CENTER
 62
2
 10
209.000000
 20
-121.000000
 11
209.000000
 21
-125.000000
  0
LINE
  8
0
  6
CENTER
 62
2
 10
209.500000
 20
-102.000000
 11
209.500000
 21
-106.000000
  0
LINE
  8
0
  6
CENTER
 62
2
 10
224.500000
 20
-102.000000
 11
224.500000
 21
-106.000000
  0
LINE
  8
0
  6
CONTINUOUS
 62
7
 10
-113.099998
 20
-104.000000
 11
-132.899994
 21
-104.000000
  0
LINE
  8
0
  6
CONTINUOUS
 62
7
 10
-107.500000
 20
-104.300003
 11
-113.099998
 21
-104.300003
  0
LINE
  8
0
  6
CONTINUOUS
 62
7
 10
-107.500000
 20
-111.800003
 11
-138.500000
 21
-111.800003
  0
LINE
  8
0
  6
CONTINUOUS
 62
7
 10
-107.500000
 20
-104.300003
 11
-107.500000
 21
-111.800003
  0
LINE
  8
0
  6
CONTINUOUS
 62
7
 10
-132.899994
 20
-104.300003
 11
-138.500000
 21
-104.300003
  0
LINE
  8
0
  6
CONTINUOUS
 62
7
 10
-138.500000
 20
-111.800003
 11
-138.500000
 21
-104.300003
  0
LINE
  8
0
  6
CONTINUOUS
 62
7
 10
-98.000000
 20
-108.500000
 11
-107.500000
 21
-108.500000
  0
LINE
  8
0
  6
CONTINUOUS
 62
7
 10
-138.500000
 20
-108.500000
 11
-158.000000
 21
-108.500000
  0
LINE
  8
0
  6
CONTINUOUS
 62
7
 10
-158.000000
 20
-108.500000
 11
-158.000000
 21
-123.000000
  0
LINE
  8
0
  6
CONTINUOUS
 62
7
 10
-98.000000
 20
-108.500000
 11
-98.000000
 21
-123.000000
  0
LINE
  8
0
  6
CONTINUOUS
 62
7
 10
-98.000000
 20
-123.000000
 11
-158.000000
 21
-123.000000
  0
LINE
  8
0
  6
CONTINUOUS
 62
7
 10
-158.000000
 20
-113.199997
 11
-149.847000
 21
-113.199997
  0
LINE
  8
0
  6
CONTINUOUS
 62
7
 10
-113.099998
 20
-104.000000
 11
-113.099998
 21
-111.800003
  0
LINE
  8
0
  6
CONTINUOUS
 62
7
 10
-132.899994
 20
-104.000000
 11
-132.899994
 21
-111.800003
  0
LINE
  8
0
  6
CONTINUOUS
 62
7
 10
-108.249001
 20
-116.500000
 11
-117.500000
 21
-116.500000
  0
LINE
  8
0
  6
CONTINUOUS
 62
7
 10
-98.000000
 20
-113.199997
 11
-106.153000
 21
-113.199997
  0
LINE
  8
0
  6
CENTER
 62
2
 10
-142.000000
 20
-119.500000
 11
-135.000000
 21
-119.500000
  0
LINE
  8
0
  6
CENTER
 62
2
 10
-138.500000
 20
-123.000000
 11
-138.500000
 21
-116.000000
  0
LINE
  8
0
  6
CENTER
 62
2
 10
-121.000000
 20
-119.500000
 11
-114.000000
 21
-119.500000
  0
LINE
  8
0
  6
CENTER
 62
2
 10
-117.500000
 20
-123.000000
 11
-117.500000
 21
-116.000000
  0
LINE
  8
0
  6
CONTINUOUS
 62
7
 10
-136.841995
 20
-117.000000
 11
-119.157997
 21
-117.000000
  0
LINE
  8
0
  6
CONTINUOUS
 62
7
 10
-147.751007
 20
-116.500000
 11
-138.500000
 21
-116.500000
  0
LINE
  8
0
  6
CENTER
 62
2
 10
-127.800003
 20
-42.450001
 11
-127.800003
 21
-38.950001
  0
LINE
  8
0
  6
CENTER
 62
2
 10
-129.550003
 20
-40.700001
 11
-126.050003
 21
-40.700001
  0
LINE
  8
0
  6
CENTER
 62
2
 10
-118.199997
 20
-42.450001
 11
-118.199997
 21
-38.950001
  0
LINE
  8
0
  6
CENTER
 62
2
 10
-119.949997
 20
-40.700001
 11
-116.449997
 21
-40.700001
  0
LINE
  8
0
  6
DASHED
 62
2
 10
-109.000000
 20
-116.500000
 11
-109.000000
 21
-118.000000
  0
LINE
  8
0
  6
DASHED
 62
2
 10
-115.000000
 20
-116.500000
 11
-115.000000
 21
-118.000000
  0
LINE
  8
0
  6
DASHED
 62
2
 10
-113.750000
 20
-118.000000
 11
-113.750000
 21
-123.000000
  0
LINE
  8
0
  6
DASHED
 62
2
 10
-110.250000
 20
-118.000000
 11
-110.250000
 21
-123.000000
  0
LINE
  8
0
  6
DASHED
 62
2
 10
-114.000000
 20
-118.000000
 11
-114.000000
 21
-123.000000
  0
LINE
  8
0
  6
DASHED
 62
2
 10
-110.000000
 20
-118.000000
 11
-110.000000
 21
-123.000000
  0
LINE
  8
0
  6
DASHED
 62
2
 10
-109.000000
 20
-118.000000
 11
-115.000000
 21
-118.000000
  0
LINE
  8
0
  6
CENTER
 62
2
 10
-112.000000
 20
-114.500000
 11
-112.000000
 21
-125.000000
  0
LINE
  8
0
  6
CENTER
 62
2
 10
-144.000000
 20
-114.500000
 11
-144.000000
 21
-125.000000
  0
LINE
  8
0
  6
DASHED
 62
2
 10
-141.000000
 20
-116.500000
 11
-141.000000
 21
-118.000000
  0
LINE
  8
0
  6
DASHED
 62
2
 10
-147.000000
 20
-116.500000
 11
-147.000000
 21
-118.000000
  0
LINE
  8
0
  6
DASHED
 62
2
 10
-145.750000
 20
-118.000000
 11
-145.750000
 21
-123.000000
  0
LINE
  8
0
  6
DASHED
 62
2
 10
-142.250000
 20
-118.000000
 11
-142.250000
 21
-123.000000
  0
LINE
  8
0
  6
DASHED
 62
2
 10
-146.000000
 20
-118.000000
 11
-146.000000
 21
-123.000000
  0
LINE
  8
0
  6
DASHED
 62
2
 10
-142.000000
 20
-118.000000
 11
-142.000000
 21
-123.000000
  0
LINE
  8
0
  6
DASHED
 62
2
 10
-141.000000
 20
-118.000000
 11
-147.000000
 21
-118.000000
  0
LINE
  8
0
  6
CONTINUOUS
 62
7
 10
-113.099998
 20
-84.000000
 11
-132.899994
 21
-84.000000
  0
LINE
  8
0
  6
CONTINUOUS
 62
7
 10
-113.099998
 20
-69.000000
 11
-132.899994
 21
-69.000000
  0
LINE
  8
0
  6
CONTINUOUS
 62
7
 10
-113.099998
 20
-79.000000
 11
-132.899994
 21
-79.000000
  0
LINE
  8
0
  6
CONTINUOUS
 62
7
 10
-107.500000
 20
-83.699997
 11
-113.099998
 21
-83.699997
  0
LINE
  8
0
  6
CONTINUOUS
 62
7
 10
-132.899994
 20
-83.699997
 11
-138.500000
 21
-83.699997
  0
LINE
  8
0
  6
CENTER
 62
2
 10
-96.428902
 20
-74.000000
 11
-160.061996
 21
-74.000000
  0
LINE
  8
0
  6
CONTINUOUS
 62
7
 10
-98.000000
 20
-62.500000
 11
-98.000000
 21
-85.500000
  0
LINE
  8
0
  6
CONTINUOUS
 62
7
 10
-158.000000
 20
-62.500000
 11
-158.000000
 21
-85.500000
  0
LINE
  8
0
  6
CONTINUOUS
 62
7
 10
-98.000000
 20
-85.500000
 11
-158.000000
 21
-85.500000
  0
LINE
  8
0
  6
CONTINUOUS
 62
7
 10
-98.000000
 20
-78.500000
 11
-107.500000
 21
-78.500000
  0
LINE
  8
0
  6
CONTINUOUS
 62
7
 10
-98.000000
 20
-69.500000
 11
-107.500000
 21
-69.500000
  0
LINE
  8
0
  6
CONTINUOUS
 62
7
 10
-138.500000
 20
-69.500000
 11
-158.000000
 21
-69.500000
  0
LINE
  8
0
  6
CONTINUOUS
 62
7
 10
-138.500000
 20
-78.500000
 11
-158.000000
 21
-78.500000
  0
LINE
  8
0
  6
CENTER
 62
2
 10
-119.000000
 20
-81.500000
 11
-112.000000
 21
-81.500000
  0
LINE
  8
0
  6
CENTER
 62
2
 10
-115.500000
 20
-85.000000
 11
-115.500000
 21
-78.000000
  0
LINE
  8
0
  6
CONTINUOUS
 62
7
 10
-113.099998
 20
-64.000000
 11
-132.899994
 21
-64.000000
  0
LINE
  8
0
  6
CONTINUOUS
 62
7
 10
-107.500000
 20
-64.300003
 11
-107.500000
 21
-83.699997
  0
LINE
  8
0
  6
CONTINUOUS
 62
7
 10
-107.500000
 20
-64.300003
 11
-113.099998
 21
-64.300003
  0
LINE
  8
0
  6
CONTINUOUS
 62
7
 10
-132.899994
 20
-64.300003
 11
-138.500000
 21
-64.300003
  0
LINE
  8
0
  6
CONTINUOUS
 62
7
 10
-113.099998
 20
-84.000000
 11
-113.099998
 21
-64.000000
  0
LINE
  8
0
  6
CONTINUOUS
 62
7
 10
-132.899994
 20
-84.000000
 11
-132.899994
 21
-64.000000
  0
LINE
  8
0
  6
CENTER
 62
2
 10
-134.000000
 20
-81.500000
 11
-127.000000
 21
-81.500000
  0
LINE
  8
0
  6
CENTER
 62
2
 10
-130.500000
 20
-85.000000
 11
-130.500000
 21
-78.000000
  0
LINE
  8
0
  6
CENTER
 62
2
 10
-134.000000
 20
-66.500000
 11
-127.000000
 21
-66.500000
  0
LINE
  8
0
  6
CENTER
 62
2
 10
-119.000000
 20
-66.500000
 11
-112.000000
 21
-66.500000
  0
LINE
  8
0
  6
CENTER
 62
2
 10
-115.500000
 20
-63.000000
 11
-115.500000
 21
-70.000000
  0
LINE
  8
0
  6
CENTER
 62
2
 10
-130.500000
 20
-63.000000
 11
-130.500000
 21
-70.000000
  0
LINE
  8
0
  6
CENTER
 62
2
 10
-149.000000
 20
-66.000000
 11
-139.000000
 21
-66.000000
  0
LINE
  8
0
  6
CENTER
 62
2
 10
-144.000000
 20
-61.000000
 11
-144.000000
 21
-71.000000
  0
LINE
  8
0
  6
CONTINUOUS
 62
7
 10
-98.000000
 20
-62.500000
 11
-158.000000
 21
-62.500000
  0
LINE
  8
0
  6
CENTER
 62
2
 10
-149.000000
 20
-82.000000
 11
-139.000000
 21
-82.000000
  0
LINE
  8
0
  6
CENTER
 62
2
 10
-144.000000
 20
-87.000000
 11
-144.000000
 21
-77.000000
  0
LINE
  8
0
  6
CENTER
 62
2
 10
-107.000000
 20
-66.000000
 11
-117.000000
 21
-66.000000
  0
LINE
  8
0
  6
CENTER
 62
2
 10
-112.000000
 20
-61.000000
 11
-112.000000
 21
-71.000000
  0
LINE
  8
0
  6
CENTER
 62
2
 10
-112.000000
 20
-87.000000
 11
-112.000000
 21
-77.000000
  0
LINE
  8
0
  6
CENTER
 62
2
 10
-107.000000
 20
-82.000000
 11
-117.000000
 21
-82.000000
  0
LINE
  8
0
  6
CONTINUOUS
 62
7
 10
-138.500000
 20
-83.699997
 11
-138.500000
 21
-64.300003
  0
LINE
  8
0
  6
CONTINUOUS
 62
7
 10
-98.000000
 20
-166.000000
 11
-158.000000
 21
-166.000000
  0
LINE
  8
0
  6
CONTINUOUS
 62
7
 10
-158.000000
 20
-166.000000
 11
-158.000000
 21
-143.000000
  0
LINE
  8
0
  6
CONTINUOUS
 62
7
 10
-98.000000
 20
-143.000000
 11
-158.000000
 21
-143.000000
  0
LINE
  8
0
  6
CONTINUOUS
 62
7
 10
-98.000000
 20
-166.000000
 11
-98.000000
 21
-143.000000
  0
LINE
  8
0
  6
CENTER
 62
2
 10
-96.400497
 20
-154.500000
 11
-160.630005
 21
-154.500000
  0
LINE
  8
0
  6
CENTER
 62
2
 10
-144.000000
 20
-157.500000
 11
-144.000000
 21
-167.500000
  0
LINE
  8
0
  6
CENTER
 62
2
 10
-139.000000
 20
-162.500000
 11
-149.000000
 21
-162.500000
  0
LINE
  8
0
  6
CENTER
 62
2
 10
-144.000000
 20
-151.500000
 11
-144.000000
 21
-141.500000
  0
LINE
  8
0
  6
CENTER
 62
2
 10
-139.000000
 20
-146.500000
 11
-149.000000
 21
-146.500000
  0
LINE
  8
0
  6
CENTER
 62
2
 10
-112.000000
 20
-167.500000
 11
-112.000000
 21
-157.500000
  0
LINE
  8
0
  6
CENTER
 62
2
 10
-107.000000
 20
-162.500000
 11
-117.000000
 21
-162.500000
  0
LINE
  8
0
  6
CENTER
 62
2
 10
-112.000000
 20
-141.500000
 11
-112.000000
 21
-151.500000
  0
LINE
  8
0
  6
CENTER
 62
2
 10
-107.000000
 20
-146.500000
 11
-117.000000
 21
-146.500000
  0
LINE
  8
0
  6
CENTER
 62
2
 10
-151.000000
 20
-145.100006
 11
-151.000000
 21
-159.899994
  0
LINE
  8
0
  6
CENTER
 62
2
 10
-158.399994
 20
-152.500000
 11
-143.600006
 21
-152.500000
  0
LINE
  8
0
  6
CENTER
 62
2
 10
-105.000000
 20
-145.100006
 11
-105.000000
 21
-159.899994
  0
LINE
  8
0
  6
CENTER
 62
2
 10
-97.599998
 20
-152.500000
 11
-112.400002
 21
-152.500000
  0
LINE
  8
0
  6
CONTINUOUS
 62
7
 10
-113.099998
 20
-44.000000
 11
-132.899994
 21
-44.000000
  0
LINE
  8
0
  6
CONTINUOUS
 62
7
 10
-107.500000
 20
-43.700001
 11
-113.099998
 21
-43.700001
  0
LINE
  8
0
  6
CONTINUOUS
 62
7
 10
-107.500000
 20
-36.200001
 11
-138.500000
 21
-36.200001
  0
LINE
  8
0
  6
CONTINUOUS
 62
7
 10
-107.500000
 20
-43.700001
 11
-107.500000
 21
-36.200001
  0
LINE
  8
0
  6
CONTINUOUS
 62
7
 10
-132.899994
 20
-43.700001
 11
-138.500000
 21
-43.700001
  0
LINE
  8
0
  6
CONTINUOUS
 62
7
 10
-138.500000
 20
-36.200001
 11
-138.500000
 21
-43.700001
  0
LINE
  8
0
  6
CONTINUOUS
 62
7
 10
-98.000000
 20
-39.500000
 11
-107.500000
 21
-39.500000
  0
LINE
  8
0
  6
CONTINUOUS
 62
7
 10
-138.500000
 20
-39.500000
 11
-158.000000
 21
-39.500000
  0
LINE
  8
0
  6
CONTINUOUS
 62
7
 10
-158.000000
 20
-39.500000
 11
-158.000000
 21
-25.000000
  0
LINE
  8
0
  6
CONTINUOUS
 62
7
 10
-98.000000
 20
-39.500000
 11
-98.000000
 21
-25.000000
  0
LINE
  8
0
  6
CONTINUOUS
 62
7
 10
-98.000000
 20
-25.000000
 11
-158.000000
 21
-25.000000
  0
LINE
  8
0
  6
CONTINUOUS
 62
7
 10
-158.000000
 20
-34.799999
 11
-149.847000
 21
-34.799999
  0
LINE
  8
0
  6
CONTINUOUS
 62
7
 10
-113.099998
 20
-44.000000
 11
-113.099998
 21
-36.200001
  0
LINE
  8
0
  6
CONTINUOUS
 62
7
 10
-132.899994
 20
-44.000000
 11
-132.899994
 21
-36.200001
  0
LINE
  8
0
  6
CENTER
 62
2
 10
-129.750000
 20
-107.000000
 11
-122.750000
 21
-107.000000
  0
LINE
  8
0
  6
CENTER
 62
2
 10
-126.250000
 20
-110.500000
 11
-126.250000
 21
-103.500000
  0
LINE
  8
0
  6
CENTER
 62
2
 10
-123.250000
 20
-107.000000
 11
-116.250000
 21
-107.000000
  0
LINE
  8
0
  6
CENTER
 62
2
 10
-119.750000
 20
-110.500000
 11
-119.750000
 21
-103.500000
  0
LINE
  8
0
  6
CONTINUOUS
 62
7
 10
-158.000000
 20
-34.799999
 11
-149.847000
 21
-34.799999
  0
LINE
  8
0
  6
CONTINUOUS
 62
7
 10
-147.751007
 20
-31.500000
 11
-138.500000
 21
-31.500000
  0
LINE
  8
0
  6
CENTER
 62
2
 10
-105.000000
 20
-29.500000
 11
-98.000000
 21
-29.500000
  0
LINE
  8
0
  6
CENTER
 62
2
 10
-101.500000
 20
-26.000000
 11
-101.500000
 21
-33.000000
  0
LINE
  8
0
  6
CONTINUOUS
 62
7
 10
-136.697006
 20
-31.000000
 11
-119.303001
 21
-31.000000
  0
LINE
  8
0
  6
CENTER
 62
2
 10
-121.000000
 20
-28.500000
 11
-114.000000
 21
-28.500000
  0
LINE
  8
0
  6
CONTINUOUS
 62
7
 10
-108.249001
 20
-31.500000
 11
-117.500000
 21
-31.500000
  0
LINE
  8
0
  6
CENTER
 62
2
 10
-117.500000
 20
-25.000000
 11
-117.500000
 21
-32.000000
  0
LINE
  8
0
  6
CONTINUOUS
 62
7
 10
-98.000000
 20
-34.799999
 11
-106.153000
 21
-34.799999
  0
LINE
  8
0
  6
CENTER
 62
2
 10
-142.000000
 20
-28.500000
 11
-135.000000
 21
-28.500000
  0
LINE
  8
0
  6
CENTER
 62
2
 10
-138.500000
 20
-25.000000
 11
-138.500000
 21
-32.000000
  0
LINE
  8
0
  6
CENTER
 62
2
 10
-158.000000
 20
-29.500000
 11
-151.000000
 21
-29.500000
  0
LINE
  8
0
  6
CENTER
 62
2
 10
-154.500000
 20
-26.000000
 11
-154.500000
 21
-33.000000
  0
LINE
  8
0
  6
CONTINUOUS
 62
7
 10
-106.153000
 20
-34.799999
 11
-98.000000
 21
-34.799999
  0
LINE
  8
0
  6
CENTER
 62
2
 10
-144.000000
 20
-33.500000
 11
-144.000000
 21
-23.000000
  0
LINE
  8
0
  6
DASHED
 62
2
 10
-141.000000
 20
-31.500000
 11
-141.000000
 21
-30.000000
  0
LINE
  8
0
  6
DASHED
 62
2
 10
-147.000000
 20
-31.500000
 11
-147.000000
 21
-30.000000
  0
LINE
  8
0
  6
DASHED
 62
2
 10
-145.750000
 20
-30.000000
 11
-145.750000
 21
-25.000000
  0
LINE
  8
0
  6
DASHED
 62
2
 10
-142.250000
 20
-30.000000
 11
-142.250000
 21
-25.000000
  0
LINE
  8
0
  6
DASHED
 62
2
 10
-146.000000
 20
-30.000000
 11
-146.000000
 21
-25.000000
  0
LINE
  8
0
  6
DASHED
 62
2
 10
-142.000000
 20
-30.000000
 11
-142.000000
 21
-25.000000
  0
LINE
  8
0
  6
DASHED
 62
2
 10
-141.000000
 20
-30.000000
 11
-147.000000
 21
-30.000000
  0
LINE
  8
0
  6
DASHED
 62
2
 10
-109.000000
 20
-31.500000
 11
-109.000000
 21
-30.000000
  0
LINE
  8
0
  6
DASHED
 62
2
 10
-115.000000
 20
-31.500000
 11
-115.000000
 21
-30.000000
  0
LINE
  8
0
  6
DASHED
 62
2
 10
-113.750000
 20
-30.000000
 11
-113.750000
 21
-25.000000
  0
LINE
  8
0
  6
DASHED
 62
2
 10
-110.250000
 20
-30.000000
 11
-110.250000
 21
-25.000000
  0
LINE
  8
0
  6
DASHED
 62
2
 10
-114.000000
 20
-30.000000
 11
-114.000000
 21
-25.000000
  0
LINE
  8
0
  6
DASHED
 62
2
 10
-110.000000
 20
-30.000000
 11
-110.000000
 21
-25.000000
  0
LINE
  8
0
  6
DASHED
 62
2
 10
-109.000000
 20
-30.000000
 11
-115.000000
 21
-30.000000
  0
LINE
  8
0
  6
CENTER
 62
2
 10
-112.000000
 20
-33.500000
 11
-112.000000
 21
-23.000000
  0
LINE
  8
0
  6
CENTER
 62
2
 10
-182.000000
 20
-103.513000
 11
-182.000000
 21
-124.005997
  0
LINE
  8
0
  6
CONTINUOUS
 62
7
 10
-177.500000
 20
-110.865997
 11
-177.500000
 21
-113.199997
  0
LINE
  8
0
  6
CONTINUOUS
 62
7
 10
-186.500000
 20
-110.865997
 11
-186.500000
 21
-113.199997
  0
LINE
  8
0
  6
CONTINUOUS
 62
7
 10
-172.000000
 20
-104.000000
 11
-176.500000
 21
-104.000000
  0
LINE
  8
0
  6
CONTINUOUS
 62
7
 10
-172.000000
 20
-104.000000
 11
-172.000000
 21
-111.800003
  0
LINE
  8
0
  6
CONTINUOUS
 62
7
 10
-172.000000
 20
-111.800003
 11
-177.500000
 21
-111.800003
  0
LINE
  8
0
  6
CONTINUOUS
 62
7
 10
-176.800003
 20
-104.300003
 11
-187.199997
 21
-104.300003
  0
LINE
  8
0
  6
CONTINUOUS
 62
7
 10
-186.500000
 20
-111.800003
 11
-192.000000
 21
-111.800003
  0
LINE
  8
0
  6
CONTINUOUS
 62
7
 10
-187.199997
 20
-104.300003
 11
-187.500000
 21
-104.000000
  0
LINE
  8
0
  6
CONTINUOUS
 62
7
 10
-176.800003
 20
-104.300003
 11
-176.500000
 21
-104.000000
  0
LINE
  8
0
  6
CONTINUOUS
 62
7
 10
-187.500000
 20
-104.000000
 11
-192.000000
 21
-104.000000
  0
LINE
  8
0
  6
CONTINUOUS
 62
7
 10
-177.500000
 20
-108.500000
 11
-177.500000
 21
-109.134003
  0
LINE
  8
0
  6
CONTINUOUS
 62
7
 10
-186.500000
 20
-108.500000
 11
-177.500000
 21
-108.500000
  0
LINE
  8
0
  6
CONTINUOUS
 62
7
 10
-186.500000
 20
-108.500000
 11
-186.500000
 21
-109.134003
  0
LINE
  8
0
  6
CONTINUOUS
 62
7
 10
-170.500000
 20
-123.000000
 11
-193.500000
 21
-123.000000
  0
LINE
  8
0
  6
CONTINUOUS
 62
7
 10
-170.500000
 20
-113.199997
 11
-170.500000
 21
-123.000000
  0
LINE
  8
0
  6
CONTINUOUS
 62
7
 10
-193.500000
 20
-113.199997
 11
-193.500000
 21
-123.000000
  0
LINE
  8
0
  6
CONTINUOUS
 62
7
 10
-193.500000
 20
-113.199997
 11
-186.500000
 21
-113.199997
  0
LINE
  8
0
  6
CENTER
 62
2
 10
-175.500000
 20
-116.500000
 11
-188.500000
 21
-116.500000
  0
LINE
  8
0
  6
CONTINUOUS
 62
7
 10
-170.500000
 20
-113.199997
 11
-177.500000
 21
-113.199997
  0
LINE
  8
0
  6
CONTINUOUS
 62
7
 10
-192.000000
 20
-104.000000
 11
-192.000000
 21
-111.800003
  0
LINE
  8
0
  6
CENTER
 62
2
 10
-174.000000
 20
-121.000000
 11
-174.000000
 21
-125.000000
  0
LINE
  8
0
  6
CENTER
 62
2
 10
-190.000000
 20
-121.000000
 11
-190.000000
 21
-125.000000
  0
LINE
  8
0
  6
CENTER
 62
2
 10
-189.500000
 20
-102.000000
 11
-189.500000
 21
-106.000000
  0
LINE
  8
0
  6
CENTER
 62
2
 10
-174.500000
 20
-102.000000
 11
-174.500000
 21
-106.000000
  0
LINE
  8
0
  6
CENTER
 62
2
 10
-74.000000
 20
-103.513000
 11
-74.000000
 21
-124.005997
  0
LINE
  8
0
  6
CONTINUOUS
 62
7
 10
-69.500000
 20
-110.865997
 11
-69.500000
 21
-113.199997
  0
LINE
  8
0
  6
CONTINUOUS
 62
7
 10
-78.500000
 20
-110.865997
 11
-78.500000
 21
-113.199997
  0
LINE
  8
0
  6
CONTINUOUS
 62
7
 10
-64.000000
 20
-104.000000
 11
-68.500000
 21
-104.000000
  0
LINE
  8
0
  6
CONTINUOUS
 62
7
 10
-64.000000
 20
-104.000000
 11
-64.000000
 21
-111.800003
  0
LINE
  8
0
  6
CONTINUOUS
 62
7
 10
-64.000000
 20
-111.800003
 11
-69.500000
 21
-111.800003
  0
LINE
  8
0
  6
CONTINUOUS
 62
7
 10
-68.800003
 20
-104.300003
 11
-79.199997
 21
-104.300003
  0
LINE
  8
0
  6
CONTINUOUS
 62
7
 10
-78.500000
 20
-111.800003
 11
-84.000000
 21
-111.800003
  0
LINE
  8
0
  6
CONTINUOUS
 62
7
 10
-79.200104
 20
-104.300003
 11
-79.500099
 21
-104.000000
  0
LINE
  8
0
  6
CONTINUOUS
 62
7
 10
-68.799896
 20
-104.300003
 11
-68.500000
 21
-104.000000
  0
LINE
  8
0
  6
CONTINUOUS
 62
7
 10
-79.500000
 20
-104.000000
 11
-84.000000
 21
-104.000000
  0
LINE
  8
0
  6
CONTINUOUS
 62
7
 10
-69.500000
 20
-108.500000
 11
-69.500000
 21
-109.134003
  0
LINE
  8
0
  6
CONTINUOUS
 62
7
 10
-78.500000
 20
-108.500000
 11
-69.500000
 21
-108.500000
  0
LINE
  8
0
  6
CONTINUOUS
 62
7
 10
-78.500000
 20
-108.500000
 11
-78.500000
 21
-109.134003
  0
LINE
  8
0
  6
CONTINUOUS
 62
7
 10
-62.500000
 20
-123.000000
 11
-85.500000
 21
-123.000000
  0
LINE
  8
0
  6
CONTINUOUS
 62
7
 10
-62.500000
 20
-113.199997
 11
-62.500000
 21
-123.000000
  0
LINE
  8
0
  6
CONTINUOUS
 62
7
 10
-85.500000
 20
-113.199997
 11
-85.500000
 21
-123.000000
  0
LINE
  8
0
  6
CONTINUOUS
 62
7
 10
-85.500000
 20
-113.199997
 11
-78.500000
 21
-113.199997
  0
LINE
  8
0
  6
CENTER
 62
2
 10
-67.500000
 20
-116.500000
 11
-80.500000
 21
-116.500000
  0
LINE
  8
0
  6
CONTINUOUS
 62
7
 10
-62.500000
 20
-113.199997
 11
-69.500000
 21
-113.199997
  0
LINE
  8
0
  6
CONTINUOUS
 62
7
 10
-84.000000
 20
-104.000000
 11
-84.000000
 21
-111.800003
  0
LINE
  8
0
  6
CENTER
 62
2
 10
-66.000000
 20
-121.000000
 11
-66.000000
 21
-125.000000
  0
LINE
  8
0
  6
CENTER
 62
2
 10
-82.000000
 20
-121.000000
 11
-82.000000
 21
-125.000000
  0
LINE
  8
0
  6
CENTER
 62
2
 10
-81.500000
 20
-102.000000
 11
-81.500000
 21
-106.000000
  0
LINE
  8
0
  6
CENTER
 62
2
 10
-66.500000
 20
-102.000000
 11
-66.500000
 21
-106.000000
  0
LINE
  8
0
  6
CENTER
 62
2
 10
-130.500000
 20
-42.000000
 11
-130.500000
 21
-46.000000
  0
LINE
  8
0
  6
CENTER
 62
2
 10
-115.500000
 20
-42.000000
 11
-115.500000
 21
-46.000000
  0
LINE
  8
0
  6
CENTER
 62
2
 10
-130.500000
 20
-102.000000
 11
-130.500000
 21
-106.000000
  0
LINE
  8
0
  6
CENTER
 62
2
 10
-115.500000
 20
-102.000000
 11
-115.500000
 21
-106.000000
  0
LINE
  8
0
  6
CONTINUOUS
 62
7
 10
193.000000
 20
-166.000000
 11
103.000000
 21
-166.000000
  0
LINE
  8
0
  6
CONTINUOUS
 62
7
 10
103.000000
 20
-166.000000
 11
103.000000
 21
-143.000000
  0
LINE
  8
0
  6
CONTINUOUS
 62
7
 10
193.000000
 20
-143.000000
 11
103.000000
 21
-143.000000
  0
LINE
  8
0
  6
CONTINUOUS
 62
7
 10
193.000000
 20
-166.000000
 11
193.000000
 21
-143.000000
  0
LINE
  8
0
  6
CENTER
 62
2
 10
194.598999
 20
-154.500000
 11
100.370003
 21
-154.500000
  0
LINE
  8
0
  6
CENTER
 62
2
 10
118.000000
 20
-157.500000
 11
118.000000
 21
-167.500000
  0
LINE
  8
0
  6
CENTER
 62
2
 10
123.000000
 20
-162.500000
 11
113.000000
 21
-162.500000
  0
LINE
  8
0
  6
CENTER
 62
2
 10
118.000000
 20
-151.500000
 11
118.000000
 21
-141.500000
  0
LINE
  8
0
  6
CENTER
 62
2
 10
123.000000
 20
-146.500000
 11
113.000000
 21
-146.500000
  0
LINE
  8
0
  6
CENTER
 62
2
 10
178.000000
 20
-167.500000
 11
178.000000
 21
-157.500000
  0
LINE
  8
0
  6
CENTER
 62
2
 10
183.000000
 20
-162.500000
 11
173.000000
 21
-162.500000
  0
LINE
  8
0
  6
CENTER
 62
2
 10
178.000000
 20
-141.500000
 11
178.000000
 21
-151.500000
  0
LINE
  8
0
  6
CENTER
 62
2
 10
183.000000
 20
-146.500000
 11
173.000000
 21
-146.500000
  0
LINE
  8
0
  6
CENTER
 62
2
 10
110.000000
 20
-145.100006
 11
110.000000
 21
-159.899994
  0
LINE
  8
0
  6
CENTER
 62
2
 10
102.599998
 20
-152.500000
 11
117.400002
 21
-152.500000
  0
LINE
  8
0
  6
CENTER
 62
2
 10
186.000000
 20
-145.100006
 11
186.000000
 21
-159.899994
  0
LINE
  8
0
  6
CENTER
 62
2
 10
193.399994
 20
-152.500000
 11
178.600006
 21
-152.500000
  0
LINE
  8
0
  6
CONTINUOUS
 62
7
 10
174.899994
 20
-104.000000
 11
141.100006
 21
-104.000000
  0
LINE
  8
0
  6
CONTINUOUS
 62
7
 10
180.500000
 20
-104.300003
 11
174.899994
 21
-104.300003
  0
LINE
  8
0
  6
CONTINUOUS
 62
7
 10
180.500000
 20
-111.800003
 11
135.500000
 21
-111.800003
  0
LINE
  8
0
  6
CONTINUOUS
 62
7
 10
180.500000
 20
-104.300003
 11
180.500000
 21
-111.800003
  0
LINE
  8
0
  6
CONTINUOUS
 62
7
 10
141.100006
 20
-104.300003
 11
135.500000
 21
-104.300003
  0
LINE
  8
0
  6
CONTINUOUS
 62
7
 10
135.500000
 20
-111.800003
 11
135.500000
 21
-104.300003
  0
LINE
  8
0
  6
CONTINUOUS
 62
7
 10
193.000000
 20
-108.500000
 11
180.500000
 21
-108.500000
  0
LINE
  8
0
  6
CONTINUOUS
 62
7
 10
135.500000
 20
-108.500000
 11
103.000000
 21
-108.500000
  0
LINE
  8
0
  6
CONTINUOUS
 62
7
 10
103.000000
 20
-108.500000
 11
103.000000
 21
-123.000000
  0
LINE
  8
0
  6
CONTINUOUS
 62
7
 10
193.000000
 20
-108.500000
 11
193.000000
 21
-123.000000
  0
LINE
  8
0
  6
CONTINUOUS
 62
7
 10
193.000000
 20
-123.000000
 11
103.000000
 21
-123.000000
  0
LINE
  8
0
  6
CONTINUOUS
 62
7
 10
103.000000
 20
-113.199997
 11
112.153000
 21
-113.199997
  0
LINE
  8
0
  6
CONTINUOUS
 62
7
 10
174.899994
 20
-104.000000
 11
174.899994
 21
-111.800003
  0
LINE
  8
0
  6
CONTINUOUS
 62
7
 10
141.100006
 20
-104.000000
 11
141.100006
 21
-111.800003
  0
LINE
  8
0
  6
CONTINUOUS
 62
7
 10
181.751007
 20
-116.500000
 11
168.000000
 21
-116.500000
  0
LINE
  8
0
  6
CONTINUOUS
 62
7
 10
193.000000
 20
-113.199997
 11
183.847000
 21
-113.199997
  0
LINE
  8
0
  6
CENTER
 62
2
 10
124.500000
 20
-119.500000
 11
131.500000
 21
-119.500000
  0
LINE
  8
0
  6
CENTER
 62
2
 10
128.000000
 20
-123.000000
 11
128.000000
 21
-116.000000
  0
LINE
  8
0
  6
CENTER
 62
2
 10
164.500000
 20
-119.500000
 11
171.500000
 21
-119.500000
  0
LINE
  8
0
  6
CENTER
 62
2
 10
168.000000
 20
-123.000000
 11
168.000000
 21
-116.000000
  0
LINE
  8
0
  6
CONTINUOUS
 62
7
 10
129.658005
 20
-117.000000
 11
166.341995
 21
-117.000000
  0
LINE
  8
0
  6
CONTINUOUS
 62
7
 10
114.249001
 20
-116.500000
 11
128.000000
 21
-116.500000
  0
LINE
  8
0
  6
CENTER
 62
2
 10
153.199997
 20
-42.450001
 11
153.199997
 21
-38.950001
  0
LINE
  8
0
  6
CENTER
 62
2
 10
151.449997
 20
-40.700001
 11
154.949997
 21
-40.700001
  0
LINE
  8
0
  6
CENTER
 62
2
 10
162.800003
 20
-42.450001
 11
162.800003
 21
-38.950001
  0
LINE
  8
0
  6
CENTER
 62
2
 10
161.050003
 20
-40.700001
 11
164.550003
 21
-40.700001
  0
LINE
  8
0
  6
CENTER
 62
2
 10
195.042999
 20
-74.000000
 11
99.855202
 21
-74.000000
  0
LINE
  8
0
  6
CONTINUOUS
 62
7
 10
193.000000
 20
-62.500000
 11
193.000000
 21
-85.500000
  0
LINE
  8
0
  6
CONTINUOUS
 62
7
 10
193.000000
 20
-78.500000
 11
180.500000
 21
-78.500000
  0
LINE
  8
0
  6
CENTER
 62
2
 10
178.000000
 20
-87.000000
 11
178.000000
 21
-77.000000
  0
LINE
  8
0
  6
CENTER
 62
2
 10
183.000000
 20
-82.000000
 11
173.000000
 21
-82.000000
  0
LINE
  8
0
  6
CONTINUOUS
 62
7
 10
174.899994
 20
-84.000000
 11
141.100006
 21
-84.000000
  0
LINE
  8
0
  6
CONTINUOUS
 62
7
 10
174.899994
 20
-69.000000
 11
141.100006
 21
-69.000000
  0
LINE
  8
0
  6
CONTINUOUS
 62
7
 10
174.899994
 20
-79.000000
 11
141.100006
 21
-79.000000
  0
LINE
  8
0
  6
CONTINUOUS
 62
7
 10
141.100006
 20
-83.699997
 11
135.500000
 21
-83.699997
  0
LINE
  8
0
  6
CENTER
 62
2
 10
153.500000
 20
-66.500000
 11
146.600006
 21
-66.500000
  0
LINE
  8
0
  6
CENTER
 62
2
 10
153.500000
 20
-81.500000
 11
146.600006
 21
-81.500000
  0
LINE
  8
0
  6
CENTER
 62
2
 10
150.000000
 20
-85.000000
 11
150.000000
 21
-78.000000
  0
LINE
  8
0
  6
CENTER
 62
2
 10
162.500000
 20
-81.500000
 11
168.891006
 21
-81.500000
  0
LINE
  8
0
  6
CENTER
 62
2
 10
166.000000
 20
-85.000000
 11
166.000000
 21
-78.000000
  0
LINE
  8
0
  6
CENTER
 62
2
 10
150.000000
 20
-63.000000
 11
150.000000
 21
-70.000000
  0
LINE
  8
0
  6
CONTINUOUS
 62
7
 10
141.100006
 20
-84.000000
 11
141.100006
 21
-64.000000
  0
LINE
  8
0
  6
CENTER
 62
2
 10
162.488007
 20
-66.500000
 11
168.932999
 21
-66.500000
  0
LINE
  8
0
  6
CENTER
 62
2
 10
166.000000
 20
-63.000000
 11
166.000000
 21
-70.000000
  0
LINE
  8
0
  6
CONTINUOUS
 62
7
 10
174.899994
 20
-64.000000
 11
141.100006
 21
-64.000000
  0
LINE
  8
0
  6
CONTINUOUS
 62
7
 10
141.100006
 20
-64.300003
 11
135.500000
 21
-64.300003
  0
LINE
  8
0
  6
CONTINUOUS
 62
7
 10
135.500000
 20
-83.699997
 11
135.500000
 21
-64.300003
  0
LINE
  8
0
  6
CONTINUOUS
 62
7
 10
180.500000
 20
-83.699997
 11
174.899994
 21
-83.699997
  0
LINE
  8
0
  6
CONTINUOUS
 62
7
 10
180.500000
 20
-64.300003
 11
174.899994
 21
-64.300003
  0
LINE
  8
0
  6
CONTINUOUS
 62
7
 10
174.899994
 20
-84.000000
 11
174.899994
 21
-64.000000
  0
LINE
  8
0
  6
CONTINUOUS
 62
7
 10
180.500000
 20
-64.300003
 11
180.500000
 21
-83.699997
  0
LINE
  8
0
  6
CONTINUOUS
 62
7
 10
193.000000
 20
-85.500000
 11
103.000000
 21
-85.500000
  0
LINE
  8
0
  6
CONTINUOUS
 62
7
 10
193.000000
 20
-62.500000
 11
103.000000
 21
-62.500000
  0
LINE
  8
0
  6
CONTINUOUS
 62
7
 10
193.000000
 20
-69.500000
 11
180.500000
 21
-69.500000
  0
LINE
  8
0
  6
CENTER
 62
2
 10
178.000000
 20
-61.000000
 11
178.000000
 21
-71.000000
  0
LINE
  8
0
  6
CENTER
 62
2
 10
183.000000
 20
-66.000000
 11
173.000000
 21
-66.000000
  0
LINE
  8
0
  6
CONTINUOUS
 62
7
 10
103.000000
 20
-78.500000
 11
135.500000
 21
-78.500000
  0
LINE
  8
0
  6
CENTER
 62
2
 10
118.000000
 20
-87.000000
 11
118.000000
 21
-77.000000
  0
LINE
  8
0
  6
CENTER
 62
2
 10
113.000000
 20
-82.000000
 11
123.000000
 21
-82.000000
  0
LINE
  8
0
  6
CONTINUOUS
 62
7
 10
103.000000
 20
-62.500000
 11
103.000000
 21
-85.500000
  0
LINE
  8
0
  6
CONTINUOUS
 62
7
 10
103.000000
 20
-69.500000
 11
135.500000
 21
-69.500000
  0
LINE
  8
0
  6
CENTER
 62
2
 10
118.000000
 20
-61.000000
 11
118.000000
 21
-71.000000
  0
LINE
  8
0
  6
CENTER
 62
2
 10
113.000000
 20
-66.000000
 11
123.000000
 21
-66.000000
  0
LINE
  8
0
  6
CONTINUOUS
 62
7
 10
174.899994
 20
-44.000000
 11
141.100006
 21
-44.000000
  0
LINE
  8
0
  6
CONTINUOUS
 62
7
 10
180.500000
 20
-43.700001
 11
174.899994
 21
-43.700001
  0
LINE
  8
0
  6
CONTINUOUS
 62
7
 10
180.500000
 20
-36.200001
 11
135.500000
 21
-36.200001
  0
LINE
  8
0
  6
CONTINUOUS
 62
7
 10
180.500000
 20
-43.700001
 11
180.500000
 21
-36.200001
  0
LINE
  8
0
  6
CONTINUOUS
 62
7
 10
141.100006
 20
-43.700001
 11
135.500000
 21
-43.700001
  0
LINE
  8
0
  6
CONTINUOUS
 62
7
 10
135.500000
 20
-36.200001
 11
135.500000
 21
-43.700001
  0
LINE
  8
0
  6
CONTINUOUS
 62
7
 10
193.000000
 20
-39.500000
 11
180.500000
 21
-39.500000
  0
LINE
  8
0
  6
CONTINUOUS
 62
7
 10
135.500000
 20
-39.500000
 11
103.000000
 21
-39.500000
  0
LINE
  8
0
  6
CONTINUOUS
 62
7
 10
103.000000
 20
-39.500000
 11
103.000000
 21
-25.000000
  0
LINE
  8
0
  6
CONTINUOUS
 62
7
 10
193.000000
 20
-39.500000
 11
193.000000
 21
-25.000000
  0
LINE
  8
0
  6
CONTINUOUS
 62
7
 10
193.000000
 20
-25.000000
 11
103.000000
 21
-25.000000
  0
LINE
  8
0
  6
CONTINUOUS
 62
7
 10
103.000000
 20
-34.799999
 11
112.153000
 21
-34.799999
  0
LINE
  8
0
  6
CONTINUOUS
 62
7
 10
174.899994
 20
-44.000000
 11
174.899994
 21
-36.200001
  0
LINE
  8
0
  6
CONTINUOUS
 62
7
 10
141.100006
 20
-44.000000
 11
141.100006
 21
-36.200001
  0
LINE
  8
0
  6
CENTER
 62
2
 10
151.250000
 20
-107.000000
 11
158.250000
 21
-107.000000
  0
LINE
  8
0
  6
CENTER
 62
2
 10
154.750000
 20
-110.500000
 11
154.750000
 21
-103.500000
  0
LINE
  8
0
  6
CENTER
 62
2
 10
157.750000
 20
-107.000000
 11
164.750000
 21
-107.000000
  0
LINE
  8
0
  6
CENTER
 62
2
 10
161.250000
 20
-110.500000
 11
161.250000
 21
-103.500000
  0
LINE
  8
0
  6
CONTINUOUS
 62
7
 10
114.249001
 20
-31.500000
 11
128.000000
 21
-31.500000
  0
LINE
  8
0
  6
CENTER
 62
2
 10
124.500000
 20
-28.500000
 11
131.500000
 21
-28.500000
  0
LINE
  8
0
  6
CENTER
 62
2
 10
128.000000
 20
-25.000000
 11
128.000000
 21
-32.000000
  0
LINE
  8
0
  6
CONTINUOUS
 62
7
 10
129.802994
 20
-31.000000
 11
166.197006
 21
-31.000000
  0
LINE
  8
0
  6
CENTER
 62
2
 10
109.000000
 20
-29.500000
 11
116.000000
 21
-29.500000
  0
LINE
  8
0
  6
CONTINUOUS
 62
7
 10
181.751007
 20
-31.500000
 11
168.000000
 21
-31.500000
  0
LINE
  8
0
  6
CENTER
 62
2
 10
112.000000
 20
-26.000000
 11
112.000000
 21
-33.000000
  0
LINE
  8
0
  6
CENTER
 62
2
 10
165.000000
 20
-28.500000
 11
172.000000
 21
-28.500000
  0
LINE
  8
0
  6
CENTER
 62
2
 10
168.000000
 20
-25.000000
 11
168.000000
 21
-32.000000
  0
LINE
  8
0
  6
CENTER
 62
2
 10
181.000000
 20
-29.500000
 11
188.000000
 21
-29.500000
  0
LINE
  8
0
  6
CENTER
 62
2
 10
184.000000
 20
-26.000000
 11
184.000000
 21
-33.000000
  0
LINE
  8
0
  6
CONTINUOUS
 62
7
 10
183.847000
 20
-34.799999
 11
193.000000
 21
-34.799999
  0
LINE
  8
0
  6
DASHED
 62
2
 10
121.000000
 20
-118.000000
 11
115.000000
 21
-118.000000
  0
LINE
  8
0
  6
CENTER
 62
2
 10
118.000000
 20
-114.500000
 11
118.000000
 21
-125.000000
  0
LINE
  8
0
  6
DASHED
 62
2
 10
121.000000
 20
-116.500000
 11
121.000000
 21
-118.000000
  0
LINE
  8
0
  6
DASHED
 62
2
 10
115.000000
 20
-116.500000
 11
115.000000
 21
-118.000000
  0
LINE
  8
0
  6
DASHED
 62
2
 10
116.250000
 20
-118.000000
 11
116.250000
 21
-123.000000
  0
LINE
  8
0
  6
DASHED
 62
2
 10
119.750000
 20
-118.000000
 11
119.750000
 21
-123.000000
  0
LINE
  8
0
  6
DASHED
 62
2
 10
116.000000
 20
-118.000000
 11
116.000000
 21
-123.000000
  0
LINE
  8
0
  6
DASHED
 62
2
 10
120.000000
 20
-118.000000
 11
120.000000
 21
-123.000000
  0
LINE
  8
0
  6
DASHED
 62
2
 10
181.000000
 20
-118.000000
 11
175.000000
 21
-118.000000
  0
LINE
  8
0
  6
CENTER
 62
2
 10
178.000000
 20
-114.500000
 11
178.000000
 21
-125.000000
  0
LINE
  8
0
  6
DASHED
 62
2
 10
181.000000
 20
-116.500000
 11
181.000000
 21
-118.000000
  0
LINE
  8
0
  6
DASHED
 62
2
 10
175.000000
 20
-116.500000
 11
175.000000
 21
-118.000000
  0
LINE
  8
0
  6
DASHED
 62
2
 10
176.250000
 20
-118.000000
 11
176.250000
 21
-123.000000
  0
LINE
  8
0
  6
DASHED
 62
2
 10
179.750000
 20
-118.000000
 11
179.750000
 21
-123.000000
  0
LINE
  8
0
  6
DASHED
 62
2
 10
176.000000
 20
-118.000000
 11
176.000000
 21
-123.000000
  0
LINE
  8
0
  6
DASHED
 62
2
 10
180.000000
 20
-118.000000
 11
180.000000
 21
-123.000000
  0
LINE
  8
0
  6
CENTER
 62
2
 10
150.000000
 20
-102.000000
 11
150.000000
 21
-106.000000
  0
LINE
  8
0
  6
CENTER
 62
2
 10
166.000000
 20
-102.000000
 11
166.000000
 21
-106.000000
  0
LINE
  8
0
  6
CENTER
 62
2
 10
150.000000
 20
-42.000000
 11
150.000000
 21
-46.000000
  0
LINE
  8
0
  6
CENTER
 62
2
 10
166.000000
 20
-42.000000
 11
166.000000
 21
-46.000000
  0
LINE
  8
0
  6
DASHED
 62
2
 10
176.000000
 20
-30.000000
 11
176.000000
 21
-25.000000
  0
LINE
  8
0
  6
DASHED
 62
2
 10
121.000000
 20
-30.000000
 11
115.000000
 21
-30.000000
  0
LINE
  8
0
  6
CENTER
 62
2
 10
118.000000
 20
-33.500000
 11
118.000000
 21
-23.000000
  0
LINE
  8
0
  6
DASHED
 62
2
 10
121.000000
 20
-31.500000
 11
121.000000
 21
-30.000000
  0
LINE
  8
0
  6
DASHED
 62
2
 10
115.000000
 20
-31.500000
 11
115.000000
 21
-30.000000
  0
LINE
  8
0
  6
DASHED
 62
2
 10
116.250000
 20
-30.000000
 11
116.250000
 21
-25.000000
  0
LINE
  8
0
  6
DASHED
 62
2
 10
119.750000
 20
-30.000000
 11
119.750000
 21
-25.000000
  0
LINE
  8
0
  6
DASHED
 62
2
 10
116.000000
 20
-30.000000
 11
116.000000
 21
-25.000000
  0
LINE
  8
0
  6
DASHED
 62
2
 10
120.000000
 20
-30.000000
 11
120.000000
 21
-25.000000
  0
LINE
  8
0
  6
DASHED
 62
2
 10
179.750000
 20
-30.000000
 11
179.750000
 21
-25.000000
  0
LINE
  8
0
  6
DASHED
 62
2
 10
180.000000
 20
-30.000000
 11
180.000000
 21
-25.000000
  0
LINE
  8
0
  6
DASHED
 62
2
 10
181.000000
 20
-30.000000
 11
175.000000
 21
-30.000000
  0
LINE
  8
0
  6
CENTER
 62
2
 10
178.000000
 20
-33.500000
 11
178.000000
 21
-23.000000
  0
LINE
  8
0
  6
DASHED
 62
2
 10
181.000000
 20
-31.500000
 11
181.000000
 21
-30.000000
  0
LINE
  8
0
  6
DASHED
 62
2
 10
175.000000
 20
-31.500000
 11
175.000000
 21
-30.000000
  0
LINE
  8
0
  6
DASHED
 62
2
 10
176.250000
 20
-30.000000
 11
176.250000
 21
-25.000000
  0
LINE
  8
0
  6
CENTER
 62
2
 10
79.000000
 20
72.486801
 11
79.000000
 21
51.993599
  0
LINE
  8
0
  6
CONTINUOUS
 62
7
 10
83.500000
 20
65.134003
 11
83.500000
 21
62.799999
  0
LINE
  8
0
  6
CONTINUOUS
 62
7
 10
74.500000
 20
65.134003
 11
74.500000
 21
62.799999
  0
LINE
  8
0
  6
CONTINUOUS
 62
7
 10
89.000000
 20
72.000000
 11
84.500000
 21
72.000000
  0
LINE
  8
0
  6
CONTINUOUS
 62
7
 10
89.000000
 20
72.000000
 11
89.000000
 21
64.199997
  0
LINE
  8
0
  6
CONTINUOUS
 62
7
 10
89.000000
 20
64.199997
 11
83.500000
 21
64.199997
  0
LINE
  8
0
  6
CONTINUOUS
 62
7
 10
84.199997
 20
71.699997
 11
73.800003
 21
71.699997
  0
LINE
  8
0
  6
CONTINUOUS
 62
7
 10
74.500000
 20
64.199997
 11
69.000000
 21
64.199997
  0
LINE
  8
0
  6
CONTINUOUS
 62
7
 10
73.800003
 20
71.699997
 11
73.500000
 21
72.000000
  0
LINE
  8
0
  6
CONTINUOUS
 62
7
 10
84.199997
 20
71.699997
 11
84.500000
 21
72.000000
  0
LINE
  8
0
  6
CONTINUOUS
 62
7
 10
73.500000
 20
72.000000
 11
69.000000
 21
72.000000
  0
LINE
  8
0
  6
CONTINUOUS
 62
7
 10
83.500000
 20
67.500000
 11
83.500000
 21
66.865997
  0
LINE
  8
0
  6
CONTINUOUS
 62
7
 10
74.500000
 20
67.500000
 11
83.500000
 21
67.500000
  0
LINE
  8
0
  6
CONTINUOUS
 62
7
 10
74.500000
 20
67.500000
 11
74.500000
 21
66.865997
  0
LINE
  8
0
  6
CONTINUOUS
 62
7
 10
90.500000
 20
53.000000
 11
67.500000
 21
53.000000
  0
LINE
  8
0
  6
CONTINUOUS
 62
7
 10
90.500000
 20
62.799999
 11
90.500000
 21
53.000000
  0
LINE
  8
0
  6
CONTINUOUS
 62
7
 10
67.500000
 20
62.799999
 11
67.500000
 21
53.000000
  0
LINE
  8
0
  6
CONTINUOUS
 62
7
 10
67.500000
 20
62.799999
 11
74.500000
 21
62.799999
  0
LINE
  8
0
  6
CENTER
 62
2
 10
85.500000
 20
59.500000
 11
72.500000
 21
59.500000
  0
LINE
  8
0
  6
CONTINUOUS
 62
7
 10
90.500000
 20
62.799999
 11
83.500000
 21
62.799999
  0
LINE
  8
0
  6
CONTINUOUS
 62
7
 10
69.000000
 20
72.000000
 11
69.000000
 21
64.199997
  0
LINE
  8
0
  6
CENTER
 62
2
 10
87.000000
 20
55.000000
 11
87.000000
 21
51.000000
  0
LINE
  8
0
  6
CENTER
 62
2
 10
71.000000
 20
55.000000
 11
71.000000
 21
51.000000
  0
LINE
  8
0
  6
CENTER
 62
2
 10
71.500000
 20
74.000000
 11
71.500000
 21
70.000000
  0
LINE
  8
0
  6
CENTER
 62
2
 10
86.500000
 20
74.000000
 11
86.500000
 21
70.000000
  0
LINE
  8
0
  6
CENTER
 62
2
 10
217.000000
 20
72.486801
 11
217.000000
 21
51.993599
  0
LINE
  8
0
  6
CONTINUOUS
 62
7
 10
221.500000
 20
65.134003
 11
221.500000
 21
62.799999
  0
LINE
  8
0
  6
CONTINUOUS
 62
7
 10
212.500000
 20
65.134003
 11
212.500000
 21
62.799999
  0
LINE
  8
0
  6
CONTINUOUS
 62
7
 10
227.000000
 20
72.000000
 11
222.500000
 21
72.000000
  0
LINE
  8
0
  6
CONTINUOUS
 62
7
 10
227.000000
 20
72.000000
 11
227.000000
 21
64.199997
  0
LINE
  8
0
  6
CONTINUOUS
 62
7
 10
227.000000
 20
64.199997
 11
221.500000
 21
64.199997
  0
LINE
  8
0
  6
CONTINUOUS
 62
7
 10
222.199997
 20
71.699997
 11
211.800003
 21
71.699997
  0
LINE
  8
0
  6
CONTINUOUS
 62
7
 10
212.500000
 20
64.199997
 11
207.000000
 21
64.199997
  0
LINE
  8
0
  6
CONTINUOUS
 62
7
 10
211.800003
 20
71.700104
 11
211.500000
 21
72.000099
  0
LINE
  8
0
  6
CONTINUOUS
 62
7
 10
222.199997
 20
71.699997
 11
222.500000
 21
72.000000
  0
LINE
  8
0
  6
CONTINUOUS
 62
7
 10
211.500000
 20
72.000000
 11
207.000000
 21
72.000000
  0
LINE
  8
0
  6
CONTINUOUS
 62
7
 10
221.500000
 20
67.500000
 11
221.500000
 21
66.865997
  0
LINE
  8
0
  6
CONTINUOUS
 62
7
 10
212.500000
 20
67.500000
 11
221.500000
 21
67.500000
  0
LINE
  8
0
  6
CONTINUOUS
 62
7
 10
212.500000
 20
67.500000
 11
212.500000
 21
66.865997
  0
LINE
  8
0
  6
CONTINUOUS
 62
7
 10
228.500000
 20
53.000000
 11
205.500000
 21
53.000000
  0
LINE
  8
0
  6
CONTINUOUS
 62
7
 10
228.500000
 20
62.799999
 11
228.500000
 21
53.000000
  0
LINE
  8
0
  6
CONTINUOUS
 62
7
 10
205.500000
 20
62.799999
 11
205.500000
 21
53.000000
  0
LINE
  8
0
  6
CONTINUOUS
 62
7
 10
205.500000
 20
62.799999
 11
212.500000
 21
62.799999
  0
LINE
  8
0
  6
CENTER
 62
2
 10
223.500000
 20
59.500000
 11
210.500000
 21
59.500000
  0
LINE
  8
0
  6
CONTINUOUS
 62
7
 10
228.500000
 20
62.799999
 11
221.500000
 21
62.799999
  0
LINE
  8
0
  6
CONTINUOUS
 62
7
 10
207.000000
 20
72.000000
 11
207.000000
 21
64.199997
  0
LINE
  8
0
  6
CENTER
 62
2
 10
225.000000
 20
55.000000
 11
225.000000
 21
51.000000
  0
LINE
  8
0
  6
CENTER
 62
2
 10
209.000000
 20
55.000000
 11
209.000000
 21
51.000000
  0
LINE
  8
0
  6
CENTER
 62
2
 10
209.500000
 20
74.000000
 11
209.500000
 21
70.000000
  0
LINE
  8
0
  6
CENTER
 62
2
 10
224.500000
 20
74.000000
 11
224.500000
 21
70.000000
  0
LINE
  8
0
  6
CONTINUOUS
 62
7
 10
-113.099998
 20
72.000000
 11
-132.899994
 21
72.000000
  0
LINE
  8
0
  6
CONTINUOUS
 62
7
 10
-107.500000
 20
71.699997
 11
-113.099998
 21
71.699997
  0
LINE
  8
0
  6
CONTINUOUS
 62
7
 10
-107.500000
 20
64.199997
 11
-138.500000
 21
64.199997
  0
LINE
  8
0
  6
CONTINUOUS
 62
7
 10
-107.500000
 20
71.699997
 11
-107.500000
 21
64.199997
  0
LINE
  8
0
  6
CONTINUOUS
 62
7
 10
-132.899994
 20
71.699997
 11
-138.500000
 21
71.699997
  0
LINE
  8
0
  6
CONTINUOUS
 62
7
 10
-138.500000
 20
64.199997
 11
-138.500000
 21
71.699997
  0
LINE
  8
0
  6
CONTINUOUS
 62
7
 10
-98.000000
 20
67.500000
 11
-107.500000
 21
67.500000
  0
LINE
  8
0
  6
CONTINUOUS
 62
7
 10
-138.500000
 20
67.500000
 11
-158.000000
 21
67.500000
  0
LINE
  8
0
  6
CONTINUOUS
 62
7
 10
-158.000000
 20
67.500000
 11
-158.000000
 21
53.000000
  0
LINE
  8
0
  6
CONTINUOUS
 62
7
 10
-98.000000
 20
67.500000
 11
-98.000000
 21
53.000000
  0
LINE
  8
0
  6
CONTINUOUS
 62
7
 10
-98.000000
 20
53.000000
 11
-158.000000
 21
53.000000
  0
LINE
  8
0
  6
CONTINUOUS
 62
7
 10
-158.000000
 20
62.799999
 11
-149.847000
 21
62.799999
  0
LINE
  8
0
  6
CONTINUOUS
 62
7
 10
-113.099998
 20
72.000000
 11
-113.099998
 21
64.199997
  0
LINE
  8
0
  6
CONTINUOUS
 62
7
 10
-132.899994
 20
72.000000
 11
-132.899994
 21
64.199997
  0
LINE
  8
0
  6
CONTINUOUS
 62
7
 10
-108.249001
 20
59.500000
 11
-117.500000
 21
59.500000
  0
LINE
  8
0
  6
CONTINUOUS
 62
7
 10
-98.000000
 20
62.799999
 11
-106.153000
 21
62.799999
  0
LINE
  8
0
  6
CENTER
 62
2
 10
-142.000000
 20
56.500000
 11
-135.000000
 21
56.500000
  0
LINE
  8
0
  6
CENTER
 62
2
 10
-138.500000
 20
53.000000
 11
-138.500000
 21
60.000000
  0
LINE
  8
0
  6
CENTER
 62
2
 10
-121.000000
 20
56.500000
 11
-114.000000
 21
56.500000
  0
LINE
  8
0
  6
CENTER
 62
2
 10
-117.500000
 20
53.000000
 11
-117.500000
 21
60.000000
  0
LINE
  8
0
  6
CONTINUOUS
 62
7
 10
-136.841995
 20
59.000000
 11
-119.157997
 21
59.000000
  0
LINE
  8
0
  6
CONTINUOUS
 62
7
 10
-147.751007
 20
59.500000
 11
-138.500000
 21
59.500000
  0
LINE
  8
0
  6
CENTER
 62
2
 10
-127.800003
 20
70.449997
 11
-127.800003
 21
66.949997
  0
LINE
  8
0
  6
CENTER
 62
2
 10
-129.550003
 20
68.699997
 11
-126.050003
 21
68.699997
  0
LINE
  8
0
  6
CENTER
 62
2
 10
-118.199997
 20
70.449997
 11
-118.199997
 21
66.949997
  0
LINE
  8
0
  6
CENTER
 62
2
 10
-119.949997
 20
68.699997
 11
-116.449997
 21
68.699997
  0
LINE
  8
0
  6
DASHED
 62
2
 10
-109.000000
 20
59.500000
 11
-109.000000
 21
58.000000
  0
LINE
  8
0
  6
DASHED
 62
2
 10
-115.000000
 20
59.500000
 11
-115.000000
 21
58.000000
  0
LINE
  8
0
  6
DASHED
 62
2
 10
-113.750000
 20
58.000000
 11
-113.750000
 21
53.000000
  0
LINE
  8
0
  6
DASHED
 62
2
 10
-110.250000
 20
58.000000
 11
-110.250000
 21
53.000000
  0
LINE
  8
0
  6
DASHED
 62
2
 10
-114.000000
 20
58.000000
 11
-114.000000
 21
53.000000
  0
LINE
  8
0
  6
DASHED
 62
2
 10
-110.000000
 20
58.000000
 11
-110.000000
 21
53.000000
  0
LINE
  8
0
  6
DASHED
 62
2
 10
-109.000000
 20
58.000000
 11
-115.000000
 21
58.000000
  0
LINE
  8
0
  6
CENTER
 62
2
 10
-112.000000
 20
61.500000
 11
-112.000000
 21
51.000000
  0
LINE
  8
0
  6
CENTER
 62
2
 10
-144.000000
 20
61.500000
 11
-144.000000
 21
51.000000
  0
LINE
  8
0
  6
DASHED
 62
2
 10
-141.000000
 20
59.500000
 11
-141.000000
 21
58.000000
  0
LINE
  8
0
  6
DASHED
 62
2
 10
-147.000000
 20
59.500000
 11
-147.000000
 21
58.000000
  0
LINE
  8
0
  6
DASHED
 62
2
 10
-145.750000
 20
58.000000
 11
-145.750000
 21
53.000000
  0
LINE
  8
0
  6
DASHED
 62
2
 10
-142.250000
 20
58.000000
 11
-142.250000
 21
53.000000
  0
LINE
  8
0
  6
DASHED
 62
2
 10
-146.000000
 20
58.000000
 11
-146.000000
 21
53.000000
  0
LINE
  8
0
  6
DASHED
 62
2
 10
-142.000000
 20
58.000000
 11
-142.000000
 21
53.000000
  0
LINE
  8
0
  6
DASHED
 62
2
 10
-141.000000
 20
58.000000
 11
-147.000000
 21
58.000000
  0
LINE
  8
0
  6
CONTINUOUS
 62
7
 10
-113.099998
 20
92.000000
 11
-132.899994
 21
92.000000
  0
LINE
  8
0
  6
CONTINUOUS
 62
7
 10
-113.099998
 20
107.000000
 11
-132.899994
 21
107.000000
  0
LINE
  8
0
  6
CONTINUOUS
 62
7
 10
-113.099998
 20
97.000000
 11
-132.899994
 21
97.000000
  0
LINE
  8
0
  6
CONTINUOUS
 62
7
 10
-107.500000
 20
92.300003
 11
-113.099998
 21
92.300003
  0
LINE
  8
0
  6
CONTINUOUS
 62
7
 10
-132.899994
 20
92.300003
 11
-138.500000
 21
92.300003
  0
LINE
  8
0
  6
CENTER
 62
2
 10
-96.428902
 20
102.000000
 11
-160.061996
 21
102.000000
  0
LINE
  8
0
  6
CONTINUOUS
 62
7
 10
-98.000000
 20
113.500000
 11
-98.000000
 21
90.500000
  0
LINE
  8
0
  6
CONTINUOUS
 62
7
 10
-158.000000
 20
113.500000
 11
-158.000000
 21
90.500000
  0
LINE
  8
0
  6
CONTINUOUS
 62
7
 10
-98.000000
 20
90.500000
 11
-158.000000
 21
90.500000
  0
LINE
  8
0
  6
CONTINUOUS
 62
7
 10
-98.000000
 20
97.500000
 11
-107.500000
 21
97.500000
  0
LINE
  8
0
  6
CONTINUOUS
 62
7
 10
-98.000000
 20
106.500000
 11
-107.500000
 21
106.500000
  0
LINE
  8
0
  6
CONTINUOUS
 62
7
 10
-138.500000
 20
106.500000
 11
-158.000000
 21
106.500000
  0
LINE
  8
0
  6
CONTINUOUS
 62
7
 10
-138.500000
 20
97.500000
 11
-158.000000
 21
97.500000
  0
LINE
  8
0
  6
CENTER
 62
2
 10
-119.000000
 20
94.500000
 11
-112.000000
 21
94.500000
  0
LINE
  8
0
  6
CENTER
 62
2
 10
-115.500000
 20
91.000000
 11
-115.500000
 21
98.000000
  0
LINE
  8
0
  6
CONTINUOUS
 62
7
 10
-113.099998
 20
112.000000
 11
-132.899994
 21
112.000000
  0
LINE
  8
0
  6
CONTINUOUS
 62
7
 10
-107.500000
 20
111.699997
 11
-107.500000
 21
92.300003
  0
LINE
  8
0
  6
CONTINUOUS
 62
7
 10
-107.500000
 20
111.699997
 11
-113.099998
 21
111.699997
  0
LINE
  8
0
  6
CONTINUOUS
 62
7
 10
-132.899994
 20
111.699997
 11
-138.500000
 21
111.699997
  0
LINE
  8
0
  6
CONTINUOUS
 62
7
 10
-113.099998
 20
92.000000
 11
-113.099998
 21
112.000000
  0
LINE
  8
0
  6
CONTINUOUS
 62
7
 10
-132.899994
 20
92.000000
 11
-132.899994
 21
112.000000
  0
LINE
  8
0
  6
CENTER
 62
2
 10
-134.000000
 20
94.500000
 11
-127.000000
 21
94.500000
  0
LINE
  8
0
  6
CENTER
 62
2
 10
-130.500000
 20
91.000000
 11
-130.500000
 21
98.000000
  0
LINE
  8
0
  6
CENTER
 62
2
 10
-134.000000
 20
109.500000
 11
-127.000000
 21
109.500000
  0
LINE
  8
0
  6
CENTER
 62
2
 10
-119.000000
 20
109.500000
 11
-112.000000
 21
109.500000
  0
LINE
  8
0
  6
CENTER
 62
2
 10
-115.500000
 20
113.000000
 11
-115.500000
 21
106.000000
  0
LINE
  8
0
  6
CENTER
 62
2
 10
-130.500000
 20
113.000000
 11
-130.500000
 21
106.000000
  0
LINE
  8
0
  6
CENTER
 62
2
 10
-149.000000
 20
110.000000
 11
-139.000000
 21
110.000000
  0
LINE
  8
0
  6
CENTER
 62
2
 10
-144.000000
 20
115.000000
 11
-144.000000
 21
105.000000
  0
LINE
  8
0
  6
CONTINUOUS
 62
7
 10
-98.000000
 20
113.500000
 11
-158.000000
 21
113.500000
  0
LINE
  8
0
  6
CENTER
 62
2
 10
-149.000000
 20
94.000000
 11
-139.000000
 21
94.000000
  0
LINE
  8
0
  6
CENTER
 62
2
 10
-144.000000
 20
89.000000
 11
-144.000000
 21
99.000000
  0
LINE
  8
0
  6
CENTER
 62
2
 10
-107.000000
 20
110.000000
 11
-117.000000
 21
110.000000
  0
LINE
  8
0
  6
CENTER
 62
2
 10
-112.000000
 20
115.000000
 11
-112.000000
 21
105.000000
  0
LINE
  8
0
  6
CENTER
 62
2
 10
-112.000000
 20
89.000000
 11
-112.000000
 21
99.000000
  0
LINE
  8
0
  6
CENTER
 62
2
 10
-107.000000
 20
94.000000
 11
-117.000000
 21
94.000000
  0
LINE
  8
0
  6
CONTINUOUS
 62
7
 10
-138.500000
 20
92.300003
 11
-138.500000
 21
111.699997
  0
LINE
  8
0
  6
CONTINUOUS
 62
7
 10
-98.000000
 20
10.000000
 11
-158.000000
 21
10.000000
  0
LINE
  8
0
  6
CONTINUOUS
 62
7
 10
-158.000000
 20
10.000000
 11
-158.000000
 21
33.000000
  0
LINE
  8
0
  6
CONTINUOUS
 62
7
 10
-98.000000
 20
33.000000
 11
-158.000000
 21
33.000000
  0
LINE
  8
0
  6
CONTINUOUS
 62
7
 10
-98.000000
 20
10.000000
 11
-98.000000
 21
33.000000
  0
LINE
  8
0
  6
CENTER
 62
2
 10
-96.400497
 20
21.500000
 11
-160.630005
 21
21.500000
  0
LINE
  8
0
  6
CENTER
 62
2
 10
-144.000000
 20
18.500000
 11
-144.000000
 21
8.500000
  0
LINE
  8
0
  6
CENTER
 62
2
 10
-139.000000
 20
13.500000
 11
-149.000000
 21
13.500000
  0
LINE
  8
0
  6
CENTER
 62
2
 10
-144.000000
 20
24.500000
 11
-144.000000
 21
34.500000
  0
LINE
  8
0
  6
CENTER
 62
2
 10
-139.000000
 20
29.500000
 11
-149.000000
 21
29.500000
  0
LINE
  8
0
  6
CENTER
 62
2
 10
-112.000000
 20
8.500000
 11
-112.000000
 21
18.500000
  0
LINE
  8
0
  6
CENTER
 62
2
 10
-107.000000
 20
13.500000
 11
-117.000000
 21
13.500000
  0
LINE
  8
0
  6
CENTER
 62
2
 10
-112.000000
 20
34.500000
 11
-112.000000
 21
24.500000
  0
LINE
  8
0
  6
CENTER
 62
2
 10
-107.000000
 20
29.500000
 11
-117.000000
 21
29.500000
  0
LINE
  8
0
  6
CENTER
 62
2
 10
-151.000000
 20
30.900000
 11
-151.000000
 21
16.100000
  0
LINE
  8
0
  6
CENTER
 62
2
 10
-158.399994
 20
23.500000
 11
-143.600006
 21
23.500000
  0
LINE
  8
0
  6
CENTER
 62
2
 10
-105.000000
 20
30.900000
 11
-105.000000
 21
16.100000
  0
LINE
  8
0
  6
CENTER
 62
2
 10
-97.599998
 20
23.500000
 11
-112.400002
 21
23.500000
  0
LINE
  8
0
  6
CONTINUOUS
 62
7
 10
-113.099998
 20
132.000000
 11
-132.899994
 21
132.000000
  0
LINE
  8
0
  6
CONTINUOUS
 62
7
 10
-107.500000
 20
132.300003
 11
-113.099998
 21
132.300003
  0
LINE
  8
0
  6
CONTINUOUS
 62
7
 10
-107.500000
 20
139.800003
 11
-138.500000
 21
139.800003
  0
LINE
  8
0
  6
CONTINUOUS
 62
7
 10
-107.500000
 20
132.300003
 11
-107.500000
 21
139.800003
  0
LINE
  8
0
  6
CONTINUOUS
 62
7
 10
-132.899994
 20
132.300003
 11
-138.500000
 21
132.300003
  0
LINE
  8
0
  6
CONTINUOUS
 62
7
 10
-138.500000
 20
139.800003
 11
-138.500000
 21
132.300003
  0
LINE
  8
0
  6
CONTINUOUS
 62
7
 10
-98.000000
 20
136.500000
 11
-107.500000
 21
136.500000
  0
LINE
  8
0
  6
CONTINUOUS
 62
7
 10
-138.500000
 20
136.500000
 11
-158.000000
 21
136.500000
  0
LINE
  8
0
  6
CONTINUOUS
 62
7
 10
-158.000000
 20
136.500000
 11
-158.000000
 21
151.000000
  0
LINE
  8
0
  6
CONTINUOUS
 62
7
 10
-98.000000
 20
136.500000
 11
-98.000000
 21
151.000000
  0
LINE
  8
0
  6
CONTINUOUS
 62
7
 10
-98.000000
 20
151.000000
 11
-158.000000
 21
151.000000
  0
LINE
  8
0
  6
CONTINUOUS
 62
7
 10
-158.000000
 20
141.199997
 11
-149.847000
 21
141.199997
  0
LINE
  8
0
  6
CONTINUOUS
 62
7
 10
-113.099998
 20
132.000000
 11
-113.099998
 21
139.800003
  0
LINE
  8
0
  6
CONTINUOUS
 62
7
 10
-132.899994
 20
132.000000
 11
-132.899994
 21
139.800003
  0
LINE
  8
0
  6
CENTER
 62
2
 10
-129.750000
 20
135.000000
 11
-122.750000
 21
135.000000
  0
LINE
  8
0
  6
CENTER
 62
2
 10
-126.250000
 20
138.500000
 11
-126.250000
 21
131.500000
  0
LINE
  8
0
  6
CENTER
 62
2
 10
-123.250000
 20
135.000000
 11
-116.250000
 21
135.000000
  0
LINE
  8
0
  6
CENTER
 62
2
 10
-119.750000
 20
138.500000
 11
-119.750000
 21
131.500000
  0
LINE
  8
0
  6
CONTINUOUS
 62
7
 10
-158.000000
 20
141.199997
 11
-149.847000
 21
141.199997
  0
LINE
  8
0
  6
CONTINUOUS
 62
7
 10
-147.751007
 20
144.500000
 11
-138.500000
 21
144.500000
  0
LINE
  8
0
  6
CENTER
 62
2
 10
-105.000000
 20
146.500000
 11
-98.000000
 21
146.500000
  0
LINE
  8
0
  6
CENTER
 62
2
 10
-101.500000
 20
150.000000
 11
-101.500000
 21
143.000000
  0
LINE
  8
0
  6
CONTINUOUS
 62
7
 10
-136.697006
 20
145.000000
 11
-119.303001
 21
145.000000
  0
LINE
  8
0
  6
CENTER
 62
2
 10
-121.000000
 20
147.500000
 11
-114.000000
 21
147.500000
  0
LINE
  8
0
  6
CONTINUOUS
 62
7
 10
-108.249001
 20
144.500000
 11
-117.500000
 21
144.500000
  0
LINE
  8
0
  6
CENTER
 62
2
 10
-117.500000
 20
151.000000
 11
-117.500000
 21
144.000000
  0
LINE
  8
0
  6
CONTINUOUS
 62
7
 10
-98.000000
 20
141.199997
 11
-106.153000
 21
141.199997
  0
LINE
  8
0
  6
CENTER
 62
2
 10
-142.000000
 20
147.500000
 11
-135.000000
 21
147.500000
  0
LINE
  8
0
  6
CENTER
 62
2
 10
-138.500000
 20
151.000000
 11
-138.500000
 21
144.000000
  0
LINE
  8
0
  6
CENTER
 62
2
 10
-158.000000
 20
146.500000
 11
-151.000000
 21
146.500000
  0
LINE
  8
0
  6
CENTER
 62
2
 10
-154.500000
 20
150.000000
 11
-154.500000
 21
143.000000
  0
LINE
  8
0
  6
CONTINUOUS
 62
7
 10
-106.153000
 20
141.199997
 11
-98.000000
 21
141.199997
  0
LINE
  8
0
  6
CENTER
 62
2
 10
-144.000000
 20
142.500000
 11
-144.000000
 21
153.000000
  0
LINE
  8
0
  6
DASHED
 62
2
 10
-141.000000
 20
144.500000
 11
-141.000000
 21
146.000000
  0
LINE
  8
0
  6
DASHED
 62
2
 10
-147.000000
 20
144.500000
 11
-147.000000
 21
146.000000
  0
LINE
  8
0
  6
DASHED
 62
2
 10
-145.750000
 20
146.000000
 11
-145.750000
 21
151.000000
  0
LINE
  8
0
  6
DASHED
 62
2
 10
-142.250000
 20
146.000000
 11
-142.250000
 21
151.000000
  0
LINE
  8
0
  6
DASHED
 62
2
 10
-146.000000
 20
146.000000
 11
-146.000000
 21
151.000000
  0
LINE
  8
0
  6
DASHED
 62
2
 10
-142.000000
 20
146.000000
 11
-142.000000
 21
151.000000
  0
LINE
  8
0
  6
DASHED
 62
2
 10
-141.000000
 20
146.000000
 11
-147.000000
 21
146.000000
  0
LINE
  8
0
  6
DASHED
 62
2
 10
-109.000000
 20
144.500000
 11
-109.000000
 21
146.000000
  0
LINE
  8
0
  6
DASHED
 62
2
 10
-115.000000
 20
144.500000
 11
-115.000000
 21
146.000000
  0
LINE
  8
0
  6
DASHED
 62
2
 10
-113.750000
 20
146.000000
 11
-113.750000
 21
151.000000
  0
LINE
  8
0
  6
DASHED
 62
2
 10
-110.250000
 20
146.000000
 11
-110.250000
 21
151.000000
  0
LINE
  8
0
  6
DASHED
 62
2
 10
-114.000000
 20
146.000000
 11
-114.000000
 21
151.000000
  0
LINE
  8
0
  6
DASHED
 62
2
 10
-110.000000
 20
146.000000
 11
-110.000000
 21
151.000000
  0
LINE
  8
0
  6
DASHED
 62
2
 10
-109.000000
 20
146.000000
 11
-115.000000
 21
146.000000
  0
LINE
  8
0
  6
CENTER
 62
2
 10
-112.000000
 20
142.500000
 11
-112.000000
 21
153.000000
  0
LINE
  8
0
  6
CENTER
 62
2
 10
-182.000000
 20
72.486801
 11
-182.000000
 21
51.993599
  0
LINE
  8
0
  6
CONTINUOUS
 62
7
 10
-177.500000
 20
65.134003
 11
-177.500000
 21
62.799999
  0
LINE
  8
0
  6
CONTINUOUS
 62
7
 10
-186.500000
 20
65.134003
 11
-186.500000
 21
62.799999
  0
LINE
  8
0
  6
CONTINUOUS
 62
7
 10
-172.000000
 20
72.000000
 11
-176.500000
 21
72.000000
  0
LINE
  8
0
  6
CONTINUOUS
 62
7
 10
-172.000000
 20
72.000000
 11
-172.000000
 21
64.199997
  0
LINE
  8
0
  6
CONTINUOUS
 62
7
 10
-172.000000
 20
64.199997
 11
-177.500000
 21
64.199997
  0
LINE
  8
0
  6
CONTINUOUS
 62
7
 10
-176.800003
 20
71.699997
 11
-187.199997
 21
71.699997
  0
LINE
  8
0
  6
CONTINUOUS
 62
7
 10
-186.500000
 20
64.199997
 11
-192.000000
 21
64.199997
  0
LINE
  8
0
  6
CONTINUOUS
 62
7
 10
-187.199997
 20
71.699997
 11
-187.500000
 21
72.000000
  0
LINE
  8
0
  6
CONTINUOUS
 62
7
 10
-176.800003
 20
71.700104
 11
-176.500000
 21
72.000000
  0
LINE
  8
0
  6
CONTINUOUS
 62
7
 10
-187.500000
 20
72.000000
 11
-192.000000
 21
72.000000
  0
LINE
  8
0
  6
CONTINUOUS
 62
7
 10
-177.500000
 20
67.500000
 11
-177.500000
 21
66.865997
  0
LINE
  8
0
  6
CONTINUOUS
 62
7
 10
-186.500000
 20
67.500000
 11
-177.500000
 21
67.500000
  0
LINE
  8
0
  6
CONTINUOUS
 62
7
 10
-186.500000
 20
67.500000
 11
-186.500000
 21
66.865997
  0
LINE
  8
0
  6
CONTINUOUS
 62
7
 10
-170.500000
 20
53.000000
 11
-193.500000
 21
53.000000
  0
LINE
  8
0
  6
CONTINUOUS
 62
7
 10
-170.500000
 20
62.799999
 11
-170.500000
 21
53.000000
  0
LINE
  8
0
  6
CONTINUOUS
 62
7
 10
-193.500000
 20
62.799999
 11
-193.500000
 21
53.000000
  0
LINE
  8
0
  6
CONTINUOUS
 62
7
 10
-193.500000
 20
62.799999
 11
-186.500000
 21
62.799999
  0
LINE
  8
0
  6
CENTER
 62
2
 10
-175.500000
 20
59.500000
 11
-188.500000
 21
59.500000
  0
LINE
  8
0
  6
CONTINUOUS
 62
7
 10
-170.500000
 20
62.799999
 11
-177.500000
 21
62.799999
  0
LINE
  8
0
  6
CONTINUOUS
 62
7
 10
-192.000000
 20
72.000000
 11
-192.000000
 21
64.199997
  0
LINE
  8
0
  6
CENTER
 62
2
 10
-174.000000
 20
55.000000
 11
-174.000000
 21
51.000000
  0
LINE
  8
0
  6
CENTER
 62
2
 10
-190.000000
 20
55.000000
 11
-190.000000
 21
51.000000
  0
LINE
  8
0
  6
CENTER
 62
2
 10
-189.500000
 20
74.000000
 11
-189.500000
 21
70.000000
  0
LINE
  8
0
  6
CENTER
 62
2
 10
-174.500000
 20
74.000000
 11
-174.500000
 21
70.000000
  0
LINE
  8
0
  6
CENTER
 62
2
 10
-74.000000
 20
72.486801
 11
-74.000000
 21
51.993599
  0
LINE
  8
0
  6
CONTINUOUS
 62
7
 10
-69.500000
 20
65.134003
 11
-69.500000
 21
62.799999
  0
LINE
  8
0
  6
CONTINUOUS
 62
7
 10
-78.500000
 20
65.134003
 11
-78.500000
 21
62.799999
  0
LINE
  8
0
  6
CONTINUOUS
 62
7
 10
-64.000000
 20
72.000000
 11
-68.500000
 21
72.000000
  0
LINE
  8
0
  6
CONTINUOUS
 62
7
 10
-64.000000
 20
72.000000
 11
-64.000000
 21
64.199997
  0
LINE
  8
0
  6
CONTINUOUS
 62
7
 10
-64.000000
 20
64.199997
 11
-69.500000
 21
64.199997
  0
LINE
  8
0
  6
CONTINUOUS
 62
7
 10
-68.800003
 20
71.699997
 11
-79.199997
 21
71.699997
  0
LINE
  8
0
  6
CONTINUOUS
 62
7
 10
-78.500000
 20
64.199997
 11
-84.000000
 21
64.199997
  0
LINE
  8
0
  6
CONTINUOUS
 62
7
 10
-79.199997
 20
71.699997
 11
-79.500000
 21
72.000000
  0
LINE
  8
0
  6
CONTINUOUS
 62
7
 10
-68.800003
 20
71.699997
 11
-68.500000
 21
72.000000
  0
LINE
  8
0
  6
CONTINUOUS
 62
7
 10
-79.500000
 20
72.000000
 11
-84.000000
 21
72.000000
  0
LINE
  8
0
  6
CONTINUOUS
 62
7
 10
-69.500000
 20
67.500000
 11
-69.500000
 21
66.865997
  0
LINE
  8
0
  6
CONTINUOUS
 62
7
 10
-78.500000
 20
67.500000
 11
-69.500000
 21
67.500000
  0
LINE
  8
0
  6
CONTINUOUS
 62
7
 10
-78.500000
 20
67.500000
 11
-78.500000
 21
66.865997
  0
LINE
  8
0
  6
CONTINUOUS
 62
7
 10
-62.500000
 20
53.000000
 11
-85.500000
 21
53.000000
  0
LINE
  8
0
  6
CONTINUOUS
 62
7
 10
-62.500000
 20
62.799999
 11
-62.500000
 21
53.000000
  0
LINE
  8
0
  6
CONTINUOUS
 62
7
 10
-85.500000
 20
62.799999
 11
-85.500000
 21
53.000000
  0
LINE
  8
0
  6
CONTINUOUS
 62
7
 10
-85.500000
 20
62.799999
 11
-78.500000
 21
62.799999
  0
LINE
  8
0
  6
CENTER
 62
2
 10
-67.500000
 20
59.500000
 11
-80.500000
 21
59.500000
  0
LINE
  8
0
  6
CONTINUOUS
 62
7
 10
-62.500000
 20
62.799999
 11
-69.500000
 21
62.799999
  0
LINE
  8
0
  6
CONTINUOUS
 62
7
 10
-84.000000
 20
72.000000
 11
-84.000000
 21
64.199997
  0
LINE
  8
0
  6
CENTER
 62
2
 10
-66.000000
 20
55.000000
 11
-66.000000
 21
51.000000
  0
LINE
  8
0
  6
CENTER
 62
2
 10
-82.000000
 20
55.000000
 11
-82.000000
 21
51.000000
  0
LINE
  8
0
  6
CENTER
 62
2
 10
-81.500000
 20
74.000000
 11
-81.500000
 21
70.000000
  0
LINE
  8
0
  6
CENTER
 62
2
 10
-66.500000
 20
74.000000
 11
-66.500000
 21
70.000000
  0
LINE
  8
0
  6
CENTER
 62
2
 10
-130.500000
 20
134.000000
 11
-130.500000
 21
130.000000
  0
LINE
  8
0
  6
CENTER
 62
2
 10
-115.500000
 20
134.000000
 11
-115.500000
 21
130.000000
  0
LINE
  8
0
  6
CENTER
 62
2
 10
-130.500000
 20
74.000000
 11
-130.500000
 21
70.000000
  0
LINE
  8
0
  6
CENTER
 62
2
 10
-115.500000
 20
74.000000
 11
-115.500000
 21
70.000000
  0
LINE
  8
0
  6
CONTINUOUS
 62
7
 10
193.000000
 20
10.000000
 11
103.000000
 21
10.000000
  0
LINE
  8
0
  6
CONTINUOUS
 62
7
 10
103.000000
 20
10.000000
 11
103.000000
 21
33.000000
  0
LINE
  8
0
  6
CONTINUOUS
 62
7
 10
193.000000
 20
33.000000
 11
103.000000
 21
33.000000
  0
LINE
  8
0
  6
CONTINUOUS
 62
7
 10
193.000000
 20
10.000000
 11
193.000000
 21
33.000000
  0
LINE
  8
0
  6
CENTER
 62
2
 10
194.598999
 20
21.500000
 11
100.370003
 21
21.500000
  0
LINE
  8
0
  6
CENTER
 62
2
 10
118.000000
 20
18.500000
 11
118.000000
 21
8.500000
  0
LINE
  8
0
  6
CENTER
 62
2
 10
123.000000
 20
13.500000
 11
113.000000
 21
13.500000
  0
LINE
  8
0
  6
CENTER
 62
2
 10
118.000000
 20
24.500000
 11
118.000000
 21
34.500000
  0
LINE
  8
0
  6
CENTER
 62
2
 10
123.000000
 20
29.500000
 11
113.000000
 21
29.500000
  0
LINE
  8
0
  6
CENTER
 62
2
 10
178.000000
 20
8.500000
 11
178.000000
 21
18.500000
  0
LINE
  8
0
  6
CENTER
 62
2
 10
183.000000
 20
13.500000
 11
173.000000
 21
13.500000
  0
LINE
  8
0
  6
CENTER
 62
2
 10
178.000000
 20
34.500000
 11
178.000000
 21
24.500000
  0
LINE
  8
0
  6
CENTER
 62
2
 10
183.000000
 20
29.500000
 11
173.000000
 21
29.500000
  0
LINE
  8
0
  6
CENTER
 62
2
 10
110.000000
 20
30.900000
 11
110.000000
 21
16.100000
  0
LINE
  8
0
  6
CENTER
 62
2
 10
102.599998
 20
23.500000
 11
117.400002
 21
23.500000
  0
LINE
  8
0
  6
CENTER
 62
2
 10
186.000000
 20
30.900000
 11
186.000000
 21
16.100000
  0
LINE
  8
0
  6
CENTER
 62
2
 10
193.399994
 20
23.500000
 11
178.600006
 21
23.500000
  0
LINE
  8
0
  6
CONTINUOUS
 62
7
 10
174.899994
 20
72.000000
 11
141.100006
 21
72.000000
  0
LINE
  8
0
  6
CONTINUOUS
 62
7
 10
180.500000
 20
71.699997
 11
174.899994
 21
71.699997
  0
LINE
  8
0
  6
CONTINUOUS
 62
7
 10
180.500000
 20
64.199997
 11
135.500000
 21
64.199997
  0
LINE
  8
0
  6
CONTINUOUS
 62
7
 10
180.500000
 20
71.699997
 11
180.500000
 21
64.199997
  0
LINE
  8
0
  6
CONTINUOUS
 62
7
 10
141.100006
 20
71.699997
 11
135.500000
 21
71.699997
  0
LINE
  8
0
  6
CONTINUOUS
 62
7
 10
135.500000
 20
64.199997
 11
135.500000
 21
71.699997
  0
LINE
  8
0
  6
CONTINUOUS
 62
7
 10
193.000000
 20
67.500000
 11
180.500000
 21
67.500000
  0
LINE
  8
0
  6
CONTINUOUS
 62
7
 10
135.500000
 20
67.500000
 11
103.000000
 21
67.500000
  0
LINE
  8
0
  6
CONTINUOUS
 62
7
 10
103.000000
 20
67.500000
 11
103.000000
 21
53.000000
  0
LINE
  8
0
  6
CONTINUOUS
 62
7
 10
193.000000
 20
67.500000
 11
193.000000
 21
53.000000
  0
LINE
  8
0
  6
CONTINUOUS
 62
7
 10
193.000000
 20
53.000000
 11
103.000000
 21
53.000000
  0
LINE
  8
0
  6
CONTINUOUS
 62
7
 10
103.000000
 20
62.799999
 11
112.153000
 21
62.799999
  0
LINE
  8
0
  6
CONTINUOUS
 62
7
 10
174.899994
 20
72.000000
 11
174.899994
 21
64.199997
  0
LINE
  8
0
  6
CONTINUOUS
 62
7
 10
141.100006
 20
72.000000
 11
141.100006
 21
64.199997
  0
LINE
  8
0
  6
CONTINUOUS
 62
7
 10
181.751007
 20
59.500000
 11
168.000000
 21
59.500000
  0
LINE
  8
0
  6
CONTINUOUS
 62
7
 10
193.000000
 20
62.799999
 11
183.847000
 21
62.799999
  0
LINE
  8
0
  6
CENTER
 62
2
 10
124.500000
 20
56.500000
 11
131.500000
 21
56.500000
  0
LINE
  8
0
  6
CENTER
 62
2
 10
128.000000
 20
53.000000
 11
128.000000
 21
60.000000
  0
LINE
  8
0
  6
CENTER
 62
2
 10
164.500000
 20
56.500000
 11
171.500000
 21
56.500000
  0
LINE
  8
0
  6
CENTER
 62
2
 10
168.000000
 20
53.000000
 11
168.000000
 21
60.000000
  0
LINE
  8
0
  6
CONTINUOUS
 62
7
 10
129.658005
 20
59.000000
 11
166.341995
 21
59.000000
  0
LINE
  8
0
  6
CONTINUOUS
 62
7
 10
114.249001
 20
59.500000
 11
128.000000
 21
59.500000
  0
LINE
  8
0
  6
CENTER
 62
2
 10
153.199997
 20
70.449997
 11
153.199997
 21
66.949997
  0
LINE
  8
0
  6
CENTER
 62
2
 10
151.449997
 20
68.699997
 11
154.949997
 21
68.699997
  0
LINE
  8
0
  6
CENTER
 62
2
 10
162.800003
 20
70.449997
 11
162.800003
 21
66.949997
  0
LINE
  8
0
  6
CENTER
 62
2
 10
161.050003
 20
68.699997
 11
164.550003
 21
68.699997
  0
LINE
  8
0
  6
CENTER
 62
2
 10
195.042999
 20
102.000000
 11
99.855202
 21
102.000000
  0
LINE
  8
0
  6
CONTINUOUS
 62
7
 10
193.000000
 20
113.500000
 11
193.000000
 21
90.500000
  0
LINE
  8
0
  6
CONTINUOUS
 62
7
 10
193.000000
 20
97.500000
 11
180.500000
 21
97.500000
  0
LINE
  8
0
  6
CENTER
 62
2
 10
178.000000
 20
89.000000
 11
178.000000
 21
99.000000
  0
LINE
  8
0
  6
CENTER
 62
2
 10
183.000000
 20
94.000000
 11
173.000000
 21
94.000000
  0
LINE
  8
0
  6
CONTINUOUS
 62
7
 10
174.899994
 20
92.000000
 11
141.100006
 21
92.000000
  0
LINE
  8
0
  6
CONTINUOUS
 62
7
 10
174.899994
 20
107.000000
 11
141.100006
 21
107.000000
  0
LINE
  8
0
  6
CONTINUOUS
 62
7
 10
174.899994
 20
97.000000
 11
141.100006
 21
97.000000
  0
LINE
  8
0
  6
CONTINUOUS
 62
7
 10
141.100006
 20
92.300003
 11
135.500000
 21
92.300003
  0
LINE
  8
0
  6
CENTER
 62
2
 10
153.500000
 20
109.500000
 11
146.600006
 21
109.500000
  0
LINE
  8
0
  6
CENTER
 62
2
 10
153.500000
 20
94.500000
 11
146.600006
 21
94.500000
  0
LINE
  8
0
  6
CENTER
 62
2
 10
150.000000
 20
91.000000
 11
150.000000
 21
98.000000
  0
LINE
  8
0
  6
CENTER
 62
2
 10
162.500000
 20
94.500000
 11
168.891006
 21
94.500000
  0
LINE
  8
0
  6
CENTER
 62
2
 10
166.000000
 20
91.000000
 11
166.000000
 21
98.000000
  0
LINE
  8
0
  6
CENTER
 62
2
 10
150.000000
 20
113.000000
 11
150.000000
 21
106.000000
  0
LINE
  8
0
  6
CONTINUOUS
 62
7
 10
141.100006
 20
92.000000
 11
141.100006
 21
112.000000
  0
LINE
  8
0
  6
CENTER
 62
2
 10
162.488007
 20
109.500000
 11
168.932999
 21
109.500000
  0
LINE
  8
0
  6
CENTER
 62
2
 10
166.000000
 20
113.000000
 11
166.000000
 21
106.000000
  0
LINE
  8
0
  6
CONTINUOUS
 62
7
 10
174.899994
 20
112.000000
 11
141.100006
 21
112.000000
  0
LINE
  8
0
  6
CONTINUOUS
 62
7
 10
141.100006
 20
111.699997
 11
135.500000
 21
111.699997
  0
LINE
  8
0
  6
CONTINUOUS
 62
7
 10
135.500000
 20
92.300003
 11
135.500000
 21
111.699997
  0
LINE
  8
0
  6
CONTINUOUS
 62
7
 10
180.500000
 20
92.300003
 11
174.899994
 21
92.300003
  0
LINE
  8
0
  6
CONTINUOUS
 62
7
 10
180.500000
 20
111.699997
 11
174.899994
 21
111.699997
  0
LINE
  8
0
  6
CONTINUOUS
 62
7
 10
174.899994
 20
92.000000
 11
174.899994
 21
112.000000
  0
LINE
  8
0
  6
CONTINUOUS
 62
7
 10
180.500000
 20
111.699997
 11
180.500000
 21
92.300003
  0
LINE
  8
0
  6
CONTINUOUS
 62
7
 10
193.000000
 20
90.500000
 11
103.000000
 21
90.500000
  0
LINE
  8
0
  6
CONTINUOUS
 62
7
 10
193.000000
 20
113.500000
 11
103.000000
 21
113.500000
  0
LINE
  8
0
  6
CONTINUOUS
 62
7
 10
193.000000
 20
106.500000
 11
180.500000
 21
106.500000
  0
LINE
  8
0
  6
CENTER
 62
2
 10
178.000000
 20
115.000000
 11
178.000000
 21
105.000000
  0
LINE
  8
0
  6
CENTER
 62
2
 10
183.000000
 20
110.000000
 11
173.000000
 21
110.000000
  0
LINE
  8
0
  6
CONTINUOUS
 62
7
 10
103.000000
 20
97.500000
 11
135.500000
 21
97.500000
  0
LINE
  8
0
  6
CENTER
 62
2
 10
118.000000
 20
89.000000
 11
118.000000
 21
99.000000
  0
LINE
  8
0
  6
CENTER
 62
2
 10
113.000000
 20
94.000000
 11
123.000000
 21
94.000000
  0
LINE
  8
0
  6
CONTINUOUS
 62
7
 10
103.000000
 20
113.500000
 11
103.000000
 21
90.500000
  0
LINE
  8
0
  6
CONTINUOUS
 62
7
 10
103.000000
 20
106.500000
 11
135.500000
 21
106.500000
  0
LINE
  8
0
  6
CENTER
 62
2
 10
118.000000
 20
115.000000
 11
118.000000
 21
105.000000
  0
LINE
  8
0
  6
CENTER
 62
2
 10
113.000000
 20
110.000000
 11
123.000000
 21
110.000000
  0
LINE
  8
0
  6
CONTINUOUS
 62
7
 10
174.899994
 20
132.000000
 11
141.100006
 21
132.000000
  0
LINE
  8
0
  6
CONTINUOUS
 62
7
 10
180.500000
 20
132.300003
 11
174.899994
 21
132.300003
  0
LINE
  8
0
  6
CONTINUOUS
 62
7
 10
180.500000
 20
139.800003
 11
135.500000
 21
139.800003
  0
LINE
  8
0
  6
CONTINUOUS
 62
7
 10
180.500000
 20
132.300003
 11
180.500000
 21
139.800003
  0
LINE
  8
0
  6
CONTINUOUS
 62
7
 10
141.100006
 20
132.300003
 11
135.500000
 21
132.300003
  0
LINE
  8
0
  6
CONTINUOUS
 62
7
 10
135.500000
 20
139.800003
 11
135.500000
 21
132.300003
  0
LINE
  8
0
  6
CONTINUOUS
 62
7
 10
193.000000
 20
136.500000
 11
180.500000
 21
136.500000
  0
LINE
  8
0
  6
CONTINUOUS
 62
7
 10
135.500000
 20
136.500000
 11
103.000000
 21
136.500000
  0
LINE
  8
0
  6
CONTINUOUS
 62
7
 10
103.000000
 20
136.500000
 11
103.000000
 21
151.000000
  0
LINE
  8
0
  6
CONTINUOUS
 62
7
 10
193.000000
 20
136.500000
 11
193.000000
 21
151.000000
  0
LINE
  8
0
  6
CONTINUOUS
 62
7
 10
193.000000
 20
151.000000
 11
103.000000
 21
151.000000
  0
LINE
  8
0
  6
CONTINUOUS
 62
7
 10
103.000000
 20
141.199997
 11
112.153000
 21
141.199997
  0
LINE
  8
0
  6
CONTINUOUS
 62
7
 10
174.899994
 20
132.000000
 11
174.899994
 21
139.800003
  0
LINE
  8
0
  6
CONTINUOUS
 62
7
 10
141.100006
 20
132.000000
 11
141.100006
 21
139.800003
  0
LINE
  8
0
  6
CENTER
 62
2
 10
151.250000
 20
135.000000
 11
158.250000
 21
135.000000
  0
LINE
  8
0
  6
CENTER
 62
2
 10
154.750000
 20
138.500000
 11
154.750000
 21
131.500000
  0
LINE
  8
0
  6
CENTER
 62
2
 10
157.750000
 20
135.000000
 11
164.750000
 21
135.000000
  0
LINE
  8
0
  6
CENTER
 62
2
 10
161.250000
 20
138.500000
 11
161.250000
 21
131.500000
  0
LINE
  8
0
  6
CONTINUOUS
 62
7
 10
114.249001
 20
144.500000
 11
128.000000
 21
144.500000
  0
LINE
  8
0
  6
CENTER
 62
2
 10
124.500000
 20
147.500000
 11
131.500000
 21
147.500000
  0
LINE
  8
0
  6
CENTER
 62
2
 10
128.000000
 20
151.000000
 11
128.000000
 21
144.000000
  0
LINE
  8
0
  6
CONTINUOUS
 62
7
 10
129.802994
 20
145.000000
 11
166.197006
 21
145.000000
  0
LINE
  8
0
  6
CENTER
 62
2
 10
109.000000
 20
146.500000
 11
116.000000
 21
146.500000
  0
LINE
  8
0
  6
CONTINUOUS
 62
7
 10
181.751007
 20
144.500000
 11
168.000000
 21
144.500000
  0
LINE
  8
0
  6
CENTER
 62
2
 10
112.000000
 20
150.000000
 11
112.000000
 21
143.000000
  0
LINE
  8
0
  6
CENTER
 62
2
 10
165.000000
 20
147.500000
 11
172.000000
 21
147.500000
  0
LINE
  8
0
  6
CENTER
 62
2
 10
168.000000
 20
151.000000
 11
168.000000
 21
144.000000
  0
LINE
  8
0
  6
CENTER
 62
2
 10
181.000000
 20
146.500000
 11
188.000000
 21
146.500000
  0
LINE
  8
0
  6
CENTER
 62
2
 10
184.000000
 20
150.000000
 11
184.000000
 21
143.000000
  0
LINE
  8
0
  6
CONTINUOUS
 62
7
 10
183.847000
 20
141.199997
 11
193.000000
 21
141.199997
  0
LINE
  8
0
  6
DASHED
 62
2
 10
121.000000
 20
58.000000
 11
115.000000
 21
58.000000
  0
LINE
  8
0
  6
CENTER
 62
2
 10
118.000000
 20
61.500000
 11
118.000000
 21
51.000000
  0
LINE
  8
0
  6
DASHED
 62
2
 10
121.000000
 20
59.500000
 11
121.000000
 21
58.000000
  0
LINE
  8
0
  6
DASHED
 62
2
 10
115.000000
 20
59.500000
 11
115.000000
 21
58.000000
  0
LINE
  8
0
  6
DASHED
 62
2
 10
116.250000
 20
58.000000
 11
116.250000
 21
53.000000
  0
LINE
  8
0
  6
DASHED
 62
2
 10
119.750000
 20
58.000000
 11
119.750000
 21
53.000000
  0
LINE
  8
0
  6
DASHED
 62
2
 10
116.000000
 20
58.000000
 11
116.000000
 21
53.000000
  0
LINE
  8
0
  6
DASHED
 62
2
 10
120.000000
 20
58.000000
 11
120.000000
 21
53.000000
  0
LINE
  8
0
  6
DASHED
 62
2
 10
181.000000
 20
58.000000
 11
175.000000
 21
58.000000
  0
LINE
  8
0
  6
CENTER
 62
2
 10
178.000000
 20
61.500000
 11
178.000000
 21
51.000000
  0
LINE
  8
0
  6
DASHED
 62
2
 10
181.000000
 20
59.500000
 11
181.000000
 21
58.000000
  0
LINE
  8
0
  6
DASHED
 62
2
 10
175.000000
 20
59.500000
 11
175.000000
 21
58.000000
  0
LINE
  8
0
  6
DASHED
 62
2
 10
176.250000
 20
58.000000
 11
176.250000
 21
53.000000
  0
LINE
  8
0
  6
DASHED
 62
2
 10
179.750000
 20
58.000000
 11
179.750000
 21
53.000000
  0
LINE
  8
0
  6
DASHED
 62
2
 10
176.000000
 20
58.000000
 11
176.000000
 21
53.000000
  0
LINE
  8
0
  6
DASHED
 62
2
 10
180.000000
 20
58.000000
 11
180.000000
 21
53.000000
  0
LINE
  8
0
  6
CENTER
 62
2
 10
150.000000
 20
74.000000
 11
150.000000
 21
70.000000
  0
LINE
  8
0
  6
CENTER
 62
2
 10
166.000000
 20
74.000000
 11
166.000000
 21
70.000000
  0
LINE
  8
0
  6
CENTER
 62
2
 10
150.000000
 20
134.000000
 11
150.000000
 21
130.000000
  0
LINE
  8
0
  6
CENTER
 62
2
 10
166.000000
 20
134.000000
 11
166.000000
 21
130.000000
  0
LINE
  8
0
  6
DASHED
 62
2
 10
176.000000
 20
146.000000
 11
176.000000
 21
151.000000
  0
LINE
  8
0
  6
DASHED
 62
2
 10
121.000000
 20
146.000000
 11
115.000000
 21
146.000000
  0
LINE
  8
0
  6
CENTER
 62
2
 10
118.000000
 20
142.500000
 11
118.000000
 21
153.000000
  0
LINE
  8
0
  6
DASHED
 62
2
 10
121.000000
 20
144.500000
 11
121.000000
 21
146.000000
  0
LINE
  8
0
  6
DASHED
 62
2
 10
115.000000
 20
144.500000
 11
115.000000
 21
146.000000
  0
LINE
  8
0
  6
DASHED
 62
2
 10
116.250000
 20
146.000000
 11
116.250000
 21
151.000000
  0
LINE
  8
0
  6
DASHED
 62
2
 10
119.750000
 20
146.000000
 11
119.750000
 21
151.000000
  0
LINE
  8
0
  6
DASHED
 62
2
 10
116.000000
 20
146.000000
 11
116.000000
 21
151.000000
  0
LINE
  8
0
  6
DASHED
 62
2
 10
120.000000
 20
146.000000
 11
120.000000
 21
151.000000
  0
LINE
  8
0
  6
DASHED
 62
2
 10
179.750000
 20
146.000000
 11
179.750000
 21
151.000000
  0
LINE
  8
0
  6
DASHED
 62
2
 10
180.000000
 20
146.000000
 11
180.000000
 21
151.000000
  0
LINE
  8
0
  6
DASHED
 62
2
 10
181.000000
 20
146.000000
 11
175.000000
 21
146.000000
  0
LINE
  8
0
  6
CENTER
 62
2
 10
178.000000
 20
142.500000
 11
178.000000
 21
153.000000
  0
LINE
  8
0
  6
DASHED
 62
2
 10
181.000000
 20
144.500000
 11
181.000000
 21
146.000000
  0
LINE
  8
0
  6
DASHED
 62
2
 10
175.000000
 20
144.500000
 11
175.000000
 21
146.000000
  0
LINE
  8
0
  6
DASHED
 62
2
 10
176.250000
 20
146.000000
 11
176.250000
 21
151.000000
  0
LINE
  8
0
  6
CENTER
 62
2
 10
-152.500000
 20
63.000000
 11
-152.500000
 21
54.000000
  0
LINE
  8
0
  6
CENTER
 62
2
 10
-157.000000
 20
58.500000
 11
-148.000000
 21
58.500000
  0
LINE
  8
0
  6
CENTER
 62
2
 10
-103.500000
 20
63.000000
 11
-103.500000
 21
54.000000
  0
LINE
  8
0
  6
CENTER
 62
2
 10
-108.000000
 20
58.500000
 11
-99.000000
 21
58.500000
  0
LINE
  8
0
  6
CENTER
 62
2
 10
108.500000
 20
63.000000
 11
108.500000
 21
54.000000
  0
LINE
  8
0
  6
CENTER
 62
2
 10
104.000000
 20
58.500000
 11
113.000000
 21
58.500000
  0
LINE
  8
0
  6
CENTER
 62
2
 10
187.500000
 20
63.000000
 11
187.500000
 21
54.000000
  0
LINE
  8
0
  6
CENTER
 62
2
 10
183.000000
 20
58.500000
 11
192.000000
 21
58.500000
  0
LINE
  8
0
  6
CENTER
 62
2
 10
-152.500000
 20
-113.000000
 11
-152.500000
 21
-122.000000
  0
LINE
  8
0
  6
CENTER
 62
2
 10
-157.000000
 20
-117.500000
 11
-148.000000
 21
-117.500000
  0
LINE
  8
0
  6
CENTER
 62
2
 10
-103.500000
 20
-113.000000
 11
-103.500000
 21
-122.000000
  0
LINE
  8
0
  6
CENTER
 62
2
 10
-108.000000
 20
-117.500000
 11
-99.000000
 21
-117.500000
  0
LINE
  8
0
  6
CENTER
 62
2
 10
108.500000
 20
-113.000000
 11
108.500000
 21
-122.000000
  0
LINE
  8
0
  6
CENTER
 62
2
 10
104.000000
 20
-117.500000
 11
113.000000
 21
-117.500000
  0
LINE
  8
0
  6
CENTER
 62
2
 10
187.500000
 20
-113.000000
 11
187.500000
 21
-122.000000
  0
LINE
  8
0
  6
CENTER
 62
2
 10
183.000000
 20
-117.500000
 11
192.000000
 21
-117.500000
  0
LINE
  8
0
  6
CONTINUOUS
 62
7
 10
-281.250000
 20
0.250000
 11
282.100006
 21
0.250000
  0
LINE
  8
0
  6
CONTINUOUS
 62
7
 10
0.424988
 20
195.500000
 11
0.424988
 21
-195.000000
  0
ARC
  8
0
  6
CONTINUOUS
 62
7
 10
74.842598
 20
-110.161003
 40
1.200000
 50
99.579201
 51
100.733002
  0
ARC
  8
0
  6
CONTINUOUS
 62
7
 10
84.000000
 20
-110.000000
 40
1.000000
 50
120.001999
 51
240.001999
  0
ARC
  8
0
  6
CONTINUOUS
 62
7
 10
74.000000
 20
-110.000000
 40
1.000000
 50
300.001007
 51
60.000401
  0
CIRCLE
  8
0
  6
CONTINUOUS
 62
7
 10
79.000000
 20
-116.500000
 40
4.450000
  0
ARC
  8
0
  6
CONTINUOUS
 62
7
 10
212.843002
 20
-110.161003
 40
1.200000
 50
99.579201
 51
100.733002
  0
ARC
  8
0
  6
CONTINUOUS
 62
7
 10
222.000000
 20
-110.000000
 40
1.000000
 50
120.001999
 51
240.001999
  0
ARC
  8
0
  6
CONTINUOUS
 62
7
 10
212.000000
 20
-110.000000
 40
0.999996
 50
300.001007
 51
60.000099
  0
CIRCLE
  8
0
  6
CONTINUOUS
 62
7
 10
217.000000
 20
-116.500000
 40
4.450000
  0
ARC
  8
0
  6
CONTINUOUS
 62
7
 10
-152.500000
 20
-117.199997
 40
4.800000
 50
8.385500
 51
56.442600
  0
ARC
  8
0
  6
CONTINUOUS
 62
7
 10
-103.500000
 20
-117.199997
 40
4.800000
 50
123.556999
 51
171.615005
  0
CIRCLE
  8
0
  6
CONTINUOUS
 62
7
 10
-117.500000
 20
-119.500000
 40
1.250000
  0
CIRCLE
  8
0
  6
CONTINUOUS
 62
2
 10
-117.500000
 20
-119.500000
 40
1.500000
  0
ARC
  8
0
  6
CONTINUOUS
 62
7
 10
-117.500000
 20
-119.500000
 40
3.000000
 50
90.000000
 51
123.556999
  0
CIRCLE
  8
0
  6
CONTINUOUS
 62
7
 10
-138.500000
 20
-119.500000
 40
1.250000
  0
CIRCLE
  8
0
  6
CONTINUOUS
 62
2
 10
-138.500000
 20
-119.500000
 40
1.500000
  0
ARC
  8
0
  6
CONTINUOUS
 62
7
 10
-138.500000
 20
-119.500000
 40
3.000000
 50
56.442699
 51
90.000000
  0
CIRCLE
  8
0
  6
CONTINUOUS
 62
2
 10
-127.800003
 20
-40.700001
 40
0.800000
  0
CIRCLE
  8
0
  6
CONTINUOUS
 62
7
 10
-127.800003
 20
-40.700001
 40
0.640000
  0
CIRCLE
  8
0
  6
CONTINUOUS
 62
2
 10
-118.199997
 20
-40.700001
 40
0.800000
  0
CIRCLE
  8
0
  6
CONTINUOUS
 62
7
 10
-118.199997
 20
-40.700001
 40
0.640000
  0
CIRCLE
  8
0
  6
CONTINUOUS
 62
7
 10
-115.500000
 20
-81.500000
 40
1.250000
  0
CIRCLE
  8
0
  6
CONTINUOUS
 62
2
 10
-115.500000
 20
-81.500000
 40
1.500000
  0
CIRCLE
  8
0
  6
CONTINUOUS
 62
7
 10
-130.500000
 20
-66.500000
 40
1.250000
  0
CIRCLE
  8
0
  6
CONTINUOUS
 62
7
 10
-130.500000
 20
-81.500000
 40
1.250000
  0
CIRCLE
  8
0
  6
CONTINUOUS
 62
2
 10
-130.500000
 20
-81.500000
 40
1.500000
  0
CIRCLE
  8
0
  6
CONTINUOUS
 62
2
 10
-130.500000
 20
-66.500000
 40
1.500000
  0
CIRCLE
  8
0
  6
CONTINUOUS
 62
7
 10
-115.500000
 20
-66.500000
 40
1.250000
  0
CIRCLE
  8
0
  6
CONTINUOUS
 62
2
 10
-115.500000
 20
-66.500000
 40
1.500000
  0
CIRCLE
  8
0
  6
CONTINUOUS
 62
2
 10
-144.000000
 20
-82.000000
 40
2.000000
  0
CIRCLE
  8
0
  6
CONTINUOUS
 62
7
 10
-144.000000
 20
-82.000000
 40
3.000000
  0
ARC
  8
0
  6
CONTINUOUS
 62
7
 10
-112.000000
 20
-66.000000
 40
3.000000
 50
34.518398
 51
138.190002
  0
CIRCLE
  8
0
  6
CONTINUOUS
 62
7
 10
-144.000000
 20
-66.000000
 40
3.000000
  0
CIRCLE
  8
0
  6
CONTINUOUS
 62
2
 10
-144.000000
 20
-66.000000
 40
2.000000
  0
ARC
  8
0
  6
DASHED
 62
2
 10
-112.000000
 20
-66.000000
 40
3.000000
 50
138.190002
 51
394.518005
  0
CIRCLE
  8
0
  6
DASHED
 62
2
 10
-112.000000
 20
-66.000000
 40
2.000000
  0
CIRCLE
  8
0
  6
DASHED
 62
2
 10
-112.000000
 20
-82.000000
 40
2.000000
  0
ARC
  8
0
  6
CONTINUOUS
 62
7
 10
-112.000000
 20
-82.000000
 40
3.000000
 50
221.809998
 51
325.481995
  0
ARC
  8
0
  6
DASHED
 62
2
 10
-112.000000
 20
-82.000000
 40
3.000000
 50
325.481995
 51
221.809998
  0
CIRCLE
  8
0
  6
CONTINUOUS
 62
2
 10
-144.000000
 20
-162.500000
 40
2.000000
  0
CIRCLE
  8
0
  6
CONTINUOUS
 62
7
 10
-144.000000
 20
-162.500000
 40
1.750000
  0
CIRCLE
  8
0
  6
CONTINUOUS
 62
7
 10
-144.000000
 20
-146.500000
 40
1.750000
  0
CIRCLE
  8
0
  6
CONTINUOUS
 62
7
 10
-112.000000
 20
-162.500000
 40
1.750000
  0
CIRCLE
  8
0
  6
CONTINUOUS
 62
2
 10
-112.000000
 20
-162.500000
 40
2.000000
  0
CIRCLE
  8
0
  6
CONTINUOUS
 62
7
 10
-112.000000
 20
-146.500000
 40
1.750000
  0
CIRCLE
  8
0
  6
CONTINUOUS
 62
2
 10
-112.000000
 20
-146.500000
 40
2.000000
  0
CIRCLE
  8
0
  6
CONTINUOUS
 62
2
 10
-144.000000
 20
-146.500000
 40
2.000000
  0
CIRCLE
  8
0
  6
CONTINUOUS
 62
7
 10
-151.000000
 20
-152.500000
 40
5.900000
  0
CIRCLE
  8
0
  6
CONTINUOUS
 62
7
 10
-105.000000
 20
-152.500000
 40
5.900000
  0
CIRCLE
  8
0
  6
CONTINUOUS
 62
7
 10
-126.250000
 20
-107.000000
 40
1.250000
  0
CIRCLE
  8
0
  6
CONTINUOUS
 62
2
 10
-126.250000
 20
-107.000000
 40
1.500000
  0
CIRCLE
  8
0
  6
CONTINUOUS
 62
2
 10
-119.750000
 20
-107.000000
 40
1.500000
  0
CIRCLE
  8
0
  6
CONTINUOUS
 62
7
 10
-119.750000
 20
-107.000000
 40
1.250000
  0
ARC
  8
0
  6
CONTINUOUS
 62
7
 10
-152.500000
 20
-30.799999
 40
4.800000
 50
303.557007
 51
351.614014
  0
ARC
  8
0
  6
CONTINUOUS
 62
7
 10
-138.500000
 20
-28.500000
 40
3.000000
 50
270.000000
 51
301.002991
  0
CIRCLE
  8
0
  6
CONTINUOUS
 62
7
 10
-101.500000
 20
-29.500000
 40
1.250000
  0
CIRCLE
  8
0
  6
CONTINUOUS
 62
2
 10
-101.500000
 20
-29.500000
 40
1.500000
  0
CIRCLE
  8
0
  6
CONTINUOUS
 62
2
 10
-117.500000
 20
-28.500000
 40
1.500000
  0
ARC
  8
0
  6
CONTINUOUS
 62
7
 10
-117.500000
 20
-28.500000
 40
3.000000
 50
238.996994
 51
270.000000
  0
ARC
  8
0
  6
CONTINUOUS
 62
7
 10
-103.500000
 20
-30.799999
 40
4.800000
 50
188.384995
 51
236.442993
  0
CIRCLE
  8
0
  6
CONTINUOUS
 62
7
 10
-117.500000
 20
-28.500000
 40
1.250000
  0
ARC
  8
0
  6
CONTINUOUS
 62
7
 10
-136.697006
 20
-31.500000
 40
0.500000
 50
90.000000
 51
121.002998
  0
ARC
  8
0
  6
CONTINUOUS
 62
7
 10
-119.303001
 20
-31.500000
 40
0.499999
 50
58.997398
 51
90.000000
  0
CIRCLE
  8
0
  6
CONTINUOUS
 62
7
 10
-138.500000
 20
-28.500000
 40
1.250000
  0
CIRCLE
  8
0
  6
CONTINUOUS
 62
2
 10
-138.500000
 20
-28.500000
 40
1.500000
  0
CIRCLE
  8
0
  6
CONTINUOUS
 62
7
 10
-154.500000
 20
-29.500000
 40
1.250000
  0
CIRCLE
  8
0
  6
CONTINUOUS
 62
2
 10
-154.500000
 20
-29.500000
 40
1.500000
  0
ARC
  8
0
  6
CONTINUOUS
 62
7
 10
-186.156998
 20
-110.161003
 40
1.200000
 50
99.579201
 51
100.733002
  0
ARC
  8
0
  6
CONTINUOUS
 62
7
 10
-177.000000
 20
-110.000000
 40
1.000000
 50
120.001999
 51
240.001999
  0
ARC
  8
0
  6
CONTINUOUS
 62
7
 10
-187.000000
 20
-110.000000
 40
0.999996
 50
300.001007
 51
60.000099
  0
CIRCLE
  8
0
  6
CONTINUOUS
 62
7
 10
-182.000000
 20
-116.500000
 40
4.450000
  0
ARC
  8
0
  6
CONTINUOUS
 62
7
 10
-78.157402
 20
-110.161003
 40
1.200000
 50
99.579201
 51
100.733002
  0
ARC
  8
0
  6
CONTINUOUS
 62
7
 10
-69.000000
 20
-110.000000
 40
1.000000
 50
120.001999
 51
240.001999
  0
ARC
  8
0
  6
CONTINUOUS
 62
7
 10
-79.000000
 20
-110.000000
 40
1.000000
 50
300.001007
 51
60.000401
  0
CIRCLE
  8
0
  6
CONTINUOUS
 62
7
 10
-74.000000
 20
-116.500000
 40
4.450000
  0
CIRCLE
  8
0
  6
CONTINUOUS
 62
2
 10
118.000000
 20
-162.500000
 40
2.000000
  0
CIRCLE
  8
0
  6
CONTINUOUS
 62
7
 10
118.000000
 20
-162.500000
 40
1.750000
  0
CIRCLE
  8
0
  6
CONTINUOUS
 62
7
 10
118.000000
 20
-146.500000
 40
1.750000
  0
CIRCLE
  8
0
  6
CONTINUOUS
 62
7
 10
178.000000
 20
-162.500000
 40
1.750000
  0
CIRCLE
  8
0
  6
CONTINUOUS
 62
2
 10
178.000000
 20
-162.500000
 40
2.000000
  0
CIRCLE
  8
0
  6
CONTINUOUS
 62
7
 10
178.000000
 20
-146.500000
 40
1.750000
  0
CIRCLE
  8
0
  6
CONTINUOUS
 62
2
 10
178.000000
 20
-146.500000
 40
2.000000
  0
CIRCLE
  8
0
  6
CONTINUOUS
 62
2
 10
118.000000
 20
-146.500000
 40
2.000000
  0
CIRCLE
  8
0
  6
CONTINUOUS
 62
7
 10
110.000000
 20
-152.500000
 40
5.900000
  0
CIRCLE
  8
0
  6
CONTINUOUS
 62
7
 10
186.000000
 20
-152.500000
 40
5.900000
  0
ARC
  8
0
  6
CONTINUOUS
 62
7
 10
109.500000
 20
-117.199997
 40
4.800000
 50
8.385500
 51
56.442699
  0
ARC
  8
0
  6
CONTINUOUS
 62
7
 10
186.500000
 20
-117.199997
 40
4.800000
 50
123.556999
 51
171.615005
  0
CIRCLE
  8
0
  6
CONTINUOUS
 62
7
 10
128.000000
 20
-119.500000
 40
1.250000
  0
CIRCLE
  8
0
  6
CONTINUOUS
 62
2
 10
128.000000
 20
-119.500000
 40
1.500000
  0
CIRCLE
  8
0
  6
CONTINUOUS
 62
7
 10
168.000000
 20
-119.500000
 40
1.250000
  0
CIRCLE
  8
0
  6
CONTINUOUS
 62
2
 10
168.000000
 20
-119.500000
 40
1.500000
  0
ARC
  8
0
  6
CONTINUOUS
 62
7
 10
168.000000
 20
-119.500000
 40
3.000000
 50
90.000000
 51
123.556999
  0
ARC
  8
0
  6
CONTINUOUS
 62
7
 10
128.000000
 20
-119.500000
 40
3.000000
 50
56.442699
 51
90.000000
  0
CIRCLE
  8
0
  6
CONTINUOUS
 62
2
 10
153.199997
 20
-40.700001
 40
0.800000
  0
CIRCLE
  8
0
  6
CONTINUOUS
 62
7
 10
153.199997
 20
-40.700001
 40
0.640000
  0
CIRCLE
  8
0
  6
CONTINUOUS
 62
2
 10
162.800003
 20
-40.700001
 40
0.800000
  0
CIRCLE
  8
0
  6
CONTINUOUS
 62
7
 10
162.800003
 20
-40.700001
 40
0.640000
  0
ARC
  8
0
  6
DASHED
 62
2
 10
178.000000
 20
-82.000000
 40
3.000000
 50
33.556702
 51
214.518005
  0
CIRCLE
  8
0
  6
DASHED
 62
2
 10
178.000000
 20
-82.000000
 40
2.000000
  0
CIRCLE
  8
0
  6
CONTINUOUS
 62
2
 10
166.000000
 20
-66.500000
 40
1.500000
  0
CIRCLE
  8
0
  6
CONTINUOUS
 62
7
 10
150.000000
 20
-81.500000
 40
1.250000
  0
CIRCLE
  8
0
  6
CONTINUOUS
 62
2
 10
150.000000
 20
-81.500000
 40
1.500000
  0
CIRCLE
  8
0
  6
CONTINUOUS
 62
7
 10
166.000000
 20
-81.500000
 40
1.250000
  0
CIRCLE
  8
0
  6
CONTINUOUS
 62
2
 10
166.000000
 20
-81.500000
 40
1.500000
  0
CIRCLE
  8
0
  6
CONTINUOUS
 62
2
 10
150.000000
 20
-66.500000
 40
1.500000
  0
CIRCLE
  8
0
  6
CONTINUOUS
 62
7
 10
150.000000
 20
-66.500000
 40
1.250000
  0
CIRCLE
  8
0
  6
CONTINUOUS
 62
7
 10
166.000000
 20
-66.500000
 40
1.250000
  0
ARC
  8
0
  6
CONTINUOUS
 62
7
 10
178.000000
 20
-66.000000
 40
3.000000
 50
326.442993
 51
145.481995
  0
CIRCLE
  8
0
  6
DASHED
 62
2
 10
178.000000
 20
-66.000000
 40
2.000000
  0
CIRCLE
  8
0
  6
CONTINUOUS
 62
2
 10
118.000000
 20
-66.000000
 40
2.000000
  0
CIRCLE
  8
0
  6
CONTINUOUS
 62
7
 10
118.000000
 20
-82.000000
 40
3.000000
  0
CIRCLE
  8
0
  6
CONTINUOUS
 62
2
 10
118.000000
 20
-82.000000
 40
2.000000
  0
CIRCLE
  8
0
  6
CONTINUOUS
 62
7
 10
118.000000
 20
-66.000000
 40
3.000000
  0
ARC
  8
0
  6
DASHED
 62
2
 10
178.000000
 20
-66.000000
 40
3.000000
 50
145.481995
 51
326.442993
  0
ARC
  8
0
  6
CONTINUOUS
 62
7
 10
178.000000
 20
-82.000000
 40
3.000000
 50
214.518005
 51
33.556702
  0
CIRCLE
  8
0
  6
CONTINUOUS
 62
7
 10
154.750000
 20
-107.000000
 40
1.250000
  0
CIRCLE
  8
0
  6
CONTINUOUS
 62
2
 10
154.750000
 20
-107.000000
 40
1.500000
  0
CIRCLE
  8
0
  6
CONTINUOUS
 62
2
 10
161.250000
 20
-107.000000
 40
1.500000
  0
CIRCLE
  8
0
  6
CONTINUOUS
 62
7
 10
161.250000
 20
-107.000000
 40
1.250000
  0
ARC
  8
0
  6
CONTINUOUS
 62
7
 10
109.500000
 20
-30.799999
 40
4.800000
 50
303.557007
 51
351.614014
  0
ARC
  8
0
  6
CONTINUOUS
 62
7
 10
128.000000
 20
-28.500000
 40
3.000000
 50
270.000000
 51
301.002991
  0
CIRCLE
  8
0
  6
CONTINUOUS
 62
7
 10
128.000000
 20
-28.500000
 40
1.250000
  0
CIRCLE
  8
0
  6
CONTINUOUS
 62
2
 10
128.000000
 20
-28.500000
 40
1.500000
  0
CIRCLE
  8
0
  6
CONTINUOUS
 62
2
 10
112.000000
 20
-29.500000
 40
1.500000
  0
ARC
  8
0
  6
CONTINUOUS
 62
7
 10
168.000000
 20
-28.500000
 40
3.000000
 50
238.996994
 51
270.000000
  0
ARC
  8
0
  6
CONTINUOUS
 62
7
 10
186.500000
 20
-30.799999
 40
4.800000
 50
188.384995
 51
236.442993
  0
CIRCLE
  8
0
  6
CONTINUOUS
 62
7
 10
112.000000
 20
-29.500000
 40
1.250000
  0
ARC
  8
0
  6
CONTINUOUS
 62
7
 10
129.802994
 20
-31.500000
 40
0.500000
 50
90.000000
 51
121.002998
  0
ARC
  8
0
  6
CONTINUOUS
 62
7
 10
166.197006
 20
-31.500000
 40
0.499999
 50
58.997398
 51
90.000000
  0
CIRCLE
  8
0
  6
CONTINUOUS
 62
2
 10
168.000000
 20
-28.500000
 40
1.500000
  0
CIRCLE
  8
0
  6
CONTINUOUS
 62
7
 10
168.000000
 20
-28.500000
 40
1.250000
  0
CIRCLE
  8
0
  6
CONTINUOUS
 62
2
 10
184.000000
 20
-29.500000
 40
1.500000
  0
CIRCLE
  8
0
  6
CONTINUOUS
 62
7
 10
184.000000
 20
-29.500000
 40
1.250000
  0
ARC
  8
0
  6
CONTINUOUS
 62
7
 10
74.842598
 20
65.839203
 40
1.200000
 50
99.579201
 51
100.733002
  0
ARC
  8
0
  6
CONTINUOUS
 62
7
 10
84.000000
 20
66.000000
 40
1.000000
 50
120.001999
 51
240.001999
  0
ARC
  8
0
  6
CONTINUOUS
 62
7
 10
74.000000
 20
66.000000
 40
1.000000
 50
300.001007
 51
60.000401
  0
CIRCLE
  8
0
  6
CONTINUOUS
 62
7
 10
79.000000
 20
59.500000
 40
4.450000
  0
ARC
  8
0
  6
CONTINUOUS
 62
7
 10
212.843002
 20
65.839203
 40
1.200000
 50
99.579201
 51
100.733002
  0
ARC
  8
0
  6
CONTINUOUS
 62
7
 10
222.000000
 20
66.000000
 40
1.000000
 50
120.001999
 51
240.001999
  0
ARC
  8
0
  6
CONTINUOUS
 62
7
 10
212.000000
 20
66.000000
 40
0.999996
 50
300.001007
 51
60.000099
  0
CIRCLE
  8
0
  6
CONTINUOUS
 62
7
 10
217.000000
 20
59.500000
 40
4.450000
  0
ARC
  8
0
  6
CONTINUOUS
 62
7
 10
-152.500000
 20
58.799999
 40
4.800000
 50
8.385500
 51
56.442600
  0
ARC
  8
0
  6
CONTINUOUS
 62
7
 10
-103.500000
 20
58.799999
 40
4.800000
 50
123.556999
 51
171.615005
  0
CIRCLE
  8
0
  6
CONTINUOUS
 62
7
 10
-117.500000
 20
56.500000
 40
1.250000
  0
CIRCLE
  8
0
  6
CONTINUOUS
 62
2
 10
-117.500000
 20
56.500000
 40
1.500000
  0
ARC
  8
0
  6
CONTINUOUS
 62
7
 10
-117.500000
 20
56.500000
 40
3.000000
 50
90.000000
 51
123.556999
  0
CIRCLE
  8
0
  6
CONTINUOUS
 62
7
 10
-138.500000
 20
56.500000
 40
1.250000
  0
CIRCLE
  8
0
  6
CONTINUOUS
 62
2
 10
-138.500000
 20
56.500000
 40
1.500000
  0
ARC
  8
0
  6
CONTINUOUS
 62
7
 10
-138.500000
 20
56.500000
 40
3.000000
 50
56.442699
 51
90.000000
  0
CIRCLE
  8
0
  6
CONTINUOUS
 62
2
 10
-127.800003
 20
68.699997
 40
0.800000
  0
CIRCLE
  8
0
  6
CONTINUOUS
 62
7
 10
-127.800003
 20
68.699997
 40
0.640000
  0
CIRCLE
  8
0
  6
CONTINUOUS
 62
2
 10
-118.199997
 20
68.699997
 40
0.800000
  0
CIRCLE
  8
0
  6
CONTINUOUS
 62
7
 10
-118.199997
 20
68.699997
 40
0.640000
  0
CIRCLE
  8
0
  6
CONTINUOUS
 62
7
 10
-115.500000
 20
94.500000
 40
1.250000
  0
CIRCLE
  8
0
  6
CONTINUOUS
 62
2
 10
-115.500000
 20
94.500000
 40
1.500000
  0
CIRCLE
  8
0
  6
CONTINUOUS
 62
7
 10
-130.500000
 20
109.500000
 40
1.250000
  0
CIRCLE
  8
0
  6
CONTINUOUS
 62
7
 10
-130.500000
 20
94.500000
 40
1.250000
  0
CIRCLE
  8
0
  6
CONTINUOUS
 62
2
 10
-130.500000
 20
94.500000
 40
1.500000
  0
CIRCLE
  8
0
  6
CONTINUOUS
 62
2
 10
-130.500000
 20
109.500000
 40
1.500000
  0
CIRCLE
  8
0
  6
CONTINUOUS
 62
7
 10
-115.500000
 20
109.500000
 40
1.250000
  0
CIRCLE
  8
0
  6
CONTINUOUS
 62
2
 10
-115.500000
 20
109.500000
 40
1.500000
  0
CIRCLE
  8
0
  6
CONTINUOUS
 62
2
 10
-144.000000
 20
94.000000
 40
2.000000
  0
CIRCLE
  8
0
  6
CONTINUOUS
 62
7
 10
-144.000000
 20
94.000000
 40
3.000000
  0
ARC
  8
0
  6
CONTINUOUS
 62
7
 10
-112.000000
 20
110.000000
 40
3.000000
 50
34.518398
 51
138.190002
  0
CIRCLE
  8
0
  6
CONTINUOUS
 62
7
 10
-144.000000
 20
110.000000
 40
3.000000
  0
CIRCLE
  8
0
  6
CONTINUOUS
 62
2
 10
-144.000000
 20
110.000000
 40
2.000000
  0
ARC
  8
0
  6
DASHED
 62
2
 10
-112.000000
 20
110.000000
 40
3.000000
 50
138.190002
 51
394.518005
  0
CIRCLE
  8
0
  6
DASHED
 62
2
 10
-112.000000
 20
110.000000
 40
2.000000
  0
CIRCLE
  8
0
  6
DASHED
 62
2
 10
-112.000000
 20
94.000000
 40
2.000000
  0
ARC
  8
0
  6
CONTINUOUS
 62
7
 10
-112.000000
 20
94.000000
 40
3.000000
 50
221.809998
 51
325.481995
  0
ARC
  8
0
  6
DASHED
 62
2
 10
-112.000000
 20
94.000000
 40
3.000000
 50
325.481995
 51
221.809998
  0
CIRCLE
  8
0
  6
CONTINUOUS
 62
2
 10
-144.000000
 20
13.500000
 40
2.000000
  0
CIRCLE
  8
0
  6
CONTINUOUS
 62
7
 10
-144.000000
 20
13.500000
 40
1.750000
  0
CIRCLE
  8
0
  6
CONTINUOUS
 62
7
 10
-144.000000
 20
29.500000
 40
1.750000
  0
CIRCLE
  8
0
  6
CONTINUOUS
 62
7
 10
-112.000000
 20
13.500000
 40
1.750000
  0
CIRCLE
  8
0
  6
CONTINUOUS
 62
2
 10
-112.000000
 20
13.500000
 40
2.000000
  0
CIRCLE
  8
0
  6
CONTINUOUS
 62
7
 10
-112.000000
 20
29.500000
 40
1.750000
  0
CIRCLE
  8
0
  6
CONTINUOUS
 62
2
 10
-112.000000
 20
29.500000
 40
2.000000
  0
CIRCLE
  8
0
  6
CONTINUOUS
 62
2
 10
-144.000000
 20
29.500000
 40
2.000000
  0
CIRCLE
  8
0
  6
CONTINUOUS
 62
7
 10
-151.000000
 20
23.500000
 40
5.900000
  0
CIRCLE
  8
0
  6
CONTINUOUS
 62
7
 10
-105.000000
 20
23.500000
 40
5.900000
  0
CIRCLE
  8
0
  6
CONTINUOUS
 62
7
 10
-126.250000
 20
135.000000
 40
1.250000
  0
CIRCLE
  8
0
  6
CONTINUOUS
 62
2
 10
-126.250000
 20
135.000000
 40
1.500000
  0
CIRCLE
  8
0
  6
CONTINUOUS
 62
2
 10
-119.750000
 20
135.000000
 40
1.500000
  0
CIRCLE
  8
0
  6
CONTINUOUS
 62
7
 10
-119.750000
 20
135.000000
 40
1.250000
  0
ARC
  8
0
  6
CONTINUOUS
 62
7
 10
-152.500000
 20
145.199997
 40
4.800000
 50
303.557007
 51
351.614014
  0
ARC
  8
0
  6
CONTINUOUS
 62
7
 10
-138.500000
 20
147.500000
 40
3.000000
 50
270.000000
 51
301.002991
  0
CIRCLE
  8
0
  6
CONTINUOUS
 62
7
 10
-101.500000
 20
146.500000
 40
1.250000
  0
CIRCLE
  8
0
  6
CONTINUOUS
 62
2
 10
-101.500000
 20
146.500000
 40
1.500000
  0
CIRCLE
  8
0
  6
CONTINUOUS
 62
2
 10
-117.500000
 20
147.500000
 40
1.500000
  0
ARC
  8
0
  6
CONTINUOUS
 62
7
 10
-117.500000
 20
147.500000
 40
3.000000
 50
238.996994
 51
270.000000
  0
ARC
  8
0
  6
CONTINUOUS
 62
7
 10
-103.500000
 20
145.199997
 40
4.800000
 50
188.384995
 51
236.442993
  0
CIRCLE
  8
0
  6
CONTINUOUS
 62
7
 10
-117.500000
 20
147.500000
 40
1.250000
  0
ARC
  8
0
  6
CONTINUOUS
 62
7
 10
-136.697006
 20
144.500000
 40
0.500000
 50
90.000000
 51
121.001999
  0
ARC
  8
0
  6
CONTINUOUS
 62
7
 10
-119.303001
 20
144.500000
 40
0.500001
 50
58.997601
 51
90.000000
  0
CIRCLE
  8
0
  6
CONTINUOUS
 62
7
 10
-138.500000
 20
147.500000
 40
1.250000
  0
CIRCLE
  8
0
  6
CONTINUOUS
 62
2
 10
-138.500000
 20
147.500000
 40
1.500000
  0
CIRCLE
  8
0
  6
CONTINUOUS
 62
7
 10
-154.500000
 20
146.500000
 40
1.250000
  0
CIRCLE
  8
0
  6
CONTINUOUS
 62
2
 10
-154.500000
 20
146.500000
 40
1.500000
  0
ARC
  8
0
  6
CONTINUOUS
 62
7
 10
-186.156998
 20
65.839203
 40
1.200000
 50
99.579201
 51
100.733002
  0
ARC
  8
0
  6
CONTINUOUS
 62
7
 10
-177.000000
 20
66.000000
 40
1.000000
 50
120.001999
 51
240.001999
  0
ARC
  8
0
  6
CONTINUOUS
 62
7
 10
-187.000000
 20
66.000000
 40
0.999996
 50
300.001007
 51
60.000099
  0
CIRCLE
  8
0
  6
CONTINUOUS
 62
7
 10
-182.000000
 20
59.500000
 40
4.450000
  0
ARC
  8
0
  6
CONTINUOUS
 62
7
 10
-78.157402
 20
65.839203
 40
1.200000
 50
99.579201
 51
100.733002
  0
ARC
  8
0
  6
CONTINUOUS
 62
7
 10
-69.000000
 20
66.000000
 40
1.000000
 50
120.001999
 51
240.001999
  0
ARC
  8
0
  6
CONTINUOUS
 62
7
 10
-79.000000
 20
66.000000
 40
1.000000
 50
300.001007
 51
60.000401
  0
CIRCLE
  8
0
  6
CONTINUOUS
 62
7
 10
-74.000000
 20
59.500000
 40
4.450000
  0
CIRCLE
  8
0
  6
CONTINUOUS
 62
2
 10
118.000000
 20
13.500000
 40
2.000000
  0
CIRCLE
  8
0
  6
CONTINUOUS
 62
7
 10
118.000000
 20
13.500000
 40
1.750000
  0
CIRCLE
  8
0
  6
CONTINUOUS
 62
7
 10
118.000000
 20
29.500000
 40
1.750000
  0
CIRCLE
  8
0
  6
CONTINUOUS
 62
7
 10
178.000000
 20
13.500000
 40
1.750000
  0
CIRCLE
  8
0
  6
CONTINUOUS
 62
2
 10
178.000000
 20
13.500000
 40
2.000000
  0
CIRCLE
  8
0
  6
CONTINUOUS
 62
7
 10
178.000000
 20
29.500000
 40
1.750000
  0
CIRCLE
  8
0
  6
CONTINUOUS
 62
2
 10
178.000000
 20
29.500000
 40
2.000000
  0
CIRCLE
  8
0
  6
CONTINUOUS
 62
2
 10
118.000000
 20
29.500000
 40
2.000000
  0
CIRCLE
  8
0
  6
CONTINUOUS
 62
7
 10
110.000000
 20
23.500000
 40
5.900000
  0
CIRCLE
  8
0
  6
CONTINUOUS
 62
7
 10
186.000000
 20
23.500000
 40
5.900000
  0
ARC
  8
0
  6
CONTINUOUS
 62
7
 10
109.500000
 20
58.799999
 40
4.800000
 50
8.385500
 51
56.442699
  0
ARC
  8
0
  6
CONTINUOUS
 62
7
 10
186.500000
 20
58.799999
 40
4.800000
 50
123.556999
 51
171.615005
  0
CIRCLE
  8
0
  6
CONTINUOUS
 62
7
 10
128.000000
 20
56.500000
 40
1.250000
  0
CIRCLE
  8
0
  6
CONTINUOUS
 62
2
 10
128.000000
 20
56.500000
 40
1.500000
  0
CIRCLE
  8
0
  6
CONTINUOUS
 62
7
 10
168.000000
 20
56.500000
 40
1.250000
  0
CIRCLE
  8
0
  6
CONTINUOUS
 62
2
 10
168.000000
 20
56.500000
 40
1.500000
  0
ARC
  8
0
  6
CONTINUOUS
 62
7
 10
168.000000
 20
56.500000
 40
3.000000
 50
90.000000
 51
123.556999
  0
ARC
  8
0
  6
CONTINUOUS
 62
7
 10
128.000000
 20
56.500000
 40
3.000000
 50
56.442699
 51
90.000000
  0
CIRCLE
  8
0
  6
CONTINUOUS
 62
2
 10
153.199997
 20
68.699997
 40
0.800000
  0
CIRCLE
  8
0
  6
CONTINUOUS
 62
7
 10
153.199997
 20
68.699997
 40
0.640000
  0
CIRCLE
  8
0
  6
CONTINUOUS
 62
2
 10
162.800003
 20
68.699997
 40
0.800000
  0
CIRCLE
  8
0
  6
CONTINUOUS
 62
7
 10
162.800003
 20
68.699997
 40
0.640000
  0
ARC
  8
0
  6
DASHED
 62
2
 10
178.000000
 20
94.000000
 40
3.000000
 50
33.556702
 51
214.518005
  0
CIRCLE
  8
0
  6
DASHED
 62
2
 10
178.000000
 20
94.000000
 40
2.000000
  0
CIRCLE
  8
0
  6
CONTINUOUS
 62
2
 10
166.000000
 20
109.500000
 40
1.500000
  0
CIRCLE
  8
0
  6
CONTINUOUS
 62
7
 10
150.000000
 20
94.500000
 40
1.250000
  0
CIRCLE
  8
0
  6
CONTINUOUS
 62
2
 10
150.000000
 20
94.500000
 40
1.500000
  0
CIRCLE
  8
0
  6
CONTINUOUS
 62
7
 10
166.000000
 20
94.500000
 40
1.250000
  0
CIRCLE
  8
0
  6
CONTINUOUS
 62
2
 10
166.000000
 20
94.500000
 40
1.500000
  0
CIRCLE
  8
0
  6
CONTINUOUS
 62
2
 10
150.000000
 20
109.500000
 40
1.500000
  0
CIRCLE
  8
0
  6
CONTINUOUS
 62
7
 10
150.000000
 20
109.500000
 40
1.250000
  0
CIRCLE
  8
0
  6
CONTINUOUS
 62
7
 10
166.000000
 20
109.500000
 40
1.250000
  0
ARC
  8
0
  6
CONTINUOUS
 62
7
 10
178.000000
 20
110.000000
 40
3.000000
 50
326.442993
 51
145.481995
  0
CIRCLE
  8
0
  6
DASHED
 62
2
 10
178.000000
 20
110.000000
 40
2.000000
  0
CIRCLE
  8
0
  6
CONTINUOUS
 62
2
 10
118.000000
 20
110.000000
 40
2.000000
  0
CIRCLE
  8
0
  6
CONTINUOUS
 62
7
 10
118.000000
 20
94.000000
 40
3.000000
  0
CIRCLE
  8
0
  6
CONTINUOUS
 62
2
 10
118.000000
 20
94.000000
 40
2.000000
  0
CIRCLE
  8
0
  6
CONTINUOUS
 62
7
 10
118.000000
 20
110.000000
 40
3.000000
  0
ARC
  8
0
  6
DASHED
 62
2
 10
178.000000
 20
110.000000
 40
3.000000
 50
145.481995
 51
326.442993
  0
ARC
  8
0
  6
CONTINUOUS
 62
7
 10
178.000000
 20
94.000000
 40
3.000000
 50
214.518005
 51
33.556702
  0
CIRCLE
  8
0
  6
CONTINUOUS
 62
7
 10
154.750000
 20
135.000000
 40
1.250000
  0
CIRCLE
  8
0
  6
CONTINUOUS
 62
2
 10
154.750000
 20
135.000000
 40
1.500000
  0
CIRCLE
  8
0
  6
CONTINUOUS
 62
2
 10
161.250000
 20
135.000000
 40
1.500000
  0
CIRCLE
  8
0
  6
CONTINUOUS
 62
7
 10
161.250000
 20
135.000000
 40
1.250000
  0
ARC
  8
0
  6
CONTINUOUS
 62
7
 10
109.500000
 20
145.199997
 40
4.800000
 50
303.557007
 51
351.614014
  0
ARC
  8
0
  6
CONTINUOUS
 62
7
 10
128.000000
 20
147.500000
 40
3.000000
 50
270.000000
 51
301.002991
  0
CIRCLE
  8
0
  6
CONTINUOUS
 62
7
 10
128.000000
 20
147.500000
 40
1.250000
  0
CIRCLE
  8
0
  6
CONTINUOUS
 62
2
 10
128.000000
 20
147.500000
 40
1.500000
  0
CIRCLE
  8
0
  6
CONTINUOUS
 62
2
 10
112.000000
 20
146.500000
 40
1.500000
  0
ARC
  8
0
  6
CONTINUOUS
 62
7
 10
168.000000
 20
147.500000
 40
3.000000
 50
238.996994
 51
270.000000
  0
ARC
  8
0
  6
CONTINUOUS
 62
7
 10
186.500000
 20
145.199997
 40
4.800000
 50
188.384995
 51
236.442993
  0
CIRCLE
  8
0
  6
CONTINUOUS
 62
7
 10
112.000000
 20
146.500000
 40
1.250000
  0
ARC
  8
0
  6
CONTINUOUS
 62
7
 10
129.802994
 20
144.500000
 40
0.500000
 50
90.000000
 51
121.001999
  0
ARC
  8
0
  6
CONTINUOUS
 62
7
 10
166.197006
 20
144.500000
 40
0.500001
 50
58.997601
 51
90.000000
  0
CIRCLE
  8
0
  6
CONTINUOUS
 62
2
 10
168.000000
 20
147.500000
 40
1.500000
  0
CIRCLE
  8
0
  6
CONTINUOUS
 62
7
 10
168.000000
 20
147.500000
 40
1.250000
  0
CIRCLE
  8
0
  6
CONTINUOUS
 62
2
 10
184.000000
 20
146.500000
 40
1.500000
  0
CIRCLE
  8
0
  6
CONTINUOUS
 62
7
 10
184.000000
 20
146.500000
 40
1.250000
  0
CIRCLE
  8
0
  6
CONTINUOUS
 62
2
 10
-152.500000
 20
58.500000
 40
2.500000
  0
CIRCLE
  8
0
  6
CONTINUOUS
 62
7
 10
-152.500000
 20
58.500000
 40
2.100000
  0
CIRCLE
  8
0
  6
CONTINUOUS
 62
2
 10
-103.500000
 20
58.500000
 40
2.500000
  0
CIRCLE
  8
0
  6
CONTINUOUS
 62
7
 10
-103.500000
 20
58.500000
 40
2.100000
  0
CIRCLE
  8
0
  6
CONTINUOUS
 62
2
 10
108.500000
 20
58.500000
 40
2.500000
  0
CIRCLE
  8
0
  6
CONTINUOUS
 62
7
 10
108.500000
 20
58.500000
 40
2.100000
  0
CIRCLE
  8
0
  6
CONTINUOUS
 62
2
 10
187.500000
 20
58.500000
 40
2.500000
  0
CIRCLE
  8
0
  6
CONTINUOUS
 62
7
 10
187.500000
 20
58.500000
 40
2.100000
  0
CIRCLE
  8
0
  6
CONTINUOUS
 62
2
 10
-152.500000
 20
-117.500000
 40
2.500000
  0
CIRCLE
  8
0
  6
CONTINUOUS
 62
7
 10
-152.500000
 20
-117.500000
 40
2.100000
  0
CIRCLE
  8
0
  6
CONTINUOUS
 62
2
 10
-103.500000
 20
-117.500000
 40
2.500000
  0
CIRCLE
  8
0
  6
CONTINUOUS
 62
7
 10
-103.500000
 20
-117.500000
 40
2.100000
  0
CIRCLE
  8
0
  6
CONTINUOUS
 62
2
 10
108.500000
 20
-117.500000
 40
2.500000
  0
CIRCLE
  8
0
  6
CONTINUOUS
 62
7
 10
108.500000
 20
-117.500000
 40
2.100000
  0
CIRCLE
  8
0
  6
CONTINUOUS
 62
2
 10
187.500000
 20
-117.500000
 40
2.500000
  0
CIRCLE
  8
0
  6
CONTINUOUS
 62
7
 10
187.500000
 20
-117.500000
 40
2.100000
  0
CIRCLE
  8
0
  6
CONTINUOUS
 62
7
 10
118.000000
 20
110.000000
 40
1.650000
  0
CIRCLE
  8
0
  6
CONTINUOUS
 62
7
 10
118.000000
 20
94.000000
 40
1.650000
  0
CIRCLE
  8
0
  6
DASHED
 62
2
 10
178.000000
 20
110.000000
 40
1.650000
  0
CIRCLE
  8
0
  6
DASHED
 62
2
 10
178.000000
 20
94.000000
 40
1.650000
  0
CIRCLE
  8
0
  6
CONTINUOUS
 62
7
 10
118.000000
 20
-66.000000
 40
1.650000
  0
CIRCLE
  8
0
  6
CONTINUOUS
 62
7
 10
118.000000
 20
-82.000000
 40
1.650000
  0
CIRCLE
  8
0
  6
DASHED
 62
2
 10
178.000000
 20
-66.000000
 40
1.650000
  0
CIRCLE
  8
0
  6
DASHED
 62
2
 10
178.000000
 20
-82.000000
 40
1.650000
  0
CIRCLE
  8
0
  6
CONTINUOUS
 62
7
 10
-144.000000
 20
110.000000
 40
1.650000
  0
CIRCLE
  8
0
  6
CONTINUOUS
 62
7
 10
-144.000000
 20
94.000000
 40
1.650000
  0
CIRCLE
  8
0
  6
DASHED
 62
2
 10
-112.000000
 20
110.000000
 40
1.650000
  0
CIRCLE
  8
0
  6
DASHED
 62
2
 10
-112.000000
 20
94.000000
 40
1.650000
  0
CIRCLE
  8
0
  6
CONTINUOUS
 62
7
 10
-144.000000
 20
-66.000000
 40
1.650000
  0
CIRCLE
  8
0
  6
CONTINUOUS
 62
7
 10
-144.000000
 20
-82.000000
 40
1.650000
  0
CIRCLE
  8
0
  6
DASHED
 62
2
 10
-112.000000
 20
-66.000000
 40
1.650000
  0
CIRCLE
  8
0
  6
DASHED
 62
2
 10
-112.000000
 20
-82.000000
 40
1.650000
  0
TEXT
  8
0
 62
7
 10
202.930283
 20
183.925003
 40
6.300000
  1
Ver.1.0
 50
0.000000
 41
1.010330
 51
0.000000
  7
STANDARD
  0
TEXT
  8
0
 62
7
 10
172.714691
 20
-187.250000
 40
9.000000
  1
KOGANEI CORP.
 50
0.000000
 41
0.771524
 51
0.000000
  7
STANDARD
  0
TEXT
  8
0
 62
7
 10
-243.569717
 20
183.925003
 40
6.300000
  1
AP TABLE
 50
0.000000
 41
0.775607
 51
0.000000
  7
STANDARD
  0
TEXT
  8
0
 62
7
 10
12.274609
 20
158.925003
 40
6.300000
  1
MODEL:APT-SD8-20-TP
 50
0.000000
 41
0.774021
 51
0.000000
  7
STANDARD
  0
TEXT
  8
0
 62
7
 10
12.274609
 20
-16.325001
 40
6.300000
  1
MODEL:APT-GT8-20-TP
 50
0.000000
 41
0.774021
 51
0.000000
  7
STANDARD
  0
TEXT
  8
0
 62
7
 10
-269.400391
 20
158.925003
 40
6.300000
  1
MODEL:APT-SD8-10-TP
 50
0.000000
 41
0.789349
 51
0.000000
  7
STANDARD
  0
TEXT
  8
0
 62
7
 10
-269.400391
 20
-16.325001
 40
6.300000
  1
MODEL:APT-GT8-10-TP
 50
0.000000
 41
0.789349
 51
0.000000
  7
STANDARD
  0
ENDSEC
  0
EOF
