  0
SECTION
  2
HEADER
  0
ENDSEC
  0
SECTION
  2
TABLES
  0
TABLE
  2
LTYPE
 70
     4
  0
LTYPE
  2
CONTINUOUS
 70
    64
  3
Solid line
 72
    65
 73
     0
 40
0.000000
  0
LTYPE
  2
DASHED
 70
    64
  3
__ __ __ __ __ __ __ __ __ __ __ __ __ __ __
 72
    65
 73
     2
 40
3.500000
 49
2.000000
 49
-1.500000
  0
LTYPE
  2
CENTER
 70
    64
  3
____ _ ____ _ ____ _ ____ _ ____ _ ____ _ ____
 72
    65
 73
     4
 40
17.500000
 49
13.000000
 49
-1.500000
 49
1.500000
 49
-1.500000
  0
LTYPE
  2
PHANTOM
 70
    64
  3
_____ _ _ _____ _ _ _____ _ _ _____ _ _ ____  
 72
    65
 73
     6
 40
15.500000
 49
8.000000
 49
-1.500000
 49
1.500000
 49
-1.500000
 49
1.500000
 49
-1.500000
  0
ENDTAB
  0
TABLE
  2
LAYER
 70
     1
  0
LAYER
  2
0
 70
     0
 62
     7
  6
CONTINUOUS
  0
ENDTAB
  0
TABLE
  2
STYLE
 70
     1
  0
STYLE
  2
STANDARD
 70
     0
 40
0.000000
 41
1.000000
 50
0.000000
 71
     0
 42
0.200000
  3
txt
  4
BIGFONT
  0
ENDTAB
  0
TABLE
  2
VIEW
 70
     0
  0
ENDTAB
  0
ENDSEC
  0
SECTION
  2
BLOCKS
  0
ENDSEC
  0
SECTION
  2
ENTITIES
  0
LINE
  8
0
  6
CONTINUOUS
 62
7
 10
-281.250000
 20
195.500000
 11
282.100006
 21
195.500000
  0
LINE
  8
0
  6
CONTINUOUS
 62
7
 10
-281.250000
 20
195.500000
 11
-281.250000
 21
-195.000000
  0
LINE
  8
0
  6
CONTINUOUS
 62
7
 10
282.100006
 20
195.500000
 11
282.100006
 21
-195.000000
  0
LINE
  8
0
  6
CONTINUOUS
 62
7
 10
-281.250000
 20
-195.000000
 11
282.100006
 21
-195.000000
  0
LINE
  8
0
  6
CONTINUOUS
 62
7
 10
162.100006
 20
-175.000000
 11
162.100006
 21
-195.000000
  0
LINE
  8
0
  6
CONTINUOUS
 62
7
 10
162.100006
 20
-175.000000
 11
282.100006
 21
-175.000000
  0
LINE
  8
0
  6
CONTINUOUS
 62
7
 10
162.100006
 20
175.500000
 11
282.100006
 21
175.500000
  0
LINE
  8
0
  6
CONTINUOUS
 62
7
 10
-281.250000
 20
175.500000
 11
-161.250000
 21
175.500000
  0
LINE
  8
0
  6
CONTINUOUS
 62
7
 10
162.100006
 20
195.500000
 11
162.100006
 21
175.500000
  0
LINE
  8
0
  6
CONTINUOUS
 62
7
 10
-161.250000
 20
195.500000
 11
-161.250000
 21
175.500000
  0
LINE
  8
0
  6
CONTINUOUS
 62
7
 10
40.000000
 20
-16.250000
 11
55.000000
 21
-16.250000
  0
LINE
  8
0
  6
CONTINUOUS
 62
7
 10
40.000000
 20
-20.250000
 11
40.000000
 21
-23.750000
  0
LINE
  8
0
  6
CONTINUOUS
 62
7
 10
40.000000
 20
-16.250000
 11
40.000000
 21
-17.250000
  0
LINE
  8
0
  6
CONTINUOUS
 62
7
 10
31.500000
 20
-11.250000
 11
38.500000
 21
-11.250000
  0
LINE
  8
0
  6
CONTINUOUS
 62
7
 10
31.500000
 20
-23.250000
 11
40.000000
 21
-23.250000
  0
LINE
  8
0
  6
CONTINUOUS
 62
7
 10
38.799999
 20
-11.550000
 11
56.200001
 21
-11.550000
  0
LINE
  8
0
  6
CONTINUOUS
 62
7
 10
38.500000
 20
-11.250000
 11
38.799999
 21
-11.550000
  0
LINE
  8
0
  6
CONTINUOUS
 62
7
 10
55.000000
 20
-20.250000
 11
55.000000
 21
-23.750000
  0
LINE
  8
0
  6
CONTINUOUS
 62
7
 10
55.000000
 20
-16.250000
 11
55.000000
 21
-17.250000
  0
LINE
  8
0
  6
CONTINUOUS
 62
7
 10
63.500000
 20
-11.250000
 11
63.500000
 21
-23.250000
  0
LINE
  8
0
  6
CONTINUOUS
 62
7
 10
63.500000
 20
-11.250000
 11
56.500000
 21
-11.250000
  0
LINE
  8
0
  6
CONTINUOUS
 62
7
 10
63.500000
 20
-23.250000
 11
55.000000
 21
-23.250000
  0
LINE
  8
0
  6
CONTINUOUS
 62
7
 10
56.500000
 20
-11.250000
 11
56.200001
 21
-11.550000
  0
LINE
  8
0
  6
CONTINUOUS
 62
7
 10
31.500000
 20
-11.250000
 11
31.500000
 21
-23.250000
  0
LINE
  8
0
  6
CONTINUOUS
 62
7
 10
64.000000
 20
-23.750000
 11
55.000000
 21
-23.750000
  0
LINE
  8
0
  6
CONTINUOUS
 62
7
 10
64.000000
 20
-33.250000
 11
31.000000
 21
-33.250000
  0
LINE
  8
0
  6
CONTINUOUS
 62
7
 10
31.000000
 20
-23.750000
 11
40.000000
 21
-23.750000
  0
LINE
  8
0
  6
CONTINUOUS
 62
7
 10
64.000000
 20
-23.750000
 11
64.000000
 21
-33.250000
  0
LINE
  8
0
  6
CONTINUOUS
 62
7
 10
31.000000
 20
-11.750000
 11
31.000000
 21
-33.250000
  0
LINE
  8
0
  6
CENTER
 62
2
 10
-100.000000
 20
30.250000
 11
-180.000000
 21
30.250000
  0
LINE
  8
0
  6
CONTINUOUS
 62
7
 10
-153.500000
 20
-11.750000
 11
-153.500000
 21
-23.250000
  0
LINE
  8
0
  6
CONTINUOUS
 62
7
 10
-145.899994
 20
-11.250000
 11
-145.899994
 21
-23.250000
  0
LINE
  8
0
  6
CONTINUOUS
 62
7
 10
-145.899994
 20
-11.250000
 11
-119.099998
 21
-11.250000
  0
LINE
  8
0
  6
CONTINUOUS
 62
7
 10
-153.500000
 20
-23.250000
 11
-111.500000
 21
-23.250000
  0
LINE
  8
0
  6
CONTINUOUS
 62
7
 10
-153.500000
 20
-11.750000
 11
-145.899994
 21
-11.750000
  0
LINE
  8
0
  6
CONTINUOUS
 62
7
 10
-178.000000
 20
-16.250000
 11
-153.500000
 21
-16.250000
  0
LINE
  8
0
  6
CONTINUOUS
 62
7
 10
-111.500000
 20
-16.250000
 11
-102.000000
 21
-16.250000
  0
LINE
  8
0
  6
CONTINUOUS
 62
7
 10
-111.500000
 20
-11.750000
 11
-111.500000
 21
-23.250000
  0
LINE
  8
0
  6
CONTINUOUS
 62
7
 10
-119.099998
 20
-11.250000
 11
-119.099998
 21
-23.250000
  0
LINE
  8
0
  6
CONTINUOUS
 62
7
 10
-111.500000
 20
-11.750000
 11
-119.099998
 21
-11.750000
  0
LINE
  8
0
  6
CONTINUOUS
 62
7
 10
-178.000000
 20
-23.750000
 11
-169.347000
 21
-23.750000
  0
LINE
  8
0
  6
CONTINUOUS
 62
7
 10
-178.000000
 20
-33.250000
 11
-102.000000
 21
-33.250000
  0
LINE
  8
0
  6
CONTINUOUS
 62
7
 10
-178.000000
 20
-16.250000
 11
-178.000000
 21
-33.250000
  0
LINE
  8
0
  6
CONTINUOUS
 62
7
 10
-102.000000
 20
-16.250000
 11
-102.000000
 21
-33.250000
  0
LINE
  8
0
  6
CONTINUOUS
 62
7
 10
-145.899994
 20
46.250000
 11
-145.899994
 21
14.250000
  0
LINE
  8
0
  6
CONTINUOUS
 62
7
 10
-119.099998
 20
46.250000
 11
-145.899994
 21
46.250000
  0
LINE
  8
0
  6
CONTINUOUS
 62
7
 10
-119.099998
 20
14.250000
 11
-145.899994
 21
14.250000
  0
LINE
  8
0
  6
CONTINUOUS
 62
7
 10
-119.099998
 20
46.250000
 11
-119.099998
 21
14.250000
  0
LINE
  8
0
  6
CONTINUOUS
 62
7
 10
-119.099998
 20
46.049999
 11
-111.500000
 21
46.049999
  0
LINE
  8
0
  6
CONTINUOUS
 62
7
 10
-111.500000
 20
46.049999
 11
-111.500000
 21
14.450000
  0
LINE
  8
0
  6
CONTINUOUS
 62
7
 10
-119.099998
 20
14.450000
 11
-111.500000
 21
14.450000
  0
LINE
  8
0
  6
CONTINUOUS
 62
7
 10
-178.000000
 20
37.750000
 11
-153.500000
 21
37.750000
  0
LINE
  8
0
  6
CONTINUOUS
 62
7
 10
-111.500000
 20
37.750000
 11
-102.000000
 21
37.750000
  0
LINE
  8
0
  6
CONTINUOUS
 62
7
 10
-178.000000
 20
22.750000
 11
-153.500000
 21
22.750000
  0
LINE
  8
0
  6
CONTINUOUS
 62
7
 10
-111.500000
 20
22.750000
 11
-102.000000
 21
22.750000
  0
LINE
  8
0
  6
CONTINUOUS
 62
7
 10
-119.099998
 20
21.250000
 11
-145.899994
 21
21.250000
  0
LINE
  8
0
  6
CONTINUOUS
 62
7
 10
-119.099998
 20
39.250000
 11
-145.899994
 21
39.250000
  0
LINE
  8
0
  6
CONTINUOUS
 62
7
 10
-178.000000
 20
13.750000
 11
-102.000000
 21
13.750000
  0
LINE
  8
0
  6
CONTINUOUS
 62
7
 10
-178.000000
 20
13.750000
 11
-178.000000
 21
46.750000
  0
LINE
  8
0
  6
CONTINUOUS
 62
7
 10
-102.000000
 20
13.750000
 11
-102.000000
 21
46.750000
  0
LINE
  8
0
  6
CENTER
 62
2
 10
-100.000000
 20
-69.750000
 11
-180.000000
 21
-69.750000
  0
LINE
  8
0
  6
CONTINUOUS
 62
7
 10
-178.000000
 20
-86.250000
 11
-102.000000
 21
-86.250000
  0
LINE
  8
0
  6
CONTINUOUS
 62
7
 10
-178.000000
 20
-53.250000
 11
-102.000000
 21
-53.250000
  0
LINE
  8
0
  6
CONTINUOUS
 62
7
 10
-178.000000
 20
-53.250000
 11
-178.000000
 21
-86.250000
  0
LINE
  8
0
  6
CONTINUOUS
 62
7
 10
-102.000000
 20
-53.250000
 11
-102.000000
 21
-86.250000
  0
LINE
  8
0
  6
CONTINUOUS
 62
7
 10
-167.199997
 20
-27.750000
 11
-158.000000
 21
-27.750000
  0
LINE
  8
0
  6
CONTINUOUS
 62
7
 10
-128.000000
 20
-27.750000
 11
-152.000000
 21
-27.750000
  0
LINE
  8
0
  6
CONTINUOUS
 62
7
 10
-112.800003
 20
-27.750000
 11
-122.000000
 21
-27.750000
  0
LINE
  8
0
  6
CONTINUOUS
 62
7
 10
-153.500000
 20
46.049999
 11
-153.500000
 21
14.462500
  0
LINE
  8
0
  6
CONTINUOUS
 62
7
 10
-145.899994
 20
46.049999
 11
-153.500000
 21
46.049999
  0
LINE
  8
0
  6
CONTINUOUS
 62
7
 10
-145.899994
 20
14.450000
 11
-153.500000
 21
14.450000
  0
LINE
  8
0
  6
CONTINUOUS
 62
7
 10
-110.653000
 20
-23.750000
 11
-102.000000
 21
-23.750000
  0
LINE
  8
0
  6
CENTER
 62
2
 10
-117.000000
 20
24.250000
 11
-117.000000
 21
12.250000
  0
LINE
  8
0
  6
CENTER
 62
2
 10
-123.000000
 20
18.250000
 11
-111.000000
 21
18.250000
  0
LINE
  8
0
  6
CENTER
 62
2
 10
-117.000000
 20
48.250000
 11
-117.000000
 21
36.250000
  0
LINE
  8
0
  6
CENTER
 62
2
 10
-123.000000
 20
42.250000
 11
-111.000000
 21
42.250000
  0
LINE
  8
0
  6
CENTER
 62
2
 10
-122.500000
 20
46.250000
 11
-122.500000
 21
39.250000
  0
LINE
  8
0
  6
CENTER
 62
2
 10
-126.000000
 20
42.750000
 11
-119.000000
 21
42.750000
  0
LINE
  8
0
  6
CENTER
 62
2
 10
-142.500000
 20
46.250000
 11
-142.500000
 21
39.250000
  0
LINE
  8
0
  6
CENTER
 62
2
 10
-146.000000
 20
42.750000
 11
-139.000000
 21
42.750000
  0
LINE
  8
0
  6
CENTER
 62
2
 10
-122.500000
 20
21.250000
 11
-122.500000
 21
14.250000
  0
LINE
  8
0
  6
CENTER
 62
2
 10
-126.000000
 20
17.750000
 11
-119.000000
 21
17.750000
  0
LINE
  8
0
  6
CENTER
 62
2
 10
-142.500000
 20
21.250000
 11
-142.500000
 21
14.250000
  0
LINE
  8
0
  6
CENTER
 62
2
 10
-146.000000
 20
17.750000
 11
-139.000000
 21
17.750000
  0
LINE
  8
0
  6
CENTER
 62
2
 10
-163.000000
 20
24.250000
 11
-163.000000
 21
12.250000
  0
LINE
  8
0
  6
CENTER
 62
2
 10
-169.000000
 20
18.250000
 11
-157.000000
 21
18.250000
  0
LINE
  8
0
  6
CENTER
 62
2
 10
-163.000000
 20
48.250000
 11
-163.000000
 21
36.250000
  0
LINE
  8
0
  6
CENTER
 62
2
 10
-169.000000
 20
42.250000
 11
-157.000000
 21
42.250000
  0
LINE
  8
0
  6
CENTER
 62
2
 10
-125.000000
 20
-24.250000
 11
-125.000000
 21
-31.250000
  0
LINE
  8
0
  6
CENTER
 62
2
 10
-128.500000
 20
-27.750000
 11
-121.500000
 21
-27.750000
  0
LINE
  8
0
  6
CENTER
 62
2
 10
-127.500000
 20
-12.750000
 11
-127.500000
 21
-18.750000
  0
LINE
  8
0
  6
CENTER
 62
2
 10
-130.500000
 20
-15.750000
 11
-124.500000
 21
-15.750000
  0
LINE
  8
0
  6
CENTER
 62
2
 10
-137.500000
 20
-12.750000
 11
-137.500000
 21
-18.750000
  0
LINE
  8
0
  6
CENTER
 62
2
 10
-140.500000
 20
-15.750000
 11
-134.500000
 21
-15.750000
  0
LINE
  8
0
  6
CENTER
 62
2
 10
-155.000000
 20
-24.250000
 11
-155.000000
 21
-31.250000
  0
LINE
  8
0
  6
CENTER
 62
2
 10
-158.500000
 20
-27.750000
 11
-151.500000
 21
-27.750000
  0
LINE
  8
0
  6
CENTER
 62
2
 10
-163.000000
 20
-53.250000
 11
-163.000000
 21
-62.250000
  0
LINE
  8
0
  6
CENTER
 62
2
 10
-167.500000
 20
-57.750000
 11
-158.500000
 21
-57.750000
  0
LINE
  8
0
  6
CENTER
 62
2
 10
-170.000000
 20
-57.349998
 11
-170.000000
 21
-73.150002
  0
LINE
  8
0
  6
CENTER
 62
2
 10
-177.899994
 20
-65.250000
 11
-162.100006
 21
-65.250000
  0
LINE
  8
0
  6
CENTER
 62
2
 10
-117.000000
 20
-53.250000
 11
-117.000000
 21
-62.250000
  0
LINE
  8
0
  6
CENTER
 62
2
 10
-121.500000
 20
-57.750000
 11
-112.500000
 21
-57.750000
  0
LINE
  8
0
  6
CENTER
 62
2
 10
-110.000000
 20
-57.349998
 11
-110.000000
 21
-73.150002
  0
LINE
  8
0
  6
CENTER
 62
2
 10
-117.900002
 20
-65.250000
 11
-102.099998
 21
-65.250000
  0
LINE
  8
0
  6
CENTER
 62
2
 10
-117.000000
 20
-77.250000
 11
-117.000000
 21
-86.250000
  0
LINE
  8
0
  6
CENTER
 62
2
 10
-121.500000
 20
-81.750000
 11
-112.500000
 21
-81.750000
  0
LINE
  8
0
  6
CENTER
 62
2
 10
-163.000000
 20
-77.250000
 11
-163.000000
 21
-86.250000
  0
LINE
  8
0
  6
CENTER
 62
2
 10
-167.500000
 20
-81.750000
 11
-158.500000
 21
-81.750000
  0
LINE
  8
0
  6
CENTER
 62
2
 10
47.500000
 20
-9.250000
 11
47.500000
 21
-35.250000
  0
LINE
  8
0
  6
CENTER
 62
2
 10
39.099998
 20
-25.250000
 11
55.900002
 21
-25.250000
  0
LINE
  8
0
  6
CENTER
 62
2
 10
37.500000
 20
-24.250000
 11
37.500000
 21
-31.250000
  0
LINE
  8
0
  6
CENTER
 62
2
 10
34.000000
 20
-27.750000
 11
41.000000
 21
-27.750000
  0
LINE
  8
0
  6
CENTER
 62
2
 10
-163.000000
 20
-25.750000
 11
-163.000000
 21
-35.250000
  0
LINE
  8
0
  6
DASHED
 62
2
 10
-159.000000
 20
-27.750000
 11
-159.000000
 21
-28.750000
  0
LINE
  8
0
  6
DASHED
 62
2
 10
-167.000000
 20
-27.750000
 11
-167.000000
 21
-28.750000
  0
LINE
  8
0
  6
DASHED
 62
2
 10
-165.500000
 20
-28.750000
 11
-165.500000
 21
-33.250000
  0
LINE
  8
0
  6
DASHED
 62
2
 10
-160.500000
 20
-28.750000
 11
-160.500000
 21
-33.250000
  0
LINE
  8
0
  6
DASHED
 62
2
 10
-165.100006
 20
-28.750000
 11
-165.100006
 21
-33.250000
  0
LINE
  8
0
  6
DASHED
 62
2
 10
-160.899994
 20
-28.750000
 11
-160.899994
 21
-33.250000
  0
LINE
  8
0
  6
DASHED
 62
2
 10
-167.000000
 20
-28.750000
 11
-159.000000
 21
-28.750000
  0
LINE
  8
0
  6
DASHED
 62
2
 10
-121.000000
 20
-27.750000
 11
-121.000000
 21
-28.750000
  0
LINE
  8
0
  6
DASHED
 62
2
 10
-121.000000
 20
-28.750000
 11
-113.000000
 21
-28.750000
  0
LINE
  8
0
  6
DASHED
 62
2
 10
-119.500000
 20
-28.750000
 11
-119.500000
 21
-33.250000
  0
LINE
  8
0
  6
DASHED
 62
2
 10
-119.099998
 20
-28.750000
 11
-119.099998
 21
-33.250000
  0
LINE
  8
0
  6
CENTER
 62
2
 10
-117.000000
 20
-25.750000
 11
-117.000000
 21
-35.250000
  0
LINE
  8
0
  6
DASHED
 62
2
 10
-114.900002
 20
-28.750000
 11
-114.900002
 21
-33.250000
  0
LINE
  8
0
  6
DASHED
 62
2
 10
-114.500000
 20
-28.750000
 11
-114.500000
 21
-33.250000
  0
LINE
  8
0
  6
DASHED
 62
2
 10
-113.000000
 20
-27.750000
 11
-113.000000
 21
-28.750000
  0
LINE
  8
0
  6
DASHED
 62
2
 10
-159.000000
 20
93.250000
 11
-159.000000
 21
94.250000
  0
LINE
  8
0
  6
DASHED
 62
2
 10
-159.000000
 20
94.250000
 11
-167.000000
 21
94.250000
  0
LINE
  8
0
  6
DASHED
 62
2
 10
-160.500000
 20
94.250000
 11
-160.500000
 21
98.750000
  0
LINE
  8
0
  6
DASHED
 62
2
 10
-160.899994
 20
94.250000
 11
-160.899994
 21
98.750000
  0
LINE
  8
0
  6
CENTER
 62
2
 10
-163.000000
 20
91.250000
 11
-163.000000
 21
100.750000
  0
LINE
  8
0
  6
DASHED
 62
2
 10
-165.100006
 20
94.250000
 11
-165.100006
 21
98.750000
  0
LINE
  8
0
  6
DASHED
 62
2
 10
-165.500000
 20
94.250000
 11
-165.500000
 21
98.750000
  0
LINE
  8
0
  6
DASHED
 62
2
 10
-167.000000
 20
93.250000
 11
-167.000000
 21
94.250000
  0
LINE
  8
0
  6
DASHED
 62
2
 10
-113.000000
 20
93.250000
 11
-113.000000
 21
94.250000
  0
LINE
  8
0
  6
DASHED
 62
2
 10
-113.000000
 20
94.250000
 11
-121.000000
 21
94.250000
  0
LINE
  8
0
  6
DASHED
 62
2
 10
-114.500000
 20
94.250000
 11
-114.500000
 21
98.750000
  0
LINE
  8
0
  6
DASHED
 62
2
 10
-114.900002
 20
94.250000
 11
-114.900002
 21
98.750000
  0
LINE
  8
0
  6
CENTER
 62
2
 10
-117.000000
 20
91.250000
 11
-117.000000
 21
100.750000
  0
LINE
  8
0
  6
DASHED
 62
2
 10
-119.099998
 20
94.250000
 11
-119.099998
 21
98.750000
  0
LINE
  8
0
  6
DASHED
 62
2
 10
-119.500000
 20
94.250000
 11
-119.500000
 21
98.750000
  0
LINE
  8
0
  6
DASHED
 62
2
 10
-121.000000
 20
93.250000
 11
-121.000000
 21
94.250000
  0
LINE
  8
0
  6
CENTER
 62
2
 10
-122.500000
 20
78.750000
 11
-122.500000
 21
74.750000
  0
LINE
  8
0
  6
CENTER
 62
2
 10
-142.500000
 20
78.750000
 11
-142.500000
 21
74.750000
  0
LINE
  8
0
  6
CENTER
 62
2
 10
35.500000
 20
-31.250000
 11
35.500000
 21
-35.250000
  0
LINE
  8
0
  6
CENTER
 62
2
 10
59.500000
 20
-31.250000
 11
59.500000
 21
-35.250000
  0
LINE
  8
0
  6
CENTER
 62
2
 10
60.000000
 20
-9.250000
 11
60.000000
 21
-13.250000
  0
LINE
  8
0
  6
CENTER
 62
2
 10
35.000000
 20
-9.250000
 11
35.000000
 21
-13.250000
  0
LINE
  8
0
  6
CENTER
 62
2
 10
195.000000
 20
30.250000
 11
85.000000
 21
30.250000
  0
LINE
  8
0
  6
CONTINUOUS
 62
7
 10
121.150002
 20
-11.750000
 11
121.150002
 21
-23.250000
  0
LINE
  8
0
  6
CONTINUOUS
 62
7
 10
128.750000
 20
-11.250000
 11
128.750000
 21
-23.250000
  0
LINE
  8
0
  6
CONTINUOUS
 62
7
 10
128.750000
 20
-11.250000
 11
176.250000
 21
-11.250000
  0
LINE
  8
0
  6
CONTINUOUS
 62
7
 10
121.150002
 20
-23.250000
 11
183.850006
 21
-23.250000
  0
LINE
  8
0
  6
CONTINUOUS
 62
7
 10
121.150002
 20
-11.750000
 11
128.750000
 21
-11.750000
  0
LINE
  8
0
  6
CONTINUOUS
 62
7
 10
87.000000
 20
-16.250000
 11
121.150002
 21
-16.250000
  0
LINE
  8
0
  6
CONTINUOUS
 62
7
 10
183.850006
 20
-16.250000
 11
193.000000
 21
-16.250000
  0
LINE
  8
0
  6
CONTINUOUS
 62
7
 10
183.850006
 20
-11.750000
 11
183.850006
 21
-23.250000
  0
LINE
  8
0
  6
CONTINUOUS
 62
7
 10
176.250000
 20
-11.250000
 11
176.250000
 21
-23.250000
  0
LINE
  8
0
  6
CONTINUOUS
 62
7
 10
183.850006
 20
-11.750000
 11
176.250000
 21
-11.750000
  0
LINE
  8
0
  6
CONTINUOUS
 62
7
 10
87.000000
 20
-23.750000
 11
95.653297
 21
-23.750000
  0
LINE
  8
0
  6
CONTINUOUS
 62
7
 10
87.000000
 20
-33.250000
 11
193.000000
 21
-33.250000
  0
LINE
  8
0
  6
CONTINUOUS
 62
7
 10
87.000000
 20
-16.250000
 11
87.000000
 21
-33.250000
  0
LINE
  8
0
  6
CONTINUOUS
 62
7
 10
193.000000
 20
-16.250000
 11
193.000000
 21
-33.250000
  0
LINE
  8
0
  6
CONTINUOUS
 62
7
 10
128.750000
 20
46.250000
 11
128.750000
 21
14.250000
  0
LINE
  8
0
  6
CONTINUOUS
 62
7
 10
176.250000
 20
46.250000
 11
128.750000
 21
46.250000
  0
LINE
  8
0
  6
CONTINUOUS
 62
7
 10
176.250000
 20
14.250000
 11
128.750000
 21
14.250000
  0
LINE
  8
0
  6
CONTINUOUS
 62
7
 10
176.250000
 20
46.250000
 11
176.250000
 21
14.250000
  0
LINE
  8
0
  6
CONTINUOUS
 62
7
 10
176.250000
 20
46.049999
 11
183.850006
 21
46.049999
  0
LINE
  8
0
  6
CONTINUOUS
 62
7
 10
183.850006
 20
46.049999
 11
183.850006
 21
14.450000
  0
LINE
  8
0
  6
CONTINUOUS
 62
7
 10
176.250000
 20
14.450000
 11
183.850006
 21
14.450000
  0
LINE
  8
0
  6
CONTINUOUS
 62
7
 10
87.000000
 20
37.750000
 11
121.150002
 21
37.750000
  0
LINE
  8
0
  6
CONTINUOUS
 62
7
 10
183.850006
 20
37.750000
 11
193.000000
 21
37.750000
  0
LINE
  8
0
  6
CONTINUOUS
 62
7
 10
87.000000
 20
22.750000
 11
121.150002
 21
22.750000
  0
LINE
  8
0
  6
CONTINUOUS
 62
7
 10
183.850006
 20
22.750000
 11
193.000000
 21
22.750000
  0
LINE
  8
0
  6
CONTINUOUS
 62
7
 10
176.250000
 20
21.250000
 11
128.750000
 21
21.250000
  0
LINE
  8
0
  6
CONTINUOUS
 62
7
 10
176.250000
 20
39.250000
 11
128.750000
 21
39.250000
  0
LINE
  8
0
  6
CONTINUOUS
 62
7
 10
87.000000
 20
46.750000
 11
142.500000
 21
46.750000
  0
LINE
  8
0
  6
CONTINUOUS
 62
7
 10
87.000000
 20
13.750000
 11
193.000000
 21
13.750000
  0
LINE
  8
0
  6
CONTINUOUS
 62
7
 10
87.000000
 20
13.750000
 11
87.000000
 21
46.750000
  0
LINE
  8
0
  6
CONTINUOUS
 62
7
 10
193.000000
 20
13.750000
 11
193.000000
 21
46.750000
  0
LINE
  8
0
  6
CENTER
 62
2
 10
195.000000
 20
-69.750000
 11
85.000000
 21
-69.750000
  0
LINE
  8
0
  6
CONTINUOUS
 62
7
 10
87.000000
 20
-86.250000
 11
193.000000
 21
-86.250000
  0
LINE
  8
0
  6
CONTINUOUS
 62
7
 10
87.000000
 20
-53.250000
 11
193.000000
 21
-53.250000
  0
LINE
  8
0
  6
CONTINUOUS
 62
7
 10
87.000000
 20
-53.250000
 11
87.000000
 21
-86.250000
  0
LINE
  8
0
  6
CONTINUOUS
 62
7
 10
193.000000
 20
-53.250000
 11
193.000000
 21
-86.250000
  0
LINE
  8
0
  6
CONTINUOUS
 62
7
 10
97.800003
 20
-27.750000
 11
107.000000
 21
-27.750000
  0
LINE
  8
0
  6
CONTINUOUS
 62
7
 10
167.000000
 20
-27.750000
 11
113.000000
 21
-27.750000
  0
LINE
  8
0
  6
CONTINUOUS
 62
7
 10
182.199997
 20
-27.750000
 11
173.000000
 21
-27.750000
  0
LINE
  8
0
  6
CONTINUOUS
 62
7
 10
121.150002
 20
77.250000
 11
121.150002
 21
82.250000
  0
LINE
  8
0
  6
CONTINUOUS
 62
7
 10
128.750000
 20
76.750000
 11
128.750000
 21
88.750000
  0
LINE
  8
0
  6
CONTINUOUS
 62
7
 10
128.750000
 20
76.750000
 11
176.250000
 21
76.750000
  0
LINE
  8
0
  6
CONTINUOUS
 62
7
 10
121.150002
 20
88.750000
 11
168.500000
 21
88.750000
  0
LINE
  8
0
  6
CONTINUOUS
 62
7
 10
121.150002
 20
77.250000
 11
128.750000
 21
77.250000
  0
LINE
  8
0
  6
CONTINUOUS
 62
7
 10
117.500000
 20
81.750000
 11
121.150002
 21
81.750000
  0
LINE
  8
0
  6
CONTINUOUS
 62
7
 10
183.850006
 20
77.250000
 11
183.850006
 21
79.250000
  0
LINE
  8
0
  6
CONTINUOUS
 62
7
 10
176.250000
 20
76.750000
 11
176.250000
 21
77.250000
  0
LINE
  8
0
  6
CONTINUOUS
 62
7
 10
87.000000
 20
89.250000
 11
95.653297
 21
89.250000
  0
LINE
  8
0
  6
CONTINUOUS
 62
7
 10
87.000000
 20
98.750000
 11
193.000000
 21
98.750000
  0
LINE
  8
0
  6
CONTINUOUS
 62
7
 10
87.000000
 20
87.250000
 11
87.000000
 21
98.750000
  0
LINE
  8
0
  6
CONTINUOUS
 62
7
 10
193.000000
 20
87.250000
 11
193.000000
 21
98.750000
  0
LINE
  8
0
  6
CONTINUOUS
 62
7
 10
97.800003
 20
93.250000
 11
104.500000
 21
93.250000
  0
LINE
  8
0
  6
CONTINUOUS
 62
7
 10
182.199997
 20
93.250000
 11
175.500000
 21
93.250000
  0
LINE
  8
0
  6
CONTINUOUS
 62
7
 10
121.150002
 20
46.049999
 11
121.150002
 21
14.462500
  0
LINE
  8
0
  6
CONTINUOUS
 62
7
 10
128.750000
 20
14.450000
 11
121.150002
 21
14.450000
  0
LINE
  8
0
  6
CONTINUOUS
 62
7
 10
128.750000
 20
46.049999
 11
121.150002
 21
46.049999
  0
LINE
  8
0
  6
CONTINUOUS
 62
7
 10
184.347000
 20
89.250000
 11
193.000000
 21
89.250000
  0
LINE
  8
0
  6
CONTINUOUS
 62
7
 10
184.347000
 20
-23.750000
 11
193.000000
 21
-23.750000
  0
LINE
  8
0
  6
CENTER
 62
2
 10
102.000000
 20
48.250000
 11
102.000000
 21
36.250000
  0
LINE
  8
0
  6
CENTER
 62
2
 10
96.000000
 20
42.250000
 11
108.000000
 21
42.250000
  0
LINE
  8
0
  6
CENTER
 62
2
 10
102.000000
 20
24.250000
 11
102.000000
 21
12.250000
  0
LINE
  8
0
  6
CENTER
 62
2
 10
96.000000
 20
18.250000
 11
108.000000
 21
18.250000
  0
LINE
  8
0
  6
CENTER
 62
2
 10
132.500000
 20
46.250000
 11
132.500000
 21
39.250000
  0
LINE
  8
0
  6
CENTER
 62
2
 10
129.000000
 20
42.750000
 11
136.000000
 21
42.750000
  0
LINE
  8
0
  6
CENTER
 62
2
 10
152.500000
 20
46.250000
 11
152.500000
 21
39.250000
  0
LINE
  8
0
  6
CENTER
 62
2
 10
149.000000
 20
42.750000
 11
156.000000
 21
42.750000
  0
LINE
  8
0
  6
CENTER
 62
2
 10
172.500000
 20
46.250000
 11
172.500000
 21
39.250000
  0
LINE
  8
0
  6
CENTER
 62
2
 10
169.000000
 20
42.750000
 11
176.000000
 21
42.750000
  0
LINE
  8
0
  6
CENTER
 62
2
 10
178.000000
 20
48.250000
 11
178.000000
 21
36.250000
  0
LINE
  8
0
  6
CENTER
 62
2
 10
172.000000
 20
42.250000
 11
184.000000
 21
42.250000
  0
LINE
  8
0
  6
CENTER
 62
2
 10
178.000000
 20
24.250000
 11
178.000000
 21
12.250000
  0
LINE
  8
0
  6
CENTER
 62
2
 10
172.000000
 20
18.250000
 11
184.000000
 21
18.250000
  0
LINE
  8
0
  6
CENTER
 62
2
 10
172.500000
 20
21.250000
 11
172.500000
 21
14.250000
  0
LINE
  8
0
  6
CENTER
 62
2
 10
169.000000
 20
17.750000
 11
176.000000
 21
17.750000
  0
LINE
  8
0
  6
CENTER
 62
2
 10
132.500000
 20
21.250000
 11
132.500000
 21
14.250000
  0
LINE
  8
0
  6
CENTER
 62
2
 10
129.000000
 20
17.750000
 11
136.000000
 21
17.750000
  0
LINE
  8
0
  6
CENTER
 62
2
 10
152.500000
 20
21.250000
 11
152.500000
 21
14.250000
  0
LINE
  8
0
  6
CENTER
 62
2
 10
149.000000
 20
17.750000
 11
156.000000
 21
17.750000
  0
LINE
  8
0
  6
CENTER
 62
2
 10
147.500000
 20
-12.750000
 11
147.500000
 21
-18.750000
  0
LINE
  8
0
  6
CENTER
 62
2
 10
144.500000
 20
-15.750000
 11
150.500000
 21
-15.750000
  0
LINE
  8
0
  6
CENTER
 62
2
 10
157.500000
 20
-12.750000
 11
157.500000
 21
-18.750000
  0
LINE
  8
0
  6
CENTER
 62
2
 10
154.500000
 20
-15.750000
 11
160.500000
 21
-15.750000
  0
LINE
  8
0
  6
CENTER
 62
2
 10
170.000000
 20
-24.250000
 11
170.000000
 21
-31.250000
  0
LINE
  8
0
  6
CENTER
 62
2
 10
166.500000
 20
-27.750000
 11
173.500000
 21
-27.750000
  0
LINE
  8
0
  6
CENTER
 62
2
 10
110.000000
 20
-24.250000
 11
110.000000
 21
-31.250000
  0
LINE
  8
0
  6
CENTER
 62
2
 10
106.500000
 20
-27.750000
 11
113.500000
 21
-27.750000
  0
LINE
  8
0
  6
CENTER
 62
2
 10
102.000000
 20
-53.250000
 11
102.000000
 21
-62.250000
  0
LINE
  8
0
  6
CENTER
 62
2
 10
97.500000
 20
-57.750000
 11
106.500000
 21
-57.750000
  0
LINE
  8
0
  6
CENTER
 62
2
 10
95.000000
 20
-57.349998
 11
95.000000
 21
-73.150002
  0
LINE
  8
0
  6
CENTER
 62
2
 10
87.099998
 20
-65.250000
 11
102.900002
 21
-65.250000
  0
LINE
  8
0
  6
CENTER
 62
2
 10
102.000000
 20
-77.250000
 11
102.000000
 21
-86.250000
  0
LINE
  8
0
  6
CENTER
 62
2
 10
97.500000
 20
-81.750000
 11
106.500000
 21
-81.750000
  0
LINE
  8
0
  6
CENTER
 62
2
 10
178.000000
 20
-53.250000
 11
178.000000
 21
-62.250000
  0
LINE
  8
0
  6
CENTER
 62
2
 10
173.500000
 20
-57.750000
 11
182.500000
 21
-57.750000
  0
LINE
  8
0
  6
CENTER
 62
2
 10
178.000000
 20
-77.250000
 11
178.000000
 21
-86.250000
  0
LINE
  8
0
  6
CENTER
 62
2
 10
173.500000
 20
-81.750000
 11
182.500000
 21
-81.750000
  0
LINE
  8
0
  6
CENTER
 62
2
 10
185.000000
 20
-57.349998
 11
185.000000
 21
-73.150002
  0
LINE
  8
0
  6
CENTER
 62
2
 10
177.100006
 20
-65.250000
 11
192.899994
 21
-65.250000
  0
LINE
  8
0
  6
DASHED
 62
2
 10
106.000000
 20
93.250000
 11
106.000000
 21
94.250000
  0
LINE
  8
0
  6
DASHED
 62
2
 10
106.000000
 20
94.250000
 11
98.000000
 21
94.250000
  0
LINE
  8
0
  6
DASHED
 62
2
 10
104.500000
 20
94.250000
 11
104.500000
 21
98.750000
  0
LINE
  8
0
  6
DASHED
 62
2
 10
104.099998
 20
94.250000
 11
104.099998
 21
98.750000
  0
LINE
  8
0
  6
CENTER
 62
2
 10
102.000000
 20
91.250000
 11
102.000000
 21
100.750000
  0
LINE
  8
0
  6
DASHED
 62
2
 10
99.900002
 20
94.250000
 11
99.900002
 21
98.750000
  0
LINE
  8
0
  6
DASHED
 62
2
 10
99.500000
 20
94.250000
 11
99.500000
 21
98.750000
  0
LINE
  8
0
  6
DASHED
 62
2
 10
98.000000
 20
93.250000
 11
98.000000
 21
94.250000
  0
LINE
  8
0
  6
DASHED
 62
2
 10
182.000000
 20
93.250000
 11
182.000000
 21
94.250000
  0
LINE
  8
0
  6
DASHED
 62
2
 10
182.000000
 20
94.250000
 11
174.000000
 21
94.250000
  0
LINE
  8
0
  6
DASHED
 62
2
 10
180.500000
 20
94.250000
 11
180.500000
 21
98.750000
  0
LINE
  8
0
  6
DASHED
 62
2
 10
180.100006
 20
94.250000
 11
180.100006
 21
98.750000
  0
LINE
  8
0
  6
CENTER
 62
2
 10
178.000000
 20
91.250000
 11
178.000000
 21
100.750000
  0
LINE
  8
0
  6
DASHED
 62
2
 10
175.899994
 20
94.250000
 11
175.899994
 21
98.750000
  0
LINE
  8
0
  6
DASHED
 62
2
 10
175.500000
 20
94.250000
 11
175.500000
 21
98.750000
  0
LINE
  8
0
  6
DASHED
 62
2
 10
174.000000
 20
93.250000
 11
174.000000
 21
94.250000
  0
LINE
  8
0
  6
DASHED
 62
2
 10
98.000000
 20
-27.750000
 11
98.000000
 21
-28.750000
  0
LINE
  8
0
  6
DASHED
 62
2
 10
98.000000
 20
-28.750000
 11
106.000000
 21
-28.750000
  0
LINE
  8
0
  6
DASHED
 62
2
 10
99.500000
 20
-28.750000
 11
99.500000
 21
-33.250000
  0
LINE
  8
0
  6
DASHED
 62
2
 10
99.900002
 20
-28.750000
 11
99.900002
 21
-33.250000
  0
LINE
  8
0
  6
CENTER
 62
2
 10
102.000000
 20
-25.750000
 11
102.000000
 21
-35.250000
  0
LINE
  8
0
  6
DASHED
 62
2
 10
104.099998
 20
-28.750000
 11
104.099998
 21
-33.250000
  0
LINE
  8
0
  6
DASHED
 62
2
 10
104.500000
 20
-28.750000
 11
104.500000
 21
-33.250000
  0
LINE
  8
0
  6
DASHED
 62
2
 10
106.000000
 20
-27.750000
 11
106.000000
 21
-28.750000
  0
LINE
  8
0
  6
DASHED
 62
2
 10
174.000000
 20
-27.750000
 11
174.000000
 21
-28.750000
  0
LINE
  8
0
  6
DASHED
 62
2
 10
174.000000
 20
-28.750000
 11
182.000000
 21
-28.750000
  0
LINE
  8
0
  6
DASHED
 62
2
 10
175.500000
 20
-28.750000
 11
175.500000
 21
-33.250000
  0
LINE
  8
0
  6
DASHED
 62
2
 10
175.899994
 20
-28.750000
 11
175.899994
 21
-33.250000
  0
LINE
  8
0
  6
CENTER
 62
2
 10
178.000000
 20
-25.750000
 11
178.000000
 21
-35.250000
  0
LINE
  8
0
  6
DASHED
 62
2
 10
180.100006
 20
-28.750000
 11
180.100006
 21
-33.250000
  0
LINE
  8
0
  6
DASHED
 62
2
 10
180.500000
 20
-28.750000
 11
180.500000
 21
-33.250000
  0
LINE
  8
0
  6
DASHED
 62
2
 10
182.000000
 20
-27.750000
 11
182.000000
 21
-28.750000
  0
LINE
  8
0
  6
CENTER
 62
2
 10
172.500000
 20
78.750000
 11
172.500000
 21
74.750000
  0
LINE
  8
0
  6
CENTER
 62
2
 10
152.500000
 20
78.750000
 11
152.500000
 21
74.750000
  0
LINE
  8
0
  6
CENTER
 62
2
 10
132.500000
 20
78.750000
 11
132.500000
 21
74.750000
  0
LINE
  8
0
  6
CENTER
 62
2
 10
172.500000
 20
-9.250000
 11
172.500000
 21
-13.250000
  0
LINE
  8
0
  6
CENTER
 62
2
 10
152.500000
 20
-9.250000
 11
152.500000
 21
-13.250000
  0
LINE
  8
0
  6
CENTER
 62
2
 10
132.500000
 20
-9.250000
 11
132.500000
 21
-13.250000
  0
LINE
  8
0
  6
CONTINUOUS
 62
7
 10
19.000000
 20
-11.750000
 11
19.000000
 21
-32.750000
  0
LINE
  8
0
  6
CONTINUOUS
 62
7
 10
31.000000
 20
-32.750000
 11
19.000000
 21
-32.750000
  0
LINE
  8
0
  6
CONTINUOUS
 62
7
 10
31.500000
 20
-11.750000
 11
19.000000
 21
-11.750000
  0
LINE
  8
0
  6
CENTER
 62
2
 10
25.000000
 20
-10.750000
 11
25.000000
 21
-24.750000
  0
LINE
  8
0
  6
CENTER
 62
2
 10
32.000000
 20
-17.750000
 11
18.000000
 21
-17.750000
  0
LINE
  8
0
  6
CONTINUOUS
 62
7
 10
25.673300
 20
-23.712099
 11
29.826700
 21
-21.314199
  0
LINE
  8
0
  6
CONTINUOUS
 62
7
 10
20.173300
 20
-21.314199
 11
24.326700
 21
-23.712099
  0
LINE
  8
0
  6
CONTINUOUS
 62
7
 10
19.500000
 20
-15.352100
 11
19.500000
 21
-20.147900
  0
LINE
  8
0
  6
CONTINUOUS
 62
7
 10
24.326599
 20
-11.787900
 11
20.173300
 21
-14.185800
  0
LINE
  8
0
  6
CONTINUOUS
 62
7
 10
29.826700
 20
-14.185800
 11
25.673401
 21
-11.787900
  0
LINE
  8
0
  6
CONTINUOUS
 62
7
 10
26.636299
 20
-18.500000
 11
28.929001
 21
-18.500000
  0
LINE
  8
0
  6
CONTINUOUS
 62
7
 10
26.636299
 20
-17.000000
 11
28.929001
 21
-17.000000
  0
LINE
  8
0
  6
CONTINUOUS
 62
7
 10
21.070900
 20
-17.000000
 11
23.363701
 21
-17.000000
  0
LINE
  8
0
  6
CONTINUOUS
 62
7
 10
21.070900
 20
-18.500000
 11
23.363701
 21
-18.500000
  0
LINE
  8
0
  6
CONTINUOUS
 62
7
 10
30.500000
 20
-15.352100
 11
30.500000
 21
-20.147900
  0
LINE
  8
0
  6
CONTINUOUS
 62
7
 10
240.000000
 20
-16.250000
 11
225.000000
 21
-16.250000
  0
LINE
  8
0
  6
CONTINUOUS
 62
7
 10
240.000000
 20
-20.250000
 11
240.000000
 21
-23.750000
  0
LINE
  8
0
  6
CONTINUOUS
 62
7
 10
240.000000
 20
-16.250000
 11
240.000000
 21
-17.250000
  0
LINE
  8
0
  6
CONTINUOUS
 62
7
 10
248.500000
 20
-11.250000
 11
241.500000
 21
-11.250000
  0
LINE
  8
0
  6
CONTINUOUS
 62
7
 10
248.500000
 20
-23.250000
 11
240.000000
 21
-23.250000
  0
LINE
  8
0
  6
CONTINUOUS
 62
7
 10
241.199997
 20
-11.550000
 11
223.800003
 21
-11.550000
  0
LINE
  8
0
  6
CONTINUOUS
 62
7
 10
241.500000
 20
-11.250000
 11
241.199997
 21
-11.550000
  0
LINE
  8
0
  6
CONTINUOUS
 62
7
 10
225.000000
 20
-20.250000
 11
225.000000
 21
-23.750000
  0
LINE
  8
0
  6
CONTINUOUS
 62
7
 10
225.000000
 20
-16.250000
 11
225.000000
 21
-17.250000
  0
LINE
  8
0
  6
CONTINUOUS
 62
7
 10
216.500000
 20
-11.250000
 11
216.500000
 21
-23.250000
  0
LINE
  8
0
  6
CONTINUOUS
 62
7
 10
216.500000
 20
-11.250000
 11
223.500000
 21
-11.250000
  0
LINE
  8
0
  6
CONTINUOUS
 62
7
 10
216.500000
 20
-23.250000
 11
225.000000
 21
-23.250000
  0
LINE
  8
0
  6
CONTINUOUS
 62
7
 10
223.500000
 20
-11.250000
 11
223.800003
 21
-11.550000
  0
LINE
  8
0
  6
CONTINUOUS
 62
7
 10
248.500000
 20
-11.250000
 11
248.500000
 21
-23.250000
  0
LINE
  8
0
  6
CONTINUOUS
 62
7
 10
216.000000
 20
-23.750000
 11
225.000000
 21
-23.750000
  0
LINE
  8
0
  6
CONTINUOUS
 62
7
 10
216.000000
 20
-33.250000
 11
249.000000
 21
-33.250000
  0
LINE
  8
0
  6
CONTINUOUS
 62
7
 10
249.000000
 20
-23.750000
 11
240.000000
 21
-23.750000
  0
LINE
  8
0
  6
CONTINUOUS
 62
7
 10
216.000000
 20
-23.750000
 11
216.000000
 21
-33.250000
  0
LINE
  8
0
  6
CONTINUOUS
 62
7
 10
249.000000
 20
-11.750000
 11
249.000000
 21
-33.250000
  0
LINE
  8
0
  6
CENTER
 62
2
 10
232.500000
 20
-9.250000
 11
232.500000
 21
-35.250000
  0
LINE
  8
0
  6
CENTER
 62
2
 10
240.899994
 20
-25.250000
 11
224.100006
 21
-25.250000
  0
LINE
  8
0
  6
CENTER
 62
2
 10
242.500000
 20
-24.250000
 11
242.500000
 21
-31.250000
  0
LINE
  8
0
  6
CENTER
 62
2
 10
246.000000
 20
-27.750000
 11
239.000000
 21
-27.750000
  0
LINE
  8
0
  6
CENTER
 62
2
 10
244.500000
 20
-31.250000
 11
244.500000
 21
-35.250000
  0
LINE
  8
0
  6
CENTER
 62
2
 10
220.500000
 20
-31.250000
 11
220.500000
 21
-35.250000
  0
LINE
  8
0
  6
CENTER
 62
2
 10
220.000000
 20
-9.250000
 11
220.000000
 21
-13.250000
  0
LINE
  8
0
  6
CENTER
 62
2
 10
245.000000
 20
-9.250000
 11
245.000000
 21
-13.250000
  0
LINE
  8
0
  6
CONTINUOUS
 62
7
 10
261.000000
 20
-11.750000
 11
261.000000
 21
-32.750000
  0
LINE
  8
0
  6
CONTINUOUS
 62
7
 10
249.000000
 20
-32.750000
 11
261.000000
 21
-32.750000
  0
LINE
  8
0
  6
CONTINUOUS
 62
7
 10
248.500000
 20
-11.750000
 11
261.000000
 21
-11.750000
  0
LINE
  8
0
  6
CENTER
 62
2
 10
255.000000
 20
-10.750000
 11
255.000000
 21
-24.750000
  0
LINE
  8
0
  6
CENTER
 62
2
 10
248.000000
 20
-17.750000
 11
262.000000
 21
-17.750000
  0
LINE
  8
0
  6
CONTINUOUS
 62
7
 10
254.326996
 20
-23.712099
 11
250.173004
 21
-21.314199
  0
LINE
  8
0
  6
CONTINUOUS
 62
7
 10
259.826996
 20
-21.314199
 11
255.673004
 21
-23.712099
  0
LINE
  8
0
  6
CONTINUOUS
 62
7
 10
260.500000
 20
-15.352100
 11
260.500000
 21
-20.147900
  0
LINE
  8
0
  6
CONTINUOUS
 62
7
 10
255.673004
 20
-11.787900
 11
259.826996
 21
-14.185800
  0
LINE
  8
0
  6
CONTINUOUS
 62
7
 10
250.173004
 20
-14.185800
 11
254.326996
 21
-11.787900
  0
LINE
  8
0
  6
CONTINUOUS
 62
7
 10
253.363998
 20
-18.500000
 11
251.070999
 21
-18.500000
  0
LINE
  8
0
  6
CONTINUOUS
 62
7
 10
253.363998
 20
-17.000000
 11
251.070999
 21
-17.000000
  0
LINE
  8
0
  6
CONTINUOUS
 62
7
 10
258.928986
 20
-17.000000
 11
256.635986
 21
-17.000000
  0
LINE
  8
0
  6
CONTINUOUS
 62
7
 10
258.928986
 20
-18.500000
 11
256.635986
 21
-18.500000
  0
LINE
  8
0
  6
CONTINUOUS
 62
7
 10
249.500000
 20
-15.352100
 11
249.500000
 21
-20.147900
  0
LINE
  8
0
  6
CONTINUOUS
 62
7
 10
-178.000000
 20
-21.750000
 11
-188.500000
 21
-21.750000
  0
LINE
  8
0
  6
CONTINUOUS
 62
7
 10
-102.500000
 20
-11.750000
 11
-110.500000
 21
-11.750000
  0
LINE
  8
0
  6
CONTINUOUS
 62
7
 10
-102.500000
 20
-15.352100
 11
-104.500000
 21
-15.352100
  0
LINE
  8
0
  6
CONTINUOUS
 62
7
 10
-102.500000
 20
-16.250000
 11
-102.500000
 21
-11.750000
  0
LINE
  8
0
  6
CONTINUOUS
 62
7
 10
-102.500000
 20
-14.185800
 11
-104.500000
 21
-14.185800
  0
LINE
  8
0
  6
CONTINUOUS
 62
7
 10
-90.500000
 20
-21.049999
 11
-90.500000
 21
-18.500000
  0
LINE
  8
0
  6
CONTINUOUS
 62
7
 10
-91.500000
 20
-21.049999
 11
-90.500000
 21
-21.049999
  0
LINE
  8
0
  6
CONTINUOUS
 62
7
 10
-91.500000
 20
-21.750000
 11
-91.500000
 21
-13.750000
  0
LINE
  8
0
  6
CONTINUOUS
 62
7
 10
-91.500000
 20
-18.500000
 11
-90.500000
 21
-18.500000
  0
LINE
  8
0
  6
CONTINUOUS
 62
7
 10
-91.500000
 20
-17.000000
 11
-90.500000
 21
-17.000000
  0
LINE
  8
0
  6
CONTINUOUS
 62
7
 10
-90.500000
 20
-17.000000
 11
-90.500000
 21
-14.450000
  0
LINE
  8
0
  6
CONTINUOUS
 62
7
 10
-91.500000
 20
-14.450000
 11
-90.500000
 21
-14.450000
  0
LINE
  8
0
  6
CONTINUOUS
 62
7
 10
-102.500000
 20
-13.750000
 11
-91.500000
 21
-13.750000
  0
LINE
  8
0
  6
CONTINUOUS
 62
2
 10
-102.500000
 20
-14.450000
 11
-91.500000
 21
-14.450000
  0
LINE
  8
0
  6
CONTINUOUS
 62
2
 10
-102.000000
 20
-21.049999
 11
-91.500000
 21
-21.049999
  0
LINE
  8
0
  6
CONTINUOUS
 62
7
 10
-102.000000
 20
-21.750000
 11
-91.500000
 21
-21.750000
  0
LINE
  8
0
  6
CONTINUOUS
 62
7
 10
-110.500000
 20
-16.250000
 11
-110.500000
 21
-11.750000
  0
LINE
  8
0
  6
CONTINUOUS
 62
7
 10
-111.500000
 20
-13.750000
 11
-110.500000
 21
-13.750000
  0
LINE
  8
0
  6
CONTINUOUS
 62
2
 10
-111.500000
 20
-14.450000
 11
-110.500000
 21
-14.450000
  0
LINE
  8
0
  6
CONTINUOUS
 62
2
 10
-177.500000
 20
-14.450000
 11
-188.500000
 21
-14.450000
  0
LINE
  8
0
  6
CONTINUOUS
 62
7
 10
-157.500000
 20
-12.250000
 11
-157.500000
 21
-16.250000
  0
LINE
  8
0
  6
CONTINUOUS
 62
7
 10
-163.500000
 20
-13.750000
 11
-169.500000
 21
-13.750000
  0
LINE
  8
0
  6
CONTINUOUS
 62
2
 10
-178.000000
 20
-21.049999
 11
-188.500000
 21
-21.049999
  0
LINE
  8
0
  6
CONTINUOUS
 62
7
 10
-169.500000
 20
-16.250000
 11
-169.500000
 21
-11.750000
  0
LINE
  8
0
  6
CONTINUOUS
 62
7
 10
-169.500000
 20
-11.750000
 11
-177.500000
 21
-11.750000
  0
LINE
  8
0
  6
CONTINUOUS
 62
7
 10
-177.500000
 20
-11.750000
 11
-177.500000
 21
-16.250000
  0
LINE
  8
0
  6
CONTINUOUS
 62
7
 10
-177.500000
 20
-14.185800
 11
-175.500000
 21
-14.185800
  0
LINE
  8
0
  6
CONTINUOUS
 62
7
 10
-177.500000
 20
-15.352100
 11
-175.500000
 21
-15.352100
  0
LINE
  8
0
  6
CONTINUOUS
 62
7
 10
-177.500000
 20
-13.750000
 11
-188.500000
 21
-13.750000
  0
LINE
  8
0
  6
CONTINUOUS
 62
2
 10
-163.500000
 20
-14.450000
 11
-169.500000
 21
-14.450000
  0
LINE
  8
0
  6
CENTER
 62
2
 10
-89.500000
 20
-17.750000
 11
-104.000000
 21
-17.750000
  0
LINE
  8
0
  6
CONTINUOUS
 62
7
 10
-189.500000
 20
-14.450000
 11
-189.500000
 21
-17.000000
  0
LINE
  8
0
  6
CONTINUOUS
 62
7
 10
-188.500000
 20
-14.450000
 11
-189.500000
 21
-14.450000
  0
LINE
  8
0
  6
CONTINUOUS
 62
7
 10
-188.500000
 20
-13.750000
 11
-188.500000
 21
-21.750000
  0
LINE
  8
0
  6
CONTINUOUS
 62
7
 10
-188.500000
 20
-17.000000
 11
-189.500000
 21
-17.000000
  0
LINE
  8
0
  6
CONTINUOUS
 62
7
 10
-188.500000
 20
-18.500000
 11
-189.500000
 21
-18.500000
  0
LINE
  8
0
  6
CONTINUOUS
 62
7
 10
-189.500000
 20
-18.500000
 11
-189.500000
 21
-21.049999
  0
LINE
  8
0
  6
CONTINUOUS
 62
7
 10
-188.500000
 20
-21.049999
 11
-189.500000
 21
-21.049999
  0
LINE
  8
0
  6
CONTINUOUS
 62
7
 10
-163.500000
 20
-12.250000
 11
-163.500000
 21
-16.250000
  0
LINE
  8
0
  6
CONTINUOUS
 62
7
 10
-163.500000
 20
-12.250000
 11
-157.500000
 21
-12.250000
  0
LINE
  8
0
  6
CONTINUOUS
 62
7
 10
-175.500000
 20
-16.250000
 11
-175.500000
 21
-11.750000
  0
LINE
  8
0
  6
CONTINUOUS
 62
7
 10
-104.500000
 20
-16.250000
 11
-104.500000
 21
-11.750000
  0
LINE
  8
0
  6
CENTER
 62
2
 10
-176.000000
 20
-17.750000
 11
-190.500000
 21
-17.750000
  0
LINE
  8
0
  6
CONTINUOUS
 62
7
 10
-104.500000
 20
-98.250000
 11
-175.500000
 21
-98.250000
  0
LINE
  8
0
  6
CONTINUOUS
 62
7
 10
-104.500000
 20
-98.250000
 11
-104.500000
 21
-86.250000
  0
LINE
  8
0
  6
CENTER
 62
2
 10
-89.500000
 20
-92.250000
 11
-106.346001
 21
-92.250000
  0
LINE
  8
0
  6
CONTINUOUS
 62
7
 10
-90.500000
 20
-95.550003
 11
-90.500000
 21
-88.949997
  0
LINE
  8
0
  6
CONTINUOUS
 62
7
 10
-91.500000
 20
-95.550003
 11
-90.500000
 21
-95.550003
  0
LINE
  8
0
  6
CONTINUOUS
 62
7
 10
-91.500000
 20
-96.250000
 11
-91.500000
 21
-88.250000
  0
LINE
  8
0
  6
CONTINUOUS
 62
7
 10
-91.500000
 20
-88.949997
 11
-90.500000
 21
-88.949997
  0
LINE
  8
0
  6
CONTINUOUS
 62
7
 10
-102.500000
 20
-88.250000
 11
-91.500000
 21
-88.250000
  0
LINE
  8
0
  6
CONTINUOUS
 62
2
 10
-102.500000
 20
-88.949997
 11
-91.500000
 21
-88.949997
  0
LINE
  8
0
  6
CONTINUOUS
 62
2
 10
-102.500000
 20
-95.550003
 11
-91.500000
 21
-95.550003
  0
LINE
  8
0
  6
CONTINUOUS
 62
7
 10
-102.500000
 20
-96.250000
 11
-91.500000
 21
-96.250000
  0
LINE
  8
0
  6
CONTINUOUS
 62
7
 10
-104.500000
 20
-86.750000
 11
-102.500000
 21
-86.750000
  0
LINE
  8
0
  6
CONTINUOUS
 62
7
 10
-102.500000
 20
-97.750000
 11
-102.500000
 21
-86.750000
  0
LINE
  8
0
  6
CONTINUOUS
 62
7
 10
-104.500000
 20
-97.750000
 11
-102.500000
 21
-97.750000
  0
LINE
  8
0
  6
CONTINUOUS
 62
7
 10
-104.500000
 20
-92.923302
 11
-102.500000
 21
-92.923302
  0
LINE
  8
0
  6
CONTINUOUS
 62
7
 10
-104.500000
 20
-91.576698
 11
-102.500000
 21
-91.576698
  0
LINE
  8
0
  6
CONTINUOUS
 62
7
 10
-104.500000
 20
-97.076698
 11
-102.500000
 21
-97.076698
  0
LINE
  8
0
  6
CONTINUOUS
 62
7
 10
-104.500000
 20
-87.423302
 11
-102.500000
 21
-87.423302
  0
LINE
  8
0
  6
CONTINUOUS
 62
7
 10
-175.500000
 20
-98.250000
 11
-175.500000
 21
-86.250000
  0
LINE
  8
0
  6
CONTINUOUS
 62
7
 10
-175.500000
 20
-97.750000
 11
-177.500000
 21
-97.750000
  0
LINE
  8
0
  6
CONTINUOUS
 62
7
 10
-177.500000
 20
-86.750000
 11
-177.500000
 21
-97.750000
  0
LINE
  8
0
  6
CONTINUOUS
 62
7
 10
-175.500000
 20
-86.750000
 11
-177.500000
 21
-86.750000
  0
LINE
  8
0
  6
CONTINUOUS
 62
7
 10
-175.500000
 20
-91.576599
 11
-177.500000
 21
-91.576599
  0
LINE
  8
0
  6
CONTINUOUS
 62
7
 10
-175.500000
 20
-92.923302
 11
-177.500000
 21
-92.923302
  0
LINE
  8
0
  6
CONTINUOUS
 62
7
 10
-175.500000
 20
-87.423302
 11
-177.500000
 21
-87.423302
  0
LINE
  8
0
  6
CONTINUOUS
 62
7
 10
-175.500000
 20
-97.076698
 11
-177.500000
 21
-97.076698
  0
LINE
  8
0
  6
CENTER
 62
2
 10
-174.498001
 20
-92.250000
 11
-190.500000
 21
-92.250000
  0
LINE
  8
0
  6
CONTINUOUS
 62
7
 10
-188.500000
 20
-88.949997
 11
-189.500000
 21
-88.949997
  0
LINE
  8
0
  6
CONTINUOUS
 62
7
 10
-188.500000
 20
-88.250000
 11
-188.500000
 21
-96.250000
  0
LINE
  8
0
  6
CONTINUOUS
 62
7
 10
-189.500000
 20
-88.949997
 11
-189.500000
 21
-95.550003
  0
LINE
  8
0
  6
CONTINUOUS
 62
7
 10
-188.500000
 20
-95.550003
 11
-189.500000
 21
-95.550003
  0
LINE
  8
0
  6
CONTINUOUS
 62
7
 10
-177.500000
 20
-88.250000
 11
-188.500000
 21
-88.250000
  0
LINE
  8
0
  6
CONTINUOUS
 62
2
 10
-177.500000
 20
-88.949997
 11
-188.500000
 21
-88.949997
  0
LINE
  8
0
  6
CONTINUOUS
 62
2
 10
-177.500000
 20
-95.550003
 11
-188.500000
 21
-95.550003
  0
LINE
  8
0
  6
CONTINUOUS
 62
7
 10
-177.500000
 20
-96.250000
 11
-188.500000
 21
-96.250000
  0
LINE
  8
0
  6
CONTINUOUS
 62
7
 10
-122.500000
 20
58.250000
 11
-122.500000
 21
46.250000
  0
LINE
  8
0
  6
CONTINUOUS
 62
7
 10
-122.500000
 20
56.250000
 11
-142.500000
 21
56.250000
  0
LINE
  8
0
  6
CONTINUOUS
 62
7
 10
-142.500000
 20
56.250000
 11
-142.500000
 21
46.250000
  0
LINE
  8
0
  6
CONTINUOUS
 62
7
 10
-122.500000
 20
46.750000
 11
-102.000000
 21
46.750000
  0
LINE
  8
0
  6
CONTINUOUS
 62
7
 10
-178.000000
 20
46.750000
 11
-142.500000
 21
46.750000
  0
LINE
  8
0
  6
CONTINUOUS
 62
7
 10
-175.500000
 20
58.750000
 11
-104.500000
 21
58.750000
  0
LINE
  8
0
  6
CONTINUOUS
 62
7
 10
-175.500000
 20
58.750000
 11
-175.500000
 21
46.750000
  0
LINE
  8
0
  6
CONTINUOUS
 62
7
 10
-169.500000
 20
58.750000
 11
-169.500000
 21
46.750000
  0
LINE
  8
0
  6
CONTINUOUS
 62
7
 10
-110.500000
 20
58.750000
 11
-110.500000
 21
46.750000
  0
LINE
  8
0
  6
CONTINUOUS
 62
7
 10
-104.500000
 20
58.750000
 11
-104.500000
 21
46.750000
  0
LINE
  8
0
  6
CENTER
 62
2
 10
-190.500000
 20
52.750000
 11
-152.500000
 21
52.750000
  0
LINE
  8
0
  6
CONTINUOUS
 62
7
 10
-189.500000
 20
56.049999
 11
-189.500000
 21
49.450001
  0
LINE
  8
0
  6
CONTINUOUS
 62
7
 10
-188.500000
 20
56.049999
 11
-189.500000
 21
56.049999
  0
LINE
  8
0
  6
CONTINUOUS
 62
7
 10
-188.500000
 20
56.750000
 11
-188.500000
 21
48.750000
  0
LINE
  8
0
  6
CONTINUOUS
 62
7
 10
-188.500000
 20
49.450001
 11
-189.500000
 21
49.450001
  0
LINE
  8
0
  6
CONTINUOUS
 62
7
 10
-177.500000
 20
48.750000
 11
-188.500000
 21
48.750000
  0
LINE
  8
0
  6
CONTINUOUS
 62
2
 10
-177.500000
 20
49.450001
 11
-188.500000
 21
49.450001
  0
LINE
  8
0
  6
CONTINUOUS
 62
2
 10
-177.500000
 20
56.049999
 11
-188.500000
 21
56.049999
  0
LINE
  8
0
  6
CONTINUOUS
 62
7
 10
-177.500000
 20
56.750000
 11
-188.500000
 21
56.750000
  0
LINE
  8
0
  6
CONTINUOUS
 62
7
 10
-163.500000
 20
48.750000
 11
-169.500000
 21
48.750000
  0
LINE
  8
0
  6
CONTINUOUS
 62
2
 10
-163.500000
 20
49.450001
 11
-169.500000
 21
49.450001
  0
LINE
  8
0
  6
CONTINUOUS
 62
2
 10
-163.500000
 20
56.049999
 11
-169.500000
 21
56.049999
  0
LINE
  8
0
  6
CONTINUOUS
 62
7
 10
-163.500000
 20
56.750000
 11
-169.500000
 21
56.750000
  0
LINE
  8
0
  6
CONTINUOUS
 62
7
 10
-163.500000
 20
58.250000
 11
-163.500000
 21
47.250000
  0
LINE
  8
0
  6
CONTINUOUS
 62
7
 10
-163.500000
 20
58.250000
 11
-157.500000
 21
58.250000
  0
LINE
  8
0
  6
CONTINUOUS
 62
7
 10
-157.500000
 20
58.250000
 11
-157.500000
 21
47.250000
  0
LINE
  8
0
  6
CONTINUOUS
 62
7
 10
-153.500000
 20
53.750000
 11
-157.500000
 21
53.750000
  0
LINE
  8
0
  6
CONTINUOUS
 62
7
 10
-153.500000
 20
51.750000
 11
-153.500000
 21
53.750000
  0
LINE
  8
0
  6
CONTINUOUS
 62
7
 10
-153.500000
 20
51.750000
 11
-157.500000
 21
51.750000
  0
LINE
  8
0
  6
CONTINUOUS
 62
7
 10
-163.500000
 20
47.250000
 11
-157.500000
 21
47.250000
  0
LINE
  8
0
  6
CONTINUOUS
 62
7
 10
-175.500000
 20
47.250000
 11
-177.500000
 21
47.250000
  0
LINE
  8
0
  6
CONTINUOUS
 62
7
 10
-177.500000
 20
58.250000
 11
-177.500000
 21
47.250000
  0
LINE
  8
0
  6
CONTINUOUS
 62
7
 10
-175.500000
 20
58.250000
 11
-177.500000
 21
58.250000
  0
LINE
  8
0
  6
CONTINUOUS
 62
7
 10
-175.500000
 20
53.423302
 11
-177.500000
 21
53.423302
  0
LINE
  8
0
  6
CONTINUOUS
 62
7
 10
-175.500000
 20
52.076698
 11
-177.500000
 21
52.076698
  0
LINE
  8
0
  6
CONTINUOUS
 62
7
 10
-175.500000
 20
57.576599
 11
-177.500000
 21
57.576599
  0
LINE
  8
0
  6
CONTINUOUS
 62
7
 10
-175.500000
 20
47.923302
 11
-177.500000
 21
47.923302
  0
LINE
  8
0
  6
CONTINUOUS
 62
7
 10
-104.500000
 20
58.250000
 11
-102.500000
 21
58.250000
  0
LINE
  8
0
  6
CONTINUOUS
 62
7
 10
-102.500000
 20
47.250000
 11
-102.500000
 21
58.250000
  0
LINE
  8
0
  6
CONTINUOUS
 62
7
 10
-104.500000
 20
47.250000
 11
-102.500000
 21
47.250000
  0
LINE
  8
0
  6
CONTINUOUS
 62
7
 10
-104.500000
 20
52.076599
 11
-102.500000
 21
52.076599
  0
LINE
  8
0
  6
CONTINUOUS
 62
7
 10
-104.500000
 20
53.423302
 11
-102.500000
 21
53.423302
  0
LINE
  8
0
  6
CONTINUOUS
 62
7
 10
-104.500000
 20
47.923302
 11
-102.500000
 21
47.923302
  0
LINE
  8
0
  6
CONTINUOUS
 62
7
 10
-104.500000
 20
57.576698
 11
-102.500000
 21
57.576698
  0
LINE
  8
0
  6
CENTER
 62
2
 10
-123.500000
 20
52.750000
 11
-89.500000
 21
52.750000
  0
LINE
  8
0
  6
CONTINUOUS
 62
7
 10
-91.500000
 20
49.450001
 11
-90.500000
 21
49.450001
  0
LINE
  8
0
  6
CONTINUOUS
 62
7
 10
-91.500000
 20
48.750000
 11
-91.500000
 21
56.750000
  0
LINE
  8
0
  6
CONTINUOUS
 62
7
 10
-90.500000
 20
49.450001
 11
-90.500000
 21
56.049999
  0
LINE
  8
0
  6
CONTINUOUS
 62
7
 10
-91.500000
 20
56.049999
 11
-90.500000
 21
56.049999
  0
LINE
  8
0
  6
CONTINUOUS
 62
7
 10
-102.500000
 20
48.750000
 11
-91.500000
 21
48.750000
  0
LINE
  8
0
  6
CONTINUOUS
 62
2
 10
-102.500000
 20
49.450001
 11
-91.500000
 21
49.450001
  0
LINE
  8
0
  6
CONTINUOUS
 62
2
 10
-102.500000
 20
56.049999
 11
-91.500000
 21
56.049999
  0
LINE
  8
0
  6
CONTINUOUS
 62
7
 10
-102.500000
 20
56.750000
 11
-91.500000
 21
56.750000
  0
LINE
  8
0
  6
CONTINUOUS
 62
7
 10
-116.500000
 20
48.750000
 11
-110.500000
 21
48.750000
  0
LINE
  8
0
  6
CONTINUOUS
 62
2
 10
-116.500000
 20
49.450001
 11
-110.500000
 21
49.450001
  0
LINE
  8
0
  6
CONTINUOUS
 62
7
 10
-116.500000
 20
56.750000
 11
-110.500000
 21
56.750000
  0
LINE
  8
0
  6
CONTINUOUS
 62
2
 10
-116.500000
 20
56.049999
 11
-110.500000
 21
56.049999
  0
LINE
  8
0
  6
CONTINUOUS
 62
7
 10
-116.500000
 20
47.250000
 11
-116.500000
 21
58.250000
  0
LINE
  8
0
  6
CONTINUOUS
 62
7
 10
-116.500000
 20
58.250000
 11
-122.500000
 21
58.250000
  0
LINE
  8
0
  6
CONTINUOUS
 62
7
 10
-116.500000
 20
47.250000
 11
-122.500000
 21
47.250000
  0
LINE
  8
0
  6
CONTINUOUS
 62
7
 10
-145.899994
 20
76.750000
 11
-119.099998
 21
76.750000
  0
LINE
  8
0
  6
CONTINUOUS
 62
7
 10
-153.500000
 20
88.750000
 11
-111.500000
 21
88.750000
  0
LINE
  8
0
  6
CONTINUOUS
 62
7
 10
-153.500000
 20
77.250000
 11
-145.899994
 21
77.250000
  0
LINE
  8
0
  6
CONTINUOUS
 62
7
 10
-111.500000
 20
77.250000
 11
-119.099998
 21
77.250000
  0
LINE
  8
0
  6
CONTINUOUS
 62
7
 10
-178.000000
 20
89.250000
 11
-175.500000
 21
89.250000
  0
LINE
  8
0
  6
CONTINUOUS
 62
7
 10
-178.000000
 20
98.750000
 11
-102.000000
 21
98.750000
  0
LINE
  8
0
  6
CONTINUOUS
 62
7
 10
-178.000000
 20
87.250000
 11
-178.000000
 21
98.750000
  0
LINE
  8
0
  6
CONTINUOUS
 62
7
 10
-102.000000
 20
87.250000
 11
-102.000000
 21
98.750000
  0
LINE
  8
0
  6
CONTINUOUS
 62
7
 10
-104.500000
 20
89.250000
 11
-102.000000
 21
89.250000
  0
LINE
  8
0
  6
CONTINUOUS
 62
7
 10
-142.500000
 20
87.250000
 11
-142.500000
 21
77.250000
  0
LINE
  8
0
  6
CONTINUOUS
 62
7
 10
-142.500000
 20
87.250000
 11
-122.500000
 21
87.250000
  0
LINE
  8
0
  6
CONTINUOUS
 62
7
 10
-175.500000
 20
98.250000
 11
-104.500000
 21
98.250000
  0
LINE
  8
0
  6
CONTINUOUS
 62
7
 10
-157.500000
 20
81.750000
 11
-153.500000
 21
81.750000
  0
LINE
  8
0
  6
CONTINUOUS
 62
7
 10
-111.500000
 20
77.250000
 11
-111.500000
 21
79.250000
  0
LINE
  8
0
  6
CONTINUOUS
 62
7
 10
-153.500000
 20
77.250000
 11
-153.500000
 21
88.750000
  0
LINE
  8
0
  6
CONTINUOUS
 62
7
 10
-145.899994
 20
76.750000
 11
-145.899994
 21
88.750000
  0
LINE
  8
0
  6
CONTINUOUS
 62
7
 10
-119.099998
 20
76.750000
 11
-119.099998
 21
77.750000
  0
LINE
  8
0
  6
CENTER
 62
2
 10
-190.500000
 20
83.250000
 11
-152.500000
 21
83.250000
  0
LINE
  8
0
  6
CONTINUOUS
 62
7
 10
-167.500000
 20
89.250000
 11
-112.500000
 21
89.250000
  0
LINE
  8
0
  6
CONTINUOUS
 62
7
 10
-169.500000
 20
87.250000
 11
-169.500000
 21
77.250000
  0
LINE
  8
0
  6
CONTINUOUS
 62
7
 10
-175.500000
 20
98.250000
 11
-175.500000
 21
77.250000
  0
LINE
  8
0
  6
CONTINUOUS
 62
7
 10
-110.500000
 20
87.250000
 11
-110.500000
 21
77.250000
  0
LINE
  8
0
  6
CONTINUOUS
 62
7
 10
-104.500000
 20
98.250000
 11
-104.500000
 21
77.250000
  0
LINE
  8
0
  6
CONTINUOUS
 62
7
 10
-142.500000
 20
77.250000
 11
-122.500000
 21
77.250000
  0
LINE
  8
0
  6
CONTINUOUS
 62
7
 10
-110.500000
 20
77.250000
 11
-102.500000
 21
77.250000
  0
LINE
  8
0
  6
CONTINUOUS
 62
7
 10
-122.500000
 20
77.250000
 11
-122.500000
 21
88.750000
  0
LINE
  8
0
  6
CONTINUOUS
 62
7
 10
-116.500000
 20
77.750000
 11
-116.500000
 21
88.750000
  0
LINE
  8
0
  6
CONTINUOUS
 62
7
 10
-116.500000
 20
77.750000
 11
-122.500000
 21
77.750000
  0
LINE
  8
0
  6
CONTINUOUS
 62
7
 10
-102.500000
 20
77.250000
 11
-102.500000
 21
89.250000
  0
LINE
  8
0
  6
CONTINUOUS
 62
7
 10
-102.500000
 20
79.685799
 11
-104.500000
 21
79.685799
  0
LINE
  8
0
  6
CONTINUOUS
 62
7
 10
-102.500000
 20
80.852097
 11
-104.500000
 21
80.852097
  0
LINE
  8
0
  6
CONTINUOUS
 62
7
 10
-102.500000
 20
85.647903
 11
-104.500000
 21
85.647903
  0
LINE
  8
0
  6
CONTINUOUS
 62
7
 10
-102.500000
 20
86.814201
 11
-104.500000
 21
86.814201
  0
LINE
  8
0
  6
CONTINUOUS
 62
7
 10
-111.500000
 20
87.250000
 11
-111.500000
 21
88.750000
  0
LINE
  8
0
  6
CONTINUOUS
 62
7
 10
-177.500000
 20
80.852097
 11
-175.500000
 21
80.852097
  0
LINE
  8
0
  6
CONTINUOUS
 62
7
 10
-177.500000
 20
89.250000
 11
-177.500000
 21
77.250000
  0
LINE
  8
0
  6
CONTINUOUS
 62
7
 10
-177.500000
 20
86.814201
 11
-175.500000
 21
86.814201
  0
LINE
  8
0
  6
CONTINUOUS
 62
7
 10
-177.500000
 20
79.685799
 11
-175.500000
 21
79.685799
  0
LINE
  8
0
  6
CONTINUOUS
 62
7
 10
-177.500000
 20
85.647903
 11
-175.500000
 21
85.647903
  0
LINE
  8
0
  6
CONTINUOUS
 62
7
 10
-177.500000
 20
77.250000
 11
-169.500000
 21
77.250000
  0
LINE
  8
0
  6
CONTINUOUS
 62
7
 10
-153.500000
 20
84.250000
 11
-157.500000
 21
84.250000
  0
LINE
  8
0
  6
CONTINUOUS
 62
7
 10
-153.500000
 20
82.250000
 11
-157.500000
 21
82.250000
  0
LINE
  8
0
  6
CONTINUOUS
 62
7
 10
-157.500000
 20
88.750000
 11
-157.500000
 21
77.750000
  0
LINE
  8
0
  6
CONTINUOUS
 62
7
 10
-163.500000
 20
77.750000
 11
-157.500000
 21
77.750000
  0
LINE
  8
0
  6
CONTINUOUS
 62
7
 10
-163.500000
 20
88.750000
 11
-157.500000
 21
88.750000
  0
LINE
  8
0
  6
CONTINUOUS
 62
7
 10
-163.500000
 20
88.750000
 11
-163.500000
 21
77.750000
  0
LINE
  8
0
  6
CENTER
 62
2
 10
-123.500000
 20
83.250000
 11
-89.500000
 21
83.250000
  0
LINE
  8
0
  6
CONTINUOUS
 62
7
 10
-90.500000
 20
79.949997
 11
-90.500000
 21
82.500000
  0
LINE
  8
0
  6
CONTINUOUS
 62
7
 10
-91.500000
 20
79.949997
 11
-90.500000
 21
79.949997
  0
LINE
  8
0
  6
CONTINUOUS
 62
7
 10
-91.500000
 20
79.250000
 11
-91.500000
 21
87.250000
  0
LINE
  8
0
  6
CONTINUOUS
 62
7
 10
-91.500000
 20
82.500000
 11
-90.500000
 21
82.500000
  0
LINE
  8
0
  6
CONTINUOUS
 62
7
 10
-91.500000
 20
84.000000
 11
-90.500000
 21
84.000000
  0
LINE
  8
0
  6
CONTINUOUS
 62
7
 10
-90.500000
 20
84.000000
 11
-90.500000
 21
86.550003
  0
LINE
  8
0
  6
CONTINUOUS
 62
7
 10
-91.500000
 20
86.550003
 11
-90.500000
 21
86.550003
  0
LINE
  8
0
  6
CONTINUOUS
 62
7
 10
-116.500000
 20
79.250000
 11
-110.500000
 21
79.250000
  0
LINE
  8
0
  6
CONTINUOUS
 62
7
 10
-116.500000
 20
87.250000
 11
-110.500000
 21
87.250000
  0
LINE
  8
0
  6
CONTINUOUS
 62
2
 10
-116.500000
 20
86.550003
 11
-110.500000
 21
86.550003
  0
LINE
  8
0
  6
CONTINUOUS
 62
2
 10
-116.500000
 20
79.949997
 11
-110.500000
 21
79.949997
  0
LINE
  8
0
  6
CONTINUOUS
 62
7
 10
-102.500000
 20
79.250000
 11
-91.500000
 21
79.250000
  0
LINE
  8
0
  6
CONTINUOUS
 62
2
 10
-102.500000
 20
79.949997
 11
-91.500000
 21
79.949997
  0
LINE
  8
0
  6
CONTINUOUS
 62
2
 10
-102.500000
 20
86.550003
 11
-91.500000
 21
86.550003
  0
LINE
  8
0
  6
CONTINUOUS
 62
7
 10
-102.500000
 20
87.250000
 11
-91.500000
 21
87.250000
  0
LINE
  8
0
  6
CONTINUOUS
 62
7
 10
-189.500000
 20
86.550003
 11
-189.500000
 21
84.000000
  0
LINE
  8
0
  6
CONTINUOUS
 62
7
 10
-188.500000
 20
86.550003
 11
-189.500000
 21
86.550003
  0
LINE
  8
0
  6
CONTINUOUS
 62
7
 10
-188.500000
 20
87.250000
 11
-188.500000
 21
79.250000
  0
LINE
  8
0
  6
CONTINUOUS
 62
7
 10
-188.500000
 20
84.000000
 11
-189.500000
 21
84.000000
  0
LINE
  8
0
  6
CONTINUOUS
 62
7
 10
-188.500000
 20
82.500000
 11
-189.500000
 21
82.500000
  0
LINE
  8
0
  6
CONTINUOUS
 62
7
 10
-189.500000
 20
82.500000
 11
-189.500000
 21
79.949997
  0
LINE
  8
0
  6
CONTINUOUS
 62
7
 10
-188.500000
 20
79.949997
 11
-189.500000
 21
79.949997
  0
LINE
  8
0
  6
CONTINUOUS
 62
7
 10
-163.500000
 20
87.250000
 11
-169.500000
 21
87.250000
  0
LINE
  8
0
  6
CONTINUOUS
 62
7
 10
-163.500000
 20
79.250000
 11
-169.500000
 21
79.250000
  0
LINE
  8
0
  6
CONTINUOUS
 62
2
 10
-163.500000
 20
79.949997
 11
-169.500000
 21
79.949997
  0
LINE
  8
0
  6
CONTINUOUS
 62
2
 10
-163.500000
 20
86.550003
 11
-169.500000
 21
86.550003
  0
LINE
  8
0
  6
CONTINUOUS
 62
7
 10
-177.500000
 20
79.250000
 11
-188.500000
 21
79.250000
  0
LINE
  8
0
  6
CONTINUOUS
 62
2
 10
-177.500000
 20
79.949997
 11
-188.500000
 21
79.949997
  0
LINE
  8
0
  6
CONTINUOUS
 62
2
 10
-177.500000
 20
86.550003
 11
-188.500000
 21
86.550003
  0
LINE
  8
0
  6
CONTINUOUS
 62
7
 10
-177.500000
 20
87.250000
 11
-188.500000
 21
87.250000
  0
LINE
  8
0
  6
CONTINUOUS
 62
7
 10
-225.000000
 20
-16.250000
 11
-210.000000
 21
-16.250000
  0
LINE
  8
0
  6
CONTINUOUS
 62
7
 10
-225.000000
 20
-20.250000
 11
-225.000000
 21
-23.750000
  0
LINE
  8
0
  6
CONTINUOUS
 62
7
 10
-225.000000
 20
-16.250000
 11
-225.000000
 21
-17.250000
  0
LINE
  8
0
  6
CONTINUOUS
 62
7
 10
-233.500000
 20
-11.250000
 11
-226.500000
 21
-11.250000
  0
LINE
  8
0
  6
CONTINUOUS
 62
7
 10
-233.500000
 20
-23.250000
 11
-225.000000
 21
-23.250000
  0
LINE
  8
0
  6
CONTINUOUS
 62
7
 10
-226.199997
 20
-11.550000
 11
-208.800003
 21
-11.550000
  0
LINE
  8
0
  6
CONTINUOUS
 62
7
 10
-226.500000
 20
-11.250000
 11
-226.199997
 21
-11.549900
  0
LINE
  8
0
  6
CONTINUOUS
 62
7
 10
-210.000000
 20
-20.250000
 11
-210.000000
 21
-23.750000
  0
LINE
  8
0
  6
CONTINUOUS
 62
7
 10
-210.000000
 20
-16.250000
 11
-210.000000
 21
-17.250000
  0
LINE
  8
0
  6
CONTINUOUS
 62
7
 10
-201.500000
 20
-11.250000
 11
-201.500000
 21
-23.250000
  0
LINE
  8
0
  6
CONTINUOUS
 62
7
 10
-201.500000
 20
-11.250000
 11
-208.500000
 21
-11.250000
  0
LINE
  8
0
  6
CONTINUOUS
 62
7
 10
-201.500000
 20
-23.250000
 11
-210.000000
 21
-23.250000
  0
LINE
  8
0
  6
CONTINUOUS
 62
7
 10
-208.500000
 20
-11.250000
 11
-208.800003
 21
-11.550000
  0
LINE
  8
0
  6
CONTINUOUS
 62
7
 10
-233.500000
 20
-11.250000
 11
-233.500000
 21
-23.250000
  0
LINE
  8
0
  6
CONTINUOUS
 62
7
 10
-201.000000
 20
-23.750000
 11
-210.000000
 21
-23.750000
  0
LINE
  8
0
  6
CONTINUOUS
 62
7
 10
-201.000000
 20
-33.250000
 11
-234.000000
 21
-33.250000
  0
LINE
  8
0
  6
CONTINUOUS
 62
7
 10
-234.000000
 20
-23.750000
 11
-225.000000
 21
-23.750000
  0
LINE
  8
0
  6
CONTINUOUS
 62
7
 10
-201.000000
 20
-23.750000
 11
-201.000000
 21
-33.250000
  0
LINE
  8
0
  6
CONTINUOUS
 62
7
 10
-234.000000
 20
-11.750000
 11
-234.000000
 21
-33.250000
  0
LINE
  8
0
  6
CENTER
 62
2
 10
-217.500000
 20
-9.250000
 11
-217.500000
 21
-35.250000
  0
LINE
  8
0
  6
CENTER
 62
2
 10
-225.899994
 20
-25.250000
 11
-209.100006
 21
-25.250000
  0
LINE
  8
0
  6
CENTER
 62
2
 10
-227.500000
 20
-24.250000
 11
-227.500000
 21
-31.250000
  0
LINE
  8
0
  6
CENTER
 62
2
 10
-231.000000
 20
-27.750000
 11
-224.000000
 21
-27.750000
  0
LINE
  8
0
  6
CENTER
 62
2
 10
-229.500000
 20
-31.250000
 11
-229.500000
 21
-35.250000
  0
LINE
  8
0
  6
CENTER
 62
2
 10
-205.500000
 20
-31.250000
 11
-205.500000
 21
-35.250000
  0
LINE
  8
0
  6
CENTER
 62
2
 10
-205.000000
 20
-9.250000
 11
-205.000000
 21
-13.250000
  0
LINE
  8
0
  6
CENTER
 62
2
 10
-230.000000
 20
-9.250000
 11
-230.000000
 21
-13.250000
  0
LINE
  8
0
  6
CONTINUOUS
 62
7
 10
-246.000000
 20
-11.750000
 11
-246.000000
 21
-32.750000
  0
LINE
  8
0
  6
CONTINUOUS
 62
7
 10
-234.000000
 20
-32.750000
 11
-246.000000
 21
-32.750000
  0
LINE
  8
0
  6
CONTINUOUS
 62
7
 10
-233.500000
 20
-11.750000
 11
-246.000000
 21
-11.750000
  0
LINE
  8
0
  6
CENTER
 62
2
 10
-240.000000
 20
-10.750000
 11
-240.000000
 21
-24.750000
  0
LINE
  8
0
  6
CENTER
 62
2
 10
-233.000000
 20
-17.750000
 11
-247.000000
 21
-17.750000
  0
LINE
  8
0
  6
CONTINUOUS
 62
7
 10
-239.326996
 20
-23.712099
 11
-235.173004
 21
-21.314199
  0
LINE
  8
0
  6
CONTINUOUS
 62
7
 10
-244.826996
 20
-21.314199
 11
-240.673004
 21
-23.712099
  0
LINE
  8
0
  6
CONTINUOUS
 62
7
 10
-245.500000
 20
-15.352100
 11
-245.500000
 21
-20.147900
  0
LINE
  8
0
  6
CONTINUOUS
 62
7
 10
-240.673004
 20
-11.787900
 11
-244.826996
 21
-14.185800
  0
LINE
  8
0
  6
CONTINUOUS
 62
7
 10
-235.173004
 20
-14.185800
 11
-239.326996
 21
-11.787900
  0
LINE
  8
0
  6
CONTINUOUS
 62
7
 10
-238.363998
 20
-18.500000
 11
-236.070999
 21
-18.500000
  0
LINE
  8
0
  6
CONTINUOUS
 62
7
 10
-238.363998
 20
-17.000000
 11
-236.070999
 21
-17.000000
  0
LINE
  8
0
  6
CONTINUOUS
 62
7
 10
-243.929001
 20
-17.000000
 11
-241.636002
 21
-17.000000
  0
LINE
  8
0
  6
CONTINUOUS
 62
7
 10
-243.929001
 20
-18.500000
 11
-241.636002
 21
-18.500000
  0
LINE
  8
0
  6
CONTINUOUS
 62
7
 10
24.292900
 20
-18.457100
 11
25.707100
 21
-17.042900
  0
LINE
  8
0
  6
CONTINUOUS
 62
7
 10
-234.500000
 20
-15.352100
 11
-234.500000
 21
-20.147900
  0
LINE
  8
0
  6
CONTINUOUS
 62
7
 10
-55.000000
 20
-16.250000
 11
-70.000000
 21
-16.250000
  0
LINE
  8
0
  6
CONTINUOUS
 62
7
 10
-55.000000
 20
-20.250000
 11
-55.000000
 21
-23.750000
  0
LINE
  8
0
  6
CONTINUOUS
 62
7
 10
-55.000000
 20
-16.250000
 11
-55.000000
 21
-17.250000
  0
LINE
  8
0
  6
CONTINUOUS
 62
7
 10
-46.500000
 20
-11.250000
 11
-53.500000
 21
-11.250000
  0
LINE
  8
0
  6
CONTINUOUS
 62
7
 10
-46.500000
 20
-23.250000
 11
-55.000000
 21
-23.250000
  0
LINE
  8
0
  6
CONTINUOUS
 62
7
 10
-53.799999
 20
-11.550000
 11
-71.199997
 21
-11.550000
  0
LINE
  8
0
  6
CONTINUOUS
 62
7
 10
-53.500000
 20
-11.250000
 11
-53.799999
 21
-11.550000
  0
LINE
  8
0
  6
CONTINUOUS
 62
7
 10
-70.000000
 20
-20.250000
 11
-70.000000
 21
-23.750000
  0
LINE
  8
0
  6
CONTINUOUS
 62
7
 10
-70.000000
 20
-16.250000
 11
-70.000000
 21
-17.250000
  0
LINE
  8
0
  6
CONTINUOUS
 62
7
 10
-78.500000
 20
-11.250000
 11
-78.500000
 21
-23.250000
  0
LINE
  8
0
  6
CONTINUOUS
 62
7
 10
-78.500000
 20
-11.250000
 11
-71.500000
 21
-11.250000
  0
LINE
  8
0
  6
CONTINUOUS
 62
7
 10
-78.500000
 20
-23.250000
 11
-70.000000
 21
-23.250000
  0
LINE
  8
0
  6
CONTINUOUS
 62
7
 10
-71.500000
 20
-11.250000
 11
-71.199997
 21
-11.550000
  0
LINE
  8
0
  6
CONTINUOUS
 62
7
 10
-46.500000
 20
-11.250000
 11
-46.500000
 21
-23.250000
  0
LINE
  8
0
  6
CONTINUOUS
 62
7
 10
-79.000000
 20
-23.750000
 11
-70.000000
 21
-23.750000
  0
LINE
  8
0
  6
CONTINUOUS
 62
7
 10
-79.000000
 20
-33.250000
 11
-46.000000
 21
-33.250000
  0
LINE
  8
0
  6
CONTINUOUS
 62
7
 10
-46.000000
 20
-23.750000
 11
-55.000000
 21
-23.750000
  0
LINE
  8
0
  6
CONTINUOUS
 62
7
 10
-79.000000
 20
-23.750000
 11
-79.000000
 21
-33.250000
  0
LINE
  8
0
  6
CONTINUOUS
 62
7
 10
-46.000000
 20
-11.750000
 11
-46.000000
 21
-33.250000
  0
LINE
  8
0
  6
CENTER
 62
2
 10
-62.500000
 20
-9.250000
 11
-62.500000
 21
-35.250000
  0
LINE
  8
0
  6
CENTER
 62
2
 10
-54.099998
 20
-25.250000
 11
-70.900002
 21
-25.250000
  0
LINE
  8
0
  6
CENTER
 62
2
 10
-52.500000
 20
-24.250000
 11
-52.500000
 21
-31.250000
  0
LINE
  8
0
  6
CENTER
 62
2
 10
-49.000000
 20
-27.750000
 11
-56.000000
 21
-27.750000
  0
LINE
  8
0
  6
CENTER
 62
2
 10
-50.500000
 20
-31.250000
 11
-50.500000
 21
-35.250000
  0
LINE
  8
0
  6
CENTER
 62
2
 10
-74.500000
 20
-31.250000
 11
-74.500000
 21
-35.250000
  0
LINE
  8
0
  6
CENTER
 62
2
 10
-75.000000
 20
-9.250000
 11
-75.000000
 21
-13.250000
  0
LINE
  8
0
  6
CENTER
 62
2
 10
-50.000000
 20
-9.250000
 11
-50.000000
 21
-13.250000
  0
LINE
  8
0
  6
CONTINUOUS
 62
7
 10
-34.000000
 20
-11.750000
 11
-34.000000
 21
-32.750000
  0
LINE
  8
0
  6
CONTINUOUS
 62
7
 10
-46.000000
 20
-32.750000
 11
-34.000000
 21
-32.750000
  0
LINE
  8
0
  6
CONTINUOUS
 62
7
 10
-46.500000
 20
-11.750000
 11
-34.000000
 21
-11.750000
  0
LINE
  8
0
  6
CENTER
 62
2
 10
-40.000000
 20
-10.750000
 11
-40.000000
 21
-24.750000
  0
LINE
  8
0
  6
CENTER
 62
2
 10
-47.000000
 20
-17.750000
 11
-33.000000
 21
-17.750000
  0
LINE
  8
0
  6
CONTINUOUS
 62
7
 10
-40.673302
 20
-23.712099
 11
-44.826599
 21
-21.314199
  0
LINE
  8
0
  6
CONTINUOUS
 62
7
 10
-35.173302
 20
-21.314199
 11
-39.326599
 21
-23.712099
  0
LINE
  8
0
  6
CONTINUOUS
 62
7
 10
-34.500000
 20
-15.352100
 11
-34.500000
 21
-20.147900
  0
LINE
  8
0
  6
CONTINUOUS
 62
7
 10
-39.326599
 20
-11.787900
 11
-35.173302
 21
-14.185800
  0
LINE
  8
0
  6
CONTINUOUS
 62
7
 10
-44.826599
 20
-14.185800
 11
-40.673302
 21
-11.787900
  0
LINE
  8
0
  6
CONTINUOUS
 62
7
 10
-41.636299
 20
-18.500000
 11
-43.929001
 21
-18.500000
  0
LINE
  8
0
  6
CONTINUOUS
 62
7
 10
-41.636299
 20
-17.000000
 11
-43.929001
 21
-17.000000
  0
LINE
  8
0
  6
CONTINUOUS
 62
7
 10
-36.070900
 20
-17.000000
 11
-38.363701
 21
-17.000000
  0
LINE
  8
0
  6
CONTINUOUS
 62
7
 10
-36.070900
 20
-18.500000
 11
-38.363701
 21
-18.500000
  0
LINE
  8
0
  6
CONTINUOUS
 62
7
 10
-45.500000
 20
-15.352100
 11
-45.500000
 21
-20.147900
  0
LINE
  8
0
  6
CONTINUOUS
 62
7
 10
86.500000
 20
-95.550003
 11
85.500000
 21
-95.550003
  0
LINE
  8
0
  6
CONTINUOUS
 62
2
 10
102.500000
 20
-88.949997
 11
86.500000
 21
-88.949997
  0
LINE
  8
0
  6
CONTINUOUS
 62
7
 10
102.500000
 20
-88.250000
 11
86.500000
 21
-88.250000
  0
LINE
  8
0
  6
CONTINUOUS
 62
7
 10
85.500000
 20
-88.949997
 11
85.500000
 21
-95.550003
  0
LINE
  8
0
  6
CONTINUOUS
 62
7
 10
102.500000
 20
-96.250000
 11
86.500000
 21
-96.250000
  0
LINE
  8
0
  6
CONTINUOUS
 62
2
 10
102.500000
 20
-95.550003
 11
86.500000
 21
-95.550003
  0
LINE
  8
0
  6
CONTINUOUS
 62
7
 10
175.500000
 20
-98.250000
 11
104.500000
 21
-98.250000
  0
LINE
  8
0
  6
CONTINUOUS
 62
7
 10
175.500000
 20
-98.250000
 11
175.500000
 21
-86.250000
  0
LINE
  8
0
  6
CENTER
 62
2
 10
195.500000
 20
-92.250000
 11
173.654007
 21
-92.250000
  0
LINE
  8
0
  6
CONTINUOUS
 62
7
 10
194.500000
 20
-95.550003
 11
194.500000
 21
-88.949997
  0
LINE
  8
0
  6
CONTINUOUS
 62
7
 10
193.500000
 20
-95.550003
 11
194.500000
 21
-95.550003
  0
LINE
  8
0
  6
CONTINUOUS
 62
7
 10
193.500000
 20
-96.250000
 11
193.500000
 21
-88.250000
  0
LINE
  8
0
  6
CONTINUOUS
 62
7
 10
193.500000
 20
-88.949997
 11
194.500000
 21
-88.949997
  0
LINE
  8
0
  6
CONTINUOUS
 62
7
 10
177.500000
 20
-88.250000
 11
193.500000
 21
-88.250000
  0
LINE
  8
0
  6
CONTINUOUS
 62
2
 10
177.500000
 20
-88.949997
 11
193.500000
 21
-88.949997
  0
LINE
  8
0
  6
CONTINUOUS
 62
2
 10
177.500000
 20
-95.550003
 11
193.500000
 21
-95.550003
  0
LINE
  8
0
  6
CONTINUOUS
 62
7
 10
177.500000
 20
-96.250000
 11
193.500000
 21
-96.250000
  0
LINE
  8
0
  6
CONTINUOUS
 62
7
 10
175.500000
 20
-86.750000
 11
177.500000
 21
-86.750000
  0
LINE
  8
0
  6
CONTINUOUS
 62
7
 10
177.500000
 20
-97.750000
 11
177.500000
 21
-86.750000
  0
LINE
  8
0
  6
CONTINUOUS
 62
7
 10
175.500000
 20
-97.750000
 11
177.500000
 21
-97.750000
  0
LINE
  8
0
  6
CONTINUOUS
 62
7
 10
175.500000
 20
-92.923401
 11
177.500000
 21
-92.923401
  0
LINE
  8
0
  6
CONTINUOUS
 62
7
 10
175.500000
 20
-91.576698
 11
177.500000
 21
-91.576698
  0
LINE
  8
0
  6
CONTINUOUS
 62
7
 10
175.500000
 20
-97.076599
 11
177.500000
 21
-97.076599
  0
LINE
  8
0
  6
CONTINUOUS
 62
7
 10
175.500000
 20
-87.423302
 11
177.500000
 21
-87.423302
  0
LINE
  8
0
  6
CONTINUOUS
 62
7
 10
104.500000
 20
-98.250000
 11
104.500000
 21
-86.250000
  0
LINE
  8
0
  6
CONTINUOUS
 62
7
 10
104.500000
 20
-97.750000
 11
102.500000
 21
-97.750000
  0
LINE
  8
0
  6
CONTINUOUS
 62
7
 10
102.500000
 20
-86.750000
 11
102.500000
 21
-97.750000
  0
LINE
  8
0
  6
CONTINUOUS
 62
7
 10
104.500000
 20
-86.750000
 11
102.500000
 21
-86.750000
  0
LINE
  8
0
  6
CONTINUOUS
 62
7
 10
104.500000
 20
-91.576599
 11
102.500000
 21
-91.576599
  0
LINE
  8
0
  6
CONTINUOUS
 62
7
 10
104.500000
 20
-92.923401
 11
102.500000
 21
-92.923401
  0
LINE
  8
0
  6
CONTINUOUS
 62
7
 10
104.500000
 20
-87.423302
 11
102.500000
 21
-87.423302
  0
LINE
  8
0
  6
CONTINUOUS
 62
7
 10
104.500000
 20
-97.076698
 11
102.500000
 21
-97.076698
  0
LINE
  8
0
  6
CENTER
 62
2
 10
105.501999
 20
-92.250000
 11
84.500000
 21
-92.250000
  0
LINE
  8
0
  6
CONTINUOUS
 62
7
 10
86.500000
 20
-88.949997
 11
85.500000
 21
-88.949997
  0
LINE
  8
0
  6
CONTINUOUS
 62
7
 10
86.500000
 20
-88.250000
 11
86.500000
 21
-96.250000
  0
LINE
  8
0
  6
CENTER
 62
2
 10
195.500000
 20
-17.750000
 11
181.000000
 21
-17.750000
  0
LINE
  8
0
  6
CONTINUOUS
 62
7
 10
194.500000
 20
-21.049999
 11
194.500000
 21
-18.500000
  0
LINE
  8
0
  6
CONTINUOUS
 62
7
 10
193.500000
 20
-21.049999
 11
194.500000
 21
-21.049999
  0
LINE
  8
0
  6
CONTINUOUS
 62
7
 10
193.500000
 20
-21.750000
 11
193.500000
 21
-13.750000
  0
LINE
  8
0
  6
CONTINUOUS
 62
7
 10
193.500000
 20
-18.500000
 11
194.500000
 21
-18.500000
  0
LINE
  8
0
  6
CONTINUOUS
 62
7
 10
193.500000
 20
-17.000000
 11
194.500000
 21
-17.000000
  0
LINE
  8
0
  6
CONTINUOUS
 62
7
 10
194.500000
 20
-17.000000
 11
194.500000
 21
-14.450000
  0
LINE
  8
0
  6
CONTINUOUS
 62
7
 10
193.500000
 20
-14.450000
 11
194.500000
 21
-14.450000
  0
LINE
  8
0
  6
CONTINUOUS
 62
7
 10
183.850006
 20
-13.750000
 11
193.500000
 21
-13.750000
  0
LINE
  8
0
  6
CONTINUOUS
 62
2
 10
183.850006
 20
-14.450000
 11
193.500000
 21
-14.450000
  0
LINE
  8
0
  6
CONTINUOUS
 62
2
 10
193.000000
 20
-21.049999
 11
193.500000
 21
-21.049999
  0
LINE
  8
0
  6
CONTINUOUS
 62
7
 10
193.000000
 20
-21.750000
 11
193.500000
 21
-21.750000
  0
LINE
  8
0
  6
CONTINUOUS
 62
7
 10
111.500000
 20
-12.250000
 11
117.500000
 21
-12.250000
  0
LINE
  8
0
  6
CONTINUOUS
 62
7
 10
111.500000
 20
-12.250000
 11
111.500000
 21
-16.250000
  0
LINE
  8
0
  6
CONTINUOUS
 62
7
 10
87.000000
 20
-21.750000
 11
86.500000
 21
-21.750000
  0
LINE
  8
0
  6
CONTINUOUS
 62
2
 10
102.500000
 20
-14.450000
 11
86.500000
 21
-14.450000
  0
LINE
  8
0
  6
CONTINUOUS
 62
7
 10
111.500000
 20
-13.750000
 11
110.500000
 21
-13.750000
  0
LINE
  8
0
  6
CONTINUOUS
 62
2
 10
87.000000
 20
-21.049999
 11
86.500000
 21
-21.049999
  0
LINE
  8
0
  6
CONTINUOUS
 62
7
 10
110.500000
 20
-16.250000
 11
110.500000
 21
-11.750000
  0
LINE
  8
0
  6
CONTINUOUS
 62
7
 10
110.500000
 20
-11.750000
 11
102.500000
 21
-11.750000
  0
LINE
  8
0
  6
CONTINUOUS
 62
7
 10
102.500000
 20
-11.750000
 11
102.500000
 21
-16.250000
  0
LINE
  8
0
  6
CONTINUOUS
 62
7
 10
102.500000
 20
-14.185800
 11
104.500000
 21
-14.185800
  0
LINE
  8
0
  6
CONTINUOUS
 62
7
 10
102.500000
 20
-15.352100
 11
104.500000
 21
-15.352100
  0
LINE
  8
0
  6
CONTINUOUS
 62
7
 10
102.500000
 20
-13.750000
 11
86.500000
 21
-13.750000
  0
LINE
  8
0
  6
CONTINUOUS
 62
2
 10
111.500000
 20
-14.450000
 11
110.500000
 21
-14.450000
  0
LINE
  8
0
  6
CONTINUOUS
 62
7
 10
85.500000
 20
-14.450000
 11
85.500000
 21
-17.000000
  0
LINE
  8
0
  6
CONTINUOUS
 62
7
 10
86.500000
 20
-14.450000
 11
85.500000
 21
-14.450000
  0
LINE
  8
0
  6
CONTINUOUS
 62
7
 10
86.500000
 20
-13.750000
 11
86.500000
 21
-21.750000
  0
LINE
  8
0
  6
CONTINUOUS
 62
7
 10
86.500000
 20
-17.000000
 11
85.500000
 21
-17.000000
  0
LINE
  8
0
  6
CONTINUOUS
 62
7
 10
86.500000
 20
-18.500000
 11
85.500000
 21
-18.500000
  0
LINE
  8
0
  6
CONTINUOUS
 62
7
 10
85.500000
 20
-18.500000
 11
85.500000
 21
-21.049999
  0
LINE
  8
0
  6
CONTINUOUS
 62
7
 10
86.500000
 20
-21.049999
 11
85.500000
 21
-21.049999
  0
LINE
  8
0
  6
CONTINUOUS
 62
7
 10
104.500000
 20
-16.250000
 11
104.500000
 21
-11.750000
  0
LINE
  8
0
  6
CENTER
 62
2
 10
105.233002
 20
-17.750000
 11
84.500000
 21
-17.750000
  0
LINE
  8
0
  6
CONTINUOUS
 62
7
 10
117.500000
 20
-12.250000
 11
117.500000
 21
-16.250000
  0
LINE
  8
0
  6
CONTINUOUS
 62
7
 10
175.500000
 20
47.250000
 11
177.500000
 21
47.250000
  0
LINE
  8
0
  6
CONTINUOUS
 62
7
 10
168.500000
 20
47.250000
 11
162.500000
 21
47.250000
  0
LINE
  8
0
  6
CONTINUOUS
 62
7
 10
168.500000
 20
48.750000
 11
169.500000
 21
48.750000
  0
LINE
  8
0
  6
CONTINUOUS
 62
7
 10
104.500000
 20
58.750000
 11
175.500000
 21
58.750000
  0
LINE
  8
0
  6
CONTINUOUS
 62
7
 10
104.500000
 20
58.750000
 11
104.500000
 21
46.750000
  0
LINE
  8
0
  6
CONTINUOUS
 62
7
 10
110.500000
 20
58.750000
 11
110.500000
 21
46.750000
  0
LINE
  8
0
  6
CENTER
 62
2
 10
84.500000
 20
52.750000
 11
122.500000
 21
52.750000
  0
LINE
  8
0
  6
CONTINUOUS
 62
7
 10
85.500000
 20
56.049999
 11
85.500000
 21
49.450001
  0
LINE
  8
0
  6
CONTINUOUS
 62
7
 10
86.500000
 20
56.049999
 11
85.500000
 21
56.049999
  0
LINE
  8
0
  6
CONTINUOUS
 62
7
 10
86.500000
 20
56.750000
 11
86.500000
 21
48.750000
  0
LINE
  8
0
  6
CONTINUOUS
 62
7
 10
86.500000
 20
49.450001
 11
85.500000
 21
49.450001
  0
LINE
  8
0
  6
CONTINUOUS
 62
7
 10
102.500000
 20
48.750000
 11
86.500000
 21
48.750000
  0
LINE
  8
0
  6
CONTINUOUS
 62
2
 10
102.500000
 20
49.450001
 11
86.500000
 21
49.450001
  0
LINE
  8
0
  6
CONTINUOUS
 62
2
 10
102.500000
 20
56.049999
 11
86.500000
 21
56.049999
  0
LINE
  8
0
  6
CONTINUOUS
 62
7
 10
102.500000
 20
56.750000
 11
86.500000
 21
56.750000
  0
LINE
  8
0
  6
CONTINUOUS
 62
7
 10
111.500000
 20
48.750000
 11
110.500000
 21
48.750000
  0
LINE
  8
0
  6
CONTINUOUS
 62
2
 10
111.500000
 20
49.450001
 11
110.500000
 21
49.450001
  0
LINE
  8
0
  6
CONTINUOUS
 62
2
 10
111.500000
 20
56.049999
 11
110.500000
 21
56.049999
  0
LINE
  8
0
  6
CONTINUOUS
 62
7
 10
111.500000
 20
56.750000
 11
110.500000
 21
56.750000
  0
LINE
  8
0
  6
CONTINUOUS
 62
7
 10
111.500000
 20
58.250000
 11
111.500000
 21
47.250000
  0
LINE
  8
0
  6
CONTINUOUS
 62
7
 10
111.500000
 20
58.250000
 11
117.500000
 21
58.250000
  0
LINE
  8
0
  6
CONTINUOUS
 62
7
 10
117.500000
 20
58.250000
 11
117.500000
 21
47.250000
  0
LINE
  8
0
  6
CONTINUOUS
 62
7
 10
121.500000
 20
53.750000
 11
117.500000
 21
53.750000
  0
LINE
  8
0
  6
CONTINUOUS
 62
7
 10
121.500000
 20
51.750000
 11
117.500000
 21
51.750000
  0
LINE
  8
0
  6
CONTINUOUS
 62
7
 10
111.500000
 20
47.250000
 11
117.500000
 21
47.250000
  0
LINE
  8
0
  6
CONTINUOUS
 62
7
 10
104.500000
 20
47.250000
 11
102.500000
 21
47.250000
  0
LINE
  8
0
  6
CONTINUOUS
 62
7
 10
102.500000
 20
58.250000
 11
102.500000
 21
47.250000
  0
LINE
  8
0
  6
CONTINUOUS
 62
7
 10
104.500000
 20
58.250000
 11
102.500000
 21
58.250000
  0
LINE
  8
0
  6
CONTINUOUS
 62
7
 10
104.500000
 20
53.423302
 11
102.500000
 21
53.423302
  0
LINE
  8
0
  6
CONTINUOUS
 62
7
 10
104.500000
 20
52.076698
 11
102.500000
 21
52.076698
  0
LINE
  8
0
  6
CONTINUOUS
 62
7
 10
104.500000
 20
57.576599
 11
102.500000
 21
57.576599
  0
LINE
  8
0
  6
CONTINUOUS
 62
7
 10
104.500000
 20
47.923302
 11
102.500000
 21
47.923302
  0
LINE
  8
0
  6
CONTINUOUS
 62
7
 10
162.500000
 20
58.250000
 11
162.500000
 21
46.250000
  0
LINE
  8
0
  6
CONTINUOUS
 62
7
 10
162.500000
 20
56.250000
 11
142.500000
 21
56.250000
  0
LINE
  8
0
  6
CONTINUOUS
 62
7
 10
142.500000
 20
56.250000
 11
142.500000
 21
46.250000
  0
LINE
  8
0
  6
CONTINUOUS
 62
7
 10
169.500000
 20
58.750000
 11
169.500000
 21
46.750000
  0
LINE
  8
0
  6
CONTINUOUS
 62
7
 10
175.500000
 20
58.750000
 11
175.500000
 21
46.750000
  0
LINE
  8
0
  6
CONTINUOUS
 62
7
 10
175.500000
 20
58.250000
 11
177.500000
 21
58.250000
  0
LINE
  8
0
  6
CONTINUOUS
 62
7
 10
177.500000
 20
47.250000
 11
177.500000
 21
58.250000
  0
LINE
  8
0
  6
CONTINUOUS
 62
7
 10
175.500000
 20
52.076599
 11
177.500000
 21
52.076599
  0
LINE
  8
0
  6
CONTINUOUS
 62
7
 10
175.500000
 20
53.423302
 11
177.500000
 21
53.423302
  0
LINE
  8
0
  6
CONTINUOUS
 62
7
 10
175.500000
 20
57.576698
 11
177.500000
 21
57.576698
  0
LINE
  8
0
  6
CENTER
 62
2
 10
161.500000
 20
52.750000
 11
195.500000
 21
52.750000
  0
LINE
  8
0
  6
CONTINUOUS
 62
7
 10
193.500000
 20
49.450001
 11
194.500000
 21
49.450001
  0
LINE
  8
0
  6
CONTINUOUS
 62
7
 10
193.500000
 20
48.750000
 11
193.500000
 21
56.750000
  0
LINE
  8
0
  6
CONTINUOUS
 62
7
 10
194.500000
 20
49.450001
 11
194.500000
 21
56.049999
  0
LINE
  8
0
  6
CONTINUOUS
 62
7
 10
193.500000
 20
56.049999
 11
194.500000
 21
56.049999
  0
LINE
  8
0
  6
CONTINUOUS
 62
2
 10
177.500000
 20
49.450001
 11
193.500000
 21
49.450001
  0
LINE
  8
0
  6
CONTINUOUS
 62
2
 10
177.500000
 20
56.049999
 11
193.500000
 21
56.049999
  0
LINE
  8
0
  6
CONTINUOUS
 62
7
 10
177.500000
 20
56.750000
 11
193.500000
 21
56.750000
  0
LINE
  8
0
  6
CONTINUOUS
 62
2
 10
168.500000
 20
49.450001
 11
169.500000
 21
49.450001
  0
LINE
  8
0
  6
CONTINUOUS
 62
7
 10
168.500000
 20
56.750000
 11
169.500000
 21
56.750000
  0
LINE
  8
0
  6
CONTINUOUS
 62
2
 10
168.500000
 20
56.049999
 11
169.500000
 21
56.049999
  0
LINE
  8
0
  6
CONTINUOUS
 62
7
 10
168.500000
 20
47.250000
 11
168.500000
 21
58.250000
  0
LINE
  8
0
  6
CONTINUOUS
 62
7
 10
168.500000
 20
58.250000
 11
162.500000
 21
58.250000
  0
LINE
  8
0
  6
CONTINUOUS
 62
7
 10
177.500000
 20
48.750000
 11
193.500000
 21
48.750000
  0
LINE
  8
0
  6
CONTINUOUS
 62
7
 10
175.500000
 20
47.923302
 11
177.500000
 21
47.923302
  0
LINE
  8
0
  6
CONTINUOUS
 62
7
 10
121.500000
 20
53.750000
 11
121.500000
 21
51.750000
  0
LINE
  8
0
  6
CONTINUOUS
 62
7
 10
162.500000
 20
46.750000
 11
193.000000
 21
46.750000
  0
LINE
  8
0
  6
CONTINUOUS
 62
7
 10
102.500000
 20
89.250000
 11
104.500000
 21
89.250000
  0
LINE
  8
0
  6
CONTINUOUS
 62
7
 10
175.500000
 20
89.250000
 11
177.500000
 21
89.250000
  0
LINE
  8
0
  6
CONTINUOUS
 62
7
 10
142.500000
 20
87.250000
 11
142.500000
 21
77.250000
  0
LINE
  8
0
  6
CONTINUOUS
 62
7
 10
142.500000
 20
87.250000
 11
162.500000
 21
87.250000
  0
LINE
  8
0
  6
CONTINUOUS
 62
7
 10
104.500000
 20
98.250000
 11
175.500000
 21
98.250000
  0
LINE
  8
0
  6
CONTINUOUS
 62
7
 10
121.500000
 20
82.250000
 11
121.500000
 21
84.250000
  0
LINE
  8
0
  6
CENTER
 62
2
 10
84.500000
 20
83.250000
 11
122.500000
 21
83.250000
  0
LINE
  8
0
  6
CONTINUOUS
 62
7
 10
112.500000
 20
89.250000
 11
167.500000
 21
89.250000
  0
LINE
  8
0
  6
CONTINUOUS
 62
7
 10
110.500000
 20
87.250000
 11
110.500000
 21
77.250000
  0
LINE
  8
0
  6
CONTINUOUS
 62
7
 10
104.500000
 20
98.250000
 11
104.500000
 21
77.250000
  0
LINE
  8
0
  6
CONTINUOUS
 62
7
 10
169.500000
 20
87.250000
 11
169.500000
 21
77.250000
  0
LINE
  8
0
  6
CONTINUOUS
 62
7
 10
175.500000
 20
98.250000
 11
175.500000
 21
77.250000
  0
LINE
  8
0
  6
CONTINUOUS
 62
7
 10
142.500000
 20
77.250000
 11
162.500000
 21
77.250000
  0
LINE
  8
0
  6
CONTINUOUS
 62
7
 10
169.500000
 20
77.250000
 11
183.850006
 21
77.250000
  0
LINE
  8
0
  6
CONTINUOUS
 62
7
 10
162.500000
 20
77.250000
 11
162.500000
 21
88.750000
  0
LINE
  8
0
  6
CONTINUOUS
 62
7
 10
168.500000
 20
77.750000
 11
168.500000
 21
88.750000
  0
LINE
  8
0
  6
CONTINUOUS
 62
7
 10
168.500000
 20
77.750000
 11
162.500000
 21
77.750000
  0
LINE
  8
0
  6
CONTINUOUS
 62
7
 10
177.500000
 20
77.250000
 11
177.500000
 21
89.250000
  0
LINE
  8
0
  6
CONTINUOUS
 62
7
 10
177.500000
 20
79.685799
 11
175.500000
 21
79.685799
  0
LINE
  8
0
  6
CONTINUOUS
 62
7
 10
177.500000
 20
80.852097
 11
175.500000
 21
80.852097
  0
LINE
  8
0
  6
CONTINUOUS
 62
7
 10
177.500000
 20
85.647903
 11
175.500000
 21
85.647903
  0
LINE
  8
0
  6
CONTINUOUS
 62
7
 10
177.500000
 20
86.814201
 11
175.500000
 21
86.814201
  0
LINE
  8
0
  6
CONTINUOUS
 62
7
 10
102.500000
 20
80.852097
 11
104.500000
 21
80.852097
  0
LINE
  8
0
  6
CONTINUOUS
 62
7
 10
102.500000
 20
89.250000
 11
102.500000
 21
77.250000
  0
LINE
  8
0
  6
CONTINUOUS
 62
7
 10
102.500000
 20
86.814201
 11
104.500000
 21
86.814201
  0
LINE
  8
0
  6
CONTINUOUS
 62
7
 10
102.500000
 20
79.685799
 11
104.500000
 21
79.685799
  0
LINE
  8
0
  6
CONTINUOUS
 62
7
 10
102.500000
 20
85.647903
 11
104.500000
 21
85.647903
  0
LINE
  8
0
  6
CONTINUOUS
 62
7
 10
102.500000
 20
77.250000
 11
110.500000
 21
77.250000
  0
LINE
  8
0
  6
CONTINUOUS
 62
7
 10
121.500000
 20
84.250000
 11
117.500000
 21
84.250000
  0
LINE
  8
0
  6
CONTINUOUS
 62
7
 10
121.500000
 20
82.250000
 11
117.500000
 21
82.250000
  0
LINE
  8
0
  6
CONTINUOUS
 62
7
 10
117.500000
 20
88.750000
 11
117.500000
 21
77.750000
  0
LINE
  8
0
  6
CONTINUOUS
 62
7
 10
111.500000
 20
77.750000
 11
117.500000
 21
77.750000
  0
LINE
  8
0
  6
CONTINUOUS
 62
7
 10
111.500000
 20
88.750000
 11
117.500000
 21
88.750000
  0
LINE
  8
0
  6
CONTINUOUS
 62
7
 10
111.500000
 20
88.750000
 11
111.500000
 21
77.750000
  0
LINE
  8
0
  6
CENTER
 62
2
 10
161.500000
 20
83.250000
 11
195.500000
 21
83.250000
  0
LINE
  8
0
  6
CONTINUOUS
 62
7
 10
194.500000
 20
79.949997
 11
194.500000
 21
82.500000
  0
LINE
  8
0
  6
CONTINUOUS
 62
7
 10
193.500000
 20
79.949997
 11
194.500000
 21
79.949997
  0
LINE
  8
0
  6
CONTINUOUS
 62
7
 10
193.500000
 20
79.250000
 11
193.500000
 21
87.250000
  0
LINE
  8
0
  6
CONTINUOUS
 62
7
 10
193.500000
 20
82.500000
 11
194.500000
 21
82.500000
  0
LINE
  8
0
  6
CONTINUOUS
 62
7
 10
193.500000
 20
84.000000
 11
194.500000
 21
84.000000
  0
LINE
  8
0
  6
CONTINUOUS
 62
7
 10
194.500000
 20
84.000000
 11
194.500000
 21
86.550003
  0
LINE
  8
0
  6
CONTINUOUS
 62
7
 10
193.500000
 20
86.550003
 11
194.500000
 21
86.550003
  0
LINE
  8
0
  6
CONTINUOUS
 62
7
 10
168.500000
 20
79.250000
 11
169.500000
 21
79.250000
  0
LINE
  8
0
  6
CONTINUOUS
 62
7
 10
168.500000
 20
87.250000
 11
169.500000
 21
87.250000
  0
LINE
  8
0
  6
CONTINUOUS
 62
2
 10
168.500000
 20
86.550003
 11
169.500000
 21
86.550003
  0
LINE
  8
0
  6
CONTINUOUS
 62
2
 10
168.500000
 20
79.949997
 11
169.500000
 21
79.949997
  0
LINE
  8
0
  6
CONTINUOUS
 62
7
 10
177.500000
 20
79.250000
 11
193.500000
 21
79.250000
  0
LINE
  8
0
  6
CONTINUOUS
 62
2
 10
177.500000
 20
79.949997
 11
193.500000
 21
79.949997
  0
LINE
  8
0
  6
CONTINUOUS
 62
2
 10
177.500000
 20
86.550003
 11
193.500000
 21
86.550003
  0
LINE
  8
0
  6
CONTINUOUS
 62
7
 10
177.500000
 20
87.250000
 11
193.500000
 21
87.250000
  0
LINE
  8
0
  6
CONTINUOUS
 62
7
 10
85.500000
 20
86.550003
 11
85.500000
 21
84.000000
  0
LINE
  8
0
  6
CONTINUOUS
 62
7
 10
86.500000
 20
86.550003
 11
85.500000
 21
86.550003
  0
LINE
  8
0
  6
CONTINUOUS
 62
7
 10
86.500000
 20
87.250000
 11
86.500000
 21
79.250000
  0
LINE
  8
0
  6
CONTINUOUS
 62
7
 10
86.500000
 20
84.000000
 11
85.500000
 21
84.000000
  0
LINE
  8
0
  6
CONTINUOUS
 62
7
 10
86.500000
 20
82.500000
 11
85.500000
 21
82.500000
  0
LINE
  8
0
  6
CONTINUOUS
 62
7
 10
85.500000
 20
82.500000
 11
85.500000
 21
79.949997
  0
LINE
  8
0
  6
CONTINUOUS
 62
7
 10
86.500000
 20
79.949997
 11
85.500000
 21
79.949997
  0
LINE
  8
0
  6
CONTINUOUS
 62
7
 10
111.500000
 20
87.250000
 11
110.500000
 21
87.250000
  0
LINE
  8
0
  6
CONTINUOUS
 62
7
 10
111.500000
 20
79.250000
 11
110.500000
 21
79.250000
  0
LINE
  8
0
  6
CONTINUOUS
 62
2
 10
111.500000
 20
79.949997
 11
110.500000
 21
79.949997
  0
LINE
  8
0
  6
CONTINUOUS
 62
2
 10
111.500000
 20
86.550003
 11
110.500000
 21
86.550003
  0
LINE
  8
0
  6
CONTINUOUS
 62
7
 10
102.500000
 20
79.250000
 11
86.500000
 21
79.250000
  0
LINE
  8
0
  6
CONTINUOUS
 62
2
 10
102.500000
 20
79.949997
 11
86.500000
 21
79.949997
  0
LINE
  8
0
  6
CONTINUOUS
 62
2
 10
102.500000
 20
86.550003
 11
86.500000
 21
86.550003
  0
LINE
  8
0
  6
CONTINUOUS
 62
7
 10
102.500000
 20
87.250000
 11
86.500000
 21
87.250000
  0
LINE
  8
0
  6
CONTINUOUS
 62
7
 10
121.150002
 20
84.250000
 11
121.150002
 21
88.750000
  0
LINE
  8
0
  6
CONTINUOUS
 62
7
 10
177.500000
 20
88.750000
 11
183.850006
 21
88.750000
  0
LINE
  8
0
  6
CONTINUOUS
 62
7
 10
183.850006
 20
87.250000
 11
183.850006
 21
88.750000
  0
LINE
  8
0
  6
CENTER
 62
2
 10
-172.000000
 20
-23.250000
 11
-172.000000
 21
-32.250000
  0
LINE
  8
0
  6
CENTER
 62
2
 10
-176.500000
 20
-27.750000
 11
-167.500000
 21
-27.750000
  0
LINE
  8
0
  6
CENTER
 62
2
 10
-108.000000
 20
-23.250000
 11
-108.000000
 21
-32.250000
  0
LINE
  8
0
  6
CENTER
 62
2
 10
-112.500000
 20
-27.750000
 11
-103.500000
 21
-27.750000
  0
LINE
  8
0
  6
CENTER
 62
2
 10
93.000000
 20
-23.250000
 11
93.000000
 21
-32.250000
  0
LINE
  8
0
  6
CENTER
 62
2
 10
88.500000
 20
-27.750000
 11
97.500000
 21
-27.750000
  0
LINE
  8
0
  6
CENTER
 62
2
 10
187.000000
 20
-23.250000
 11
187.000000
 21
-32.250000
  0
LINE
  8
0
  6
CENTER
 62
2
 10
182.500000
 20
-27.750000
 11
191.500000
 21
-27.750000
  0
LINE
  8
0
  6
CENTER
 62
2
 10
-142.500000
 20
-9.250000
 11
-142.500000
 21
-13.250000
  0
LINE
  8
0
  6
CENTER
 62
2
 10
-122.500000
 20
-9.250000
 11
-122.500000
 21
-13.250000
  0
LINE
  8
0
  6
CONTINUOUS
 62
7
 10
24.292801
 20
-17.042900
 11
25.707100
 21
-18.457100
  0
LINE
  8
0
  6
CONTINUOUS
 62
7
 10
-240.707001
 20
-18.457100
 11
-239.292999
 21
-17.042801
  0
LINE
  8
0
  6
CONTINUOUS
 62
7
 10
-240.707001
 20
-17.042999
 11
-239.292999
 21
-18.457199
  0
LINE
  8
0
  6
CONTINUOUS
 62
7
 10
-40.707100
 20
-18.457100
 11
-39.292900
 21
-17.042900
  0
LINE
  8
0
  6
CONTINUOUS
 62
7
 10
-40.707100
 20
-17.042900
 11
-39.292900
 21
-18.457100
  0
LINE
  8
0
  6
CONTINUOUS
 62
7
 10
254.292999
 20
-18.457199
 11
255.707001
 21
-17.042900
  0
LINE
  8
0
  6
CONTINUOUS
 62
7
 10
254.292999
 20
-17.042900
 11
255.707001
 21
-18.457100
  0
LINE
  8
0
  6
CONTINUOUS
 62
7
 10
0.424988
 20
195.500000
 11
0.424988
 21
-195.000000
  0
CIRCLE
  8
0
  6
CONTINUOUS
 62
7
 10
47.500000
 20
-25.250000
 40
6.400000
  0
ARC
  8
0
  6
CONTINUOUS
 62
7
 10
55.799999
 20
-18.750000
 40
1.700010
 50
118.071999
 51
241.925995
  0
ARC
  8
0
  6
CONTINUOUS
 62
7
 10
39.200001
 20
-18.750000
 40
1.699990
 50
298.071014
 51
61.925098
  0
CIRCLE
  8
0
  6
CONTINUOUS
 62
2
 10
37.500000
 20
-27.750000
 40
1.500000
  0
CIRCLE
  8
0
  6
CONTINUOUS
 62
7
 10
37.500000
 20
-27.750000
 40
1.250000
  0
CIRCLE
  8
0
  6
CONTINUOUS
 62
2
 10
-155.000000
 20
-27.750000
 40
1.500000
  0
CIRCLE
  8
0
  6
CONTINUOUS
 62
7
 10
-155.000000
 20
-27.750000
 40
1.250000
  0
CIRCLE
  8
0
  6
CONTINUOUS
 62
7
 10
-125.000000
 20
-27.750000
 40
1.250000
  0
CIRCLE
  8
0
  6
CONTINUOUS
 62
2
 10
-125.000000
 20
-27.750000
 40
1.500000
  0
CIRCLE
  8
0
  6
CONTINUOUS
 62
2
 10
-122.500000
 20
42.750000
 40
1.500000
  0
CIRCLE
  8
0
  6
CONTINUOUS
 62
7
 10
-122.500000
 20
42.750000
 40
1.200000
  0
CIRCLE
  8
0
  6
CONTINUOUS
 62
2
 10
-122.500000
 20
17.750000
 40
1.500000
  0
CIRCLE
  8
0
  6
CONTINUOUS
 62
7
 10
-122.500000
 20
17.750000
 40
1.200000
  0
CIRCLE
  8
0
  6
CONTINUOUS
 62
7
 10
-163.000000
 20
42.250000
 40
4.000000
  0
CIRCLE
  8
0
  6
CONTINUOUS
 62
2
 10
-163.000000
 20
42.250000
 40
2.500000
  0
CIRCLE
  8
0
  6
CONTINUOUS
 62
7
 10
-163.000000
 20
42.250000
 40
2.100000
  0
CIRCLE
  8
0
  6
CONTINUOUS
 62
7
 10
-163.000000
 20
18.250000
 40
4.000000
  0
CIRCLE
  8
0
  6
CONTINUOUS
 62
2
 10
-163.000000
 20
18.250000
 40
2.500000
  0
CIRCLE
  8
0
  6
CONTINUOUS
 62
7
 10
-163.000000
 20
18.250000
 40
2.100000
  0
ARC
  8
0
  6
CONTINUOUS
 62
7
 10
-155.000000
 20
-27.750000
 40
3.000000
 50
0.000000
 51
180.000000
  0
ARC
  8
0
  6
CONTINUOUS
 62
7
 10
-125.000000
 20
-27.750000
 40
3.000000
 50
0.000000
 51
180.000000
  0
CIRCLE
  8
0
  6
CONTINUOUS
 62
2
 10
-163.000000
 20
-81.750000
 40
2.500000
  0
CIRCLE
  8
0
  6
CONTINUOUS
 62
7
 10
-163.000000
 20
-81.750000
 40
2.100000
  0
CIRCLE
  8
0
  6
CONTINUOUS
 62
2
 10
-163.000000
 20
-57.750000
 40
2.500000
  0
CIRCLE
  8
0
  6
CONTINUOUS
 62
7
 10
-163.000000
 20
-57.750000
 40
2.100000
  0
CIRCLE
  8
0
  6
CONTINUOUS
 62
7
 10
-117.000000
 20
-57.750000
 40
2.100000
  0
CIRCLE
  8
0
  6
CONTINUOUS
 62
2
 10
-117.000000
 20
-81.750000
 40
2.500000
  0
CIRCLE
  8
0
  6
CONTINUOUS
 62
7
 10
-117.000000
 20
-81.750000
 40
2.100000
  0
CIRCLE
  8
0
  6
CONTINUOUS
 62
2
 10
-117.000000
 20
-57.750000
 40
2.500000
  0
CIRCLE
  8
0
  6
CONTINUOUS
 62
7
 10
-110.000000
 20
-65.250000
 40
5.900000
  0
ARC
  8
0
  6
CONTINUOUS
 62
7
 10
-172.000000
 20
-27.750000
 40
4.800000
 50
0.000000
 51
56.442600
  0
ARC
  8
0
  6
CONTINUOUS
 62
7
 10
-108.000000
 20
-27.750000
 40
4.800000
 50
123.556999
 51
180.000000
  0
CIRCLE
  8
0
  6
CONTINUOUS
 62
7
 10
-170.000000
 20
-65.250000
 40
5.900000
  0
ARC
  8
0
  6
DASHED
 62
2
 10
-117.000000
 20
18.250000
 40
2.500000
 50
216.869995
 51
143.130005
  0
CIRCLE
  8
0
  6
DASHED
 62
2
 10
-117.000000
 20
18.250000
 40
2.100000
  0
CIRCLE
  8
0
  6
DASHED
 62
2
 10
-117.000000
 20
18.250000
 40
4.000000
  0
CIRCLE
  8
0
  6
DASHED
 62
2
 10
-117.000000
 20
42.250000
 40
4.000000
  0
CIRCLE
  8
0
  6
DASHED
 62
2
 10
-117.000000
 20
42.250000
 40
2.500000
  0
CIRCLE
  8
0
  6
DASHED
 62
2
 10
-117.000000
 20
42.250000
 40
2.100000
  0
CIRCLE
  8
0
  6
CONTINUOUS
 62
2
 10
-137.500000
 20
-15.750000
 40
1.000000
  0
CIRCLE
  8
0
  6
CONTINUOUS
 62
2
 10
-127.500000
 20
-15.750000
 40
1.000000
  0
CIRCLE
  8
0
  6
CONTINUOUS
 62
7
 10
-127.500000
 20
-15.750000
 40
0.800000
  0
CIRCLE
  8
0
  6
CONTINUOUS
 62
7
 10
-137.500000
 20
-15.750000
 40
0.800000
  0
CIRCLE
  8
0
  6
CONTINUOUS
 62
7
 10
-142.500000
 20
42.750000
 40
1.200000
  0
CIRCLE
  8
0
  6
CONTINUOUS
 62
2
 10
-142.500000
 20
42.750000
 40
1.500000
  0
CIRCLE
  8
0
  6
CONTINUOUS
 62
7
 10
-142.500000
 20
17.750000
 40
1.200000
  0
CIRCLE
  8
0
  6
CONTINUOUS
 62
2
 10
-142.500000
 20
17.750000
 40
1.500000
  0
CIRCLE
  8
0
  6
CONTINUOUS
 62
2
 10
110.000000
 20
-27.750000
 40
1.500000
  0
CIRCLE
  8
0
  6
CONTINUOUS
 62
7
 10
110.000000
 20
-27.750000
 40
1.250000
  0
CIRCLE
  8
0
  6
CONTINUOUS
 62
7
 10
170.000000
 20
-27.750000
 40
1.250000
  0
CIRCLE
  8
0
  6
CONTINUOUS
 62
2
 10
170.000000
 20
-27.750000
 40
1.500000
  0
CIRCLE
  8
0
  6
CONTINUOUS
 62
2
 10
152.500000
 20
42.750000
 40
1.500000
  0
CIRCLE
  8
0
  6
CONTINUOUS
 62
7
 10
152.500000
 20
42.750000
 40
1.200000
  0
CIRCLE
  8
0
  6
CONTINUOUS
 62
2
 10
152.500000
 20
17.750000
 40
1.500000
  0
CIRCLE
  8
0
  6
CONTINUOUS
 62
7
 10
152.500000
 20
17.750000
 40
1.200000
  0
CIRCLE
  8
0
  6
CONTINUOUS
 62
2
 10
172.500000
 20
42.750000
 40
1.500000
  0
CIRCLE
  8
0
  6
CONTINUOUS
 62
7
 10
172.500000
 20
42.750000
 40
1.200000
  0
CIRCLE
  8
0
  6
CONTINUOUS
 62
2
 10
172.500000
 20
17.750000
 40
1.500000
  0
CIRCLE
  8
0
  6
CONTINUOUS
 62
7
 10
172.500000
 20
17.750000
 40
1.200000
  0
CIRCLE
  8
0
  6
CONTINUOUS
 62
7
 10
102.000000
 20
42.250000
 40
4.000000
  0
CIRCLE
  8
0
  6
CONTINUOUS
 62
2
 10
102.000000
 20
42.250000
 40
2.500000
  0
CIRCLE
  8
0
  6
CONTINUOUS
 62
7
 10
102.000000
 20
42.250000
 40
2.100000
  0
CIRCLE
  8
0
  6
CONTINUOUS
 62
7
 10
102.000000
 20
18.250000
 40
4.000000
  0
CIRCLE
  8
0
  6
CONTINUOUS
 62
2
 10
102.000000
 20
18.250000
 40
2.500000
  0
CIRCLE
  8
0
  6
CONTINUOUS
 62
7
 10
102.000000
 20
18.250000
 40
2.100000
  0
ARC
  8
0
  6
CONTINUOUS
 62
7
 10
110.000000
 20
-27.750000
 40
3.000000
 50
0.000000
 51
180.000000
  0
ARC
  8
0
  6
CONTINUOUS
 62
7
 10
170.000000
 20
-27.750000
 40
3.000000
 50
0.000000
 51
180.000000
  0
CIRCLE
  8
0
  6
CONTINUOUS
 62
2
 10
102.000000
 20
-81.750000
 40
2.500000
  0
CIRCLE
  8
0
  6
CONTINUOUS
 62
7
 10
102.000000
 20
-81.750000
 40
2.100000
  0
CIRCLE
  8
0
  6
CONTINUOUS
 62
2
 10
102.000000
 20
-57.750000
 40
2.500000
  0
CIRCLE
  8
0
  6
CONTINUOUS
 62
7
 10
102.000000
 20
-57.750000
 40
2.100000
  0
CIRCLE
  8
0
  6
CONTINUOUS
 62
7
 10
178.000000
 20
-57.750000
 40
2.100000
  0
CIRCLE
  8
0
  6
CONTINUOUS
 62
2
 10
178.000000
 20
-81.750000
 40
2.500000
  0
CIRCLE
  8
0
  6
CONTINUOUS
 62
7
 10
178.000000
 20
-81.750000
 40
2.100000
  0
CIRCLE
  8
0
  6
CONTINUOUS
 62
2
 10
178.000000
 20
-57.750000
 40
2.500000
  0
CIRCLE
  8
0
  6
CONTINUOUS
 62
7
 10
185.000000
 20
-65.250000
 40
5.900000
  0
ARC
  8
0
  6
CONTINUOUS
 62
7
 10
93.000000
 20
-27.750000
 40
4.800000
 50
0.000000
 51
56.442699
  0
ARC
  8
0
  6
CONTINUOUS
 62
7
 10
187.000000
 20
-27.750000
 40
4.800000
 50
123.556999
 51
180.000000
  0
CIRCLE
  8
0
  6
CONTINUOUS
 62
7
 10
95.000000
 20
-65.250000
 40
5.900000
  0
CIRCLE
  8
0
  6
DASHED
 62
2
 10
178.000000
 20
18.250000
 40
2.500000
  0
CIRCLE
  8
0
  6
DASHED
 62
2
 10
178.000000
 20
18.250000
 40
2.100000
  0
CIRCLE
  8
0
  6
DASHED
 62
2
 10
178.000000
 20
18.250000
 40
4.000000
  0
CIRCLE
  8
0
  6
DASHED
 62
2
 10
178.000000
 20
42.250000
 40
4.000000
  0
CIRCLE
  8
0
  6
DASHED
 62
2
 10
178.000000
 20
42.250000
 40
2.500000
  0
CIRCLE
  8
0
  6
DASHED
 62
2
 10
178.000000
 20
42.250000
 40
2.100000
  0
CIRCLE
  8
0
  6
CONTINUOUS
 62
2
 10
147.500000
 20
-15.750000
 40
1.000000
  0
CIRCLE
  8
0
  6
CONTINUOUS
 62
2
 10
157.500000
 20
-15.750000
 40
1.000000
  0
CIRCLE
  8
0
  6
CONTINUOUS
 62
7
 10
157.500000
 20
-15.750000
 40
0.800000
  0
CIRCLE
  8
0
  6
CONTINUOUS
 62
7
 10
147.500000
 20
-15.750000
 40
0.800000
  0
CIRCLE
  8
0
  6
CONTINUOUS
 62
7
 10
132.500000
 20
42.750000
 40
1.200000
  0
CIRCLE
  8
0
  6
CONTINUOUS
 62
2
 10
132.500000
 20
42.750000
 40
1.500000
  0
CIRCLE
  8
0
  6
CONTINUOUS
 62
7
 10
132.500000
 20
17.750000
 40
1.200000
  0
CIRCLE
  8
0
  6
CONTINUOUS
 62
2
 10
132.500000
 20
17.750000
 40
1.500000
  0
ARC
  8
0
  6
CONTINUOUS
 62
7
 10
187.000000
 20
93.250000
 40
4.800000
 50
180.000000
 51
236.442993
  0
ARC
  8
0
  6
CONTINUOUS
 62
7
 10
93.000000
 20
93.250000
 40
4.800000
 50
303.557007
 51
0.000000
  0
CIRCLE
  8
0
  6
CONTINUOUS
 62
7
 10
25.000000
 20
-17.750000
 40
4.000000
  0
CIRCLE
  8
0
  6
CONTINUOUS
 62
7
 10
25.000000
 20
-17.750000
 40
1.800000
  0
ARC
  8
0
  6
CONTINUOUS
 62
7
 10
25.000000
 20
-17.750000
 40
6.000000
 50
263.556000
 51
276.444000
  0
ARC
  8
0
  6
CONTINUOUS
 62
7
 10
25.000000
 20
-17.750000
 40
6.000000
 50
23.556499
 51
36.443501
  0
ARC
  8
0
  6
CONTINUOUS
 62
7
 10
25.000000
 20
-17.750000
 40
6.000000
 50
203.556000
 51
216.444000
  0
ARC
  8
0
  6
CONTINUOUS
 62
7
 10
25.000000
 20
-17.750000
 40
6.000000
 50
143.556000
 51
156.444000
  0
ARC
  8
0
  6
CONTINUOUS
 62
7
 10
25.000000
 20
-17.750000
 40
6.000000
 50
83.556503
 51
96.443604
  0
ARC
  8
0
  6
CONTINUOUS
 62
7
 10
25.000000
 20
-17.750000
 40
6.000000
 50
323.556000
 51
336.444000
  0
ARC
  8
0
  6
CONTINUOUS
 62
7
 10
255.000000
 20
-17.750000
 40
6.000000
 50
203.556000
 51
216.442993
  0
CIRCLE
  8
0
  6
CONTINUOUS
 62
7
 10
232.500000
 20
-25.250000
 40
6.400000
  0
ARC
  8
0
  6
CONTINUOUS
 62
7
 10
224.199997
 20
-18.750000
 40
1.700010
 50
298.074005
 51
61.928101
  0
ARC
  8
0
  6
CONTINUOUS
 62
7
 10
240.800003
 20
-18.750000
 40
1.699990
 50
118.074997
 51
241.929001
  0
CIRCLE
  8
0
  6
CONTINUOUS
 62
2
 10
242.500000
 20
-27.750000
 40
1.500000
  0
CIRCLE
  8
0
  6
CONTINUOUS
 62
7
 10
242.500000
 20
-27.750000
 40
1.250000
  0
CIRCLE
  8
0
  6
CONTINUOUS
 62
7
 10
255.000000
 20
-17.750000
 40
4.000000
  0
CIRCLE
  8
0
  6
CONTINUOUS
 62
7
 10
255.000000
 20
-17.750000
 40
1.800000
  0
ARC
  8
0
  6
CONTINUOUS
 62
7
 10
255.000000
 20
-17.750000
 40
6.000000
 50
263.556000
 51
276.442993
  0
ARC
  8
0
  6
CONTINUOUS
 62
7
 10
255.000000
 20
-17.750000
 40
6.000000
 50
143.557007
 51
156.444000
  0
ARC
  8
0
  6
CONTINUOUS
 62
7
 10
255.000000
 20
-17.750000
 40
6.000000
 50
323.556000
 51
336.444000
  0
ARC
  8
0
  6
CONTINUOUS
 62
7
 10
255.000000
 20
-17.750000
 40
6.000000
 50
23.556499
 51
36.443501
  0
ARC
  8
0
  6
CONTINUOUS
 62
7
 10
255.000000
 20
-17.750000
 40
6.000000
 50
83.556503
 51
96.443497
  0
ARC
  8
0
  6
CONTINUOUS
 62
7
 10
-167.500000
 20
87.250000
 40
2.000000
 50
90.000000
 51
180.000000
  0
ARC
  8
0
  6
CONTINUOUS
 62
7
 10
-112.500000
 20
87.250000
 40
2.000000
 50
0.000000
 51
90.000000
  0
ARC
  8
0
  6
CONTINUOUS
 62
7
 10
-40.000000
 20
-17.750000
 40
6.000000
 50
83.556503
 51
96.443604
  0
CIRCLE
  8
0
  6
CONTINUOUS
 62
7
 10
-217.500000
 20
-25.250000
 40
6.400000
  0
ARC
  8
0
  6
CONTINUOUS
 62
7
 10
-209.199997
 20
-18.750000
 40
1.700010
 50
118.071999
 51
241.925995
  0
ARC
  8
0
  6
CONTINUOUS
 62
7
 10
-225.800003
 20
-18.750000
 40
1.699990
 50
298.071014
 51
61.924999
  0
CIRCLE
  8
0
  6
CONTINUOUS
 62
2
 10
-227.500000
 20
-27.750000
 40
1.500000
  0
CIRCLE
  8
0
  6
CONTINUOUS
 62
7
 10
-227.500000
 20
-27.750000
 40
1.250000
  0
CIRCLE
  8
0
  6
CONTINUOUS
 62
7
 10
-240.000000
 20
-17.750000
 40
4.000000
  0
CIRCLE
  8
0
  6
CONTINUOUS
 62
7
 10
-240.000000
 20
-17.750000
 40
1.800000
  0
ARC
  8
0
  6
CONTINUOUS
 62
7
 10
-240.000000
 20
-17.750000
 40
6.000000
 50
263.556000
 51
276.442993
  0
ARC
  8
0
  6
CONTINUOUS
 62
7
 10
-240.000000
 20
-17.750000
 40
6.000000
 50
23.556499
 51
36.443501
  0
ARC
  8
0
  6
CONTINUOUS
 62
7
 10
-240.000000
 20
-17.750000
 40
6.000000
 50
203.556000
 51
216.442993
  0
ARC
  8
0
  6
CONTINUOUS
 62
7
 10
-240.000000
 20
-17.750000
 40
6.000000
 50
143.557007
 51
156.444000
  0
ARC
  8
0
  6
CONTINUOUS
 62
7
 10
-240.000000
 20
-17.750000
 40
6.000000
 50
83.556503
 51
96.443497
  0
ARC
  8
0
  6
CONTINUOUS
 62
7
 10
-240.000000
 20
-17.750000
 40
6.000000
 50
323.556000
 51
336.444000
  0
ARC
  8
0
  6
CONTINUOUS
 62
7
 10
-40.000000
 20
-17.750000
 40
6.000000
 50
203.556000
 51
216.444000
  0
CIRCLE
  8
0
  6
CONTINUOUS
 62
7
 10
-62.500000
 20
-25.250000
 40
6.400000
  0
ARC
  8
0
  6
CONTINUOUS
 62
7
 10
-70.800003
 20
-18.750000
 40
1.700010
 50
298.074005
 51
61.928101
  0
ARC
  8
0
  6
CONTINUOUS
 62
7
 10
-54.200001
 20
-18.750000
 40
1.699990
 50
118.074997
 51
241.929001
  0
CIRCLE
  8
0
  6
CONTINUOUS
 62
2
 10
-52.500000
 20
-27.750000
 40
1.500000
  0
CIRCLE
  8
0
  6
CONTINUOUS
 62
7
 10
-52.500000
 20
-27.750000
 40
1.250000
  0
CIRCLE
  8
0
  6
CONTINUOUS
 62
7
 10
-40.000000
 20
-17.750000
 40
4.000000
  0
CIRCLE
  8
0
  6
CONTINUOUS
 62
7
 10
-40.000000
 20
-17.750000
 40
1.800000
  0
ARC
  8
0
  6
CONTINUOUS
 62
7
 10
-40.000000
 20
-17.750000
 40
6.000000
 50
263.556000
 51
276.444000
  0
ARC
  8
0
  6
CONTINUOUS
 62
7
 10
-40.000000
 20
-17.750000
 40
6.000000
 50
143.556000
 51
156.444000
  0
ARC
  8
0
  6
CONTINUOUS
 62
7
 10
-40.000000
 20
-17.750000
 40
6.000000
 50
323.556000
 51
336.444000
  0
ARC
  8
0
  6
CONTINUOUS
 62
7
 10
-40.000000
 20
-17.750000
 40
6.000000
 50
23.556499
 51
36.443501
  0
ARC
  8
0
  6
CONTINUOUS
 62
7
 10
112.500000
 20
87.250000
 40
2.000000
 50
90.000000
 51
180.000000
  0
ARC
  8
0
  6
CONTINUOUS
 62
7
 10
167.500000
 20
87.250000
 40
2.000000
 50
0.000000
 51
90.000000
  0
CIRCLE
  8
0
  6
CONTINUOUS
 62
7
 10
-172.000000
 20
-27.750000
 40
2.100000
  0
CIRCLE
  8
0
  6
CONTINUOUS
 62
2
 10
-172.000000
 20
-27.750000
 40
2.500000
  0
CIRCLE
  8
0
  6
CONTINUOUS
 62
7
 10
-108.000000
 20
-27.750000
 40
2.100000
  0
CIRCLE
  8
0
  6
CONTINUOUS
 62
2
 10
-108.000000
 20
-27.750000
 40
2.500000
  0
CIRCLE
  8
0
  6
CONTINUOUS
 62
7
 10
93.000000
 20
-27.750000
 40
2.100000
  0
CIRCLE
  8
0
  6
CONTINUOUS
 62
2
 10
93.000000
 20
-27.750000
 40
2.500000
  0
CIRCLE
  8
0
  6
CONTINUOUS
 62
7
 10
187.000000
 20
-27.750000
 40
2.100000
  0
CIRCLE
  8
0
  6
CONTINUOUS
 62
2
 10
187.000000
 20
-27.750000
 40
2.500000
  0
TEXT
  8
0
 62
7
 10
202.930283
 20
183.925003
 40
6.300000
  1
Ver.1.0
 50
0.000000
 41
1.010330
 51
0.000000
  7
STANDARD
  0
TEXT
  8
0
 62
7
 10
172.714691
 20
-187.250000
 40
9.000000
  1
KOGANEI CORP.
 50
0.000000
 41
0.771524
 51
0.000000
  7
STANDARD
  0
TEXT
  8
0
 62
7
 10
-243.569717
 20
183.925003
 40
6.300000
  1
AP TABLE
 50
0.000000
 41
0.775607
 51
0.000000
  7
STANDARD
  0
TEXT
  8
0
 62
7
 10
12.274609
 20
158.925003
 40
6.300000
  1
MODEL:APT-SD12-25-TPQZ
 50
0.000000
 41
0.771524
 51
0.000000
  7
STANDARD
  0
TEXT
  8
0
 62
7
 10
-269.400391
 20
158.925003
 40
6.300000
  1
MODEL:APT-SD12-15-TPQZ
 50
0.000000
 41
0.784601
 51
0.000000
  7
STANDARD
  0
ENDSEC
  0
EOF
