  0
SECTION
  2
HEADER
  0
ENDSEC
  0
SECTION
  2
TABLES
  0
TABLE
  2
LTYPE
 70
     4
  0
LTYPE
  2
CONTINUOUS
 70
    64
  3
Solid line
 72
    65
 73
     0
 40
0.000000
  0
LTYPE
  2
DASHED
 70
    64
  3
__ __ __ __ __ __ __ __ __ __ __ __ __ __ __
 72
    65
 73
     2
 40
3.500000
 49
2.000000
 49
-1.500000
  0
LTYPE
  2
CENTER
 70
    64
  3
____ _ ____ _ ____ _ ____ _ ____ _ ____ _ ____
 72
    65
 73
     4
 40
17.500000
 49
13.000000
 49
-1.500000
 49
1.500000
 49
-1.500000
  0
LTYPE
  2
PHANTOM
 70
    64
  3
_____ _ _ _____ _ _ _____ _ _ _____ _ _ ____  
 72
    65
 73
     6
 40
15.500000
 49
8.000000
 49
-1.500000
 49
1.500000
 49
-1.500000
 49
1.500000
 49
-1.500000
  0
ENDTAB
  0
TABLE
  2
LAYER
 70
     1
  0
LAYER
  2
0
 70
     0
 62
     7
  6
CONTINUOUS
  0
ENDTAB
  0
TABLE
  2
STYLE
 70
     1
  0
STYLE
  2
STANDARD
 70
     0
 40
0.000000
 41
1.000000
 50
0.000000
 71
     0
 42
0.200000
  3
txt
  4
BIGFONT
  0
ENDTAB
  0
TABLE
  2
VIEW
 70
     0
  0
ENDTAB
  0
ENDSEC
  0
SECTION
  2
BLOCKS
  0
ENDSEC
  0
SECTION
  2
ENTITIES
  0
LINE
  8
0
  6
CONTINUOUS
 62
7
 10
399.799988
 20
276.250000
 11
399.799988
 21
-276.750000
  0
LINE
  8
0
  6
CONTINUOUS
 62
7
 10
-399.250000
 20
276.250000
 11
-399.250000
 21
-276.750000
  0
LINE
  8
0
  6
CONTINUOUS
 62
7
 10
-399.250000
 20
276.250000
 11
399.799988
 21
276.250000
  0
LINE
  8
0
  6
CONTINUOUS
 62
7
 10
-399.250000
 20
-276.750000
 11
399.799988
 21
-276.750000
  0
LINE
  8
0
  6
CONTINUOUS
 62
7
 10
239.800003
 20
-251.750000
 11
399.799988
 21
-251.750000
  0
LINE
  8
0
  6
CONTINUOUS
 62
7
 10
239.800003
 20
251.250000
 11
399.799988
 21
251.250000
  0
LINE
  8
0
  6
CONTINUOUS
 62
7
 10
-399.250000
 20
251.250000
 11
-239.250000
 21
251.250000
  0
LINE
  8
0
  6
CONTINUOUS
 62
7
 10
239.800003
 20
-251.750000
 11
239.800003
 21
-276.750000
  0
LINE
  8
0
  6
CONTINUOUS
 62
7
 10
239.800003
 20
251.250000
 11
239.800003
 21
276.250000
  0
LINE
  8
0
  6
CONTINUOUS
 62
7
 10
-239.250000
 20
276.250000
 11
-239.250000
 21
251.250000
  0
LINE
  8
0
  6
CENTER
 62
2
 10
-165.000000
 20
-113.974998
 11
-245.000000
 21
-113.974998
  0
LINE
  8
0
  6
CONTINUOUS
 62
7
 10
-218.500000
 20
-71.974998
 11
-218.500000
 21
-60.474998
  0
LINE
  8
0
  6
CONTINUOUS
 62
7
 10
-210.899994
 20
-72.474998
 11
-210.899994
 21
-60.474998
  0
LINE
  8
0
  6
CONTINUOUS
 62
7
 10
-210.899994
 20
-72.474998
 11
-184.100006
 21
-72.474998
  0
LINE
  8
0
  6
CONTINUOUS
 62
7
 10
-218.500000
 20
-60.474998
 11
-176.500000
 21
-60.474998
  0
LINE
  8
0
  6
CONTINUOUS
 62
7
 10
-218.500000
 20
-71.974998
 11
-210.899994
 21
-71.974998
  0
LINE
  8
0
  6
CONTINUOUS
 62
7
 10
-243.000000
 20
-67.474998
 11
-218.500000
 21
-67.474998
  0
LINE
  8
0
  6
CONTINUOUS
 62
7
 10
-176.500000
 20
-67.474998
 11
-167.000000
 21
-67.474998
  0
LINE
  8
0
  6
CONTINUOUS
 62
7
 10
-176.500000
 20
-71.974998
 11
-176.500000
 21
-60.474998
  0
LINE
  8
0
  6
CONTINUOUS
 62
7
 10
-184.100006
 20
-72.474998
 11
-184.100006
 21
-60.474998
  0
LINE
  8
0
  6
CONTINUOUS
 62
7
 10
-176.500000
 20
-71.974998
 11
-184.100006
 21
-71.974998
  0
LINE
  8
0
  6
CONTINUOUS
 62
7
 10
-243.000000
 20
-59.974998
 11
-234.347000
 21
-59.974998
  0
LINE
  8
0
  6
CONTINUOUS
 62
7
 10
-243.000000
 20
-50.474998
 11
-167.000000
 21
-50.474998
  0
LINE
  8
0
  6
CONTINUOUS
 62
7
 10
-243.000000
 20
-67.474998
 11
-243.000000
 21
-50.474998
  0
LINE
  8
0
  6
CONTINUOUS
 62
7
 10
-167.000000
 20
-67.474998
 11
-167.000000
 21
-50.474998
  0
LINE
  8
0
  6
CONTINUOUS
 62
7
 10
-210.899994
 20
-129.975006
 11
-210.899994
 21
-97.974998
  0
LINE
  8
0
  6
CONTINUOUS
 62
7
 10
-184.100006
 20
-129.975006
 11
-210.899994
 21
-129.975006
  0
LINE
  8
0
  6
CONTINUOUS
 62
7
 10
-184.100006
 20
-97.974998
 11
-210.899994
 21
-97.974998
  0
LINE
  8
0
  6
CONTINUOUS
 62
7
 10
-184.100006
 20
-129.975006
 11
-184.100006
 21
-97.974998
  0
LINE
  8
0
  6
CONTINUOUS
 62
7
 10
-184.100006
 20
-129.774994
 11
-176.500000
 21
-129.774994
  0
LINE
  8
0
  6
CONTINUOUS
 62
7
 10
-176.500000
 20
-129.774994
 11
-176.500000
 21
-98.175003
  0
LINE
  8
0
  6
CONTINUOUS
 62
7
 10
-184.100006
 20
-98.175003
 11
-176.500000
 21
-98.175003
  0
LINE
  8
0
  6
CONTINUOUS
 62
7
 10
-243.000000
 20
-121.474998
 11
-218.500000
 21
-121.474998
  0
LINE
  8
0
  6
CONTINUOUS
 62
7
 10
-176.500000
 20
-121.474998
 11
-167.000000
 21
-121.474998
  0
LINE
  8
0
  6
CONTINUOUS
 62
7
 10
-243.000000
 20
-106.474998
 11
-218.500000
 21
-106.474998
  0
LINE
  8
0
  6
CONTINUOUS
 62
7
 10
-176.500000
 20
-106.474998
 11
-167.000000
 21
-106.474998
  0
LINE
  8
0
  6
CONTINUOUS
 62
7
 10
-184.100006
 20
-104.974998
 11
-210.899994
 21
-104.974998
  0
LINE
  8
0
  6
CONTINUOUS
 62
7
 10
-184.100006
 20
-122.974998
 11
-210.899994
 21
-122.974998
  0
LINE
  8
0
  6
CONTINUOUS
 62
7
 10
-243.000000
 20
-97.474998
 11
-167.000000
 21
-97.474998
  0
LINE
  8
0
  6
CONTINUOUS
 62
7
 10
-243.000000
 20
-97.474998
 11
-243.000000
 21
-130.475006
  0
LINE
  8
0
  6
CONTINUOUS
 62
7
 10
-167.000000
 20
-97.474998
 11
-167.000000
 21
-130.475006
  0
LINE
  8
0
  6
CENTER
 62
2
 10
-165.000000
 20
-218.975006
 11
-245.000000
 21
-218.975006
  0
LINE
  8
0
  6
CONTINUOUS
 62
7
 10
-243.000000
 20
-235.475006
 11
-167.000000
 21
-235.475006
  0
LINE
  8
0
  6
CONTINUOUS
 62
7
 10
-243.000000
 20
-202.475006
 11
-167.000000
 21
-202.475006
  0
LINE
  8
0
  6
CONTINUOUS
 62
7
 10
-243.000000
 20
-202.475006
 11
-243.000000
 21
-235.475006
  0
LINE
  8
0
  6
CONTINUOUS
 62
7
 10
-167.000000
 20
-202.475006
 11
-167.000000
 21
-235.475006
  0
LINE
  8
0
  6
CONTINUOUS
 62
7
 10
-232.199997
 20
-55.974998
 11
-223.000000
 21
-55.974998
  0
LINE
  8
0
  6
CONTINUOUS
 62
7
 10
-193.000000
 20
-55.974998
 11
-217.000000
 21
-55.974998
  0
LINE
  8
0
  6
CONTINUOUS
 62
7
 10
-177.800003
 20
-55.974998
 11
-187.000000
 21
-55.974998
  0
LINE
  8
0
  6
CONTINUOUS
 62
7
 10
-218.500000
 20
-129.774994
 11
-218.500000
 21
-98.187500
  0
LINE
  8
0
  6
CONTINUOUS
 62
7
 10
-210.899994
 20
-129.774994
 11
-218.500000
 21
-129.774994
  0
LINE
  8
0
  6
CONTINUOUS
 62
7
 10
-210.899994
 20
-98.175003
 11
-218.500000
 21
-98.175003
  0
LINE
  8
0
  6
CONTINUOUS
 62
7
 10
-175.653000
 20
-59.974998
 11
-167.000000
 21
-59.974998
  0
LINE
  8
0
  6
CENTER
 62
2
 10
-182.000000
 20
-107.974998
 11
-182.000000
 21
-95.974998
  0
LINE
  8
0
  6
CENTER
 62
2
 10
-188.000000
 20
-101.974998
 11
-176.000000
 21
-101.974998
  0
LINE
  8
0
  6
CENTER
 62
2
 10
-182.000000
 20
-131.975006
 11
-182.000000
 21
-119.974998
  0
LINE
  8
0
  6
CENTER
 62
2
 10
-188.000000
 20
-125.974998
 11
-176.000000
 21
-125.974998
  0
LINE
  8
0
  6
CENTER
 62
2
 10
-187.500000
 20
-129.975006
 11
-187.500000
 21
-122.974998
  0
LINE
  8
0
  6
CENTER
 62
2
 10
-191.000000
 20
-126.474998
 11
-184.000000
 21
-126.474998
  0
LINE
  8
0
  6
CENTER
 62
2
 10
-207.500000
 20
-129.975006
 11
-207.500000
 21
-122.974998
  0
LINE
  8
0
  6
CENTER
 62
2
 10
-211.000000
 20
-126.474998
 11
-204.000000
 21
-126.474998
  0
LINE
  8
0
  6
CENTER
 62
2
 10
-187.500000
 20
-104.974998
 11
-187.500000
 21
-97.974998
  0
LINE
  8
0
  6
CENTER
 62
2
 10
-191.000000
 20
-101.474998
 11
-184.000000
 21
-101.474998
  0
LINE
  8
0
  6
CENTER
 62
2
 10
-207.500000
 20
-104.974998
 11
-207.500000
 21
-97.974998
  0
LINE
  8
0
  6
CENTER
 62
2
 10
-211.000000
 20
-101.474998
 11
-204.000000
 21
-101.474998
  0
LINE
  8
0
  6
CENTER
 62
2
 10
-228.000000
 20
-107.974998
 11
-228.000000
 21
-95.974998
  0
LINE
  8
0
  6
CENTER
 62
2
 10
-234.000000
 20
-101.974998
 11
-222.000000
 21
-101.974998
  0
LINE
  8
0
  6
CENTER
 62
2
 10
-228.000000
 20
-131.975006
 11
-228.000000
 21
-119.974998
  0
LINE
  8
0
  6
CENTER
 62
2
 10
-234.000000
 20
-125.974998
 11
-222.000000
 21
-125.974998
  0
LINE
  8
0
  6
CENTER
 62
2
 10
-190.000000
 20
-59.474998
 11
-190.000000
 21
-52.474998
  0
LINE
  8
0
  6
CENTER
 62
2
 10
-193.500000
 20
-55.974998
 11
-186.500000
 21
-55.974998
  0
LINE
  8
0
  6
CENTER
 62
2
 10
-192.500000
 20
-70.974998
 11
-192.500000
 21
-64.974998
  0
LINE
  8
0
  6
CENTER
 62
2
 10
-195.500000
 20
-67.974998
 11
-189.500000
 21
-67.974998
  0
LINE
  8
0
  6
CENTER
 62
2
 10
-202.500000
 20
-70.974998
 11
-202.500000
 21
-64.974998
  0
LINE
  8
0
  6
CENTER
 62
2
 10
-205.500000
 20
-67.974998
 11
-199.500000
 21
-67.974998
  0
LINE
  8
0
  6
CENTER
 62
2
 10
-220.000000
 20
-59.474998
 11
-220.000000
 21
-52.474998
  0
LINE
  8
0
  6
CENTER
 62
2
 10
-223.500000
 20
-55.974998
 11
-216.500000
 21
-55.974998
  0
LINE
  8
0
  6
CENTER
 62
2
 10
-228.000000
 20
-202.475006
 11
-228.000000
 21
-211.475006
  0
LINE
  8
0
  6
CENTER
 62
2
 10
-232.500000
 20
-206.975006
 11
-223.500000
 21
-206.975006
  0
LINE
  8
0
  6
CENTER
 62
2
 10
-235.000000
 20
-206.574997
 11
-235.000000
 21
-222.375000
  0
LINE
  8
0
  6
CENTER
 62
2
 10
-242.899994
 20
-214.475006
 11
-227.100006
 21
-214.475006
  0
LINE
  8
0
  6
CENTER
 62
2
 10
-182.000000
 20
-202.475006
 11
-182.000000
 21
-211.475006
  0
LINE
  8
0
  6
CENTER
 62
2
 10
-186.500000
 20
-206.975006
 11
-177.500000
 21
-206.975006
  0
LINE
  8
0
  6
CENTER
 62
2
 10
-175.000000
 20
-206.574997
 11
-175.000000
 21
-222.375000
  0
LINE
  8
0
  6
CENTER
 62
2
 10
-182.899994
 20
-214.475006
 11
-167.100006
 21
-214.475006
  0
LINE
  8
0
  6
CENTER
 62
2
 10
-182.000000
 20
-226.475006
 11
-182.000000
 21
-235.475006
  0
LINE
  8
0
  6
CENTER
 62
2
 10
-186.500000
 20
-230.975006
 11
-177.500000
 21
-230.975006
  0
LINE
  8
0
  6
CENTER
 62
2
 10
-228.000000
 20
-226.475006
 11
-228.000000
 21
-235.475006
  0
LINE
  8
0
  6
CENTER
 62
2
 10
-232.500000
 20
-230.975006
 11
-223.500000
 21
-230.975006
  0
LINE
  8
0
  6
CENTER
 62
2
 10
-228.000000
 20
-57.974998
 11
-228.000000
 21
-48.474998
  0
LINE
  8
0
  6
DASHED
 62
2
 10
-224.000000
 20
-55.974998
 11
-224.000000
 21
-54.974998
  0
LINE
  8
0
  6
DASHED
 62
2
 10
-232.000000
 20
-55.974998
 11
-232.000000
 21
-54.974998
  0
LINE
  8
0
  6
DASHED
 62
2
 10
-230.500000
 20
-54.974998
 11
-230.500000
 21
-50.474998
  0
LINE
  8
0
  6
DASHED
 62
2
 10
-225.500000
 20
-54.974998
 11
-225.500000
 21
-50.474998
  0
LINE
  8
0
  6
DASHED
 62
2
 10
-230.100006
 20
-54.974998
 11
-230.100006
 21
-50.474998
  0
LINE
  8
0
  6
DASHED
 62
2
 10
-225.899994
 20
-54.974998
 11
-225.899994
 21
-50.474998
  0
LINE
  8
0
  6
DASHED
 62
2
 10
-232.000000
 20
-54.974998
 11
-224.000000
 21
-54.974998
  0
LINE
  8
0
  6
DASHED
 62
2
 10
-186.000000
 20
-55.974998
 11
-186.000000
 21
-54.974998
  0
LINE
  8
0
  6
DASHED
 62
2
 10
-186.000000
 20
-54.974998
 11
-178.000000
 21
-54.974998
  0
LINE
  8
0
  6
DASHED
 62
2
 10
-184.500000
 20
-54.974998
 11
-184.500000
 21
-50.474998
  0
LINE
  8
0
  6
DASHED
 62
2
 10
-184.100006
 20
-54.974998
 11
-184.100006
 21
-50.474998
  0
LINE
  8
0
  6
CENTER
 62
2
 10
-182.000000
 20
-57.974998
 11
-182.000000
 21
-48.474998
  0
LINE
  8
0
  6
DASHED
 62
2
 10
-179.899994
 20
-54.974998
 11
-179.899994
 21
-50.474998
  0
LINE
  8
0
  6
DASHED
 62
2
 10
-179.500000
 20
-54.974998
 11
-179.500000
 21
-50.474998
  0
LINE
  8
0
  6
DASHED
 62
2
 10
-178.000000
 20
-55.974998
 11
-178.000000
 21
-54.974998
  0
LINE
  8
0
  6
DASHED
 62
2
 10
-224.000000
 20
-171.975006
 11
-224.000000
 21
-172.975006
  0
LINE
  8
0
  6
DASHED
 62
2
 10
-224.000000
 20
-172.975006
 11
-232.000000
 21
-172.975006
  0
LINE
  8
0
  6
DASHED
 62
2
 10
-225.500000
 20
-172.975006
 11
-225.500000
 21
-177.475006
  0
LINE
  8
0
  6
DASHED
 62
2
 10
-225.899994
 20
-172.975006
 11
-225.899994
 21
-177.475006
  0
LINE
  8
0
  6
CENTER
 62
2
 10
-228.000000
 20
-169.975006
 11
-228.000000
 21
-179.475006
  0
LINE
  8
0
  6
DASHED
 62
2
 10
-230.100006
 20
-172.975006
 11
-230.100006
 21
-177.475006
  0
LINE
  8
0
  6
DASHED
 62
2
 10
-230.500000
 20
-172.975006
 11
-230.500000
 21
-177.475006
  0
LINE
  8
0
  6
DASHED
 62
2
 10
-232.000000
 20
-171.975006
 11
-232.000000
 21
-172.975006
  0
LINE
  8
0
  6
DASHED
 62
2
 10
-178.000000
 20
-171.975006
 11
-178.000000
 21
-172.975006
  0
LINE
  8
0
  6
DASHED
 62
2
 10
-178.000000
 20
-172.975006
 11
-186.000000
 21
-172.975006
  0
LINE
  8
0
  6
DASHED
 62
2
 10
-179.500000
 20
-172.975006
 11
-179.500000
 21
-177.475006
  0
LINE
  8
0
  6
DASHED
 62
2
 10
-179.899994
 20
-172.975006
 11
-179.899994
 21
-177.475006
  0
LINE
  8
0
  6
CENTER
 62
2
 10
-182.000000
 20
-169.975006
 11
-182.000000
 21
-179.475006
  0
LINE
  8
0
  6
DASHED
 62
2
 10
-184.100006
 20
-172.975006
 11
-184.100006
 21
-177.475006
  0
LINE
  8
0
  6
DASHED
 62
2
 10
-184.500000
 20
-172.975006
 11
-184.500000
 21
-177.475006
  0
LINE
  8
0
  6
DASHED
 62
2
 10
-186.000000
 20
-171.975006
 11
-186.000000
 21
-172.975006
  0
LINE
  8
0
  6
CENTER
 62
2
 10
-187.500000
 20
-157.475006
 11
-187.500000
 21
-153.475006
  0
LINE
  8
0
  6
CENTER
 62
2
 10
-207.500000
 20
-157.475006
 11
-207.500000
 21
-153.475006
  0
LINE
  8
0
  6
CENTER
 62
2
 10
247.000000
 20
-113.974998
 11
137.000000
 21
-113.974998
  0
LINE
  8
0
  6
CONTINUOUS
 62
7
 10
173.149994
 20
-71.974998
 11
173.149994
 21
-60.474998
  0
LINE
  8
0
  6
CONTINUOUS
 62
7
 10
180.750000
 20
-72.474998
 11
180.750000
 21
-60.474998
  0
LINE
  8
0
  6
CONTINUOUS
 62
7
 10
180.750000
 20
-72.474998
 11
228.250000
 21
-72.474998
  0
LINE
  8
0
  6
CONTINUOUS
 62
7
 10
173.149994
 20
-60.474998
 11
235.850006
 21
-60.474998
  0
LINE
  8
0
  6
CONTINUOUS
 62
7
 10
173.149994
 20
-71.974998
 11
180.750000
 21
-71.974998
  0
LINE
  8
0
  6
CONTINUOUS
 62
7
 10
139.000000
 20
-67.474998
 11
173.149994
 21
-67.474998
  0
LINE
  8
0
  6
CONTINUOUS
 62
7
 10
235.850006
 20
-67.474998
 11
245.000000
 21
-67.474998
  0
LINE
  8
0
  6
CONTINUOUS
 62
7
 10
235.850006
 20
-71.974998
 11
235.850006
 21
-60.474998
  0
LINE
  8
0
  6
CONTINUOUS
 62
7
 10
228.250000
 20
-72.474998
 11
228.250000
 21
-60.474998
  0
LINE
  8
0
  6
CONTINUOUS
 62
7
 10
235.850006
 20
-71.974998
 11
228.250000
 21
-71.974998
  0
LINE
  8
0
  6
CONTINUOUS
 62
7
 10
139.000000
 20
-59.974998
 11
147.653000
 21
-59.974998
  0
LINE
  8
0
  6
CONTINUOUS
 62
7
 10
139.000000
 20
-50.474998
 11
245.000000
 21
-50.474998
  0
LINE
  8
0
  6
CONTINUOUS
 62
7
 10
139.000000
 20
-67.474998
 11
139.000000
 21
-50.474998
  0
LINE
  8
0
  6
CONTINUOUS
 62
7
 10
245.000000
 20
-67.474998
 11
245.000000
 21
-50.474998
  0
LINE
  8
0
  6
CONTINUOUS
 62
7
 10
180.750000
 20
-129.975006
 11
180.750000
 21
-97.974998
  0
LINE
  8
0
  6
CONTINUOUS
 62
7
 10
228.250000
 20
-129.975006
 11
180.750000
 21
-129.975006
  0
LINE
  8
0
  6
CONTINUOUS
 62
7
 10
228.250000
 20
-97.974998
 11
180.750000
 21
-97.974998
  0
LINE
  8
0
  6
CONTINUOUS
 62
7
 10
228.250000
 20
-129.975006
 11
228.250000
 21
-97.974998
  0
LINE
  8
0
  6
CONTINUOUS
 62
7
 10
228.250000
 20
-129.774994
 11
235.850006
 21
-129.774994
  0
LINE
  8
0
  6
CONTINUOUS
 62
7
 10
235.850006
 20
-129.774994
 11
235.850006
 21
-98.175003
  0
LINE
  8
0
  6
CONTINUOUS
 62
7
 10
228.250000
 20
-98.175003
 11
235.850006
 21
-98.175003
  0
LINE
  8
0
  6
CONTINUOUS
 62
7
 10
139.000000
 20
-121.474998
 11
173.149994
 21
-121.474998
  0
LINE
  8
0
  6
CONTINUOUS
 62
7
 10
235.850006
 20
-121.474998
 11
245.000000
 21
-121.474998
  0
LINE
  8
0
  6
CONTINUOUS
 62
7
 10
139.000000
 20
-106.474998
 11
173.149994
 21
-106.474998
  0
LINE
  8
0
  6
CONTINUOUS
 62
7
 10
235.850006
 20
-106.474998
 11
245.000000
 21
-106.474998
  0
LINE
  8
0
  6
CONTINUOUS
 62
7
 10
228.250000
 20
-104.974998
 11
180.750000
 21
-104.974998
  0
LINE
  8
0
  6
CONTINUOUS
 62
7
 10
228.250000
 20
-122.974998
 11
180.750000
 21
-122.974998
  0
LINE
  8
0
  6
CONTINUOUS
 62
7
 10
139.000000
 20
-97.474998
 11
245.000000
 21
-97.474998
  0
LINE
  8
0
  6
CONTINUOUS
 62
7
 10
139.000000
 20
-97.474998
 11
139.000000
 21
-130.475006
  0
LINE
  8
0
  6
CONTINUOUS
 62
7
 10
245.000000
 20
-97.474998
 11
245.000000
 21
-130.475006
  0
LINE
  8
0
  6
CENTER
 62
2
 10
247.000000
 20
-218.975006
 11
137.000000
 21
-218.975006
  0
LINE
  8
0
  6
CONTINUOUS
 62
7
 10
139.000000
 20
-235.475006
 11
245.000000
 21
-235.475006
  0
LINE
  8
0
  6
CONTINUOUS
 62
7
 10
139.000000
 20
-202.475006
 11
245.000000
 21
-202.475006
  0
LINE
  8
0
  6
CONTINUOUS
 62
7
 10
139.000000
 20
-202.475006
 11
139.000000
 21
-235.475006
  0
LINE
  8
0
  6
CONTINUOUS
 62
7
 10
245.000000
 20
-202.475006
 11
245.000000
 21
-235.475006
  0
LINE
  8
0
  6
CONTINUOUS
 62
7
 10
149.800003
 20
-55.974998
 11
159.000000
 21
-55.974998
  0
LINE
  8
0
  6
CONTINUOUS
 62
7
 10
219.000000
 20
-55.974998
 11
165.000000
 21
-55.974998
  0
LINE
  8
0
  6
CONTINUOUS
 62
7
 10
234.199997
 20
-55.974998
 11
225.000000
 21
-55.974998
  0
LINE
  8
0
  6
CONTINUOUS
 62
7
 10
173.149994
 20
-129.774994
 11
173.149994
 21
-98.187500
  0
LINE
  8
0
  6
CONTINUOUS
 62
7
 10
180.750000
 20
-98.175003
 11
173.149994
 21
-98.175003
  0
LINE
  8
0
  6
CONTINUOUS
 62
7
 10
180.750000
 20
-129.774994
 11
173.149994
 21
-129.774994
  0
LINE
  8
0
  6
CONTINUOUS
 62
7
 10
236.347000
 20
-59.974998
 11
245.000000
 21
-59.974998
  0
LINE
  8
0
  6
CENTER
 62
2
 10
154.000000
 20
-131.975006
 11
154.000000
 21
-119.974998
  0
LINE
  8
0
  6
CENTER
 62
2
 10
148.000000
 20
-125.974998
 11
160.000000
 21
-125.974998
  0
LINE
  8
0
  6
CENTER
 62
2
 10
154.000000
 20
-107.974998
 11
154.000000
 21
-95.974998
  0
LINE
  8
0
  6
CENTER
 62
2
 10
148.000000
 20
-101.974998
 11
160.000000
 21
-101.974998
  0
LINE
  8
0
  6
CENTER
 62
2
 10
184.500000
 20
-129.975006
 11
184.500000
 21
-122.974998
  0
LINE
  8
0
  6
CENTER
 62
2
 10
181.000000
 20
-126.474998
 11
188.000000
 21
-126.474998
  0
LINE
  8
0
  6
CENTER
 62
2
 10
204.500000
 20
-129.975006
 11
204.500000
 21
-122.974998
  0
LINE
  8
0
  6
CENTER
 62
2
 10
201.000000
 20
-126.474998
 11
208.000000
 21
-126.474998
  0
LINE
  8
0
  6
CENTER
 62
2
 10
224.500000
 20
-129.975006
 11
224.500000
 21
-122.974998
  0
LINE
  8
0
  6
CENTER
 62
2
 10
221.000000
 20
-126.474998
 11
228.000000
 21
-126.474998
  0
LINE
  8
0
  6
CENTER
 62
2
 10
230.000000
 20
-131.975006
 11
230.000000
 21
-119.974998
  0
LINE
  8
0
  6
CENTER
 62
2
 10
224.000000
 20
-125.974998
 11
236.000000
 21
-125.974998
  0
LINE
  8
0
  6
CENTER
 62
2
 10
230.000000
 20
-107.974998
 11
230.000000
 21
-95.974998
  0
LINE
  8
0
  6
CENTER
 62
2
 10
224.000000
 20
-101.974998
 11
236.000000
 21
-101.974998
  0
LINE
  8
0
  6
CENTER
 62
2
 10
224.500000
 20
-104.974998
 11
224.500000
 21
-97.974998
  0
LINE
  8
0
  6
CENTER
 62
2
 10
221.000000
 20
-101.474998
 11
228.000000
 21
-101.474998
  0
LINE
  8
0
  6
CENTER
 62
2
 10
184.500000
 20
-104.974998
 11
184.500000
 21
-97.974998
  0
LINE
  8
0
  6
CENTER
 62
2
 10
181.000000
 20
-101.474998
 11
188.000000
 21
-101.474998
  0
LINE
  8
0
  6
CENTER
 62
2
 10
204.500000
 20
-104.974998
 11
204.500000
 21
-97.974998
  0
LINE
  8
0
  6
CENTER
 62
2
 10
201.000000
 20
-101.474998
 11
208.000000
 21
-101.474998
  0
LINE
  8
0
  6
CENTER
 62
2
 10
199.500000
 20
-70.974998
 11
199.500000
 21
-64.974998
  0
LINE
  8
0
  6
CENTER
 62
2
 10
196.500000
 20
-67.974998
 11
202.500000
 21
-67.974998
  0
LINE
  8
0
  6
CENTER
 62
2
 10
209.500000
 20
-70.974998
 11
209.500000
 21
-64.974998
  0
LINE
  8
0
  6
CENTER
 62
2
 10
206.500000
 20
-67.974998
 11
212.500000
 21
-67.974998
  0
LINE
  8
0
  6
CENTER
 62
2
 10
222.000000
 20
-59.474998
 11
222.000000
 21
-52.474998
  0
LINE
  8
0
  6
CENTER
 62
2
 10
218.500000
 20
-55.974998
 11
225.500000
 21
-55.974998
  0
LINE
  8
0
  6
CENTER
 62
2
 10
162.000000
 20
-59.474998
 11
162.000000
 21
-52.474998
  0
LINE
  8
0
  6
CENTER
 62
2
 10
158.500000
 20
-55.974998
 11
165.500000
 21
-55.974998
  0
LINE
  8
0
  6
CENTER
 62
2
 10
154.000000
 20
-202.475006
 11
154.000000
 21
-211.475006
  0
LINE
  8
0
  6
CENTER
 62
2
 10
149.500000
 20
-206.975006
 11
158.500000
 21
-206.975006
  0
LINE
  8
0
  6
CENTER
 62
2
 10
147.000000
 20
-206.574997
 11
147.000000
 21
-222.375000
  0
LINE
  8
0
  6
CENTER
 62
2
 10
139.100006
 20
-214.475006
 11
154.899994
 21
-214.475006
  0
LINE
  8
0
  6
CENTER
 62
2
 10
154.000000
 20
-226.475006
 11
154.000000
 21
-235.475006
  0
LINE
  8
0
  6
CENTER
 62
2
 10
149.500000
 20
-230.975006
 11
158.500000
 21
-230.975006
  0
LINE
  8
0
  6
CENTER
 62
2
 10
230.000000
 20
-202.475006
 11
230.000000
 21
-211.475006
  0
LINE
  8
0
  6
CENTER
 62
2
 10
225.500000
 20
-206.975006
 11
234.500000
 21
-206.975006
  0
LINE
  8
0
  6
CENTER
 62
2
 10
230.000000
 20
-226.475006
 11
230.000000
 21
-235.475006
  0
LINE
  8
0
  6
CENTER
 62
2
 10
225.500000
 20
-230.975006
 11
234.500000
 21
-230.975006
  0
LINE
  8
0
  6
CENTER
 62
2
 10
237.000000
 20
-206.574997
 11
237.000000
 21
-222.375000
  0
LINE
  8
0
  6
CENTER
 62
2
 10
229.100006
 20
-214.475006
 11
244.899994
 21
-214.475006
  0
LINE
  8
0
  6
DASHED
 62
2
 10
158.000000
 20
-171.975006
 11
158.000000
 21
-172.975006
  0
LINE
  8
0
  6
DASHED
 62
2
 10
158.000000
 20
-172.975006
 11
150.000000
 21
-172.975006
  0
LINE
  8
0
  6
DASHED
 62
2
 10
156.500000
 20
-172.975006
 11
156.500000
 21
-177.475006
  0
LINE
  8
0
  6
DASHED
 62
2
 10
156.100006
 20
-172.975006
 11
156.100006
 21
-177.475006
  0
LINE
  8
0
  6
CENTER
 62
2
 10
154.000000
 20
-169.975006
 11
154.000000
 21
-179.475006
  0
LINE
  8
0
  6
DASHED
 62
2
 10
151.899994
 20
-172.975006
 11
151.899994
 21
-177.475006
  0
LINE
  8
0
  6
DASHED
 62
2
 10
151.500000
 20
-172.975006
 11
151.500000
 21
-177.475006
  0
LINE
  8
0
  6
DASHED
 62
2
 10
150.000000
 20
-171.975006
 11
150.000000
 21
-172.975006
  0
LINE
  8
0
  6
DASHED
 62
2
 10
234.000000
 20
-171.975006
 11
234.000000
 21
-172.975006
  0
LINE
  8
0
  6
DASHED
 62
2
 10
234.000000
 20
-172.975006
 11
226.000000
 21
-172.975006
  0
LINE
  8
0
  6
DASHED
 62
2
 10
232.500000
 20
-172.975006
 11
232.500000
 21
-177.475006
  0
LINE
  8
0
  6
DASHED
 62
2
 10
232.100006
 20
-172.975006
 11
232.100006
 21
-177.475006
  0
LINE
  8
0
  6
DASHED
 62
2
 10
227.899994
 20
-172.975006
 11
227.899994
 21
-177.475006
  0
LINE
  8
0
  6
DASHED
 62
2
 10
227.500000
 20
-172.975006
 11
227.500000
 21
-177.475006
  0
LINE
  8
0
  6
DASHED
 62
2
 10
226.000000
 20
-171.975006
 11
226.000000
 21
-172.975006
  0
LINE
  8
0
  6
DASHED
 62
2
 10
150.000000
 20
-55.974998
 11
150.000000
 21
-54.974998
  0
LINE
  8
0
  6
DASHED
 62
2
 10
150.000000
 20
-54.974998
 11
158.000000
 21
-54.974998
  0
LINE
  8
0
  6
DASHED
 62
2
 10
151.500000
 20
-54.974998
 11
151.500000
 21
-50.474998
  0
LINE
  8
0
  6
DASHED
 62
2
 10
151.899994
 20
-54.974998
 11
151.899994
 21
-50.474998
  0
LINE
  8
0
  6
CENTER
 62
2
 10
154.000000
 20
-57.974998
 11
154.000000
 21
-48.474998
  0
LINE
  8
0
  6
DASHED
 62
2
 10
156.100006
 20
-54.974998
 11
156.100006
 21
-50.474998
  0
LINE
  8
0
  6
DASHED
 62
2
 10
156.500000
 20
-54.974998
 11
156.500000
 21
-50.474998
  0
LINE
  8
0
  6
DASHED
 62
2
 10
158.000000
 20
-55.974998
 11
158.000000
 21
-54.974998
  0
LINE
  8
0
  6
DASHED
 62
2
 10
226.000000
 20
-55.974998
 11
226.000000
 21
-54.974998
  0
LINE
  8
0
  6
DASHED
 62
2
 10
226.000000
 20
-54.974998
 11
234.000000
 21
-54.974998
  0
LINE
  8
0
  6
DASHED
 62
2
 10
227.500000
 20
-54.974998
 11
227.500000
 21
-50.474998
  0
LINE
  8
0
  6
DASHED
 62
2
 10
227.899994
 20
-54.974998
 11
227.899994
 21
-50.474998
  0
LINE
  8
0
  6
CENTER
 62
2
 10
230.000000
 20
-57.974998
 11
230.000000
 21
-48.474998
  0
LINE
  8
0
  6
DASHED
 62
2
 10
232.100006
 20
-54.974998
 11
232.100006
 21
-50.474998
  0
LINE
  8
0
  6
DASHED
 62
2
 10
232.500000
 20
-54.974998
 11
232.500000
 21
-50.474998
  0
LINE
  8
0
  6
DASHED
 62
2
 10
234.000000
 20
-55.974998
 11
234.000000
 21
-54.974998
  0
LINE
  8
0
  6
CENTER
 62
2
 10
224.500000
 20
-157.475006
 11
224.500000
 21
-153.475006
  0
LINE
  8
0
  6
CENTER
 62
2
 10
204.500000
 20
-157.475006
 11
204.500000
 21
-153.475006
  0
LINE
  8
0
  6
CENTER
 62
2
 10
184.500000
 20
-157.475006
 11
184.500000
 21
-153.475006
  0
LINE
  8
0
  6
CONTINUOUS
 62
7
 10
-175.000000
 20
-67.474998
 11
-175.000000
 21
-70.224998
  0
LINE
  8
0
  6
CONTINUOUS
 62
7
 10
-230.000000
 20
-71.974998
 11
-230.000000
 21
-67.474998
  0
LINE
  8
0
  6
CONTINUOUS
 62
7
 10
-224.000000
 20
-71.974998
 11
-224.000000
 21
-67.474998
  0
LINE
  8
0
  6
CONTINUOUS
 62
7
 10
-230.000000
 20
-71.974998
 11
-224.000000
 21
-71.974998
  0
LINE
  8
0
  6
CONTINUOUS
 62
7
 10
-235.000000
 20
-68.974998
 11
-240.500000
 21
-68.974998
  0
LINE
  8
0
  6
CONTINUOUS
 62
2
 10
-235.000000
 20
-68.474998
 11
-240.500000
 21
-68.474998
  0
LINE
  8
0
  6
CONTINUOUS
 62
7
 10
-240.500000
 20
-68.974998
 11
-240.500000
 21
-67.474998
  0
LINE
  8
0
  6
CONTINUOUS
 62
7
 10
-235.000000
 20
-70.224998
 11
-230.000000
 21
-70.224998
  0
LINE
  8
0
  6
CONTINUOUS
 62
7
 10
-235.000000
 20
-70.224998
 11
-235.000000
 21
-67.474998
  0
LINE
  8
0
  6
CONTINUOUS
 62
7
 10
-235.000000
 20
-68.721001
 11
-230.000000
 21
-68.721001
  0
LINE
  8
0
  6
CONTINUOUS
 62
7
 10
-175.000000
 20
-70.224998
 11
-176.500000
 21
-70.224998
  0
LINE
  8
0
  6
CONTINUOUS
 62
7
 10
-175.000000
 20
-68.721001
 11
-176.500000
 21
-68.721001
  0
LINE
  8
0
  6
CONTINUOUS
 62
7
 10
-169.500000
 20
-68.974998
 11
-169.500000
 21
-67.474998
  0
LINE
  8
0
  6
CONTINUOUS
 62
7
 10
-175.000000
 20
-68.974998
 11
-169.500000
 21
-68.974998
  0
LINE
  8
0
  6
CONTINUOUS
 62
2
 10
-175.000000
 20
-68.474998
 11
-169.500000
 21
-68.474998
  0
LINE
  8
0
  6
CENTER
 62
2
 10
-221.389999
 20
-135.475006
 11
-244.098999
 21
-135.475006
  0
LINE
  8
0
  6
CONTINUOUS
 62
7
 10
-230.000000
 20
-140.475006
 11
-180.000000
 21
-140.475006
  0
LINE
  8
0
  6
CONTINUOUS
 62
7
 10
-224.000000
 20
-140.475006
 11
-224.000000
 21
-130.475006
  0
LINE
  8
0
  6
CONTINUOUS
 62
7
 10
-187.500000
 20
-139.975006
 11
-187.500000
 21
-129.975006
  0
LINE
  8
0
  6
CENTER
 62
2
 10
-189.110001
 20
-135.475006
 11
-166.401001
 21
-135.475006
  0
LINE
  8
0
  6
CONTINUOUS
 62
7
 10
-186.000000
 20
-140.475006
 11
-186.000000
 21
-130.475006
  0
LINE
  8
0
  6
CONTINUOUS
 62
7
 10
-187.500000
 20
-139.975006
 11
-207.500000
 21
-139.975006
  0
LINE
  8
0
  6
CONTINUOUS
 62
7
 10
-207.500000
 20
-139.975006
 11
-207.500000
 21
-129.975006
  0
LINE
  8
0
  6
CONTINUOUS
 62
7
 10
-187.500000
 20
-130.475006
 11
-167.000000
 21
-130.475006
  0
LINE
  8
0
  6
CONTINUOUS
 62
7
 10
-243.000000
 20
-130.475006
 11
-207.500000
 21
-130.475006
  0
LINE
  8
0
  6
CONTINUOUS
 62
7
 10
-230.000000
 20
-140.475006
 11
-230.000000
 21
-130.475006
  0
LINE
  8
0
  6
CONTINUOUS
 62
7
 10
-180.000000
 20
-140.475006
 11
-180.000000
 21
-130.475006
  0
LINE
  8
0
  6
CONTINUOUS
 62
2
 10
-235.000000
 20
-132.975006
 11
-240.500000
 21
-132.975006
  0
LINE
  8
0
  6
CONTINUOUS
 62
7
 10
-235.000000
 20
-132.475006
 11
-240.500000
 21
-132.475006
  0
LINE
  8
0
  6
CONTINUOUS
 62
7
 10
-240.500000
 20
-138.475006
 11
-240.500000
 21
-132.475006
  0
LINE
  8
0
  6
CONTINUOUS
 62
2
 10
-235.000000
 20
-137.975006
 11
-240.500000
 21
-137.975006
  0
LINE
  8
0
  6
CONTINUOUS
 62
7
 10
-235.000000
 20
-138.475006
 11
-240.500000
 21
-138.475006
  0
LINE
  8
0
  6
CONTINUOUS
 62
2
 10
-175.000000
 20
-137.975006
 11
-169.500000
 21
-137.975006
  0
LINE
  8
0
  6
CONTINUOUS
 62
7
 10
-175.000000
 20
-138.475006
 11
-169.500000
 21
-138.475006
  0
LINE
  8
0
  6
CONTINUOUS
 62
7
 10
-169.500000
 20
-132.475006
 11
-169.500000
 21
-138.475006
  0
LINE
  8
0
  6
CONTINUOUS
 62
2
 10
-175.000000
 20
-132.975006
 11
-169.500000
 21
-132.975006
  0
LINE
  8
0
  6
CONTINUOUS
 62
7
 10
-175.000000
 20
-132.475006
 11
-169.500000
 21
-132.475006
  0
LINE
  8
0
  6
CONTINUOUS
 62
7
 10
-230.000000
 20
-131.475006
 11
-235.000000
 21
-131.475006
  0
LINE
  8
0
  6
CONTINUOUS
 62
7
 10
-235.000000
 20
-139.475006
 11
-235.000000
 21
-131.475006
  0
LINE
  8
0
  6
CONTINUOUS
 62
7
 10
-230.000000
 20
-139.475006
 11
-235.000000
 21
-139.475006
  0
LINE
  8
0
  6
CONTINUOUS
 62
7
 10
-230.000000
 20
-138.718994
 11
-235.000000
 21
-138.718994
  0
LINE
  8
0
  6
CONTINUOUS
 62
7
 10
-230.000000
 20
-136.231003
 11
-235.000000
 21
-136.231003
  0
LINE
  8
0
  6
CONTINUOUS
 62
7
 10
-230.000000
 20
-134.718994
 11
-235.000000
 21
-134.718994
  0
LINE
  8
0
  6
CONTINUOUS
 62
7
 10
-230.000000
 20
-132.231003
 11
-235.000000
 21
-132.231003
  0
LINE
  8
0
  6
CONTINUOUS
 62
7
 10
-180.000000
 20
-139.475006
 11
-175.000000
 21
-139.475006
  0
LINE
  8
0
  6
CONTINUOUS
 62
7
 10
-175.000000
 20
-131.475006
 11
-175.000000
 21
-139.475006
  0
LINE
  8
0
  6
CONTINUOUS
 62
7
 10
-180.000000
 20
-131.475006
 11
-175.000000
 21
-131.475006
  0
LINE
  8
0
  6
CONTINUOUS
 62
7
 10
-180.000000
 20
-132.231003
 11
-175.000000
 21
-132.231003
  0
LINE
  8
0
  6
CONTINUOUS
 62
7
 10
-180.000000
 20
-134.718994
 11
-175.000000
 21
-134.718994
  0
LINE
  8
0
  6
CONTINUOUS
 62
7
 10
-180.000000
 20
-136.231003
 11
-175.000000
 21
-136.231003
  0
LINE
  8
0
  6
CONTINUOUS
 62
7
 10
-180.000000
 20
-138.718994
 11
-175.000000
 21
-138.718994
  0
LINE
  8
0
  6
CONTINUOUS
 62
7
 10
-180.000000
 20
-192.475006
 11
-230.000000
 21
-192.475006
  0
LINE
  8
0
  6
CONTINUOUS
 62
7
 10
-230.000000
 20
-192.475006
 11
-230.000000
 21
-202.475006
  0
LINE
  8
0
  6
CONTINUOUS
 62
7
 10
-180.000000
 20
-192.475006
 11
-180.000000
 21
-202.475006
  0
LINE
  8
0
  6
CENTER
 62
2
 10
-228.000000
 20
-197.475006
 11
-244.098999
 21
-197.475006
  0
LINE
  8
0
  6
CONTINUOUS
 62
7
 10
-180.000000
 20
-198.231003
 11
-175.000000
 21
-198.231003
  0
LINE
  8
0
  6
CONTINUOUS
 62
2
 10
-235.000000
 20
-194.975006
 11
-240.500000
 21
-194.975006
  0
LINE
  8
0
  6
CONTINUOUS
 62
7
 10
-235.000000
 20
-194.475006
 11
-240.500000
 21
-194.475006
  0
LINE
  8
0
  6
CONTINUOUS
 62
7
 10
-240.500000
 20
-200.475006
 11
-240.500000
 21
-194.475006
  0
LINE
  8
0
  6
CONTINUOUS
 62
2
 10
-235.000000
 20
-199.975006
 11
-240.500000
 21
-199.975006
  0
LINE
  8
0
  6
CONTINUOUS
 62
7
 10
-235.000000
 20
-200.475006
 11
-240.500000
 21
-200.475006
  0
LINE
  8
0
  6
CONTINUOUS
 62
7
 10
-230.000000
 20
-193.475006
 11
-235.000000
 21
-193.475006
  0
LINE
  8
0
  6
CONTINUOUS
 62
7
 10
-235.000000
 20
-201.475006
 11
-235.000000
 21
-193.475006
  0
LINE
  8
0
  6
CONTINUOUS
 62
7
 10
-230.000000
 20
-201.475006
 11
-235.000000
 21
-201.475006
  0
LINE
  8
0
  6
CONTINUOUS
 62
7
 10
-230.000000
 20
-200.718994
 11
-235.000000
 21
-200.718994
  0
LINE
  8
0
  6
CONTINUOUS
 62
7
 10
-230.000000
 20
-198.231003
 11
-235.000000
 21
-198.231003
  0
LINE
  8
0
  6
CONTINUOUS
 62
7
 10
-230.000000
 20
-196.718994
 11
-235.000000
 21
-196.718994
  0
LINE
  8
0
  6
CONTINUOUS
 62
7
 10
-230.000000
 20
-194.231003
 11
-235.000000
 21
-194.231003
  0
LINE
  8
0
  6
CENTER
 62
2
 10
-182.000000
 20
-197.475006
 11
-166.401001
 21
-197.475006
  0
LINE
  8
0
  6
CONTINUOUS
 62
7
 10
-180.000000
 20
-200.718994
 11
-175.000000
 21
-200.718994
  0
LINE
  8
0
  6
CONTINUOUS
 62
2
 10
-175.000000
 20
-199.975006
 11
-169.500000
 21
-199.975006
  0
LINE
  8
0
  6
CONTINUOUS
 62
7
 10
-175.000000
 20
-200.475006
 11
-169.500000
 21
-200.475006
  0
LINE
  8
0
  6
CONTINUOUS
 62
7
 10
-169.500000
 20
-194.475006
 11
-169.500000
 21
-200.475006
  0
LINE
  8
0
  6
CONTINUOUS
 62
2
 10
-175.000000
 20
-194.975006
 11
-169.500000
 21
-194.975006
  0
LINE
  8
0
  6
CONTINUOUS
 62
7
 10
-175.000000
 20
-194.475006
 11
-169.500000
 21
-194.475006
  0
LINE
  8
0
  6
CONTINUOUS
 62
7
 10
-180.000000
 20
-201.475006
 11
-175.000000
 21
-201.475006
  0
LINE
  8
0
  6
CONTINUOUS
 62
7
 10
-175.000000
 20
-193.475006
 11
-175.000000
 21
-201.475006
  0
LINE
  8
0
  6
CONTINUOUS
 62
7
 10
-180.000000
 20
-193.475006
 11
-175.000000
 21
-193.475006
  0
LINE
  8
0
  6
CONTINUOUS
 62
7
 10
-180.000000
 20
-194.231003
 11
-175.000000
 21
-194.231003
  0
LINE
  8
0
  6
CONTINUOUS
 62
7
 10
-180.000000
 20
-196.718994
 11
-175.000000
 21
-196.718994
  0
LINE
  8
0
  6
CENTER
 62
2
 10
-221.389999
 20
-161.975006
 11
-243.026001
 21
-161.975006
  0
LINE
  8
0
  6
CONTINUOUS
 62
7
 10
-210.899994
 20
-155.475006
 11
-184.100006
 21
-155.475006
  0
LINE
  8
0
  6
CONTINUOUS
 62
7
 10
-222.000000
 20
-167.475006
 11
-188.000000
 21
-167.475006
  0
LINE
  8
0
  6
CONTINUOUS
 62
7
 10
-218.500000
 20
-155.975006
 11
-210.899994
 21
-155.975006
  0
LINE
  8
0
  6
CONTINUOUS
 62
7
 10
-243.000000
 20
-160.475006
 11
-240.500000
 21
-160.475006
  0
LINE
  8
0
  6
CONTINUOUS
 62
7
 10
-169.500000
 20
-160.475006
 11
-167.000000
 21
-160.475006
  0
LINE
  8
0
  6
CONTINUOUS
 62
7
 10
-176.500000
 20
-155.975006
 11
-186.000000
 21
-155.975006
  0
LINE
  8
0
  6
CONTINUOUS
 62
7
 10
-243.000000
 20
-167.975006
 11
-234.347000
 21
-167.975006
  0
LINE
  8
0
  6
CONTINUOUS
 62
7
 10
-243.000000
 20
-177.475006
 11
-167.000000
 21
-177.475006
  0
LINE
  8
0
  6
CONTINUOUS
 62
7
 10
-243.000000
 20
-160.475006
 11
-243.000000
 21
-177.475006
  0
LINE
  8
0
  6
CONTINUOUS
 62
7
 10
-167.000000
 20
-160.475006
 11
-167.000000
 21
-177.475006
  0
LINE
  8
0
  6
CONTINUOUS
 62
7
 10
-232.199997
 20
-171.975006
 11
-230.000000
 21
-171.975006
  0
LINE
  8
0
  6
CONTINUOUS
 62
7
 10
-177.800003
 20
-171.975006
 11
-180.000000
 21
-171.975006
  0
LINE
  8
0
  6
CONTINUOUS
 62
7
 10
-175.653000
 20
-167.975006
 11
-167.000000
 21
-167.975006
  0
LINE
  8
0
  6
CONTINUOUS
 62
7
 10
-180.000000
 20
-155.975006
 11
-180.000000
 21
-176.975006
  0
LINE
  8
0
  6
CONTINUOUS
 62
7
 10
-207.500000
 20
-165.975006
 11
-207.500000
 21
-155.975006
  0
LINE
  8
0
  6
CONTINUOUS
 62
7
 10
-187.500000
 20
-165.975006
 11
-187.500000
 21
-155.975006
  0
LINE
  8
0
  6
CONTINUOUS
 62
7
 10
-207.500000
 20
-165.975006
 11
-187.500000
 21
-165.975006
  0
LINE
  8
0
  6
CONTINUOUS
 62
7
 10
-207.500000
 20
-155.975006
 11
-187.500000
 21
-155.975006
  0
LINE
  8
0
  6
CONTINUOUS
 62
7
 10
-230.000000
 20
-176.975006
 11
-180.000000
 21
-176.975006
  0
LINE
  8
0
  6
CONTINUOUS
 62
7
 10
-235.000000
 20
-164.975006
 11
-240.500000
 21
-164.975006
  0
LINE
  8
0
  6
CONTINUOUS
 62
2
 10
-235.000000
 20
-164.475006
 11
-240.500000
 21
-164.475006
  0
LINE
  8
0
  6
CONTINUOUS
 62
2
 10
-235.000000
 20
-159.475006
 11
-240.500000
 21
-159.475006
  0
LINE
  8
0
  6
CONTINUOUS
 62
7
 10
-235.000000
 20
-158.975006
 11
-240.500000
 21
-158.975006
  0
LINE
  8
0
  6
CONTINUOUS
 62
7
 10
-240.500000
 20
-164.975006
 11
-240.500000
 21
-158.975006
  0
LINE
  8
0
  6
CONTINUOUS
 62
7
 10
-222.500000
 20
-160.475006
 11
-218.500000
 21
-160.475006
  0
LINE
  8
0
  6
CONTINUOUS
 62
7
 10
-224.000000
 20
-155.975006
 11
-224.000000
 21
-165.475006
  0
LINE
  8
0
  6
CONTINUOUS
 62
7
 10
-186.000000
 20
-155.975006
 11
-186.000000
 21
-165.475006
  0
LINE
  8
0
  6
CONTINUOUS
 62
7
 10
-176.500000
 20
-155.975006
 11
-176.500000
 21
-157.725006
  0
LINE
  8
0
  6
CONTINUOUS
 62
7
 10
-218.500000
 20
-155.975006
 11
-218.500000
 21
-167.475006
  0
LINE
  8
0
  6
CONTINUOUS
 62
7
 10
-210.899994
 20
-155.475006
 11
-210.899994
 21
-167.475006
  0
LINE
  8
0
  6
CONTINUOUS
 62
7
 10
-184.100006
 20
-155.475006
 11
-184.100006
 21
-155.975006
  0
LINE
  8
0
  6
CONTINUOUS
 62
7
 10
-230.000000
 20
-155.975006
 11
-230.000000
 21
-176.975006
  0
LINE
  8
0
  6
CONTINUOUS
 62
7
 10
-230.000000
 20
-155.975006
 11
-224.000000
 21
-155.975006
  0
LINE
  8
0
  6
CONTINUOUS
 62
7
 10
-235.000000
 20
-166.225006
 11
-230.000000
 21
-166.225006
  0
LINE
  8
0
  6
CONTINUOUS
 62
7
 10
-235.000000
 20
-166.225006
 11
-235.000000
 21
-157.725006
  0
LINE
  8
0
  6
CONTINUOUS
 62
7
 10
-235.000000
 20
-157.725006
 11
-230.000000
 21
-157.725006
  0
LINE
  8
0
  6
CONTINUOUS
 62
7
 10
-235.000000
 20
-159.229004
 11
-230.000000
 21
-159.229004
  0
LINE
  8
0
  6
CONTINUOUS
 62
7
 10
-235.000000
 20
-160.539001
 11
-230.000000
 21
-160.539001
  0
LINE
  8
0
  6
CONTINUOUS
 62
7
 10
-235.000000
 20
-163.410995
 11
-230.000000
 21
-163.410995
  0
LINE
  8
0
  6
CONTINUOUS
 62
7
 10
-235.000000
 20
-164.720993
 11
-230.000000
 21
-164.720993
  0
LINE
  8
0
  6
CENTER
 62
2
 10
-188.610001
 20
-161.975006
 11
-166.973999
 21
-161.975006
  0
LINE
  8
0
  6
CONTINUOUS
 62
7
 10
-175.000000
 20
-164.975006
 11
-169.500000
 21
-164.975006
  0
LINE
  8
0
  6
CONTINUOUS
 62
2
 10
-175.000000
 20
-164.475006
 11
-169.500000
 21
-164.475006
  0
LINE
  8
0
  6
CONTINUOUS
 62
2
 10
-175.000000
 20
-159.475006
 11
-169.500000
 21
-159.475006
  0
LINE
  8
0
  6
CONTINUOUS
 62
7
 10
-175.000000
 20
-158.975006
 11
-169.500000
 21
-158.975006
  0
LINE
  8
0
  6
CONTINUOUS
 62
7
 10
-169.500000
 20
-164.975006
 11
-169.500000
 21
-158.975006
  0
LINE
  8
0
  6
CONTINUOUS
 62
7
 10
-175.000000
 20
-166.225006
 11
-180.000000
 21
-166.225006
  0
LINE
  8
0
  6
CONTINUOUS
 62
7
 10
-175.000000
 20
-166.225006
 11
-175.000000
 21
-157.725006
  0
LINE
  8
0
  6
CONTINUOUS
 62
7
 10
-175.000000
 20
-157.725006
 11
-180.000000
 21
-157.725006
  0
LINE
  8
0
  6
CONTINUOUS
 62
7
 10
-175.000000
 20
-159.229004
 11
-180.000000
 21
-159.229004
  0
LINE
  8
0
  6
CONTINUOUS
 62
7
 10
-175.000000
 20
-160.539001
 11
-180.000000
 21
-160.539001
  0
LINE
  8
0
  6
CONTINUOUS
 62
7
 10
-175.000000
 20
-163.410995
 11
-180.000000
 21
-163.410995
  0
LINE
  8
0
  6
CONTINUOUS
 62
7
 10
-175.000000
 20
-164.720993
 11
-180.000000
 21
-164.720993
  0
LINE
  8
0
  6
CONTINUOUS
 62
7
 10
100.000000
 20
-160.475006
 11
115.000000
 21
-160.475006
  0
LINE
  8
0
  6
CONTINUOUS
 62
7
 10
100.000000
 20
-164.475006
 11
100.000000
 21
-167.975006
  0
LINE
  8
0
  6
CONTINUOUS
 62
7
 10
100.000000
 20
-160.475006
 11
100.000000
 21
-161.475006
  0
LINE
  8
0
  6
CONTINUOUS
 62
7
 10
91.500000
 20
-155.475006
 11
98.500000
 21
-155.475006
  0
LINE
  8
0
  6
CONTINUOUS
 62
7
 10
91.500000
 20
-167.475006
 11
100.000000
 21
-167.475006
  0
LINE
  8
0
  6
CONTINUOUS
 62
7
 10
98.800003
 20
-155.774994
 11
116.199997
 21
-155.774994
  0
LINE
  8
0
  6
CONTINUOUS
 62
7
 10
98.500000
 20
-155.475006
 11
98.800003
 21
-155.774994
  0
LINE
  8
0
  6
CONTINUOUS
 62
7
 10
115.000000
 20
-164.475006
 11
115.000000
 21
-167.975006
  0
LINE
  8
0
  6
CONTINUOUS
 62
7
 10
115.000000
 20
-160.475006
 11
115.000000
 21
-161.475006
  0
LINE
  8
0
  6
CONTINUOUS
 62
7
 10
123.500000
 20
-155.475006
 11
123.500000
 21
-167.475006
  0
LINE
  8
0
  6
CONTINUOUS
 62
7
 10
123.500000
 20
-155.475006
 11
116.500000
 21
-155.475006
  0
LINE
  8
0
  6
CONTINUOUS
 62
7
 10
123.500000
 20
-167.475006
 11
115.000000
 21
-167.475006
  0
LINE
  8
0
  6
CONTINUOUS
 62
7
 10
116.500000
 20
-155.475006
 11
116.199997
 21
-155.774994
  0
LINE
  8
0
  6
CONTINUOUS
 62
7
 10
91.500000
 20
-155.475006
 11
91.500000
 21
-167.475006
  0
LINE
  8
0
  6
CONTINUOUS
 62
7
 10
124.000000
 20
-167.975006
 11
115.000000
 21
-167.975006
  0
LINE
  8
0
  6
CONTINUOUS
 62
7
 10
124.000000
 20
-177.475006
 11
91.000000
 21
-177.475006
  0
LINE
  8
0
  6
CONTINUOUS
 62
7
 10
91.000000
 20
-167.975006
 11
100.000000
 21
-167.975006
  0
LINE
  8
0
  6
CONTINUOUS
 62
7
 10
91.000000
 20
-167.975006
 11
91.000000
 21
-177.475006
  0
LINE
  8
0
  6
CONTINUOUS
 62
7
 10
124.000000
 20
-155.975006
 11
124.000000
 21
-177.475006
  0
LINE
  8
0
  6
CENTER
 62
2
 10
107.500000
 20
-153.475006
 11
107.500000
 21
-179.475006
  0
LINE
  8
0
  6
CENTER
 62
2
 10
99.099998
 20
-169.475006
 11
115.900002
 21
-169.475006
  0
LINE
  8
0
  6
CENTER
 62
2
 10
97.500000
 20
-168.475006
 11
97.500000
 21
-175.475006
  0
LINE
  8
0
  6
CENTER
 62
2
 10
94.000000
 20
-171.975006
 11
101.000000
 21
-171.975006
  0
LINE
  8
0
  6
CENTER
 62
2
 10
95.500000
 20
-175.475006
 11
95.500000
 21
-179.475006
  0
LINE
  8
0
  6
CENTER
 62
2
 10
119.500000
 20
-175.475006
 11
119.500000
 21
-179.475006
  0
LINE
  8
0
  6
CENTER
 62
2
 10
120.000000
 20
-153.475006
 11
120.000000
 21
-157.475006
  0
LINE
  8
0
  6
CENTER
 62
2
 10
95.000000
 20
-153.475006
 11
95.000000
 21
-157.475006
  0
LINE
  8
0
  6
CONTINUOUS
 62
7
 10
134.000000
 20
-155.975006
 11
134.000000
 21
-176.975006
  0
LINE
  8
0
  6
CONTINUOUS
 62
7
 10
124.000000
 20
-176.975006
 11
134.000000
 21
-176.975006
  0
LINE
  8
0
  6
CONTINUOUS
 62
7
 10
123.500000
 20
-155.975006
 11
134.000000
 21
-155.975006
  0
LINE
  8
0
  6
CENTER
 62
2
 10
134.000000
 20
-161.975006
 11
124.000000
 21
-161.975006
  0
LINE
  8
0
  6
CENTER
 62
2
 10
129.000000
 20
-156.975006
 11
129.000000
 21
-166.975006
  0
LINE
  8
0
  6
CONTINUOUS
 62
7
 10
125.755997
 20
-159.229004
 11
128.244003
 21
-157.792999
  0
LINE
  8
0
  6
CONTINUOUS
 62
7
 10
129.000000
 20
-160.242996
 11
130.500000
 21
-161.108994
  0
LINE
  8
0
  6
CONTINUOUS
 62
7
 10
130.500000
 20
-161.108994
 11
130.500000
 21
-162.841003
  0
LINE
  8
0
  6
CONTINUOUS
 62
7
 10
129.000000
 20
-163.707001
 11
130.500000
 21
-162.841003
  0
LINE
  8
0
  6
CONTINUOUS
 62
7
 10
127.500000
 20
-162.841003
 11
129.000000
 21
-163.707001
  0
LINE
  8
0
  6
CONTINUOUS
 62
7
 10
127.500000
 20
-161.108994
 11
127.500000
 21
-162.841003
  0
LINE
  8
0
  6
CONTINUOUS
 62
7
 10
129.000000
 20
-160.242996
 11
127.500000
 21
-161.108994
  0
LINE
  8
0
  6
CONTINUOUS
 62
7
 10
129.755997
 20
-157.792999
 11
132.244003
 21
-159.229004
  0
LINE
  8
0
  6
CONTINUOUS
 62
7
 10
133.000000
 20
-160.539001
 11
133.000000
 21
-163.410995
  0
LINE
  8
0
  6
CONTINUOUS
 62
7
 10
132.244003
 20
-164.720993
 11
129.755997
 21
-166.156998
  0
LINE
  8
0
  6
CONTINUOUS
 62
7
 10
128.244003
 20
-166.156998
 11
125.755997
 21
-164.720993
  0
LINE
  8
0
  6
CONTINUOUS
 62
7
 10
125.000000
 20
-163.410995
 11
125.000000
 21
-160.539001
  0
LINE
  8
0
  6
CONTINUOUS
 62
7
 10
284.000000
 20
-160.475006
 11
269.000000
 21
-160.475006
  0
LINE
  8
0
  6
CONTINUOUS
 62
7
 10
284.000000
 20
-164.475006
 11
284.000000
 21
-167.975006
  0
LINE
  8
0
  6
CONTINUOUS
 62
7
 10
284.000000
 20
-160.475006
 11
284.000000
 21
-161.475006
  0
LINE
  8
0
  6
CONTINUOUS
 62
7
 10
292.500000
 20
-155.475006
 11
285.500000
 21
-155.475006
  0
LINE
  8
0
  6
CONTINUOUS
 62
7
 10
292.500000
 20
-167.475006
 11
284.000000
 21
-167.475006
  0
LINE
  8
0
  6
CONTINUOUS
 62
7
 10
285.200012
 20
-155.774994
 11
267.799988
 21
-155.774994
  0
LINE
  8
0
  6
CONTINUOUS
 62
7
 10
285.500000
 20
-155.475006
 11
285.200012
 21
-155.774994
  0
LINE
  8
0
  6
CONTINUOUS
 62
7
 10
269.000000
 20
-164.475006
 11
269.000000
 21
-167.975006
  0
LINE
  8
0
  6
CONTINUOUS
 62
7
 10
269.000000
 20
-160.475006
 11
269.000000
 21
-161.475006
  0
LINE
  8
0
  6
CONTINUOUS
 62
7
 10
260.500000
 20
-155.475006
 11
260.500000
 21
-167.475006
  0
LINE
  8
0
  6
CONTINUOUS
 62
7
 10
260.500000
 20
-155.475006
 11
267.500000
 21
-155.475006
  0
LINE
  8
0
  6
CONTINUOUS
 62
7
 10
260.500000
 20
-167.475006
 11
269.000000
 21
-167.475006
  0
LINE
  8
0
  6
CONTINUOUS
 62
7
 10
267.500000
 20
-155.475006
 11
267.799988
 21
-155.774994
  0
LINE
  8
0
  6
CONTINUOUS
 62
7
 10
292.500000
 20
-155.475006
 11
292.500000
 21
-167.475006
  0
LINE
  8
0
  6
CONTINUOUS
 62
7
 10
260.000000
 20
-167.975006
 11
269.000000
 21
-167.975006
  0
LINE
  8
0
  6
CONTINUOUS
 62
7
 10
260.000000
 20
-177.475006
 11
293.000000
 21
-177.475006
  0
LINE
  8
0
  6
CONTINUOUS
 62
7
 10
293.000000
 20
-167.975006
 11
284.000000
 21
-167.975006
  0
LINE
  8
0
  6
CONTINUOUS
 62
7
 10
293.000000
 20
-167.975006
 11
293.000000
 21
-177.475006
  0
LINE
  8
0
  6
CONTINUOUS
 62
7
 10
260.000000
 20
-155.975006
 11
260.000000
 21
-177.475006
  0
LINE
  8
0
  6
CENTER
 62
2
 10
276.500000
 20
-153.475006
 11
276.500000
 21
-179.475006
  0
LINE
  8
0
  6
CENTER
 62
2
 10
284.899994
 20
-169.475006
 11
268.100006
 21
-169.475006
  0
LINE
  8
0
  6
CENTER
 62
2
 10
286.500000
 20
-168.475006
 11
286.500000
 21
-175.475006
  0
LINE
  8
0
  6
CENTER
 62
2
 10
290.000000
 20
-171.975006
 11
283.000000
 21
-171.975006
  0
LINE
  8
0
  6
CENTER
 62
2
 10
288.500000
 20
-175.475006
 11
288.500000
 21
-179.475006
  0
LINE
  8
0
  6
CENTER
 62
2
 10
264.500000
 20
-175.475006
 11
264.500000
 21
-179.475006
  0
LINE
  8
0
  6
CENTER
 62
2
 10
264.000000
 20
-153.475006
 11
264.000000
 21
-157.475006
  0
LINE
  8
0
  6
CENTER
 62
2
 10
289.000000
 20
-153.475006
 11
289.000000
 21
-157.475006
  0
LINE
  8
0
  6
CONTINUOUS
 62
7
 10
250.000000
 20
-155.975006
 11
250.000000
 21
-176.975006
  0
LINE
  8
0
  6
CONTINUOUS
 62
7
 10
260.000000
 20
-176.975006
 11
250.000000
 21
-176.975006
  0
LINE
  8
0
  6
CONTINUOUS
 62
7
 10
260.500000
 20
-155.975006
 11
250.000000
 21
-155.975006
  0
LINE
  8
0
  6
CENTER
 62
2
 10
250.000000
 20
-161.975006
 11
260.000000
 21
-161.975006
  0
LINE
  8
0
  6
CENTER
 62
2
 10
255.000000
 20
-156.975006
 11
255.000000
 21
-166.975006
  0
LINE
  8
0
  6
CONTINUOUS
 62
7
 10
258.243988
 20
-159.229004
 11
255.755997
 21
-157.792999
  0
LINE
  8
0
  6
CONTINUOUS
 62
7
 10
255.000000
 20
-160.242996
 11
253.500000
 21
-161.108994
  0
LINE
  8
0
  6
CONTINUOUS
 62
7
 10
253.500000
 20
-161.108994
 11
253.500000
 21
-162.841003
  0
LINE
  8
0
  6
CONTINUOUS
 62
7
 10
255.000000
 20
-163.707001
 11
253.500000
 21
-162.841003
  0
LINE
  8
0
  6
CONTINUOUS
 62
7
 10
256.500000
 20
-162.841003
 11
255.000000
 21
-163.707001
  0
LINE
  8
0
  6
CONTINUOUS
 62
7
 10
256.500000
 20
-161.108994
 11
256.500000
 21
-162.841003
  0
LINE
  8
0
  6
CONTINUOUS
 62
7
 10
255.000000
 20
-160.242996
 11
256.500000
 21
-161.108994
  0
LINE
  8
0
  6
CONTINUOUS
 62
7
 10
254.244003
 20
-157.792999
 11
251.755997
 21
-159.229004
  0
LINE
  8
0
  6
CONTINUOUS
 62
7
 10
251.000000
 20
-160.539001
 11
251.000000
 21
-163.410995
  0
LINE
  8
0
  6
CONTINUOUS
 62
7
 10
251.755997
 20
-164.720993
 11
254.244003
 21
-166.156998
  0
LINE
  8
0
  6
CONTINUOUS
 62
7
 10
255.755997
 20
-166.156998
 11
258.243988
 21
-164.720993
  0
LINE
  8
0
  6
CONTINUOUS
 62
7
 10
259.000000
 20
-163.410995
 11
259.000000
 21
-160.539001
  0
LINE
  8
0
  6
CONTINUOUS
 62
7
 10
158.000000
 20
-71.974998
 11
168.000000
 21
-71.974998
  0
LINE
  8
0
  6
CONTINUOUS
 62
7
 10
158.000000
 20
-71.974998
 11
158.000000
 21
-67.474998
  0
LINE
  8
0
  6
CONTINUOUS
 62
7
 10
168.000000
 20
-71.974998
 11
168.000000
 21
-67.474998
  0
LINE
  8
0
  6
CONTINUOUS
 62
7
 10
153.000000
 20
-68.974998
 11
147.500000
 21
-68.974998
  0
LINE
  8
0
  6
CONTINUOUS
 62
2
 10
153.000000
 20
-68.474998
 11
147.500000
 21
-68.474998
  0
LINE
  8
0
  6
CONTINUOUS
 62
7
 10
147.500000
 20
-68.974998
 11
147.500000
 21
-67.474998
  0
LINE
  8
0
  6
CONTINUOUS
 62
7
 10
153.000000
 20
-70.224998
 11
158.000000
 21
-70.224998
  0
LINE
  8
0
  6
CONTINUOUS
 62
7
 10
153.000000
 20
-70.224998
 11
153.000000
 21
-67.474998
  0
LINE
  8
0
  6
CONTINUOUS
 62
7
 10
153.000000
 20
-68.721001
 11
158.000000
 21
-68.721001
  0
LINE
  8
0
  6
CONTINUOUS
 62
2
 10
235.850006
 20
-68.474998
 11
236.500000
 21
-68.474998
  0
LINE
  8
0
  6
CONTINUOUS
 62
7
 10
235.850006
 20
-68.974998
 11
236.500000
 21
-68.974998
  0
LINE
  8
0
  6
CONTINUOUS
 62
7
 10
236.500000
 20
-67.474998
 11
236.500000
 21
-68.974998
  0
LINE
  8
0
  6
CENTER
 62
2
 10
170.610001
 20
-135.475006
 11
143.901001
 21
-135.475006
  0
LINE
  8
0
  6
CONTINUOUS
 62
7
 10
153.000000
 20
-200.475006
 11
147.500000
 21
-200.475006
  0
LINE
  8
0
  6
CONTINUOUS
 62
2
 10
153.000000
 20
-199.975006
 11
147.500000
 21
-199.975006
  0
LINE
  8
0
  6
CONTINUOUS
 62
7
 10
153.000000
 20
-194.475006
 11
147.500000
 21
-194.475006
  0
LINE
  8
0
  6
CONTINUOUS
 62
2
 10
153.000000
 20
-194.975006
 11
147.500000
 21
-194.975006
  0
LINE
  8
0
  6
CONTINUOUS
 62
7
 10
147.500000
 20
-200.475006
 11
147.500000
 21
-194.475006
  0
LINE
  8
0
  6
CONTINUOUS
 62
7
 10
158.000000
 20
-235.475006
 11
226.000000
 21
-235.475006
  0
LINE
  8
0
  6
CONTINUOUS
 62
7
 10
168.000000
 20
-140.475006
 11
168.000000
 21
-130.475006
  0
LINE
  8
0
  6
CONTINUOUS
 62
7
 10
214.500000
 20
-139.975006
 11
214.500000
 21
-129.975006
  0
LINE
  8
0
  6
CENTER
 62
2
 10
212.889999
 20
-135.475006
 11
239.598999
 21
-135.475006
  0
LINE
  8
0
  6
CONTINUOUS
 62
7
 10
231.000000
 20
-200.475006
 11
236.500000
 21
-200.475006
  0
LINE
  8
0
  6
CONTINUOUS
 62
2
 10
231.000000
 20
-199.975006
 11
236.500000
 21
-199.975006
  0
LINE
  8
0
  6
CONTINUOUS
 62
7
 10
231.000000
 20
-194.475006
 11
236.500000
 21
-194.475006
  0
LINE
  8
0
  6
CONTINUOUS
 62
2
 10
231.000000
 20
-194.975006
 11
236.500000
 21
-194.975006
  0
LINE
  8
0
  6
CONTINUOUS
 62
7
 10
236.500000
 20
-200.475006
 11
236.500000
 21
-194.475006
  0
LINE
  8
0
  6
CONTINUOUS
 62
7
 10
226.000000
 20
-140.475006
 11
158.000000
 21
-140.475006
  0
LINE
  8
0
  6
CONTINUOUS
 62
7
 10
216.000000
 20
-140.475006
 11
216.000000
 21
-130.475006
  0
LINE
  8
0
  6
CONTINUOUS
 62
7
 10
214.500000
 20
-139.975006
 11
194.500000
 21
-139.975006
  0
LINE
  8
0
  6
CONTINUOUS
 62
7
 10
194.500000
 20
-139.975006
 11
194.500000
 21
-129.975006
  0
LINE
  8
0
  6
CONTINUOUS
 62
7
 10
214.500000
 20
-130.475006
 11
245.000000
 21
-130.475006
  0
LINE
  8
0
  6
CONTINUOUS
 62
7
 10
168.000000
 20
-140.475006
 11
168.000000
 21
-130.475006
  0
LINE
  8
0
  6
CONTINUOUS
 62
7
 10
139.000000
 20
-130.475006
 11
194.500000
 21
-130.475006
  0
LINE
  8
0
  6
CONTINUOUS
 62
7
 10
158.000000
 20
-140.475006
 11
158.000000
 21
-130.475006
  0
LINE
  8
0
  6
CONTINUOUS
 62
7
 10
226.000000
 20
-140.475006
 11
226.000000
 21
-130.475006
  0
LINE
  8
0
  6
CONTINUOUS
 62
7
 10
158.000000
 20
-193.475006
 11
153.000000
 21
-193.475006
  0
LINE
  8
0
  6
CONTINUOUS
 62
7
 10
153.000000
 20
-201.475006
 11
153.000000
 21
-193.475006
  0
LINE
  8
0
  6
CONTINUOUS
 62
7
 10
158.000000
 20
-201.475006
 11
153.000000
 21
-201.475006
  0
LINE
  8
0
  6
CONTINUOUS
 62
7
 10
158.000000
 20
-200.718994
 11
153.000000
 21
-200.718994
  0
LINE
  8
0
  6
CONTINUOUS
 62
7
 10
158.000000
 20
-198.231003
 11
153.000000
 21
-198.231003
  0
LINE
  8
0
  6
CONTINUOUS
 62
7
 10
158.000000
 20
-196.718994
 11
153.000000
 21
-196.718994
  0
LINE
  8
0
  6
CONTINUOUS
 62
7
 10
158.000000
 20
-194.231003
 11
153.000000
 21
-194.231003
  0
LINE
  8
0
  6
CONTINUOUS
 62
7
 10
226.000000
 20
-201.475006
 11
231.000000
 21
-201.475006
  0
LINE
  8
0
  6
CONTINUOUS
 62
7
 10
231.000000
 20
-193.475006
 11
231.000000
 21
-201.475006
  0
LINE
  8
0
  6
CONTINUOUS
 62
7
 10
226.000000
 20
-193.475006
 11
231.000000
 21
-193.475006
  0
LINE
  8
0
  6
CONTINUOUS
 62
7
 10
226.000000
 20
-194.231003
 11
231.000000
 21
-194.231003
  0
LINE
  8
0
  6
CONTINUOUS
 62
7
 10
226.000000
 20
-196.718994
 11
231.000000
 21
-196.718994
  0
LINE
  8
0
  6
CONTINUOUS
 62
7
 10
226.000000
 20
-198.231003
 11
231.000000
 21
-198.231003
  0
LINE
  8
0
  6
CONTINUOUS
 62
7
 10
226.000000
 20
-200.718994
 11
231.000000
 21
-200.718994
  0
LINE
  8
0
  6
CONTINUOUS
 62
7
 10
158.000000
 20
-192.475006
 11
158.000000
 21
-202.475006
  0
LINE
  8
0
  6
CONTINUOUS
 62
7
 10
226.000000
 20
-192.475006
 11
158.000000
 21
-192.475006
  0
LINE
  8
0
  6
CONTINUOUS
 62
7
 10
226.000000
 20
-192.475006
 11
226.000000
 21
-202.475006
  0
LINE
  8
0
  6
CENTER
 62
2
 10
159.432007
 20
-197.475006
 11
143.901001
 21
-197.475006
  0
LINE
  8
0
  6
CENTER
 62
2
 10
223.610001
 20
-197.475006
 11
239.598999
 21
-197.475006
  0
LINE
  8
0
  6
CONTINUOUS
 62
7
 10
231.000000
 20
-131.475006
 11
231.000000
 21
-139.475006
  0
LINE
  8
0
  6
CONTINUOUS
 62
7
 10
226.000000
 20
-131.475006
 11
231.000000
 21
-131.475006
  0
LINE
  8
0
  6
CONTINUOUS
 62
7
 10
153.000000
 20
-138.475006
 11
147.500000
 21
-138.475006
  0
LINE
  8
0
  6
CONTINUOUS
 62
2
 10
153.000000
 20
-137.975006
 11
147.500000
 21
-137.975006
  0
LINE
  8
0
  6
CONTINUOUS
 62
7
 10
153.000000
 20
-132.475006
 11
147.500000
 21
-132.475006
  0
LINE
  8
0
  6
CONTINUOUS
 62
2
 10
153.000000
 20
-132.975006
 11
147.500000
 21
-132.975006
  0
LINE
  8
0
  6
CONTINUOUS
 62
7
 10
147.500000
 20
-138.475006
 11
147.500000
 21
-132.475006
  0
LINE
  8
0
  6
CONTINUOUS
 62
7
 10
158.000000
 20
-140.475006
 11
226.000000
 21
-140.475006
  0
LINE
  8
0
  6
CONTINUOUS
 62
7
 10
226.000000
 20
-132.231003
 11
231.000000
 21
-132.231003
  0
LINE
  8
0
  6
CONTINUOUS
 62
7
 10
226.000000
 20
-139.475006
 11
231.000000
 21
-139.475006
  0
LINE
  8
0
  6
CONTINUOUS
 62
7
 10
158.000000
 20
-131.475006
 11
153.000000
 21
-131.475006
  0
LINE
  8
0
  6
CONTINUOUS
 62
7
 10
153.000000
 20
-139.475006
 11
153.000000
 21
-131.475006
  0
LINE
  8
0
  6
CONTINUOUS
 62
7
 10
158.000000
 20
-139.475006
 11
153.000000
 21
-139.475006
  0
LINE
  8
0
  6
CONTINUOUS
 62
7
 10
158.000000
 20
-138.718994
 11
153.000000
 21
-138.718994
  0
LINE
  8
0
  6
CONTINUOUS
 62
7
 10
158.000000
 20
-136.231003
 11
153.000000
 21
-136.231003
  0
LINE
  8
0
  6
CONTINUOUS
 62
7
 10
158.000000
 20
-134.718994
 11
153.000000
 21
-134.718994
  0
LINE
  8
0
  6
CONTINUOUS
 62
7
 10
158.000000
 20
-132.231003
 11
153.000000
 21
-132.231003
  0
LINE
  8
0
  6
CONTINUOUS
 62
7
 10
226.000000
 20
-138.718994
 11
231.000000
 21
-138.718994
  0
LINE
  8
0
  6
CONTINUOUS
 62
7
 10
226.000000
 20
-136.231003
 11
231.000000
 21
-136.231003
  0
LINE
  8
0
  6
CONTINUOUS
 62
7
 10
231.000000
 20
-138.475006
 11
236.500000
 21
-138.475006
  0
LINE
  8
0
  6
CONTINUOUS
 62
2
 10
231.000000
 20
-137.975006
 11
236.500000
 21
-137.975006
  0
LINE
  8
0
  6
CONTINUOUS
 62
7
 10
231.000000
 20
-132.475006
 11
236.500000
 21
-132.475006
  0
LINE
  8
0
  6
CONTINUOUS
 62
2
 10
231.000000
 20
-132.975006
 11
236.500000
 21
-132.975006
  0
LINE
  8
0
  6
CONTINUOUS
 62
7
 10
236.500000
 20
-138.475006
 11
236.500000
 21
-132.475006
  0
LINE
  8
0
  6
CONTINUOUS
 62
7
 10
226.000000
 20
-134.718994
 11
231.000000
 21
-134.718994
  0
LINE
  8
0
  6
CENTER
 62
2
 10
170.610001
 20
-161.975006
 11
144.973999
 21
-161.975006
  0
LINE
  8
0
  6
CENTER
 62
2
 10
213.389999
 20
-161.975006
 11
238.059998
 21
-161.975006
  0
LINE
  8
0
  6
CONTINUOUS
 62
7
 10
180.750000
 20
-155.475006
 11
228.250000
 21
-155.475006
  0
LINE
  8
0
  6
CONTINUOUS
 62
7
 10
173.149994
 20
-155.975006
 11
180.750000
 21
-155.975006
  0
LINE
  8
0
  6
CONTINUOUS
 62
7
 10
139.000000
 20
-160.475006
 11
147.500000
 21
-160.475006
  0
LINE
  8
0
  6
CONTINUOUS
 62
7
 10
236.500000
 20
-160.475006
 11
245.000000
 21
-160.475006
  0
LINE
  8
0
  6
CONTINUOUS
 62
7
 10
235.850006
 20
-155.975006
 11
235.850006
 21
-158.975006
  0
LINE
  8
0
  6
CONTINUOUS
 62
7
 10
235.850006
 20
-155.975006
 11
228.250000
 21
-155.975006
  0
LINE
  8
0
  6
CONTINUOUS
 62
7
 10
139.000000
 20
-167.975006
 11
147.653000
 21
-167.975006
  0
LINE
  8
0
  6
CONTINUOUS
 62
7
 10
139.000000
 20
-177.475006
 11
245.000000
 21
-177.475006
  0
LINE
  8
0
  6
CONTINUOUS
 62
7
 10
139.000000
 20
-160.475006
 11
139.000000
 21
-177.475006
  0
LINE
  8
0
  6
CONTINUOUS
 62
7
 10
245.000000
 20
-160.475006
 11
245.000000
 21
-177.475006
  0
LINE
  8
0
  6
CONTINUOUS
 62
7
 10
149.800003
 20
-171.975006
 11
158.000000
 21
-171.975006
  0
LINE
  8
0
  6
CONTINUOUS
 62
7
 10
234.199997
 20
-171.975006
 11
226.000000
 21
-171.975006
  0
LINE
  8
0
  6
CONTINUOUS
 62
7
 10
236.347000
 20
-167.975006
 11
245.000000
 21
-167.975006
  0
LINE
  8
0
  6
CONTINUOUS
 62
7
 10
194.500000
 20
-165.975006
 11
194.500000
 21
-155.975006
  0
LINE
  8
0
  6
CONTINUOUS
 62
7
 10
214.500000
 20
-165.975006
 11
214.500000
 21
-155.975006
  0
LINE
  8
0
  6
CONTINUOUS
 62
7
 10
194.500000
 20
-165.975006
 11
214.500000
 21
-165.975006
  0
LINE
  8
0
  6
CONTINUOUS
 62
7
 10
194.500000
 20
-155.975006
 11
214.500000
 21
-155.975006
  0
LINE
  8
0
  6
CONTINUOUS
 62
7
 10
236.500000
 20
-164.975006
 11
236.500000
 21
-158.975006
  0
LINE
  8
0
  6
CONTINUOUS
 62
7
 10
231.000000
 20
-164.975006
 11
236.500000
 21
-164.975006
  0
LINE
  8
0
  6
CONTINUOUS
 62
2
 10
231.000000
 20
-164.475006
 11
236.500000
 21
-164.475006
  0
LINE
  8
0
  6
CONTINUOUS
 62
2
 10
231.000000
 20
-159.475006
 11
236.500000
 21
-159.475006
  0
LINE
  8
0
  6
CONTINUOUS
 62
7
 10
231.000000
 20
-158.975006
 11
236.500000
 21
-158.975006
  0
LINE
  8
0
  6
CONTINUOUS
 62
7
 10
158.000000
 20
-176.975006
 11
226.000000
 21
-176.975006
  0
LINE
  8
0
  6
CONTINUOUS
 62
7
 10
153.000000
 20
-164.975006
 11
147.500000
 21
-164.975006
  0
LINE
  8
0
  6
CONTINUOUS
 62
2
 10
153.000000
 20
-164.475006
 11
147.500000
 21
-164.475006
  0
LINE
  8
0
  6
CONTINUOUS
 62
2
 10
153.000000
 20
-159.475006
 11
147.500000
 21
-159.475006
  0
LINE
  8
0
  6
CONTINUOUS
 62
7
 10
153.000000
 20
-158.975006
 11
147.500000
 21
-158.975006
  0
LINE
  8
0
  6
CONTINUOUS
 62
7
 10
147.500000
 20
-164.975006
 11
147.500000
 21
-158.975006
  0
LINE
  8
0
  6
CONTINUOUS
 62
7
 10
169.500000
 20
-160.475006
 11
173.149994
 21
-160.475006
  0
LINE
  8
0
  6
CONTINUOUS
 62
7
 10
226.000000
 20
-167.475006
 11
235.850006
 21
-167.475006
  0
LINE
  8
0
  6
CONTINUOUS
 62
7
 10
235.850006
 20
-164.975006
 11
235.850006
 21
-167.475006
  0
LINE
  8
0
  6
CONTINUOUS
 62
7
 10
216.000000
 20
-155.975006
 11
216.000000
 21
-165.475006
  0
LINE
  8
0
  6
CONTINUOUS
 62
7
 10
173.149994
 20
-155.975006
 11
173.149994
 21
-167.475006
  0
LINE
  8
0
  6
CONTINUOUS
 62
7
 10
180.750000
 20
-155.475006
 11
180.750000
 21
-167.475006
  0
LINE
  8
0
  6
CONTINUOUS
 62
7
 10
228.250000
 20
-155.475006
 11
228.250000
 21
-157.725006
  0
LINE
  8
0
  6
CONTINUOUS
 62
7
 10
168.000000
 20
-155.975006
 11
168.000000
 21
-165.475006
  0
LINE
  8
0
  6
CONTINUOUS
 62
7
 10
158.000000
 20
-155.975006
 11
158.000000
 21
-176.975006
  0
LINE
  8
0
  6
CONTINUOUS
 62
7
 10
226.000000
 20
-155.975006
 11
226.000000
 21
-176.975006
  0
LINE
  8
0
  6
CONTINUOUS
 62
7
 10
226.000000
 20
-155.975006
 11
216.000000
 21
-155.975006
  0
LINE
  8
0
  6
CONTINUOUS
 62
7
 10
158.000000
 20
-155.975006
 11
168.000000
 21
-155.975006
  0
LINE
  8
0
  6
CONTINUOUS
 62
7
 10
231.000000
 20
-157.725006
 11
226.000000
 21
-157.725006
  0
LINE
  8
0
  6
CONTINUOUS
 62
7
 10
231.000000
 20
-157.725006
 11
231.000000
 21
-166.225006
  0
LINE
  8
0
  6
CONTINUOUS
 62
7
 10
231.000000
 20
-166.225006
 11
226.000000
 21
-166.225006
  0
LINE
  8
0
  6
CONTINUOUS
 62
7
 10
231.000000
 20
-164.720993
 11
226.000000
 21
-164.720993
  0
LINE
  8
0
  6
CONTINUOUS
 62
7
 10
231.000000
 20
-163.410995
 11
226.000000
 21
-163.410995
  0
LINE
  8
0
  6
CONTINUOUS
 62
7
 10
231.000000
 20
-160.539001
 11
226.000000
 21
-160.539001
  0
LINE
  8
0
  6
CONTINUOUS
 62
7
 10
231.000000
 20
-159.229004
 11
226.000000
 21
-159.229004
  0
LINE
  8
0
  6
CONTINUOUS
 62
7
 10
153.000000
 20
-166.225006
 11
158.000000
 21
-166.225006
  0
LINE
  8
0
  6
CONTINUOUS
 62
7
 10
153.000000
 20
-166.225006
 11
153.000000
 21
-157.725006
  0
LINE
  8
0
  6
CONTINUOUS
 62
7
 10
153.000000
 20
-157.725006
 11
158.000000
 21
-157.725006
  0
LINE
  8
0
  6
CONTINUOUS
 62
7
 10
153.000000
 20
-159.229004
 11
158.000000
 21
-159.229004
  0
LINE
  8
0
  6
CONTINUOUS
 62
7
 10
153.000000
 20
-160.539001
 11
158.000000
 21
-160.539001
  0
LINE
  8
0
  6
CONTINUOUS
 62
7
 10
153.000000
 20
-163.410995
 11
158.000000
 21
-163.410995
  0
LINE
  8
0
  6
CONTINUOUS
 62
7
 10
153.000000
 20
-164.720993
 11
158.000000
 21
-164.720993
  0
LINE
  8
0
  6
CONTINUOUS
 62
7
 10
170.000000
 20
-167.475006
 11
214.000000
 21
-167.475006
  0
LINE
  8
0
  6
CONTINUOUS
 62
7
 10
110.000000
 20
102.275002
 11
125.000000
 21
102.275002
  0
LINE
  8
0
  6
CONTINUOUS
 62
7
 10
110.000000
 20
98.275002
 11
110.000000
 21
94.775002
  0
LINE
  8
0
  6
CONTINUOUS
 62
7
 10
110.000000
 20
102.275002
 11
110.000000
 21
101.275002
  0
LINE
  8
0
  6
CONTINUOUS
 62
7
 10
101.500000
 20
107.275002
 11
108.500000
 21
107.275002
  0
LINE
  8
0
  6
CONTINUOUS
 62
7
 10
101.500000
 20
95.275002
 11
110.000000
 21
95.275002
  0
LINE
  8
0
  6
CONTINUOUS
 62
7
 10
108.800003
 20
106.974998
 11
126.199997
 21
106.974998
  0
LINE
  8
0
  6
CONTINUOUS
 62
7
 10
108.500000
 20
107.275002
 11
108.800003
 21
106.974998
  0
LINE
  8
0
  6
CONTINUOUS
 62
7
 10
125.000000
 20
98.275002
 11
125.000000
 21
94.775002
  0
LINE
  8
0
  6
CONTINUOUS
 62
7
 10
125.000000
 20
102.275002
 11
125.000000
 21
101.275002
  0
LINE
  8
0
  6
CONTINUOUS
 62
7
 10
133.500000
 20
107.275002
 11
133.500000
 21
95.275002
  0
LINE
  8
0
  6
CONTINUOUS
 62
7
 10
133.500000
 20
107.275002
 11
126.500000
 21
107.275002
  0
LINE
  8
0
  6
CONTINUOUS
 62
7
 10
133.500000
 20
95.275002
 11
125.000000
 21
95.275002
  0
LINE
  8
0
  6
CONTINUOUS
 62
7
 10
126.500000
 20
107.275002
 11
126.199997
 21
106.974998
  0
LINE
  8
0
  6
CONTINUOUS
 62
7
 10
101.500000
 20
107.275002
 11
101.500000
 21
95.275002
  0
LINE
  8
0
  6
CONTINUOUS
 62
7
 10
134.000000
 20
94.775002
 11
125.000000
 21
94.775002
  0
LINE
  8
0
  6
CONTINUOUS
 62
7
 10
134.000000
 20
85.275002
 11
101.000000
 21
85.275002
  0
LINE
  8
0
  6
CONTINUOUS
 62
7
 10
101.000000
 20
94.775002
 11
110.000000
 21
94.775002
  0
LINE
  8
0
  6
CONTINUOUS
 62
7
 10
134.000000
 20
94.775002
 11
134.000000
 21
85.275002
  0
LINE
  8
0
  6
CONTINUOUS
 62
7
 10
101.000000
 20
106.775002
 11
101.000000
 21
85.275002
  0
LINE
  8
0
  6
CENTER
 62
2
 10
-165.000000
 20
148.774994
 11
-245.000000
 21
148.774994
  0
LINE
  8
0
  6
CONTINUOUS
 62
7
 10
-218.500000
 20
106.775002
 11
-218.500000
 21
95.275002
  0
LINE
  8
0
  6
CONTINUOUS
 62
7
 10
-210.899994
 20
107.275002
 11
-210.899994
 21
95.275002
  0
LINE
  8
0
  6
CONTINUOUS
 62
7
 10
-210.899994
 20
107.275002
 11
-184.100006
 21
107.275002
  0
LINE
  8
0
  6
CONTINUOUS
 62
7
 10
-218.500000
 20
95.275002
 11
-176.500000
 21
95.275002
  0
LINE
  8
0
  6
CONTINUOUS
 62
7
 10
-218.500000
 20
106.775002
 11
-210.899994
 21
106.775002
  0
LINE
  8
0
  6
CONTINUOUS
 62
7
 10
-243.000000
 20
102.275002
 11
-218.500000
 21
102.275002
  0
LINE
  8
0
  6
CONTINUOUS
 62
7
 10
-176.500000
 20
102.275002
 11
-167.000000
 21
102.275002
  0
LINE
  8
0
  6
CONTINUOUS
 62
7
 10
-176.500000
 20
106.775002
 11
-176.500000
 21
95.275002
  0
LINE
  8
0
  6
CONTINUOUS
 62
7
 10
-184.100006
 20
107.275002
 11
-184.100006
 21
95.275002
  0
LINE
  8
0
  6
CONTINUOUS
 62
7
 10
-176.500000
 20
106.775002
 11
-184.100006
 21
106.775002
  0
LINE
  8
0
  6
CONTINUOUS
 62
7
 10
-243.000000
 20
94.775002
 11
-234.347000
 21
94.775002
  0
LINE
  8
0
  6
CONTINUOUS
 62
7
 10
-243.000000
 20
85.275002
 11
-167.000000
 21
85.275002
  0
LINE
  8
0
  6
CONTINUOUS
 62
7
 10
-243.000000
 20
102.275002
 11
-243.000000
 21
85.275002
  0
LINE
  8
0
  6
CONTINUOUS
 62
7
 10
-167.000000
 20
102.275002
 11
-167.000000
 21
85.275002
  0
LINE
  8
0
  6
CONTINUOUS
 62
7
 10
-210.899994
 20
164.774994
 11
-210.899994
 21
132.774994
  0
LINE
  8
0
  6
CONTINUOUS
 62
7
 10
-184.100006
 20
164.774994
 11
-210.899994
 21
164.774994
  0
LINE
  8
0
  6
CONTINUOUS
 62
7
 10
-184.100006
 20
132.774994
 11
-210.899994
 21
132.774994
  0
LINE
  8
0
  6
CONTINUOUS
 62
7
 10
-184.100006
 20
164.774994
 11
-184.100006
 21
132.774994
  0
LINE
  8
0
  6
CONTINUOUS
 62
7
 10
-184.100006
 20
164.574997
 11
-176.500000
 21
164.574997
  0
LINE
  8
0
  6
CONTINUOUS
 62
7
 10
-176.500000
 20
164.574997
 11
-176.500000
 21
132.975006
  0
LINE
  8
0
  6
CONTINUOUS
 62
7
 10
-184.100006
 20
132.975006
 11
-176.500000
 21
132.975006
  0
LINE
  8
0
  6
CONTINUOUS
 62
7
 10
-243.000000
 20
156.274994
 11
-218.500000
 21
156.274994
  0
LINE
  8
0
  6
CONTINUOUS
 62
7
 10
-176.500000
 20
156.274994
 11
-167.000000
 21
156.274994
  0
LINE
  8
0
  6
CONTINUOUS
 62
7
 10
-243.000000
 20
141.274994
 11
-218.500000
 21
141.274994
  0
LINE
  8
0
  6
CONTINUOUS
 62
7
 10
-176.500000
 20
141.274994
 11
-167.000000
 21
141.274994
  0
LINE
  8
0
  6
CONTINUOUS
 62
7
 10
-184.100006
 20
139.774994
 11
-210.899994
 21
139.774994
  0
LINE
  8
0
  6
CONTINUOUS
 62
7
 10
-184.100006
 20
157.774994
 11
-210.899994
 21
157.774994
  0
LINE
  8
0
  6
CONTINUOUS
 62
7
 10
-243.000000
 20
132.274994
 11
-167.000000
 21
132.274994
  0
LINE
  8
0
  6
CONTINUOUS
 62
7
 10
-243.000000
 20
132.274994
 11
-243.000000
 21
165.274994
  0
LINE
  8
0
  6
CONTINUOUS
 62
7
 10
-167.000000
 20
132.274994
 11
-167.000000
 21
165.274994
  0
LINE
  8
0
  6
CENTER
 62
2
 10
-165.000000
 20
43.775002
 11
-245.000000
 21
43.775002
  0
LINE
  8
0
  6
CONTINUOUS
 62
7
 10
-243.000000
 20
27.275000
 11
-167.000000
 21
27.275000
  0
LINE
  8
0
  6
CONTINUOUS
 62
7
 10
-243.000000
 20
60.275002
 11
-167.000000
 21
60.275002
  0
LINE
  8
0
  6
CONTINUOUS
 62
7
 10
-243.000000
 20
60.275002
 11
-243.000000
 21
27.275000
  0
LINE
  8
0
  6
CONTINUOUS
 62
7
 10
-167.000000
 20
60.275002
 11
-167.000000
 21
27.275000
  0
LINE
  8
0
  6
CONTINUOUS
 62
7
 10
-232.199997
 20
90.775002
 11
-223.000000
 21
90.775002
  0
LINE
  8
0
  6
CONTINUOUS
 62
7
 10
-193.000000
 20
90.775002
 11
-217.000000
 21
90.775002
  0
LINE
  8
0
  6
CONTINUOUS
 62
7
 10
-177.800003
 20
90.775002
 11
-187.000000
 21
90.775002
  0
LINE
  8
0
  6
CONTINUOUS
 62
7
 10
-218.500000
 20
164.574997
 11
-218.500000
 21
132.988007
  0
LINE
  8
0
  6
CONTINUOUS
 62
7
 10
-210.899994
 20
164.574997
 11
-218.500000
 21
164.574997
  0
LINE
  8
0
  6
CONTINUOUS
 62
7
 10
-210.899994
 20
132.975006
 11
-218.500000
 21
132.975006
  0
LINE
  8
0
  6
CONTINUOUS
 62
7
 10
-175.653000
 20
94.775002
 11
-167.000000
 21
94.775002
  0
LINE
  8
0
  6
CENTER
 62
2
 10
-182.000000
 20
142.774994
 11
-182.000000
 21
130.774994
  0
LINE
  8
0
  6
CENTER
 62
2
 10
-188.000000
 20
136.774994
 11
-176.000000
 21
136.774994
  0
LINE
  8
0
  6
CENTER
 62
2
 10
-182.000000
 20
166.774994
 11
-182.000000
 21
154.774994
  0
LINE
  8
0
  6
CENTER
 62
2
 10
-188.000000
 20
160.774994
 11
-176.000000
 21
160.774994
  0
LINE
  8
0
  6
CENTER
 62
2
 10
-187.500000
 20
164.774994
 11
-187.500000
 21
157.774994
  0
LINE
  8
0
  6
CENTER
 62
2
 10
-191.000000
 20
161.274994
 11
-184.000000
 21
161.274994
  0
LINE
  8
0
  6
CENTER
 62
2
 10
-207.500000
 20
164.774994
 11
-207.500000
 21
157.774994
  0
LINE
  8
0
  6
CENTER
 62
2
 10
-211.000000
 20
161.274994
 11
-204.000000
 21
161.274994
  0
LINE
  8
0
  6
CENTER
 62
2
 10
-187.500000
 20
139.774994
 11
-187.500000
 21
132.774994
  0
LINE
  8
0
  6
CENTER
 62
2
 10
-191.000000
 20
136.274994
 11
-184.000000
 21
136.274994
  0
LINE
  8
0
  6
CENTER
 62
2
 10
-207.500000
 20
139.774994
 11
-207.500000
 21
132.774994
  0
LINE
  8
0
  6
CENTER
 62
2
 10
-211.000000
 20
136.274994
 11
-204.000000
 21
136.274994
  0
LINE
  8
0
  6
CENTER
 62
2
 10
-228.000000
 20
142.774994
 11
-228.000000
 21
130.774994
  0
LINE
  8
0
  6
CENTER
 62
2
 10
-234.000000
 20
136.774994
 11
-222.000000
 21
136.774994
  0
LINE
  8
0
  6
CENTER
 62
2
 10
-228.000000
 20
166.774994
 11
-228.000000
 21
154.774994
  0
LINE
  8
0
  6
CENTER
 62
2
 10
-234.000000
 20
160.774994
 11
-222.000000
 21
160.774994
  0
LINE
  8
0
  6
CENTER
 62
2
 10
-190.000000
 20
94.275002
 11
-190.000000
 21
87.275002
  0
LINE
  8
0
  6
CENTER
 62
2
 10
-193.500000
 20
90.775002
 11
-186.500000
 21
90.775002
  0
LINE
  8
0
  6
CENTER
 62
2
 10
-192.500000
 20
105.775002
 11
-192.500000
 21
99.775002
  0
LINE
  8
0
  6
CENTER
 62
2
 10
-195.500000
 20
102.775002
 11
-189.500000
 21
102.775002
  0
LINE
  8
0
  6
CENTER
 62
2
 10
-202.500000
 20
105.775002
 11
-202.500000
 21
99.775002
  0
LINE
  8
0
  6
CENTER
 62
2
 10
-205.500000
 20
102.775002
 11
-199.500000
 21
102.775002
  0
LINE
  8
0
  6
CENTER
 62
2
 10
-220.000000
 20
94.275002
 11
-220.000000
 21
87.275002
  0
LINE
  8
0
  6
CENTER
 62
2
 10
-223.500000
 20
90.775002
 11
-216.500000
 21
90.775002
  0
LINE
  8
0
  6
CENTER
 62
2
 10
-228.000000
 20
60.275002
 11
-228.000000
 21
51.275002
  0
LINE
  8
0
  6
CENTER
 62
2
 10
-232.500000
 20
55.775002
 11
-223.500000
 21
55.775002
  0
LINE
  8
0
  6
CENTER
 62
2
 10
-235.000000
 20
56.174999
 11
-235.000000
 21
40.375000
  0
LINE
  8
0
  6
CENTER
 62
2
 10
-242.899994
 20
48.275002
 11
-227.100006
 21
48.275002
  0
LINE
  8
0
  6
CENTER
 62
2
 10
-182.000000
 20
60.275002
 11
-182.000000
 21
51.275002
  0
LINE
  8
0
  6
CENTER
 62
2
 10
-186.500000
 20
55.775002
 11
-177.500000
 21
55.775002
  0
LINE
  8
0
  6
CENTER
 62
2
 10
-175.000000
 20
56.174999
 11
-175.000000
 21
40.375000
  0
LINE
  8
0
  6
CENTER
 62
2
 10
-182.899994
 20
48.275002
 11
-167.100006
 21
48.275002
  0
LINE
  8
0
  6
CENTER
 62
2
 10
-182.000000
 20
36.275002
 11
-182.000000
 21
27.275000
  0
LINE
  8
0
  6
CENTER
 62
2
 10
-186.500000
 20
31.775000
 11
-177.500000
 21
31.775000
  0
LINE
  8
0
  6
CENTER
 62
2
 10
-228.000000
 20
36.275002
 11
-228.000000
 21
27.275000
  0
LINE
  8
0
  6
CENTER
 62
2
 10
-232.500000
 20
31.775000
 11
-223.500000
 21
31.775000
  0
LINE
  8
0
  6
CENTER
 62
2
 10
117.500000
 20
109.275002
 11
117.500000
 21
83.275002
  0
LINE
  8
0
  6
CENTER
 62
2
 10
109.099998
 20
93.275002
 11
125.900002
 21
93.275002
  0
LINE
  8
0
  6
CENTER
 62
2
 10
107.500000
 20
94.275002
 11
107.500000
 21
87.275002
  0
LINE
  8
0
  6
CENTER
 62
2
 10
104.000000
 20
90.775002
 11
111.000000
 21
90.775002
  0
LINE
  8
0
  6
CENTER
 62
2
 10
-228.000000
 20
92.775002
 11
-228.000000
 21
83.275002
  0
LINE
  8
0
  6
DASHED
 62
2
 10
-224.000000
 20
90.775002
 11
-224.000000
 21
89.775002
  0
LINE
  8
0
  6
DASHED
 62
2
 10
-232.000000
 20
90.775002
 11
-232.000000
 21
89.775002
  0
LINE
  8
0
  6
DASHED
 62
2
 10
-230.500000
 20
89.775002
 11
-230.500000
 21
85.275002
  0
LINE
  8
0
  6
DASHED
 62
2
 10
-225.500000
 20
89.775002
 11
-225.500000
 21
85.275002
  0
LINE
  8
0
  6
DASHED
 62
2
 10
-230.100006
 20
89.775002
 11
-230.100006
 21
85.275002
  0
LINE
  8
0
  6
DASHED
 62
2
 10
-225.899994
 20
89.775002
 11
-225.899994
 21
85.275002
  0
LINE
  8
0
  6
DASHED
 62
2
 10
-232.000000
 20
89.775002
 11
-224.000000
 21
89.775002
  0
LINE
  8
0
  6
DASHED
 62
2
 10
-186.000000
 20
90.775002
 11
-186.000000
 21
89.775002
  0
LINE
  8
0
  6
DASHED
 62
2
 10
-186.000000
 20
89.775002
 11
-178.000000
 21
89.775002
  0
LINE
  8
0
  6
DASHED
 62
2
 10
-184.500000
 20
89.775002
 11
-184.500000
 21
85.275002
  0
LINE
  8
0
  6
DASHED
 62
2
 10
-184.100006
 20
89.775002
 11
-184.100006
 21
85.275002
  0
LINE
  8
0
  6
CENTER
 62
2
 10
-182.000000
 20
92.775002
 11
-182.000000
 21
83.275002
  0
LINE
  8
0
  6
DASHED
 62
2
 10
-179.899994
 20
89.775002
 11
-179.899994
 21
85.275002
  0
LINE
  8
0
  6
DASHED
 62
2
 10
-179.500000
 20
89.775002
 11
-179.500000
 21
85.275002
  0
LINE
  8
0
  6
DASHED
 62
2
 10
-178.000000
 20
90.775002
 11
-178.000000
 21
89.775002
  0
LINE
  8
0
  6
DASHED
 62
2
 10
-224.000000
 20
206.774994
 11
-224.000000
 21
207.774994
  0
LINE
  8
0
  6
DASHED
 62
2
 10
-224.000000
 20
207.774994
 11
-232.000000
 21
207.774994
  0
LINE
  8
0
  6
DASHED
 62
2
 10
-225.500000
 20
207.774994
 11
-225.500000
 21
212.274994
  0
LINE
  8
0
  6
DASHED
 62
2
 10
-225.899994
 20
207.774994
 11
-225.899994
 21
212.274994
  0
LINE
  8
0
  6
CENTER
 62
2
 10
-228.000000
 20
204.774994
 11
-228.000000
 21
214.274994
  0
LINE
  8
0
  6
DASHED
 62
2
 10
-230.100006
 20
207.774994
 11
-230.100006
 21
212.274994
  0
LINE
  8
0
  6
DASHED
 62
2
 10
-230.500000
 20
207.774994
 11
-230.500000
 21
212.274994
  0
LINE
  8
0
  6
DASHED
 62
2
 10
-232.000000
 20
206.774994
 11
-232.000000
 21
207.774994
  0
LINE
  8
0
  6
DASHED
 62
2
 10
-178.000000
 20
206.774994
 11
-178.000000
 21
207.774994
  0
LINE
  8
0
  6
DASHED
 62
2
 10
-178.000000
 20
207.774994
 11
-186.000000
 21
207.774994
  0
LINE
  8
0
  6
DASHED
 62
2
 10
-179.500000
 20
207.774994
 11
-179.500000
 21
212.274994
  0
LINE
  8
0
  6
DASHED
 62
2
 10
-179.899994
 20
207.774994
 11
-179.899994
 21
212.274994
  0
LINE
  8
0
  6
CENTER
 62
2
 10
-182.000000
 20
204.774994
 11
-182.000000
 21
214.274994
  0
LINE
  8
0
  6
DASHED
 62
2
 10
-184.100006
 20
207.774994
 11
-184.100006
 21
212.274994
  0
LINE
  8
0
  6
DASHED
 62
2
 10
-184.500000
 20
207.774994
 11
-184.500000
 21
212.274994
  0
LINE
  8
0
  6
DASHED
 62
2
 10
-186.000000
 20
206.774994
 11
-186.000000
 21
207.774994
  0
LINE
  8
0
  6
CENTER
 62
2
 10
-187.500000
 20
192.274994
 11
-187.500000
 21
188.274994
  0
LINE
  8
0
  6
CENTER
 62
2
 10
-207.500000
 20
192.274994
 11
-207.500000
 21
188.274994
  0
LINE
  8
0
  6
CENTER
 62
2
 10
105.500000
 20
87.275002
 11
105.500000
 21
83.275002
  0
LINE
  8
0
  6
CENTER
 62
2
 10
129.500000
 20
87.275002
 11
129.500000
 21
83.275002
  0
LINE
  8
0
  6
CENTER
 62
2
 10
130.000000
 20
109.275002
 11
130.000000
 21
105.275002
  0
LINE
  8
0
  6
CENTER
 62
2
 10
105.000000
 20
109.275002
 11
105.000000
 21
105.275002
  0
LINE
  8
0
  6
CENTER
 62
2
 10
247.000000
 20
148.774994
 11
137.000000
 21
148.774994
  0
LINE
  8
0
  6
CONTINUOUS
 62
7
 10
173.149994
 20
106.775002
 11
173.149994
 21
95.275002
  0
LINE
  8
0
  6
CONTINUOUS
 62
7
 10
180.750000
 20
107.275002
 11
180.750000
 21
95.275002
  0
LINE
  8
0
  6
CONTINUOUS
 62
7
 10
180.750000
 20
107.275002
 11
228.250000
 21
107.275002
  0
LINE
  8
0
  6
CONTINUOUS
 62
7
 10
173.149994
 20
95.275002
 11
235.850006
 21
95.275002
  0
LINE
  8
0
  6
CONTINUOUS
 62
7
 10
173.149994
 20
106.775002
 11
180.750000
 21
106.775002
  0
LINE
  8
0
  6
CONTINUOUS
 62
7
 10
139.000000
 20
102.275002
 11
173.149994
 21
102.275002
  0
LINE
  8
0
  6
CONTINUOUS
 62
7
 10
235.850006
 20
102.275002
 11
245.000000
 21
102.275002
  0
LINE
  8
0
  6
CONTINUOUS
 62
7
 10
235.850006
 20
106.775002
 11
235.850006
 21
95.275002
  0
LINE
  8
0
  6
CONTINUOUS
 62
7
 10
228.250000
 20
107.275002
 11
228.250000
 21
95.275002
  0
LINE
  8
0
  6
CONTINUOUS
 62
7
 10
235.850006
 20
106.775002
 11
228.250000
 21
106.775002
  0
LINE
  8
0
  6
CONTINUOUS
 62
7
 10
139.000000
 20
94.775002
 11
147.653000
 21
94.775002
  0
LINE
  8
0
  6
CONTINUOUS
 62
7
 10
139.000000
 20
85.275002
 11
245.000000
 21
85.275002
  0
LINE
  8
0
  6
CONTINUOUS
 62
7
 10
139.000000
 20
102.275002
 11
139.000000
 21
85.275002
  0
LINE
  8
0
  6
CONTINUOUS
 62
7
 10
245.000000
 20
102.275002
 11
245.000000
 21
85.275002
  0
LINE
  8
0
  6
CONTINUOUS
 62
7
 10
180.750000
 20
164.774994
 11
180.750000
 21
132.774994
  0
LINE
  8
0
  6
CONTINUOUS
 62
7
 10
228.250000
 20
164.774994
 11
180.750000
 21
164.774994
  0
LINE
  8
0
  6
CONTINUOUS
 62
7
 10
228.250000
 20
132.774994
 11
180.750000
 21
132.774994
  0
LINE
  8
0
  6
CONTINUOUS
 62
7
 10
228.250000
 20
164.774994
 11
228.250000
 21
132.774994
  0
LINE
  8
0
  6
CONTINUOUS
 62
7
 10
228.250000
 20
164.574997
 11
235.850006
 21
164.574997
  0
LINE
  8
0
  6
CONTINUOUS
 62
7
 10
235.850006
 20
164.574997
 11
235.850006
 21
132.975006
  0
LINE
  8
0
  6
CONTINUOUS
 62
7
 10
228.250000
 20
132.975006
 11
235.850006
 21
132.975006
  0
LINE
  8
0
  6
CONTINUOUS
 62
7
 10
139.000000
 20
156.274994
 11
173.149994
 21
156.274994
  0
LINE
  8
0
  6
CONTINUOUS
 62
7
 10
235.850006
 20
156.274994
 11
245.000000
 21
156.274994
  0
LINE
  8
0
  6
CONTINUOUS
 62
7
 10
139.000000
 20
141.274994
 11
173.149994
 21
141.274994
  0
LINE
  8
0
  6
CONTINUOUS
 62
7
 10
235.850006
 20
141.274994
 11
245.000000
 21
141.274994
  0
LINE
  8
0
  6
CONTINUOUS
 62
7
 10
228.250000
 20
139.774994
 11
180.750000
 21
139.774994
  0
LINE
  8
0
  6
CONTINUOUS
 62
7
 10
228.250000
 20
157.774994
 11
180.750000
 21
157.774994
  0
LINE
  8
0
  6
CONTINUOUS
 62
7
 10
139.000000
 20
132.274994
 11
245.000000
 21
132.274994
  0
LINE
  8
0
  6
CONTINUOUS
 62
7
 10
139.000000
 20
132.274994
 11
139.000000
 21
165.274994
  0
LINE
  8
0
  6
CONTINUOUS
 62
7
 10
245.000000
 20
132.274994
 11
245.000000
 21
165.274994
  0
LINE
  8
0
  6
CENTER
 62
2
 10
247.000000
 20
43.775002
 11
137.000000
 21
43.775002
  0
LINE
  8
0
  6
CONTINUOUS
 62
7
 10
139.000000
 20
27.275000
 11
245.000000
 21
27.275000
  0
LINE
  8
0
  6
CONTINUOUS
 62
7
 10
139.000000
 20
60.275002
 11
245.000000
 21
60.275002
  0
LINE
  8
0
  6
CONTINUOUS
 62
7
 10
139.000000
 20
60.275002
 11
139.000000
 21
27.275000
  0
LINE
  8
0
  6
CONTINUOUS
 62
7
 10
245.000000
 20
60.275002
 11
245.000000
 21
27.275000
  0
LINE
  8
0
  6
CONTINUOUS
 62
7
 10
149.800003
 20
90.775002
 11
159.000000
 21
90.775002
  0
LINE
  8
0
  6
CONTINUOUS
 62
7
 10
219.000000
 20
90.775002
 11
165.000000
 21
90.775002
  0
LINE
  8
0
  6
CONTINUOUS
 62
7
 10
234.199997
 20
90.775002
 11
225.000000
 21
90.775002
  0
LINE
  8
0
  6
CONTINUOUS
 62
7
 10
173.149994
 20
164.574997
 11
173.149994
 21
132.988007
  0
LINE
  8
0
  6
CONTINUOUS
 62
7
 10
180.750000
 20
132.975006
 11
173.149994
 21
132.975006
  0
LINE
  8
0
  6
CONTINUOUS
 62
7
 10
180.750000
 20
164.574997
 11
173.149994
 21
164.574997
  0
LINE
  8
0
  6
CONTINUOUS
 62
7
 10
236.347000
 20
94.775002
 11
245.000000
 21
94.775002
  0
LINE
  8
0
  6
CENTER
 62
2
 10
154.000000
 20
166.774994
 11
154.000000
 21
154.774994
  0
LINE
  8
0
  6
CENTER
 62
2
 10
148.000000
 20
160.774994
 11
160.000000
 21
160.774994
  0
LINE
  8
0
  6
CENTER
 62
2
 10
154.000000
 20
142.774994
 11
154.000000
 21
130.774994
  0
LINE
  8
0
  6
CENTER
 62
2
 10
148.000000
 20
136.774994
 11
160.000000
 21
136.774994
  0
LINE
  8
0
  6
CENTER
 62
2
 10
184.500000
 20
164.774994
 11
184.500000
 21
157.774994
  0
LINE
  8
0
  6
CENTER
 62
2
 10
181.000000
 20
161.274994
 11
188.000000
 21
161.274994
  0
LINE
  8
0
  6
CENTER
 62
2
 10
204.500000
 20
164.774994
 11
204.500000
 21
157.774994
  0
LINE
  8
0
  6
CENTER
 62
2
 10
201.000000
 20
161.274994
 11
208.000000
 21
161.274994
  0
LINE
  8
0
  6
CENTER
 62
2
 10
224.500000
 20
164.774994
 11
224.500000
 21
157.774994
  0
LINE
  8
0
  6
CENTER
 62
2
 10
221.000000
 20
161.274994
 11
228.000000
 21
161.274994
  0
LINE
  8
0
  6
CENTER
 62
2
 10
230.000000
 20
166.774994
 11
230.000000
 21
154.774994
  0
LINE
  8
0
  6
CENTER
 62
2
 10
224.000000
 20
160.774994
 11
236.000000
 21
160.774994
  0
LINE
  8
0
  6
CENTER
 62
2
 10
230.000000
 20
142.774994
 11
230.000000
 21
130.774994
  0
LINE
  8
0
  6
CENTER
 62
2
 10
224.000000
 20
136.774994
 11
236.000000
 21
136.774994
  0
LINE
  8
0
  6
CENTER
 62
2
 10
224.500000
 20
139.774994
 11
224.500000
 21
132.774994
  0
LINE
  8
0
  6
CENTER
 62
2
 10
221.000000
 20
136.274994
 11
228.000000
 21
136.274994
  0
LINE
  8
0
  6
CENTER
 62
2
 10
184.500000
 20
139.774994
 11
184.500000
 21
132.774994
  0
LINE
  8
0
  6
CENTER
 62
2
 10
181.000000
 20
136.274994
 11
188.000000
 21
136.274994
  0
LINE
  8
0
  6
CENTER
 62
2
 10
204.500000
 20
139.774994
 11
204.500000
 21
132.774994
  0
LINE
  8
0
  6
CENTER
 62
2
 10
201.000000
 20
136.274994
 11
208.000000
 21
136.274994
  0
LINE
  8
0
  6
CENTER
 62
2
 10
199.500000
 20
105.775002
 11
199.500000
 21
99.775002
  0
LINE
  8
0
  6
CENTER
 62
2
 10
196.500000
 20
102.775002
 11
202.500000
 21
102.775002
  0
LINE
  8
0
  6
CENTER
 62
2
 10
209.500000
 20
105.775002
 11
209.500000
 21
99.775002
  0
LINE
  8
0
  6
CENTER
 62
2
 10
206.500000
 20
102.775002
 11
212.500000
 21
102.775002
  0
LINE
  8
0
  6
CENTER
 62
2
 10
222.000000
 20
94.275002
 11
222.000000
 21
87.275002
  0
LINE
  8
0
  6
CENTER
 62
2
 10
218.500000
 20
90.775002
 11
225.500000
 21
90.775002
  0
LINE
  8
0
  6
CENTER
 62
2
 10
162.000000
 20
94.275002
 11
162.000000
 21
87.275002
  0
LINE
  8
0
  6
CENTER
 62
2
 10
158.500000
 20
90.775002
 11
165.500000
 21
90.775002
  0
LINE
  8
0
  6
CENTER
 62
2
 10
154.000000
 20
60.275002
 11
154.000000
 21
51.275002
  0
LINE
  8
0
  6
CENTER
 62
2
 10
149.500000
 20
55.775002
 11
158.500000
 21
55.775002
  0
LINE
  8
0
  6
CENTER
 62
2
 10
147.000000
 20
56.174999
 11
147.000000
 21
40.375000
  0
LINE
  8
0
  6
CENTER
 62
2
 10
139.100006
 20
48.275002
 11
154.899994
 21
48.275002
  0
LINE
  8
0
  6
CENTER
 62
2
 10
154.000000
 20
36.275002
 11
154.000000
 21
27.275000
  0
LINE
  8
0
  6
CENTER
 62
2
 10
149.500000
 20
31.775000
 11
158.500000
 21
31.775000
  0
LINE
  8
0
  6
CENTER
 62
2
 10
230.000000
 20
60.275002
 11
230.000000
 21
51.275002
  0
LINE
  8
0
  6
CENTER
 62
2
 10
225.500000
 20
55.775002
 11
234.500000
 21
55.775002
  0
LINE
  8
0
  6
CENTER
 62
2
 10
230.000000
 20
36.275002
 11
230.000000
 21
27.275000
  0
LINE
  8
0
  6
CENTER
 62
2
 10
225.500000
 20
31.775000
 11
234.500000
 21
31.775000
  0
LINE
  8
0
  6
CENTER
 62
2
 10
237.000000
 20
56.174999
 11
237.000000
 21
40.375000
  0
LINE
  8
0
  6
CENTER
 62
2
 10
229.100006
 20
48.275002
 11
244.899994
 21
48.275002
  0
LINE
  8
0
  6
DASHED
 62
2
 10
158.000000
 20
206.774994
 11
158.000000
 21
207.774994
  0
LINE
  8
0
  6
DASHED
 62
2
 10
158.000000
 20
207.774994
 11
150.000000
 21
207.774994
  0
LINE
  8
0
  6
DASHED
 62
2
 10
156.500000
 20
207.774994
 11
156.500000
 21
212.274994
  0
LINE
  8
0
  6
DASHED
 62
2
 10
156.100006
 20
207.774994
 11
156.100006
 21
212.274994
  0
LINE
  8
0
  6
CENTER
 62
2
 10
154.000000
 20
204.774994
 11
154.000000
 21
214.274994
  0
LINE
  8
0
  6
DASHED
 62
2
 10
151.899994
 20
207.774994
 11
151.899994
 21
212.274994
  0
LINE
  8
0
  6
DASHED
 62
2
 10
151.500000
 20
207.774994
 11
151.500000
 21
212.274994
  0
LINE
  8
0
  6
DASHED
 62
2
 10
150.000000
 20
206.774994
 11
150.000000
 21
207.774994
  0
LINE
  8
0
  6
DASHED
 62
2
 10
234.000000
 20
206.774994
 11
234.000000
 21
207.774994
  0
LINE
  8
0
  6
DASHED
 62
2
 10
234.000000
 20
207.774994
 11
226.000000
 21
207.774994
  0
LINE
  8
0
  6
DASHED
 62
2
 10
232.500000
 20
207.774994
 11
232.500000
 21
212.274994
  0
LINE
  8
0
  6
DASHED
 62
2
 10
232.100006
 20
207.774994
 11
232.100006
 21
212.274994
  0
LINE
  8
0
  6
DASHED
 62
2
 10
227.899994
 20
207.774994
 11
227.899994
 21
212.274994
  0
LINE
  8
0
  6
DASHED
 62
2
 10
227.500000
 20
207.774994
 11
227.500000
 21
212.274994
  0
LINE
  8
0
  6
DASHED
 62
2
 10
226.000000
 20
206.774994
 11
226.000000
 21
207.774994
  0
LINE
  8
0
  6
DASHED
 62
2
 10
150.000000
 20
90.775002
 11
150.000000
 21
89.775002
  0
LINE
  8
0
  6
DASHED
 62
2
 10
150.000000
 20
89.775002
 11
158.000000
 21
89.775002
  0
LINE
  8
0
  6
DASHED
 62
2
 10
151.500000
 20
89.775002
 11
151.500000
 21
85.275002
  0
LINE
  8
0
  6
DASHED
 62
2
 10
151.899994
 20
89.775002
 11
151.899994
 21
85.275002
  0
LINE
  8
0
  6
CENTER
 62
2
 10
154.000000
 20
92.775002
 11
154.000000
 21
83.275002
  0
LINE
  8
0
  6
DASHED
 62
2
 10
156.100006
 20
89.775002
 11
156.100006
 21
85.275002
  0
LINE
  8
0
  6
DASHED
 62
2
 10
156.500000
 20
89.775002
 11
156.500000
 21
85.275002
  0
LINE
  8
0
  6
DASHED
 62
2
 10
158.000000
 20
90.775002
 11
158.000000
 21
89.775002
  0
LINE
  8
0
  6
DASHED
 62
2
 10
226.000000
 20
90.775002
 11
226.000000
 21
89.775002
  0
LINE
  8
0
  6
DASHED
 62
2
 10
226.000000
 20
89.775002
 11
234.000000
 21
89.775002
  0
LINE
  8
0
  6
DASHED
 62
2
 10
227.500000
 20
89.775002
 11
227.500000
 21
85.275002
  0
LINE
  8
0
  6
DASHED
 62
2
 10
227.899994
 20
89.775002
 11
227.899994
 21
85.275002
  0
LINE
  8
0
  6
CENTER
 62
2
 10
230.000000
 20
92.775002
 11
230.000000
 21
83.275002
  0
LINE
  8
0
  6
DASHED
 62
2
 10
232.100006
 20
89.775002
 11
232.100006
 21
85.275002
  0
LINE
  8
0
  6
DASHED
 62
2
 10
232.500000
 20
89.775002
 11
232.500000
 21
85.275002
  0
LINE
  8
0
  6
DASHED
 62
2
 10
234.000000
 20
90.775002
 11
234.000000
 21
89.775002
  0
LINE
  8
0
  6
CENTER
 62
2
 10
224.500000
 20
192.274994
 11
224.500000
 21
188.274994
  0
LINE
  8
0
  6
CENTER
 62
2
 10
204.500000
 20
192.274994
 11
204.500000
 21
188.274994
  0
LINE
  8
0
  6
CENTER
 62
2
 10
184.500000
 20
192.274994
 11
184.500000
 21
188.274994
  0
LINE
  8
0
  6
CONTINUOUS
 62
7
 10
91.000000
 20
106.775002
 11
91.000000
 21
85.775002
  0
LINE
  8
0
  6
CONTINUOUS
 62
7
 10
101.000000
 20
85.775002
 11
91.000000
 21
85.775002
  0
LINE
  8
0
  6
CONTINUOUS
 62
7
 10
101.500000
 20
106.775002
 11
91.000000
 21
106.775002
  0
LINE
  8
0
  6
CENTER
 62
2
 10
91.000000
 20
100.775002
 11
101.000000
 21
100.775002
  0
LINE
  8
0
  6
CENTER
 62
2
 10
96.000000
 20
105.775002
 11
96.000000
 21
95.775002
  0
LINE
  8
0
  6
CONTINUOUS
 62
7
 10
99.243698
 20
103.521004
 11
96.756302
 21
104.957001
  0
LINE
  8
0
  6
CONTINUOUS
 62
7
 10
96.000000
 20
102.507004
 11
94.500000
 21
101.640999
  0
LINE
  8
0
  6
CONTINUOUS
 62
7
 10
94.500000
 20
101.640999
 11
94.500000
 21
99.908997
  0
LINE
  8
0
  6
CONTINUOUS
 62
7
 10
96.000000
 20
99.042999
 11
94.500000
 21
99.908997
  0
LINE
  8
0
  6
CONTINUOUS
 62
7
 10
97.500000
 20
99.908997
 11
96.000000
 21
99.042999
  0
LINE
  8
0
  6
CONTINUOUS
 62
7
 10
97.500000
 20
101.640999
 11
97.500000
 21
99.908997
  0
LINE
  8
0
  6
CONTINUOUS
 62
7
 10
96.000000
 20
102.507004
 11
97.500000
 21
101.640999
  0
LINE
  8
0
  6
CONTINUOUS
 62
7
 10
95.243698
 20
104.957001
 11
92.756302
 21
103.521004
  0
LINE
  8
0
  6
CONTINUOUS
 62
7
 10
92.000000
 20
102.210999
 11
92.000000
 21
99.338898
  0
LINE
  8
0
  6
CONTINUOUS
 62
7
 10
92.756302
 20
98.028999
 11
95.243698
 21
96.592796
  0
LINE
  8
0
  6
CONTINUOUS
 62
7
 10
96.756302
 20
96.592796
 11
99.243698
 21
98.028999
  0
LINE
  8
0
  6
CONTINUOUS
 62
7
 10
100.000000
 20
99.338898
 11
100.000000
 21
102.210999
  0
LINE
  8
0
  6
CONTINUOUS
 62
7
 10
274.000000
 20
102.275002
 11
259.000000
 21
102.275002
  0
LINE
  8
0
  6
CONTINUOUS
 62
7
 10
274.000000
 20
98.275002
 11
274.000000
 21
94.775002
  0
LINE
  8
0
  6
CONTINUOUS
 62
7
 10
274.000000
 20
102.275002
 11
274.000000
 21
101.275002
  0
LINE
  8
0
  6
CONTINUOUS
 62
7
 10
282.500000
 20
107.275002
 11
275.500000
 21
107.275002
  0
LINE
  8
0
  6
CONTINUOUS
 62
7
 10
282.500000
 20
95.275002
 11
274.000000
 21
95.275002
  0
LINE
  8
0
  6
CONTINUOUS
 62
7
 10
275.200012
 20
106.974998
 11
257.799988
 21
106.974998
  0
LINE
  8
0
  6
CONTINUOUS
 62
7
 10
275.500000
 20
107.275002
 11
275.200012
 21
106.974998
  0
LINE
  8
0
  6
CONTINUOUS
 62
7
 10
259.000000
 20
98.275002
 11
259.000000
 21
94.775002
  0
LINE
  8
0
  6
CONTINUOUS
 62
7
 10
259.000000
 20
102.275002
 11
259.000000
 21
101.275002
  0
LINE
  8
0
  6
CONTINUOUS
 62
7
 10
250.500000
 20
107.275002
 11
250.500000
 21
95.275002
  0
LINE
  8
0
  6
CONTINUOUS
 62
7
 10
250.500000
 20
107.275002
 11
257.500000
 21
107.275002
  0
LINE
  8
0
  6
CONTINUOUS
 62
7
 10
250.500000
 20
95.275002
 11
259.000000
 21
95.275002
  0
LINE
  8
0
  6
CONTINUOUS
 62
7
 10
257.500000
 20
107.275002
 11
257.799988
 21
106.974998
  0
LINE
  8
0
  6
CONTINUOUS
 62
7
 10
282.500000
 20
107.275002
 11
282.500000
 21
95.275002
  0
LINE
  8
0
  6
CONTINUOUS
 62
7
 10
250.000000
 20
94.775002
 11
259.000000
 21
94.775002
  0
LINE
  8
0
  6
CONTINUOUS
 62
7
 10
250.000000
 20
85.275002
 11
283.000000
 21
85.275002
  0
LINE
  8
0
  6
CONTINUOUS
 62
7
 10
283.000000
 20
94.775002
 11
274.000000
 21
94.775002
  0
LINE
  8
0
  6
CONTINUOUS
 62
7
 10
250.000000
 20
94.775002
 11
250.000000
 21
85.275002
  0
LINE
  8
0
  6
CONTINUOUS
 62
7
 10
283.000000
 20
106.775002
 11
283.000000
 21
85.275002
  0
LINE
  8
0
  6
CENTER
 62
2
 10
266.500000
 20
109.275002
 11
266.500000
 21
83.275002
  0
LINE
  8
0
  6
CENTER
 62
2
 10
274.899994
 20
93.275002
 11
258.100006
 21
93.275002
  0
LINE
  8
0
  6
CENTER
 62
2
 10
276.500000
 20
94.275002
 11
276.500000
 21
87.275002
  0
LINE
  8
0
  6
CENTER
 62
2
 10
280.000000
 20
90.775002
 11
273.000000
 21
90.775002
  0
LINE
  8
0
  6
CENTER
 62
2
 10
278.500000
 20
87.275002
 11
278.500000
 21
83.275002
  0
LINE
  8
0
  6
CENTER
 62
2
 10
254.500000
 20
87.275002
 11
254.500000
 21
83.275002
  0
LINE
  8
0
  6
CENTER
 62
2
 10
254.000000
 20
109.275002
 11
254.000000
 21
105.275002
  0
LINE
  8
0
  6
CENTER
 62
2
 10
279.000000
 20
109.275002
 11
279.000000
 21
105.275002
  0
LINE
  8
0
  6
CONTINUOUS
 62
7
 10
293.000000
 20
106.775002
 11
293.000000
 21
85.775002
  0
LINE
  8
0
  6
CONTINUOUS
 62
7
 10
283.000000
 20
85.775002
 11
293.000000
 21
85.775002
  0
LINE
  8
0
  6
CONTINUOUS
 62
7
 10
282.500000
 20
106.775002
 11
293.000000
 21
106.775002
  0
LINE
  8
0
  6
CENTER
 62
2
 10
293.000000
 20
100.775002
 11
283.000000
 21
100.775002
  0
LINE
  8
0
  6
CENTER
 62
2
 10
288.000000
 20
105.775002
 11
288.000000
 21
95.775002
  0
LINE
  8
0
  6
CONTINUOUS
 62
7
 10
284.756012
 20
103.521004
 11
287.243988
 21
104.957001
  0
LINE
  8
0
  6
CONTINUOUS
 62
7
 10
288.000000
 20
102.507004
 11
289.500000
 21
101.640999
  0
LINE
  8
0
  6
CONTINUOUS
 62
7
 10
289.500000
 20
101.640999
 11
289.500000
 21
99.908997
  0
LINE
  8
0
  6
CONTINUOUS
 62
7
 10
288.000000
 20
99.042900
 11
289.500000
 21
99.908997
  0
LINE
  8
0
  6
CONTINUOUS
 62
7
 10
286.500000
 20
99.908997
 11
288.000000
 21
99.042999
  0
LINE
  8
0
  6
CONTINUOUS
 62
7
 10
286.500000
 20
101.640999
 11
286.500000
 21
99.908997
  0
LINE
  8
0
  6
CONTINUOUS
 62
7
 10
288.000000
 20
102.507004
 11
286.500000
 21
101.640999
  0
LINE
  8
0
  6
CONTINUOUS
 62
7
 10
288.756012
 20
104.957001
 11
291.243988
 21
103.521004
  0
LINE
  8
0
  6
CONTINUOUS
 62
7
 10
292.000000
 20
102.210999
 11
292.000000
 21
99.338898
  0
LINE
  8
0
  6
CONTINUOUS
 62
7
 10
291.243988
 20
98.028999
 11
288.756012
 21
96.592796
  0
LINE
  8
0
  6
CONTINUOUS
 62
7
 10
287.243988
 20
96.592796
 11
284.756012
 21
98.028999
  0
LINE
  8
0
  6
CONTINUOUS
 62
7
 10
284.000000
 20
99.338898
 11
284.000000
 21
102.210999
  0
LINE
  8
0
  6
CONTINUOUS
 62
7
 10
-175.000000
 20
102.275002
 11
-175.000000
 21
105.025002
  0
LINE
  8
0
  6
CONTINUOUS
 62
7
 10
-230.000000
 20
106.775002
 11
-230.000000
 21
102.275002
  0
LINE
  8
0
  6
CONTINUOUS
 62
7
 10
-224.000000
 20
106.775002
 11
-224.000000
 21
102.275002
  0
LINE
  8
0
  6
CONTINUOUS
 62
7
 10
-230.000000
 20
106.775002
 11
-224.000000
 21
106.775002
  0
LINE
  8
0
  6
CONTINUOUS
 62
7
 10
-235.000000
 20
103.775002
 11
-240.500000
 21
103.775002
  0
LINE
  8
0
  6
CONTINUOUS
 62
2
 10
-235.000000
 20
103.275002
 11
-240.500000
 21
103.275002
  0
LINE
  8
0
  6
CONTINUOUS
 62
7
 10
-240.500000
 20
103.775002
 11
-240.500000
 21
102.275002
  0
LINE
  8
0
  6
CONTINUOUS
 62
7
 10
-235.000000
 20
105.025002
 11
-230.000000
 21
105.025002
  0
LINE
  8
0
  6
CONTINUOUS
 62
7
 10
-235.000000
 20
105.025002
 11
-235.000000
 21
102.275002
  0
LINE
  8
0
  6
CONTINUOUS
 62
7
 10
-235.000000
 20
103.521004
 11
-230.000000
 21
103.521004
  0
LINE
  8
0
  6
CONTINUOUS
 62
7
 10
-175.000000
 20
105.025002
 11
-176.500000
 21
105.025002
  0
LINE
  8
0
  6
CONTINUOUS
 62
7
 10
-175.000000
 20
103.521004
 11
-176.500000
 21
103.521004
  0
LINE
  8
0
  6
CONTINUOUS
 62
7
 10
-169.500000
 20
103.775002
 11
-169.500000
 21
102.275002
  0
LINE
  8
0
  6
CONTINUOUS
 62
7
 10
-175.000000
 20
103.775002
 11
-169.500000
 21
103.775002
  0
LINE
  8
0
  6
CONTINUOUS
 62
2
 10
-175.000000
 20
103.275002
 11
-169.500000
 21
103.275002
  0
LINE
  8
0
  6
CENTER
 62
2
 10
-221.389999
 20
170.274994
 11
-244.098999
 21
170.274994
  0
LINE
  8
0
  6
CONTINUOUS
 62
7
 10
-230.000000
 20
175.274994
 11
-180.000000
 21
175.274994
  0
LINE
  8
0
  6
CONTINUOUS
 62
7
 10
-224.000000
 20
175.274994
 11
-224.000000
 21
165.274994
  0
LINE
  8
0
  6
CONTINUOUS
 62
7
 10
-187.500000
 20
174.774994
 11
-187.500000
 21
164.774994
  0
LINE
  8
0
  6
CENTER
 62
2
 10
-189.110001
 20
170.274994
 11
-166.401001
 21
170.274994
  0
LINE
  8
0
  6
CONTINUOUS
 62
7
 10
-186.000000
 20
175.274994
 11
-186.000000
 21
165.274994
  0
LINE
  8
0
  6
CONTINUOUS
 62
7
 10
-187.500000
 20
174.774994
 11
-207.500000
 21
174.774994
  0
LINE
  8
0
  6
CONTINUOUS
 62
7
 10
-207.500000
 20
174.774994
 11
-207.500000
 21
164.774994
  0
LINE
  8
0
  6
CONTINUOUS
 62
7
 10
-187.500000
 20
165.274994
 11
-167.000000
 21
165.274994
  0
LINE
  8
0
  6
CONTINUOUS
 62
7
 10
-243.000000
 20
165.274994
 11
-207.500000
 21
165.274994
  0
LINE
  8
0
  6
CONTINUOUS
 62
7
 10
-230.000000
 20
175.274994
 11
-230.000000
 21
165.274994
  0
LINE
  8
0
  6
CONTINUOUS
 62
7
 10
-180.000000
 20
175.274994
 11
-180.000000
 21
165.274994
  0
LINE
  8
0
  6
CONTINUOUS
 62
2
 10
-235.000000
 20
167.774994
 11
-240.500000
 21
167.774994
  0
LINE
  8
0
  6
CONTINUOUS
 62
7
 10
-235.000000
 20
167.274994
 11
-240.500000
 21
167.274994
  0
LINE
  8
0
  6
CONTINUOUS
 62
7
 10
-240.500000
 20
173.274994
 11
-240.500000
 21
167.274994
  0
LINE
  8
0
  6
CONTINUOUS
 62
2
 10
-235.000000
 20
172.774994
 11
-240.500000
 21
172.774994
  0
LINE
  8
0
  6
CONTINUOUS
 62
7
 10
-235.000000
 20
173.274994
 11
-240.500000
 21
173.274994
  0
LINE
  8
0
  6
CONTINUOUS
 62
2
 10
-175.000000
 20
172.774994
 11
-169.500000
 21
172.774994
  0
LINE
  8
0
  6
CONTINUOUS
 62
7
 10
-175.000000
 20
173.274994
 11
-169.500000
 21
173.274994
  0
LINE
  8
0
  6
CONTINUOUS
 62
7
 10
-169.500000
 20
167.274994
 11
-169.500000
 21
173.274994
  0
LINE
  8
0
  6
CONTINUOUS
 62
2
 10
-175.000000
 20
167.774994
 11
-169.500000
 21
167.774994
  0
LINE
  8
0
  6
CONTINUOUS
 62
7
 10
-175.000000
 20
167.274994
 11
-169.500000
 21
167.274994
  0
LINE
  8
0
  6
CONTINUOUS
 62
7
 10
-230.000000
 20
166.274994
 11
-235.000000
 21
166.274994
  0
LINE
  8
0
  6
CONTINUOUS
 62
7
 10
-235.000000
 20
174.274994
 11
-235.000000
 21
166.274994
  0
LINE
  8
0
  6
CONTINUOUS
 62
7
 10
-230.000000
 20
174.274994
 11
-235.000000
 21
174.274994
  0
LINE
  8
0
  6
CONTINUOUS
 62
7
 10
-230.000000
 20
173.518997
 11
-235.000000
 21
173.518997
  0
LINE
  8
0
  6
CONTINUOUS
 62
7
 10
-230.000000
 20
171.031006
 11
-235.000000
 21
171.031006
  0
LINE
  8
0
  6
CONTINUOUS
 62
7
 10
-230.000000
 20
169.518997
 11
-235.000000
 21
169.518997
  0
LINE
  8
0
  6
CONTINUOUS
 62
7
 10
-230.000000
 20
167.031006
 11
-235.000000
 21
167.031006
  0
LINE
  8
0
  6
CONTINUOUS
 62
7
 10
-180.000000
 20
174.274994
 11
-175.000000
 21
174.274994
  0
LINE
  8
0
  6
CONTINUOUS
 62
7
 10
-175.000000
 20
166.274994
 11
-175.000000
 21
174.274994
  0
LINE
  8
0
  6
CONTINUOUS
 62
7
 10
-180.000000
 20
166.274994
 11
-175.000000
 21
166.274994
  0
LINE
  8
0
  6
CONTINUOUS
 62
7
 10
-180.000000
 20
167.031006
 11
-175.000000
 21
167.031006
  0
LINE
  8
0
  6
CONTINUOUS
 62
7
 10
-180.000000
 20
169.518997
 11
-175.000000
 21
169.518997
  0
LINE
  8
0
  6
CONTINUOUS
 62
7
 10
-180.000000
 20
171.031006
 11
-175.000000
 21
171.031006
  0
LINE
  8
0
  6
CONTINUOUS
 62
7
 10
-180.000000
 20
173.518997
 11
-175.000000
 21
173.518997
  0
LINE
  8
0
  6
CONTINUOUS
 62
7
 10
-180.000000
 20
17.275000
 11
-230.000000
 21
17.275000
  0
LINE
  8
0
  6
CONTINUOUS
 62
7
 10
-230.000000
 20
17.275000
 11
-230.000000
 21
27.275000
  0
LINE
  8
0
  6
CONTINUOUS
 62
7
 10
-180.000000
 20
17.275000
 11
-180.000000
 21
27.275000
  0
LINE
  8
0
  6
CENTER
 62
2
 10
-228.000000
 20
22.275000
 11
-244.098999
 21
22.275000
  0
LINE
  8
0
  6
CONTINUOUS
 62
7
 10
-180.000000
 20
23.031300
 11
-175.000000
 21
23.031300
  0
LINE
  8
0
  6
CONTINUOUS
 62
2
 10
-235.000000
 20
19.775000
 11
-240.500000
 21
19.775000
  0
LINE
  8
0
  6
CONTINUOUS
 62
7
 10
-235.000000
 20
19.275000
 11
-240.500000
 21
19.275000
  0
LINE
  8
0
  6
CONTINUOUS
 62
7
 10
-240.500000
 20
25.275000
 11
-240.500000
 21
19.275000
  0
LINE
  8
0
  6
CONTINUOUS
 62
2
 10
-235.000000
 20
24.775000
 11
-240.500000
 21
24.775000
  0
LINE
  8
0
  6
CONTINUOUS
 62
7
 10
-235.000000
 20
25.275000
 11
-240.500000
 21
25.275000
  0
LINE
  8
0
  6
CONTINUOUS
 62
7
 10
-230.000000
 20
18.275000
 11
-235.000000
 21
18.275000
  0
LINE
  8
0
  6
CONTINUOUS
 62
7
 10
-235.000000
 20
26.275000
 11
-235.000000
 21
18.275000
  0
LINE
  8
0
  6
CONTINUOUS
 62
7
 10
-230.000000
 20
26.275000
 11
-235.000000
 21
26.275000
  0
LINE
  8
0
  6
CONTINUOUS
 62
7
 10
-230.000000
 20
25.518700
 11
-235.000000
 21
25.518700
  0
LINE
  8
0
  6
CONTINUOUS
 62
7
 10
-230.000000
 20
23.031300
 11
-235.000000
 21
23.031300
  0
LINE
  8
0
  6
CONTINUOUS
 62
7
 10
-230.000000
 20
21.518700
 11
-235.000000
 21
21.518700
  0
LINE
  8
0
  6
CONTINUOUS
 62
7
 10
-230.000000
 20
19.031300
 11
-235.000000
 21
19.031300
  0
LINE
  8
0
  6
CENTER
 62
2
 10
-182.000000
 20
22.275000
 11
-166.401001
 21
22.275000
  0
LINE
  8
0
  6
CONTINUOUS
 62
7
 10
-180.000000
 20
25.518700
 11
-175.000000
 21
25.518700
  0
LINE
  8
0
  6
CONTINUOUS
 62
2
 10
-175.000000
 20
24.775000
 11
-169.500000
 21
24.775000
  0
LINE
  8
0
  6
CONTINUOUS
 62
7
 10
-175.000000
 20
25.275000
 11
-169.500000
 21
25.275000
  0
LINE
  8
0
  6
CONTINUOUS
 62
7
 10
-169.500000
 20
19.275000
 11
-169.500000
 21
25.275000
  0
LINE
  8
0
  6
CONTINUOUS
 62
2
 10
-175.000000
 20
19.775000
 11
-169.500000
 21
19.775000
  0
LINE
  8
0
  6
CONTINUOUS
 62
7
 10
-175.000000
 20
19.275000
 11
-169.500000
 21
19.275000
  0
LINE
  8
0
  6
CONTINUOUS
 62
7
 10
-180.000000
 20
26.275000
 11
-175.000000
 21
26.275000
  0
LINE
  8
0
  6
CONTINUOUS
 62
7
 10
-175.000000
 20
18.275000
 11
-175.000000
 21
26.275000
  0
LINE
  8
0
  6
CONTINUOUS
 62
7
 10
-180.000000
 20
18.275000
 11
-175.000000
 21
18.275000
  0
LINE
  8
0
  6
CONTINUOUS
 62
7
 10
-180.000000
 20
19.031300
 11
-175.000000
 21
19.031300
  0
LINE
  8
0
  6
CONTINUOUS
 62
7
 10
-180.000000
 20
21.518700
 11
-175.000000
 21
21.518700
  0
LINE
  8
0
  6
CENTER
 62
2
 10
-221.389999
 20
196.774994
 11
-243.026001
 21
196.774994
  0
LINE
  8
0
  6
CONTINUOUS
 62
7
 10
-210.899994
 20
190.274994
 11
-184.100006
 21
190.274994
  0
LINE
  8
0
  6
CONTINUOUS
 62
7
 10
-222.000000
 20
202.274994
 11
-188.000000
 21
202.274994
  0
LINE
  8
0
  6
CONTINUOUS
 62
7
 10
-218.500000
 20
190.774994
 11
-210.899994
 21
190.774994
  0
LINE
  8
0
  6
CONTINUOUS
 62
7
 10
-243.000000
 20
195.274994
 11
-240.500000
 21
195.274994
  0
LINE
  8
0
  6
CONTINUOUS
 62
7
 10
-169.500000
 20
195.274994
 11
-167.000000
 21
195.274994
  0
LINE
  8
0
  6
CONTINUOUS
 62
7
 10
-176.500000
 20
190.774994
 11
-186.000000
 21
190.774994
  0
LINE
  8
0
  6
CONTINUOUS
 62
7
 10
-243.000000
 20
202.774994
 11
-234.347000
 21
202.774994
  0
LINE
  8
0
  6
CONTINUOUS
 62
7
 10
-243.000000
 20
212.274994
 11
-167.000000
 21
212.274994
  0
LINE
  8
0
  6
CONTINUOUS
 62
7
 10
-243.000000
 20
195.274994
 11
-243.000000
 21
212.274994
  0
LINE
  8
0
  6
CONTINUOUS
 62
7
 10
-167.000000
 20
195.274994
 11
-167.000000
 21
212.274994
  0
LINE
  8
0
  6
CONTINUOUS
 62
7
 10
-232.199997
 20
206.774994
 11
-230.000000
 21
206.774994
  0
LINE
  8
0
  6
CONTINUOUS
 62
7
 10
-177.800003
 20
206.774994
 11
-180.000000
 21
206.774994
  0
LINE
  8
0
  6
CONTINUOUS
 62
7
 10
-175.653000
 20
202.774994
 11
-167.000000
 21
202.774994
  0
LINE
  8
0
  6
CONTINUOUS
 62
7
 10
-180.000000
 20
190.774994
 11
-180.000000
 21
211.774994
  0
LINE
  8
0
  6
CONTINUOUS
 62
7
 10
-207.500000
 20
200.774994
 11
-207.500000
 21
190.774994
  0
LINE
  8
0
  6
CONTINUOUS
 62
7
 10
-187.500000
 20
200.774994
 11
-187.500000
 21
190.774994
  0
LINE
  8
0
  6
CONTINUOUS
 62
7
 10
-207.500000
 20
200.774994
 11
-187.500000
 21
200.774994
  0
LINE
  8
0
  6
CONTINUOUS
 62
7
 10
-207.500000
 20
190.774994
 11
-187.500000
 21
190.774994
  0
LINE
  8
0
  6
CONTINUOUS
 62
7
 10
-230.000000
 20
211.774994
 11
-180.000000
 21
211.774994
  0
LINE
  8
0
  6
CONTINUOUS
 62
7
 10
-235.000000
 20
199.774994
 11
-240.500000
 21
199.774994
  0
LINE
  8
0
  6
CONTINUOUS
 62
2
 10
-235.000000
 20
199.274994
 11
-240.500000
 21
199.274994
  0
LINE
  8
0
  6
CONTINUOUS
 62
2
 10
-235.000000
 20
194.274994
 11
-240.500000
 21
194.274994
  0
LINE
  8
0
  6
CONTINUOUS
 62
7
 10
-235.000000
 20
193.774994
 11
-240.500000
 21
193.774994
  0
LINE
  8
0
  6
CONTINUOUS
 62
7
 10
-240.500000
 20
199.774994
 11
-240.500000
 21
193.774994
  0
LINE
  8
0
  6
CONTINUOUS
 62
7
 10
-222.500000
 20
172.074997
 11
-222.500000
 21
168.475006
  0
LINE
  8
0
  6
CONTINUOUS
 62
7
 10
-222.500000
 20
195.274994
 11
-218.500000
 21
195.274994
  0
LINE
  8
0
  6
CONTINUOUS
 62
7
 10
-224.000000
 20
190.774994
 11
-224.000000
 21
200.274994
  0
LINE
  8
0
  6
CONTINUOUS
 62
7
 10
-186.000000
 20
190.774994
 11
-186.000000
 21
200.274994
  0
LINE
  8
0
  6
CONTINUOUS
 62
7
 10
-176.500000
 20
190.774994
 11
-176.500000
 21
192.524994
  0
LINE
  8
0
  6
CONTINUOUS
 62
7
 10
-218.500000
 20
190.774994
 11
-218.500000
 21
202.274994
  0
LINE
  8
0
  6
CONTINUOUS
 62
7
 10
-210.899994
 20
190.274994
 11
-210.899994
 21
202.274994
  0
LINE
  8
0
  6
CONTINUOUS
 62
7
 10
-184.100006
 20
190.274994
 11
-184.100006
 21
190.774994
  0
LINE
  8
0
  6
CONTINUOUS
 62
7
 10
-230.000000
 20
190.774994
 11
-230.000000
 21
211.774994
  0
LINE
  8
0
  6
CONTINUOUS
 62
7
 10
-230.000000
 20
190.774994
 11
-224.000000
 21
190.774994
  0
LINE
  8
0
  6
CONTINUOUS
 62
7
 10
-235.000000
 20
201.024994
 11
-230.000000
 21
201.024994
  0
LINE
  8
0
  6
CONTINUOUS
 62
7
 10
-235.000000
 20
201.024994
 11
-235.000000
 21
192.524994
  0
LINE
  8
0
  6
CONTINUOUS
 62
7
 10
-235.000000
 20
192.524994
 11
-230.000000
 21
192.524994
  0
LINE
  8
0
  6
CONTINUOUS
 62
7
 10
-235.000000
 20
194.029007
 11
-230.000000
 21
194.029007
  0
LINE
  8
0
  6
CONTINUOUS
 62
7
 10
-235.000000
 20
195.339005
 11
-230.000000
 21
195.339005
  0
LINE
  8
0
  6
CONTINUOUS
 62
7
 10
-235.000000
 20
198.210999
 11
-230.000000
 21
198.210999
  0
LINE
  8
0
  6
CONTINUOUS
 62
7
 10
-235.000000
 20
199.520996
 11
-230.000000
 21
199.520996
  0
LINE
  8
0
  6
CENTER
 62
2
 10
-188.610001
 20
196.774994
 11
-166.973999
 21
196.774994
  0
LINE
  8
0
  6
CONTINUOUS
 62
7
 10
-175.000000
 20
199.774994
 11
-169.500000
 21
199.774994
  0
LINE
  8
0
  6
CONTINUOUS
 62
2
 10
-175.000000
 20
199.274994
 11
-169.500000
 21
199.274994
  0
LINE
  8
0
  6
CONTINUOUS
 62
2
 10
-175.000000
 20
194.274994
 11
-169.500000
 21
194.274994
  0
LINE
  8
0
  6
CONTINUOUS
 62
7
 10
-175.000000
 20
193.774994
 11
-169.500000
 21
193.774994
  0
LINE
  8
0
  6
CONTINUOUS
 62
7
 10
-169.500000
 20
199.774994
 11
-169.500000
 21
193.774994
  0
LINE
  8
0
  6
CONTINUOUS
 62
7
 10
-175.000000
 20
201.024994
 11
-180.000000
 21
201.024994
  0
LINE
  8
0
  6
CONTINUOUS
 62
7
 10
-175.000000
 20
201.024994
 11
-175.000000
 21
192.524994
  0
LINE
  8
0
  6
CONTINUOUS
 62
7
 10
-175.000000
 20
192.524994
 11
-180.000000
 21
192.524994
  0
LINE
  8
0
  6
CONTINUOUS
 62
7
 10
-175.000000
 20
194.029007
 11
-180.000000
 21
194.029007
  0
LINE
  8
0
  6
CONTINUOUS
 62
7
 10
-175.000000
 20
195.339005
 11
-180.000000
 21
195.339005
  0
LINE
  8
0
  6
CONTINUOUS
 62
7
 10
-175.000000
 20
198.210999
 11
-180.000000
 21
198.210999
  0
LINE
  8
0
  6
CONTINUOUS
 62
7
 10
-175.000000
 20
199.520996
 11
-180.000000
 21
199.520996
  0
LINE
  8
0
  6
CONTINUOUS
 62
7
 10
-272.000000
 20
102.275002
 11
-257.000000
 21
102.275002
  0
LINE
  8
0
  6
CONTINUOUS
 62
7
 10
-272.000000
 20
98.275002
 11
-272.000000
 21
94.775002
  0
LINE
  8
0
  6
CONTINUOUS
 62
7
 10
-272.000000
 20
102.275002
 11
-272.000000
 21
101.275002
  0
LINE
  8
0
  6
CONTINUOUS
 62
7
 10
-280.500000
 20
107.275002
 11
-273.500000
 21
107.275002
  0
LINE
  8
0
  6
CONTINUOUS
 62
7
 10
-280.500000
 20
95.275002
 11
-272.000000
 21
95.275002
  0
LINE
  8
0
  6
CONTINUOUS
 62
7
 10
-273.200012
 20
106.974998
 11
-255.800003
 21
106.974998
  0
LINE
  8
0
  6
CONTINUOUS
 62
7
 10
-273.500000
 20
107.275002
 11
-273.200012
 21
106.974998
  0
LINE
  8
0
  6
CONTINUOUS
 62
7
 10
-257.000000
 20
98.275002
 11
-257.000000
 21
94.775002
  0
LINE
  8
0
  6
CONTINUOUS
 62
7
 10
-257.000000
 20
102.275002
 11
-257.000000
 21
101.275002
  0
LINE
  8
0
  6
CONTINUOUS
 62
7
 10
-248.500000
 20
107.275002
 11
-248.500000
 21
95.275002
  0
LINE
  8
0
  6
CONTINUOUS
 62
7
 10
-248.500000
 20
107.275002
 11
-255.500000
 21
107.275002
  0
LINE
  8
0
  6
CONTINUOUS
 62
7
 10
-248.500000
 20
95.275002
 11
-257.000000
 21
95.275002
  0
LINE
  8
0
  6
CONTINUOUS
 62
7
 10
-255.500000
 20
107.275002
 11
-255.800003
 21
106.974998
  0
LINE
  8
0
  6
CONTINUOUS
 62
7
 10
-280.500000
 20
107.275002
 11
-280.500000
 21
95.275002
  0
LINE
  8
0
  6
CONTINUOUS
 62
7
 10
-248.000000
 20
94.775002
 11
-257.000000
 21
94.775002
  0
LINE
  8
0
  6
CONTINUOUS
 62
7
 10
-248.000000
 20
85.275002
 11
-281.000000
 21
85.275002
  0
LINE
  8
0
  6
CONTINUOUS
 62
7
 10
-281.000000
 20
94.775002
 11
-272.000000
 21
94.775002
  0
LINE
  8
0
  6
CONTINUOUS
 62
7
 10
-248.000000
 20
94.775002
 11
-248.000000
 21
85.275002
  0
LINE
  8
0
  6
CONTINUOUS
 62
7
 10
-281.000000
 20
106.775002
 11
-281.000000
 21
85.275002
  0
LINE
  8
0
  6
CENTER
 62
2
 10
-264.500000
 20
109.275002
 11
-264.500000
 21
83.275002
  0
LINE
  8
0
  6
CENTER
 62
2
 10
-272.899994
 20
93.275002
 11
-256.100006
 21
93.275002
  0
LINE
  8
0
  6
CENTER
 62
2
 10
-274.500000
 20
94.275002
 11
-274.500000
 21
87.275002
  0
LINE
  8
0
  6
CENTER
 62
2
 10
-278.000000
 20
90.775002
 11
-271.000000
 21
90.775002
  0
LINE
  8
0
  6
CENTER
 62
2
 10
-276.500000
 20
87.275002
 11
-276.500000
 21
83.275002
  0
LINE
  8
0
  6
CENTER
 62
2
 10
-252.500000
 20
87.275002
 11
-252.500000
 21
83.275002
  0
LINE
  8
0
  6
CENTER
 62
2
 10
-252.000000
 20
109.275002
 11
-252.000000
 21
105.275002
  0
LINE
  8
0
  6
CENTER
 62
2
 10
-277.000000
 20
109.275002
 11
-277.000000
 21
105.275002
  0
LINE
  8
0
  6
CONTINUOUS
 62
7
 10
-291.000000
 20
106.775002
 11
-291.000000
 21
85.775002
  0
LINE
  8
0
  6
CONTINUOUS
 62
7
 10
-281.000000
 20
85.775002
 11
-291.000000
 21
85.775002
  0
LINE
  8
0
  6
CONTINUOUS
 62
7
 10
-280.500000
 20
106.775002
 11
-291.000000
 21
106.775002
  0
LINE
  8
0
  6
CENTER
 62
2
 10
-291.000000
 20
100.775002
 11
-281.000000
 21
100.775002
  0
LINE
  8
0
  6
CENTER
 62
2
 10
-286.000000
 20
105.775002
 11
-286.000000
 21
95.775002
  0
LINE
  8
0
  6
CONTINUOUS
 62
7
 10
-282.756012
 20
103.521004
 11
-285.243988
 21
104.957001
  0
LINE
  8
0
  6
CONTINUOUS
 62
7
 10
-286.000000
 20
102.507004
 11
-287.500000
 21
101.640999
  0
LINE
  8
0
  6
CONTINUOUS
 62
7
 10
-287.500000
 20
101.640999
 11
-287.500000
 21
99.908997
  0
LINE
  8
0
  6
CONTINUOUS
 62
7
 10
-286.000000
 20
99.042999
 11
-287.500000
 21
99.908997
  0
LINE
  8
0
  6
CONTINUOUS
 62
7
 10
-284.500000
 20
99.908997
 11
-286.000000
 21
99.042999
  0
LINE
  8
0
  6
CONTINUOUS
 62
7
 10
-284.500000
 20
101.640999
 11
-284.500000
 21
99.908997
  0
LINE
  8
0
  6
CONTINUOUS
 62
7
 10
-286.000000
 20
102.507004
 11
-284.500000
 21
101.640999
  0
LINE
  8
0
  6
CONTINUOUS
 62
7
 10
-286.756012
 20
104.957001
 11
-289.243988
 21
103.521004
  0
LINE
  8
0
  6
CONTINUOUS
 62
7
 10
-290.000000
 20
102.210999
 11
-290.000000
 21
99.338898
  0
LINE
  8
0
  6
CONTINUOUS
 62
7
 10
-289.243988
 20
98.028999
 11
-286.756012
 21
96.592796
  0
LINE
  8
0
  6
CONTINUOUS
 62
7
 10
-285.243988
 20
96.592796
 11
-282.756012
 21
98.028999
  0
LINE
  8
0
  6
CONTINUOUS
 62
7
 10
-282.000000
 20
99.338898
 11
-282.000000
 21
102.210999
  0
LINE
  8
0
  6
CONTINUOUS
 62
7
 10
-138.000000
 20
102.275002
 11
-153.000000
 21
102.275002
  0
LINE
  8
0
  6
CONTINUOUS
 62
7
 10
-138.000000
 20
98.275002
 11
-138.000000
 21
94.775002
  0
LINE
  8
0
  6
CONTINUOUS
 62
7
 10
-138.000000
 20
102.275002
 11
-138.000000
 21
101.275002
  0
LINE
  8
0
  6
CONTINUOUS
 62
7
 10
-129.500000
 20
107.275002
 11
-136.500000
 21
107.275002
  0
LINE
  8
0
  6
CONTINUOUS
 62
7
 10
-129.500000
 20
95.275002
 11
-138.000000
 21
95.275002
  0
LINE
  8
0
  6
CONTINUOUS
 62
7
 10
-136.800003
 20
106.974998
 11
-154.199997
 21
106.974998
  0
LINE
  8
0
  6
CONTINUOUS
 62
7
 10
-136.500000
 20
107.275002
 11
-136.800003
 21
106.974998
  0
LINE
  8
0
  6
CONTINUOUS
 62
7
 10
-153.000000
 20
98.275002
 11
-153.000000
 21
94.775002
  0
LINE
  8
0
  6
CONTINUOUS
 62
7
 10
-153.000000
 20
102.275002
 11
-153.000000
 21
101.275002
  0
LINE
  8
0
  6
CONTINUOUS
 62
7
 10
-161.500000
 20
107.275002
 11
-161.500000
 21
95.275002
  0
LINE
  8
0
  6
CONTINUOUS
 62
7
 10
-161.500000
 20
107.275002
 11
-154.500000
 21
107.275002
  0
LINE
  8
0
  6
CONTINUOUS
 62
7
 10
-161.500000
 20
95.275002
 11
-153.000000
 21
95.275002
  0
LINE
  8
0
  6
CONTINUOUS
 62
7
 10
-154.500000
 20
107.275002
 11
-154.199997
 21
106.974998
  0
LINE
  8
0
  6
CONTINUOUS
 62
7
 10
-129.500000
 20
107.275002
 11
-129.500000
 21
95.275002
  0
LINE
  8
0
  6
CONTINUOUS
 62
7
 10
-162.000000
 20
94.775002
 11
-153.000000
 21
94.775002
  0
LINE
  8
0
  6
CONTINUOUS
 62
7
 10
-162.000000
 20
85.275002
 11
-129.000000
 21
85.275002
  0
LINE
  8
0
  6
CONTINUOUS
 62
7
 10
-129.000000
 20
94.775002
 11
-138.000000
 21
94.775002
  0
LINE
  8
0
  6
CONTINUOUS
 62
7
 10
-162.000000
 20
94.775002
 11
-162.000000
 21
85.275002
  0
LINE
  8
0
  6
CONTINUOUS
 62
7
 10
-129.000000
 20
106.775002
 11
-129.000000
 21
85.275002
  0
LINE
  8
0
  6
CENTER
 62
2
 10
-145.500000
 20
109.275002
 11
-145.500000
 21
83.275002
  0
LINE
  8
0
  6
CENTER
 62
2
 10
-137.100006
 20
93.275002
 11
-153.899994
 21
93.275002
  0
LINE
  8
0
  6
CENTER
 62
2
 10
-135.500000
 20
94.275002
 11
-135.500000
 21
87.275002
  0
LINE
  8
0
  6
CENTER
 62
2
 10
-132.000000
 20
90.775002
 11
-139.000000
 21
90.775002
  0
LINE
  8
0
  6
CENTER
 62
2
 10
-133.500000
 20
87.275002
 11
-133.500000
 21
83.275002
  0
LINE
  8
0
  6
CENTER
 62
2
 10
-157.500000
 20
87.275002
 11
-157.500000
 21
83.275002
  0
LINE
  8
0
  6
CENTER
 62
2
 10
-158.000000
 20
109.275002
 11
-158.000000
 21
105.275002
  0
LINE
  8
0
  6
CENTER
 62
2
 10
-133.000000
 20
109.275002
 11
-133.000000
 21
105.275002
  0
LINE
  8
0
  6
CONTINUOUS
 62
7
 10
-119.000000
 20
106.775002
 11
-119.000000
 21
85.775002
  0
LINE
  8
0
  6
CONTINUOUS
 62
7
 10
-129.000000
 20
85.775002
 11
-119.000000
 21
85.775002
  0
LINE
  8
0
  6
CONTINUOUS
 62
7
 10
-129.500000
 20
106.775002
 11
-119.000000
 21
106.775002
  0
LINE
  8
0
  6
CENTER
 62
2
 10
-119.000000
 20
100.775002
 11
-129.000000
 21
100.775002
  0
LINE
  8
0
  6
CENTER
 62
2
 10
-124.000000
 20
105.775002
 11
-124.000000
 21
95.775002
  0
LINE
  8
0
  6
CONTINUOUS
 62
7
 10
-127.244003
 20
103.521004
 11
-124.755997
 21
104.957001
  0
LINE
  8
0
  6
CONTINUOUS
 62
7
 10
-124.000000
 20
102.507004
 11
-122.500000
 21
101.640999
  0
LINE
  8
0
  6
CONTINUOUS
 62
7
 10
-122.500000
 20
101.640999
 11
-122.500000
 21
99.908997
  0
LINE
  8
0
  6
CONTINUOUS
 62
7
 10
-124.000000
 20
99.042999
 11
-122.500000
 21
99.908997
  0
LINE
  8
0
  6
CONTINUOUS
 62
7
 10
-125.500000
 20
99.908997
 11
-124.000000
 21
99.042999
  0
LINE
  8
0
  6
CONTINUOUS
 62
7
 10
-125.500000
 20
101.640999
 11
-125.500000
 21
99.908997
  0
LINE
  8
0
  6
CONTINUOUS
 62
7
 10
-124.000000
 20
102.507004
 11
-125.500000
 21
101.640999
  0
LINE
  8
0
  6
CONTINUOUS
 62
7
 10
-123.244003
 20
104.957001
 11
-120.755997
 21
103.521004
  0
LINE
  8
0
  6
CONTINUOUS
 62
7
 10
-120.000000
 20
102.210999
 11
-120.000000
 21
99.338898
  0
LINE
  8
0
  6
CONTINUOUS
 62
7
 10
-120.755997
 20
98.028900
 11
-123.244003
 21
96.592796
  0
LINE
  8
0
  6
CONTINUOUS
 62
7
 10
-124.755997
 20
96.592796
 11
-127.244003
 21
98.028999
  0
LINE
  8
0
  6
CONTINUOUS
 62
7
 10
-128.000000
 20
99.338898
 11
-128.000000
 21
102.210999
  0
LINE
  8
0
  6
CONTINUOUS
 62
7
 10
158.000000
 20
106.775002
 11
168.000000
 21
106.775002
  0
LINE
  8
0
  6
CONTINUOUS
 62
7
 10
158.000000
 20
106.775002
 11
158.000000
 21
102.275002
  0
LINE
  8
0
  6
CONTINUOUS
 62
7
 10
168.000000
 20
106.775002
 11
168.000000
 21
102.275002
  0
LINE
  8
0
  6
CONTINUOUS
 62
7
 10
153.000000
 20
103.775002
 11
147.500000
 21
103.775002
  0
LINE
  8
0
  6
CONTINUOUS
 62
2
 10
153.000000
 20
103.275002
 11
147.500000
 21
103.275002
  0
LINE
  8
0
  6
CONTINUOUS
 62
7
 10
147.500000
 20
103.775002
 11
147.500000
 21
102.275002
  0
LINE
  8
0
  6
CONTINUOUS
 62
7
 10
153.000000
 20
105.025002
 11
158.000000
 21
105.025002
  0
LINE
  8
0
  6
CONTINUOUS
 62
7
 10
153.000000
 20
105.025002
 11
153.000000
 21
102.275002
  0
LINE
  8
0
  6
CONTINUOUS
 62
7
 10
153.000000
 20
103.521004
 11
158.000000
 21
103.521004
  0
LINE
  8
0
  6
CONTINUOUS
 62
2
 10
235.850006
 20
103.275002
 11
236.500000
 21
103.275002
  0
LINE
  8
0
  6
CONTINUOUS
 62
7
 10
235.850006
 20
103.775002
 11
236.500000
 21
103.775002
  0
LINE
  8
0
  6
CONTINUOUS
 62
7
 10
236.500000
 20
102.275002
 11
236.500000
 21
103.775002
  0
LINE
  8
0
  6
CENTER
 62
2
 10
170.610001
 20
170.274994
 11
143.901001
 21
170.274994
  0
LINE
  8
0
  6
CONTINUOUS
 62
7
 10
153.000000
 20
25.275000
 11
147.500000
 21
25.275000
  0
LINE
  8
0
  6
CONTINUOUS
 62
2
 10
153.000000
 20
24.775000
 11
147.500000
 21
24.775000
  0
LINE
  8
0
  6
CONTINUOUS
 62
7
 10
153.000000
 20
19.275000
 11
147.500000
 21
19.275000
  0
LINE
  8
0
  6
CONTINUOUS
 62
2
 10
153.000000
 20
19.775000
 11
147.500000
 21
19.775000
  0
LINE
  8
0
  6
CONTINUOUS
 62
7
 10
147.500000
 20
25.275000
 11
147.500000
 21
19.275000
  0
LINE
  8
0
  6
CONTINUOUS
 62
7
 10
158.000000
 20
27.275000
 11
226.000000
 21
27.275000
  0
LINE
  8
0
  6
CONTINUOUS
 62
7
 10
168.000000
 20
175.274994
 11
168.000000
 21
165.274994
  0
LINE
  8
0
  6
CONTINUOUS
 62
7
 10
214.500000
 20
174.774994
 11
214.500000
 21
164.774994
  0
LINE
  8
0
  6
CENTER
 62
2
 10
212.889999
 20
170.274994
 11
239.598999
 21
170.274994
  0
LINE
  8
0
  6
CONTINUOUS
 62
7
 10
231.000000
 20
25.275000
 11
236.500000
 21
25.275000
  0
LINE
  8
0
  6
CONTINUOUS
 62
2
 10
231.000000
 20
24.775000
 11
236.500000
 21
24.775000
  0
LINE
  8
0
  6
CONTINUOUS
 62
7
 10
231.000000
 20
19.275000
 11
236.500000
 21
19.275000
  0
LINE
  8
0
  6
CONTINUOUS
 62
2
 10
231.000000
 20
19.775000
 11
236.500000
 21
19.775000
  0
LINE
  8
0
  6
CONTINUOUS
 62
7
 10
236.500000
 20
25.275000
 11
236.500000
 21
19.275000
  0
LINE
  8
0
  6
CONTINUOUS
 62
7
 10
226.000000
 20
175.274994
 11
158.000000
 21
175.274994
  0
LINE
  8
0
  6
CONTINUOUS
 62
7
 10
216.000000
 20
175.274994
 11
216.000000
 21
165.274994
  0
LINE
  8
0
  6
CONTINUOUS
 62
7
 10
214.500000
 20
174.774994
 11
194.500000
 21
174.774994
  0
LINE
  8
0
  6
CONTINUOUS
 62
7
 10
194.500000
 20
174.774994
 11
194.500000
 21
164.774994
  0
LINE
  8
0
  6
CONTINUOUS
 62
7
 10
214.500000
 20
165.274994
 11
245.000000
 21
165.274994
  0
LINE
  8
0
  6
CONTINUOUS
 62
7
 10
168.000000
 20
175.274994
 11
168.000000
 21
165.274994
  0
LINE
  8
0
  6
CONTINUOUS
 62
7
 10
139.000000
 20
165.274994
 11
194.500000
 21
165.274994
  0
LINE
  8
0
  6
CONTINUOUS
 62
7
 10
158.000000
 20
175.274994
 11
158.000000
 21
165.274994
  0
LINE
  8
0
  6
CONTINUOUS
 62
7
 10
226.000000
 20
175.274994
 11
226.000000
 21
165.274994
  0
LINE
  8
0
  6
CONTINUOUS
 62
7
 10
158.000000
 20
18.275000
 11
153.000000
 21
18.275000
  0
LINE
  8
0
  6
CONTINUOUS
 62
7
 10
153.000000
 20
26.275000
 11
153.000000
 21
18.275000
  0
LINE
  8
0
  6
CONTINUOUS
 62
7
 10
158.000000
 20
26.275000
 11
153.000000
 21
26.275000
  0
LINE
  8
0
  6
CONTINUOUS
 62
7
 10
158.000000
 20
25.518700
 11
153.000000
 21
25.518700
  0
LINE
  8
0
  6
CONTINUOUS
 62
7
 10
158.000000
 20
23.031300
 11
153.000000
 21
23.031300
  0
LINE
  8
0
  6
CONTINUOUS
 62
7
 10
158.000000
 20
21.518700
 11
153.000000
 21
21.518700
  0
LINE
  8
0
  6
CONTINUOUS
 62
7
 10
158.000000
 20
19.031300
 11
153.000000
 21
19.031300
  0
LINE
  8
0
  6
CONTINUOUS
 62
7
 10
226.000000
 20
26.275000
 11
231.000000
 21
26.275000
  0
LINE
  8
0
  6
CONTINUOUS
 62
7
 10
231.000000
 20
18.275000
 11
231.000000
 21
26.275000
  0
LINE
  8
0
  6
CONTINUOUS
 62
7
 10
226.000000
 20
18.275000
 11
231.000000
 21
18.275000
  0
LINE
  8
0
  6
CONTINUOUS
 62
7
 10
226.000000
 20
19.031300
 11
231.000000
 21
19.031300
  0
LINE
  8
0
  6
CONTINUOUS
 62
7
 10
226.000000
 20
21.518700
 11
231.000000
 21
21.518700
  0
LINE
  8
0
  6
CONTINUOUS
 62
7
 10
226.000000
 20
23.031300
 11
231.000000
 21
23.031300
  0
LINE
  8
0
  6
CONTINUOUS
 62
7
 10
226.000000
 20
25.518700
 11
231.000000
 21
25.518700
  0
LINE
  8
0
  6
CONTINUOUS
 62
7
 10
158.000000
 20
17.275000
 11
158.000000
 21
27.275000
  0
LINE
  8
0
  6
CONTINUOUS
 62
7
 10
226.000000
 20
17.275000
 11
158.000000
 21
17.275000
  0
LINE
  8
0
  6
CONTINUOUS
 62
7
 10
226.000000
 20
17.275000
 11
226.000000
 21
27.275000
  0
LINE
  8
0
  6
CENTER
 62
2
 10
159.432007
 20
22.275000
 11
143.901001
 21
22.275000
  0
LINE
  8
0
  6
CENTER
 62
2
 10
223.610001
 20
22.275000
 11
239.598999
 21
22.275000
  0
LINE
  8
0
  6
CONTINUOUS
 62
7
 10
231.000000
 20
166.274994
 11
231.000000
 21
174.274994
  0
LINE
  8
0
  6
CONTINUOUS
 62
7
 10
226.000000
 20
166.274994
 11
231.000000
 21
166.274994
  0
LINE
  8
0
  6
CONTINUOUS
 62
7
 10
153.000000
 20
173.274994
 11
147.500000
 21
173.274994
  0
LINE
  8
0
  6
CONTINUOUS
 62
2
 10
153.000000
 20
172.774994
 11
147.500000
 21
172.774994
  0
LINE
  8
0
  6
CONTINUOUS
 62
7
 10
153.000000
 20
167.274994
 11
147.500000
 21
167.274994
  0
LINE
  8
0
  6
CONTINUOUS
 62
2
 10
153.000000
 20
167.774994
 11
147.500000
 21
167.774994
  0
LINE
  8
0
  6
CONTINUOUS
 62
7
 10
147.500000
 20
173.274994
 11
147.500000
 21
167.274994
  0
LINE
  8
0
  6
CONTINUOUS
 62
7
 10
158.000000
 20
175.274994
 11
226.000000
 21
175.274994
  0
LINE
  8
0
  6
CONTINUOUS
 62
7
 10
226.000000
 20
167.031006
 11
231.000000
 21
167.031006
  0
LINE
  8
0
  6
CONTINUOUS
 62
7
 10
226.000000
 20
174.274994
 11
231.000000
 21
174.274994
  0
LINE
  8
0
  6
CONTINUOUS
 62
7
 10
158.000000
 20
166.274994
 11
153.000000
 21
166.274994
  0
LINE
  8
0
  6
CONTINUOUS
 62
7
 10
153.000000
 20
174.274994
 11
153.000000
 21
166.274994
  0
LINE
  8
0
  6
CONTINUOUS
 62
7
 10
158.000000
 20
174.274994
 11
153.000000
 21
174.274994
  0
LINE
  8
0
  6
CONTINUOUS
 62
7
 10
158.000000
 20
173.518997
 11
153.000000
 21
173.518997
  0
LINE
  8
0
  6
CONTINUOUS
 62
7
 10
158.000000
 20
171.031006
 11
153.000000
 21
171.031006
  0
LINE
  8
0
  6
CONTINUOUS
 62
7
 10
158.000000
 20
169.518997
 11
153.000000
 21
169.518997
  0
LINE
  8
0
  6
CONTINUOUS
 62
7
 10
158.000000
 20
167.031006
 11
153.000000
 21
167.031006
  0
LINE
  8
0
  6
CONTINUOUS
 62
7
 10
226.000000
 20
173.518997
 11
231.000000
 21
173.518997
  0
LINE
  8
0
  6
CONTINUOUS
 62
7
 10
226.000000
 20
171.031006
 11
231.000000
 21
171.031006
  0
LINE
  8
0
  6
CONTINUOUS
 62
7
 10
231.000000
 20
173.274994
 11
236.500000
 21
173.274994
  0
LINE
  8
0
  6
CONTINUOUS
 62
2
 10
231.000000
 20
172.774994
 11
236.500000
 21
172.774994
  0
LINE
  8
0
  6
CONTINUOUS
 62
7
 10
231.000000
 20
167.274994
 11
236.500000
 21
167.274994
  0
LINE
  8
0
  6
CONTINUOUS
 62
2
 10
231.000000
 20
167.774994
 11
236.500000
 21
167.774994
  0
LINE
  8
0
  6
CONTINUOUS
 62
7
 10
236.500000
 20
173.274994
 11
236.500000
 21
167.274994
  0
LINE
  8
0
  6
CONTINUOUS
 62
7
 10
226.000000
 20
169.518997
 11
231.000000
 21
169.518997
  0
LINE
  8
0
  6
CENTER
 62
2
 10
170.610001
 20
196.774994
 11
144.973999
 21
196.774994
  0
LINE
  8
0
  6
CENTER
 62
2
 10
213.389999
 20
196.774994
 11
238.059998
 21
196.774994
  0
LINE
  8
0
  6
CONTINUOUS
 62
7
 10
180.750000
 20
190.274994
 11
228.250000
 21
190.274994
  0
LINE
  8
0
  6
CONTINUOUS
 62
7
 10
173.149994
 20
190.774994
 11
180.750000
 21
190.774994
  0
LINE
  8
0
  6
CONTINUOUS
 62
7
 10
139.000000
 20
195.274994
 11
147.500000
 21
195.274994
  0
LINE
  8
0
  6
CONTINUOUS
 62
7
 10
236.500000
 20
195.274994
 11
245.000000
 21
195.274994
  0
LINE
  8
0
  6
CONTINUOUS
 62
7
 10
235.850006
 20
190.774994
 11
235.850006
 21
193.774994
  0
LINE
  8
0
  6
CONTINUOUS
 62
7
 10
235.850006
 20
190.774994
 11
228.250000
 21
190.774994
  0
LINE
  8
0
  6
CONTINUOUS
 62
7
 10
139.000000
 20
202.774994
 11
147.653000
 21
202.774994
  0
LINE
  8
0
  6
CONTINUOUS
 62
7
 10
139.000000
 20
212.274994
 11
245.000000
 21
212.274994
  0
LINE
  8
0
  6
CONTINUOUS
 62
7
 10
139.000000
 20
195.274994
 11
139.000000
 21
212.274994
  0
LINE
  8
0
  6
CONTINUOUS
 62
7
 10
245.000000
 20
195.274994
 11
245.000000
 21
212.274994
  0
LINE
  8
0
  6
CONTINUOUS
 62
7
 10
149.800003
 20
206.774994
 11
158.000000
 21
206.774994
  0
LINE
  8
0
  6
CONTINUOUS
 62
7
 10
234.199997
 20
206.774994
 11
226.000000
 21
206.774994
  0
LINE
  8
0
  6
CONTINUOUS
 62
7
 10
236.347000
 20
202.774994
 11
245.000000
 21
202.774994
  0
LINE
  8
0
  6
CONTINUOUS
 62
7
 10
194.500000
 20
200.774994
 11
194.500000
 21
190.774994
  0
LINE
  8
0
  6
CONTINUOUS
 62
7
 10
214.500000
 20
200.774994
 11
214.500000
 21
190.774994
  0
LINE
  8
0
  6
CONTINUOUS
 62
7
 10
194.500000
 20
200.774994
 11
214.500000
 21
200.774994
  0
LINE
  8
0
  6
CONTINUOUS
 62
7
 10
194.500000
 20
190.774994
 11
214.500000
 21
190.774994
  0
LINE
  8
0
  6
CONTINUOUS
 62
7
 10
236.500000
 20
199.774994
 11
236.500000
 21
193.774994
  0
LINE
  8
0
  6
CONTINUOUS
 62
7
 10
231.000000
 20
199.774994
 11
236.500000
 21
199.774994
  0
LINE
  8
0
  6
CONTINUOUS
 62
2
 10
231.000000
 20
199.274994
 11
236.500000
 21
199.274994
  0
LINE
  8
0
  6
CONTINUOUS
 62
2
 10
231.000000
 20
194.274994
 11
236.500000
 21
194.274994
  0
LINE
  8
0
  6
CONTINUOUS
 62
7
 10
231.000000
 20
193.774994
 11
236.500000
 21
193.774994
  0
LINE
  8
0
  6
CONTINUOUS
 62
7
 10
158.000000
 20
211.774994
 11
226.000000
 21
211.774994
  0
LINE
  8
0
  6
CONTINUOUS
 62
7
 10
153.000000
 20
199.774994
 11
147.500000
 21
199.774994
  0
LINE
  8
0
  6
CONTINUOUS
 62
2
 10
153.000000
 20
199.274994
 11
147.500000
 21
199.274994
  0
LINE
  8
0
  6
CONTINUOUS
 62
2
 10
153.000000
 20
194.274994
 11
147.500000
 21
194.274994
  0
LINE
  8
0
  6
CONTINUOUS
 62
7
 10
153.000000
 20
193.774994
 11
147.500000
 21
193.774994
  0
LINE
  8
0
  6
CONTINUOUS
 62
7
 10
147.500000
 20
199.774994
 11
147.500000
 21
193.774994
  0
LINE
  8
0
  6
CONTINUOUS
 62
7
 10
169.500000
 20
195.274994
 11
173.149994
 21
195.274994
  0
LINE
  8
0
  6
CONTINUOUS
 62
7
 10
226.000000
 20
202.274994
 11
235.850006
 21
202.274994
  0
LINE
  8
0
  6
CONTINUOUS
 62
7
 10
235.850006
 20
199.774994
 11
235.850006
 21
202.274994
  0
LINE
  8
0
  6
CONTINUOUS
 62
7
 10
216.000000
 20
190.774994
 11
216.000000
 21
200.274994
  0
LINE
  8
0
  6
CONTINUOUS
 62
7
 10
173.149994
 20
190.774994
 11
173.149994
 21
202.274994
  0
LINE
  8
0
  6
CONTINUOUS
 62
7
 10
180.750000
 20
190.274994
 11
180.750000
 21
202.274994
  0
LINE
  8
0
  6
CONTINUOUS
 62
7
 10
228.250000
 20
190.274994
 11
228.250000
 21
192.524994
  0
LINE
  8
0
  6
CONTINUOUS
 62
7
 10
168.000000
 20
190.774994
 11
168.000000
 21
200.274994
  0
LINE
  8
0
  6
CONTINUOUS
 62
7
 10
158.000000
 20
190.774994
 11
158.000000
 21
211.774994
  0
LINE
  8
0
  6
CONTINUOUS
 62
7
 10
226.000000
 20
190.774994
 11
226.000000
 21
211.774994
  0
LINE
  8
0
  6
CONTINUOUS
 62
7
 10
226.000000
 20
190.774994
 11
216.000000
 21
190.774994
  0
LINE
  8
0
  6
CONTINUOUS
 62
7
 10
158.000000
 20
190.774994
 11
168.000000
 21
190.774994
  0
LINE
  8
0
  6
CONTINUOUS
 62
7
 10
231.000000
 20
192.524994
 11
226.000000
 21
192.524994
  0
LINE
  8
0
  6
CONTINUOUS
 62
7
 10
231.000000
 20
192.524994
 11
231.000000
 21
201.024994
  0
LINE
  8
0
  6
CONTINUOUS
 62
7
 10
231.000000
 20
201.024994
 11
226.000000
 21
201.024994
  0
LINE
  8
0
  6
CONTINUOUS
 62
7
 10
231.000000
 20
199.520996
 11
226.000000
 21
199.520996
  0
LINE
  8
0
  6
CONTINUOUS
 62
7
 10
231.000000
 20
198.210999
 11
226.000000
 21
198.210999
  0
LINE
  8
0
  6
CONTINUOUS
 62
7
 10
231.000000
 20
195.339005
 11
226.000000
 21
195.339005
  0
LINE
  8
0
  6
CONTINUOUS
 62
7
 10
231.000000
 20
194.029007
 11
226.000000
 21
194.029007
  0
LINE
  8
0
  6
CONTINUOUS
 62
7
 10
153.000000
 20
201.024994
 11
158.000000
 21
201.024994
  0
LINE
  8
0
  6
CONTINUOUS
 62
7
 10
153.000000
 20
201.024994
 11
153.000000
 21
192.524994
  0
LINE
  8
0
  6
CONTINUOUS
 62
7
 10
153.000000
 20
192.524994
 11
158.000000
 21
192.524994
  0
LINE
  8
0
  6
CONTINUOUS
 62
7
 10
153.000000
 20
194.029007
 11
158.000000
 21
194.029007
  0
LINE
  8
0
  6
CONTINUOUS
 62
7
 10
153.000000
 20
195.339005
 11
158.000000
 21
195.339005
  0
LINE
  8
0
  6
CONTINUOUS
 62
7
 10
153.000000
 20
198.210999
 11
158.000000
 21
198.210999
  0
LINE
  8
0
  6
CONTINUOUS
 62
7
 10
153.000000
 20
199.520996
 11
158.000000
 21
199.520996
  0
LINE
  8
0
  6
CONTINUOUS
 62
7
 10
170.000000
 20
202.274994
 11
214.000000
 21
202.274994
  0
LINE
  8
0
  6
CONTINUOUS
 62
7
 10
-282.000000
 20
-160.475006
 11
-267.000000
 21
-160.475006
  0
LINE
  8
0
  6
CONTINUOUS
 62
7
 10
-282.000000
 20
-164.475006
 11
-282.000000
 21
-167.975006
  0
LINE
  8
0
  6
CONTINUOUS
 62
7
 10
-282.000000
 20
-160.475006
 11
-282.000000
 21
-161.475006
  0
LINE
  8
0
  6
CONTINUOUS
 62
7
 10
-290.500000
 20
-155.475006
 11
-283.500000
 21
-155.475006
  0
LINE
  8
0
  6
CONTINUOUS
 62
7
 10
-290.500000
 20
-167.475006
 11
-282.000000
 21
-167.475006
  0
LINE
  8
0
  6
CONTINUOUS
 62
7
 10
-283.200012
 20
-155.774994
 11
-265.799988
 21
-155.774994
  0
LINE
  8
0
  6
CONTINUOUS
 62
7
 10
-283.500000
 20
-155.475006
 11
-283.200012
 21
-155.774994
  0
LINE
  8
0
  6
CONTINUOUS
 62
7
 10
-267.000000
 20
-164.475006
 11
-267.000000
 21
-167.975006
  0
LINE
  8
0
  6
CONTINUOUS
 62
7
 10
-267.000000
 20
-160.475006
 11
-267.000000
 21
-161.475006
  0
LINE
  8
0
  6
CONTINUOUS
 62
7
 10
-258.500000
 20
-155.475006
 11
-258.500000
 21
-167.475006
  0
LINE
  8
0
  6
CONTINUOUS
 62
7
 10
-258.500000
 20
-155.475006
 11
-265.500000
 21
-155.475006
  0
LINE
  8
0
  6
CONTINUOUS
 62
7
 10
-258.500000
 20
-167.475006
 11
-267.000000
 21
-167.475006
  0
LINE
  8
0
  6
CONTINUOUS
 62
7
 10
-265.500000
 20
-155.475006
 11
-265.799988
 21
-155.774994
  0
LINE
  8
0
  6
CONTINUOUS
 62
7
 10
-290.500000
 20
-155.475006
 11
-290.500000
 21
-167.475006
  0
LINE
  8
0
  6
CONTINUOUS
 62
7
 10
-258.000000
 20
-167.975006
 11
-267.000000
 21
-167.975006
  0
LINE
  8
0
  6
CONTINUOUS
 62
7
 10
-258.000000
 20
-177.475006
 11
-291.000000
 21
-177.475006
  0
LINE
  8
0
  6
CONTINUOUS
 62
7
 10
-291.000000
 20
-167.975006
 11
-282.000000
 21
-167.975006
  0
LINE
  8
0
  6
CONTINUOUS
 62
7
 10
-291.000000
 20
-167.975006
 11
-291.000000
 21
-177.475006
  0
LINE
  8
0
  6
CONTINUOUS
 62
7
 10
-258.000000
 20
-155.975006
 11
-258.000000
 21
-177.475006
  0
LINE
  8
0
  6
CENTER
 62
2
 10
-274.500000
 20
-153.475006
 11
-274.500000
 21
-179.475006
  0
LINE
  8
0
  6
CENTER
 62
2
 10
-282.899994
 20
-169.475006
 11
-266.100006
 21
-169.475006
  0
LINE
  8
0
  6
CENTER
 62
2
 10
-284.500000
 20
-168.475006
 11
-284.500000
 21
-175.475006
  0
LINE
  8
0
  6
CENTER
 62
2
 10
-288.000000
 20
-171.975006
 11
-281.000000
 21
-171.975006
  0
LINE
  8
0
  6
CENTER
 62
2
 10
-286.500000
 20
-175.475006
 11
-286.500000
 21
-179.475006
  0
LINE
  8
0
  6
CENTER
 62
2
 10
-262.500000
 20
-175.475006
 11
-262.500000
 21
-179.475006
  0
LINE
  8
0
  6
CENTER
 62
2
 10
-262.000000
 20
-153.475006
 11
-262.000000
 21
-157.475006
  0
LINE
  8
0
  6
CENTER
 62
2
 10
-287.000000
 20
-153.475006
 11
-287.000000
 21
-157.475006
  0
LINE
  8
0
  6
CONTINUOUS
 62
7
 10
-248.000000
 20
-155.975006
 11
-248.000000
 21
-176.975006
  0
LINE
  8
0
  6
CONTINUOUS
 62
7
 10
-258.000000
 20
-176.975006
 11
-248.000000
 21
-176.975006
  0
LINE
  8
0
  6
CONTINUOUS
 62
7
 10
-258.500000
 20
-155.975006
 11
-248.000000
 21
-155.975006
  0
LINE
  8
0
  6
CENTER
 62
2
 10
-248.000000
 20
-161.975006
 11
-258.000000
 21
-161.975006
  0
LINE
  8
0
  6
CENTER
 62
2
 10
-253.000000
 20
-156.975006
 11
-253.000000
 21
-166.975006
  0
LINE
  8
0
  6
CONTINUOUS
 62
7
 10
-256.243988
 20
-159.229004
 11
-253.755997
 21
-157.792999
  0
LINE
  8
0
  6
CONTINUOUS
 62
7
 10
-253.000000
 20
-160.242996
 11
-251.500000
 21
-161.108994
  0
LINE
  8
0
  6
CONTINUOUS
 62
7
 10
-251.500000
 20
-161.108994
 11
-251.500000
 21
-162.841003
  0
LINE
  8
0
  6
CONTINUOUS
 62
7
 10
-253.000000
 20
-163.707001
 11
-251.500000
 21
-162.841003
  0
LINE
  8
0
  6
CONTINUOUS
 62
7
 10
-254.500000
 20
-162.841003
 11
-253.000000
 21
-163.707001
  0
LINE
  8
0
  6
CONTINUOUS
 62
7
 10
-254.500000
 20
-161.108994
 11
-254.500000
 21
-162.841003
  0
LINE
  8
0
  6
CONTINUOUS
 62
7
 10
-253.000000
 20
-160.242996
 11
-254.500000
 21
-161.108994
  0
LINE
  8
0
  6
CONTINUOUS
 62
7
 10
-252.244003
 20
-157.792999
 11
-249.755997
 21
-159.229004
  0
LINE
  8
0
  6
CONTINUOUS
 62
7
 10
-249.000000
 20
-160.539001
 11
-249.000000
 21
-163.410995
  0
LINE
  8
0
  6
CONTINUOUS
 62
7
 10
-249.755997
 20
-164.720993
 11
-252.244003
 21
-166.156998
  0
LINE
  8
0
  6
CONTINUOUS
 62
7
 10
-253.755997
 20
-166.156998
 11
-256.243988
 21
-164.720993
  0
LINE
  8
0
  6
CONTINUOUS
 62
7
 10
-257.000000
 20
-163.410995
 11
-257.000000
 21
-160.539001
  0
LINE
  8
0
  6
CONTINUOUS
 62
7
 10
-128.000000
 20
-160.475006
 11
-143.000000
 21
-160.475006
  0
LINE
  8
0
  6
CONTINUOUS
 62
7
 10
-128.000000
 20
-164.475006
 11
-128.000000
 21
-167.975006
  0
LINE
  8
0
  6
CONTINUOUS
 62
7
 10
-128.000000
 20
-160.475006
 11
-128.000000
 21
-161.475006
  0
LINE
  8
0
  6
CONTINUOUS
 62
7
 10
-119.500000
 20
-155.475006
 11
-126.500000
 21
-155.475006
  0
LINE
  8
0
  6
CONTINUOUS
 62
7
 10
-119.500000
 20
-167.475006
 11
-128.000000
 21
-167.475006
  0
LINE
  8
0
  6
CONTINUOUS
 62
7
 10
-126.800003
 20
-155.774994
 11
-144.199997
 21
-155.774994
  0
LINE
  8
0
  6
CONTINUOUS
 62
7
 10
-126.500000
 20
-155.475006
 11
-126.800003
 21
-155.774994
  0
LINE
  8
0
  6
CONTINUOUS
 62
7
 10
-143.000000
 20
-164.475006
 11
-143.000000
 21
-167.975006
  0
LINE
  8
0
  6
CONTINUOUS
 62
7
 10
-143.000000
 20
-160.475006
 11
-143.000000
 21
-161.475006
  0
LINE
  8
0
  6
CONTINUOUS
 62
7
 10
-151.500000
 20
-155.475006
 11
-151.500000
 21
-167.475006
  0
LINE
  8
0
  6
CONTINUOUS
 62
7
 10
-151.500000
 20
-155.475006
 11
-144.500000
 21
-155.475006
  0
LINE
  8
0
  6
CONTINUOUS
 62
7
 10
-151.500000
 20
-167.475006
 11
-143.000000
 21
-167.475006
  0
LINE
  8
0
  6
CONTINUOUS
 62
7
 10
-144.500000
 20
-155.475006
 11
-144.199997
 21
-155.774994
  0
LINE
  8
0
  6
CONTINUOUS
 62
7
 10
-119.500000
 20
-155.475006
 11
-119.500000
 21
-167.475006
  0
LINE
  8
0
  6
CONTINUOUS
 62
7
 10
-152.000000
 20
-167.975006
 11
-143.000000
 21
-167.975006
  0
LINE
  8
0
  6
CONTINUOUS
 62
7
 10
-152.000000
 20
-177.475006
 11
-119.000000
 21
-177.475006
  0
LINE
  8
0
  6
CONTINUOUS
 62
7
 10
-119.000000
 20
-167.975006
 11
-128.000000
 21
-167.975006
  0
LINE
  8
0
  6
CONTINUOUS
 62
7
 10
-119.000000
 20
-167.975006
 11
-119.000000
 21
-177.475006
  0
LINE
  8
0
  6
CONTINUOUS
 62
7
 10
-152.000000
 20
-155.975006
 11
-152.000000
 21
-177.475006
  0
LINE
  8
0
  6
CENTER
 62
2
 10
-135.500000
 20
-153.475006
 11
-135.500000
 21
-179.475006
  0
LINE
  8
0
  6
CENTER
 62
2
 10
-127.099998
 20
-169.475006
 11
-143.899994
 21
-169.475006
  0
LINE
  8
0
  6
CENTER
 62
2
 10
-125.500000
 20
-168.475006
 11
-125.500000
 21
-175.475006
  0
LINE
  8
0
  6
CENTER
 62
2
 10
-122.000000
 20
-171.975006
 11
-129.000000
 21
-171.975006
  0
LINE
  8
0
  6
CENTER
 62
2
 10
-123.500000
 20
-175.475006
 11
-123.500000
 21
-179.475006
  0
LINE
  8
0
  6
CENTER
 62
2
 10
-147.500000
 20
-175.475006
 11
-147.500000
 21
-179.475006
  0
LINE
  8
0
  6
CENTER
 62
2
 10
-148.000000
 20
-153.475006
 11
-148.000000
 21
-157.475006
  0
LINE
  8
0
  6
CENTER
 62
2
 10
-123.000000
 20
-153.475006
 11
-123.000000
 21
-157.475006
  0
LINE
  8
0
  6
CONTINUOUS
 62
7
 10
-162.000000
 20
-155.975006
 11
-162.000000
 21
-176.975006
  0
LINE
  8
0
  6
CONTINUOUS
 62
7
 10
-152.000000
 20
-176.975006
 11
-162.000000
 21
-176.975006
  0
LINE
  8
0
  6
CONTINUOUS
 62
7
 10
-151.500000
 20
-155.975006
 11
-162.000000
 21
-155.975006
  0
LINE
  8
0
  6
CENTER
 62
2
 10
-162.000000
 20
-161.975006
 11
-152.000000
 21
-161.975006
  0
LINE
  8
0
  6
CENTER
 62
2
 10
-157.000000
 20
-156.975006
 11
-157.000000
 21
-166.975006
  0
LINE
  8
0
  6
CONTINUOUS
 62
7
 10
-153.755997
 20
-159.229004
 11
-156.244003
 21
-157.792999
  0
LINE
  8
0
  6
CONTINUOUS
 62
7
 10
-157.000000
 20
-160.242996
 11
-158.500000
 21
-161.108994
  0
LINE
  8
0
  6
CONTINUOUS
 62
7
 10
-158.500000
 20
-161.108994
 11
-158.500000
 21
-162.841003
  0
LINE
  8
0
  6
CONTINUOUS
 62
7
 10
-157.000000
 20
-163.707001
 11
-158.500000
 21
-162.841003
  0
LINE
  8
0
  6
CONTINUOUS
 62
7
 10
-155.500000
 20
-162.841003
 11
-157.000000
 21
-163.707001
  0
LINE
  8
0
  6
CONTINUOUS
 62
7
 10
-155.500000
 20
-161.108994
 11
-155.500000
 21
-162.841003
  0
LINE
  8
0
  6
CONTINUOUS
 62
7
 10
-157.000000
 20
-160.242996
 11
-155.500000
 21
-161.108994
  0
LINE
  8
0
  6
CONTINUOUS
 62
7
 10
-157.755997
 20
-157.792999
 11
-160.244003
 21
-159.229004
  0
LINE
  8
0
  6
CONTINUOUS
 62
7
 10
-161.000000
 20
-160.539001
 11
-161.000000
 21
-163.410995
  0
LINE
  8
0
  6
CONTINUOUS
 62
7
 10
-160.244003
 20
-164.720993
 11
-157.755997
 21
-166.156998
  0
LINE
  8
0
  6
CONTINUOUS
 62
7
 10
-156.244003
 20
-166.156998
 11
-153.755997
 21
-164.720993
  0
LINE
  8
0
  6
CONTINUOUS
 62
7
 10
-153.000000
 20
-163.410995
 11
-153.000000
 21
-160.539001
  0
LINE
  8
0
  6
CONTINUOUS
 62
7
 10
-222.500000
 20
172.074997
 11
-224.000000
 21
172.074997
  0
LINE
  8
0
  6
CONTINUOUS
 62
7
 10
-222.500000
 20
168.475006
 11
-224.000000
 21
168.475006
  0
LINE
  8
0
  6
CONTINUOUS
 62
7
 10
-187.500000
 20
168.475006
 11
-186.000000
 21
168.475006
  0
LINE
  8
0
  6
CONTINUOUS
 62
7
 10
-187.500000
 20
172.074997
 11
-186.000000
 21
172.074997
  0
LINE
  8
0
  6
CONTINUOUS
 62
7
 10
-222.500000
 20
198.574997
 11
-224.000000
 21
198.574997
  0
LINE
  8
0
  6
CONTINUOUS
 62
7
 10
-222.500000
 20
198.574997
 11
-222.500000
 21
194.975006
  0
LINE
  8
0
  6
CONTINUOUS
 62
7
 10
-222.500000
 20
194.975006
 11
-224.000000
 21
194.975006
  0
LINE
  8
0
  6
CONTINUOUS
 62
7
 10
-187.500000
 20
198.574997
 11
-186.000000
 21
198.574997
  0
LINE
  8
0
  6
CONTINUOUS
 62
7
 10
-187.500000
 20
194.975006
 11
-186.000000
 21
194.975006
  0
LINE
  8
0
  6
CONTINUOUS
 62
7
 10
-222.500000
 20
102.574997
 11
-222.500000
 21
102.275002
  0
LINE
  8
0
  6
CONTINUOUS
 62
7
 10
-222.500000
 20
102.574997
 11
-224.000000
 21
102.574997
  0
LINE
  8
0
  6
CONTINUOUS
 62
7
 10
169.500000
 20
172.074997
 11
169.500000
 21
168.475006
  0
LINE
  8
0
  6
CONTINUOUS
 62
7
 10
169.500000
 20
172.074997
 11
168.000000
 21
172.074997
  0
LINE
  8
0
  6
CONTINUOUS
 62
7
 10
169.500000
 20
168.475006
 11
168.000000
 21
168.475006
  0
LINE
  8
0
  6
CONTINUOUS
 62
7
 10
214.500000
 20
172.074997
 11
216.000000
 21
172.074997
  0
LINE
  8
0
  6
CONTINUOUS
 62
7
 10
214.500000
 20
168.475006
 11
216.000000
 21
168.475006
  0
LINE
  8
0
  6
CONTINUOUS
 62
7
 10
169.500000
 20
198.574997
 11
169.500000
 21
194.975006
  0
LINE
  8
0
  6
CONTINUOUS
 62
7
 10
169.500000
 20
198.574997
 11
168.000000
 21
198.574997
  0
LINE
  8
0
  6
CONTINUOUS
 62
7
 10
169.500000
 20
194.975006
 11
168.000000
 21
194.975006
  0
LINE
  8
0
  6
CONTINUOUS
 62
7
 10
214.500000
 20
198.574997
 11
216.000000
 21
198.574997
  0
LINE
  8
0
  6
CONTINUOUS
 62
7
 10
214.500000
 20
194.975006
 11
216.000000
 21
194.975006
  0
LINE
  8
0
  6
CONTINUOUS
 62
7
 10
169.500000
 20
102.574997
 11
169.500000
 21
102.275002
  0
LINE
  8
0
  6
CONTINUOUS
 62
7
 10
169.500000
 20
102.574997
 11
168.000000
 21
102.574997
  0
LINE
  8
0
  6
CONTINUOUS
 62
7
 10
-222.500000
 20
-160.175003
 11
-222.500000
 21
-163.774994
  0
LINE
  8
0
  6
CONTINUOUS
 62
7
 10
-222.500000
 20
-160.175003
 11
-224.000000
 21
-160.175003
  0
LINE
  8
0
  6
CONTINUOUS
 62
7
 10
-222.500000
 20
-163.774994
 11
-224.000000
 21
-163.774994
  0
LINE
  8
0
  6
CONTINUOUS
 62
7
 10
-187.500000
 20
-160.175003
 11
-186.000000
 21
-160.175003
  0
LINE
  8
0
  6
CONTINUOUS
 62
7
 10
-187.500000
 20
-163.774994
 11
-186.000000
 21
-163.774994
  0
LINE
  8
0
  6
CONTINUOUS
 62
7
 10
-222.500000
 20
-133.675003
 11
-224.000000
 21
-133.675003
  0
LINE
  8
0
  6
CONTINUOUS
 62
7
 10
-222.500000
 20
-133.675003
 11
-222.500000
 21
-137.274994
  0
LINE
  8
0
  6
CONTINUOUS
 62
7
 10
-222.500000
 20
-137.274994
 11
-224.000000
 21
-137.274994
  0
LINE
  8
0
  6
CONTINUOUS
 62
7
 10
-187.500000
 20
-133.675003
 11
-186.000000
 21
-133.675003
  0
LINE
  8
0
  6
CONTINUOUS
 62
7
 10
-187.500000
 20
-137.274994
 11
-186.000000
 21
-137.274994
  0
LINE
  8
0
  6
CONTINUOUS
 62
7
 10
-222.500000
 20
-67.474998
 11
-222.500000
 21
-67.775002
  0
LINE
  8
0
  6
CONTINUOUS
 62
7
 10
-222.500000
 20
-67.775002
 11
-224.000000
 21
-67.775002
  0
LINE
  8
0
  6
CONTINUOUS
 62
7
 10
169.500000
 20
-160.175003
 11
169.500000
 21
-163.774994
  0
LINE
  8
0
  6
CONTINUOUS
 62
7
 10
169.500000
 20
-160.175003
 11
168.000000
 21
-160.175003
  0
LINE
  8
0
  6
CONTINUOUS
 62
7
 10
169.500000
 20
-163.774994
 11
168.000000
 21
-163.774994
  0
LINE
  8
0
  6
CONTINUOUS
 62
7
 10
214.500000
 20
-160.175003
 11
216.000000
 21
-160.175003
  0
LINE
  8
0
  6
CONTINUOUS
 62
7
 10
214.500000
 20
-163.774994
 11
216.000000
 21
-163.774994
  0
LINE
  8
0
  6
CONTINUOUS
 62
7
 10
169.500000
 20
-133.675003
 11
168.000000
 21
-133.675003
  0
LINE
  8
0
  6
CONTINUOUS
 62
7
 10
169.500000
 20
-133.675003
 11
169.500000
 21
-137.274994
  0
LINE
  8
0
  6
CONTINUOUS
 62
7
 10
169.500000
 20
-137.274994
 11
168.000000
 21
-137.274994
  0
LINE
  8
0
  6
CONTINUOUS
 62
7
 10
214.500000
 20
-133.675003
 11
216.000000
 21
-133.675003
  0
LINE
  8
0
  6
CONTINUOUS
 62
7
 10
214.500000
 20
-137.274994
 11
216.000000
 21
-137.274994
  0
LINE
  8
0
  6
CONTINUOUS
 62
7
 10
169.500000
 20
-67.474998
 11
169.500000
 21
-67.775002
  0
LINE
  8
0
  6
CONTINUOUS
 62
7
 10
169.500000
 20
-67.775002
 11
168.000000
 21
-67.775002
  0
LINE
  8
0
  6
CENTER
 62
2
 10
-237.000000
 20
95.275002
 11
-237.000000
 21
86.275002
  0
LINE
  8
0
  6
CENTER
 62
2
 10
-241.500000
 20
90.775002
 11
-232.500000
 21
90.775002
  0
LINE
  8
0
  6
CENTER
 62
2
 10
-173.000000
 20
95.275002
 11
-173.000000
 21
86.275002
  0
LINE
  8
0
  6
CENTER
 62
2
 10
-177.500000
 20
90.775002
 11
-168.500000
 21
90.775002
  0
LINE
  8
0
  6
CENTER
 62
2
 10
145.000000
 20
95.275002
 11
145.000000
 21
86.275002
  0
LINE
  8
0
  6
CENTER
 62
2
 10
140.500000
 20
90.775002
 11
149.500000
 21
90.775002
  0
LINE
  8
0
  6
CENTER
 62
2
 10
239.000000
 20
95.275002
 11
239.000000
 21
86.275002
  0
LINE
  8
0
  6
CENTER
 62
2
 10
234.500000
 20
90.775002
 11
243.500000
 21
90.775002
  0
LINE
  8
0
  6
CENTER
 62
2
 10
-237.000000
 20
-167.475006
 11
-237.000000
 21
-176.475006
  0
LINE
  8
0
  6
CENTER
 62
2
 10
-241.500000
 20
-171.975006
 11
-232.500000
 21
-171.975006
  0
LINE
  8
0
  6
CENTER
 62
2
 10
-173.000000
 20
-167.475006
 11
-173.000000
 21
-176.475006
  0
LINE
  8
0
  6
CENTER
 62
2
 10
-177.500000
 20
-171.975006
 11
-168.500000
 21
-171.975006
  0
LINE
  8
0
  6
CENTER
 62
2
 10
145.000000
 20
-167.475006
 11
145.000000
 21
-176.475006
  0
LINE
  8
0
  6
CENTER
 62
2
 10
140.500000
 20
-171.975006
 11
149.500000
 21
-171.975006
  0
LINE
  8
0
  6
CENTER
 62
2
 10
239.000000
 20
-167.475006
 11
239.000000
 21
-176.475006
  0
LINE
  8
0
  6
CENTER
 62
2
 10
234.500000
 20
-171.975006
 11
243.500000
 21
-171.975006
  0
LINE
  8
0
  6
CENTER
 62
2
 10
-207.500000
 20
109.275002
 11
-207.500000
 21
105.275002
  0
LINE
  8
0
  6
CENTER
 62
2
 10
-187.500000
 20
109.275002
 11
-187.500000
 21
105.275002
  0
LINE
  8
0
  6
CENTER
 62
2
 10
184.500000
 20
109.275002
 11
184.500000
 21
105.275002
  0
LINE
  8
0
  6
CENTER
 62
2
 10
204.500000
 20
109.275002
 11
204.500000
 21
105.275002
  0
LINE
  8
0
  6
CENTER
 62
2
 10
224.500000
 20
109.275002
 11
224.500000
 21
105.275002
  0
LINE
  8
0
  6
CENTER
 62
2
 10
-207.500000
 20
-74.474998
 11
-207.500000
 21
-70.474998
  0
LINE
  8
0
  6
CENTER
 62
2
 10
-187.500000
 20
-74.474998
 11
-187.500000
 21
-70.474998
  0
LINE
  8
0
  6
CENTER
 62
2
 10
184.500000
 20
-74.474998
 11
184.500000
 21
-70.474998
  0
LINE
  8
0
  6
CENTER
 62
2
 10
204.500000
 20
-74.474998
 11
204.500000
 21
-70.474998
  0
LINE
  8
0
  6
CENTER
 62
2
 10
224.500000
 20
-74.474998
 11
224.500000
 21
-70.474998
  0
LINE
  8
0
  6
CONTINUOUS
 62
7
 10
0.274994
 20
276.250000
 11
0.274994
 21
-276.750000
  0
LINE
  8
0
  6
CONTINUOUS
 62
7
 10
-399.250000
 20
-0.250000
 11
399.799988
 21
-0.250000
  0
CIRCLE
  8
0
  6
CONTINUOUS
 62
2
 10
-220.000000
 20
-55.974998
 40
1.500000
  0
CIRCLE
  8
0
  6
CONTINUOUS
 62
7
 10
-220.000000
 20
-55.974998
 40
1.250000
  0
CIRCLE
  8
0
  6
CONTINUOUS
 62
7
 10
-190.000000
 20
-55.974998
 40
1.250000
  0
CIRCLE
  8
0
  6
CONTINUOUS
 62
2
 10
-190.000000
 20
-55.974998
 40
1.500000
  0
CIRCLE
  8
0
  6
CONTINUOUS
 62
2
 10
-187.500000
 20
-126.474998
 40
1.500000
  0
CIRCLE
  8
0
  6
CONTINUOUS
 62
7
 10
-187.500000
 20
-126.474998
 40
1.200000
  0
CIRCLE
  8
0
  6
CONTINUOUS
 62
2
 10
-187.500000
 20
-101.474998
 40
1.500000
  0
CIRCLE
  8
0
  6
CONTINUOUS
 62
7
 10
-187.500000
 20
-101.474998
 40
1.200000
  0
CIRCLE
  8
0
  6
CONTINUOUS
 62
7
 10
-228.000000
 20
-125.974998
 40
4.000000
  0
CIRCLE
  8
0
  6
CONTINUOUS
 62
2
 10
-228.000000
 20
-125.974998
 40
2.500000
  0
CIRCLE
  8
0
  6
CONTINUOUS
 62
7
 10
-228.000000
 20
-125.974998
 40
2.100000
  0
CIRCLE
  8
0
  6
CONTINUOUS
 62
7
 10
-228.000000
 20
-101.974998
 40
4.000000
  0
CIRCLE
  8
0
  6
CONTINUOUS
 62
2
 10
-228.000000
 20
-101.974998
 40
2.500000
  0
CIRCLE
  8
0
  6
CONTINUOUS
 62
7
 10
-228.000000
 20
-101.974998
 40
2.100000
  0
ARC
  8
0
  6
CONTINUOUS
 62
7
 10
-220.000000
 20
-55.974998
 40
3.000000
 50
180.000000
 51
0.000000
  0
ARC
  8
0
  6
CONTINUOUS
 62
7
 10
-190.000000
 20
-55.974998
 40
3.000000
 50
180.000000
 51
0.000000
  0
CIRCLE
  8
0
  6
CONTINUOUS
 62
2
 10
-228.000000
 20
-230.975006
 40
2.500000
  0
CIRCLE
  8
0
  6
CONTINUOUS
 62
7
 10
-228.000000
 20
-230.975006
 40
2.100000
  0
CIRCLE
  8
0
  6
CONTINUOUS
 62
2
 10
-228.000000
 20
-206.975006
 40
2.500000
  0
CIRCLE
  8
0
  6
CONTINUOUS
 62
7
 10
-228.000000
 20
-206.975006
 40
2.100000
  0
CIRCLE
  8
0
  6
CONTINUOUS
 62
7
 10
-182.000000
 20
-206.975006
 40
2.100000
  0
CIRCLE
  8
0
  6
CONTINUOUS
 62
2
 10
-182.000000
 20
-230.975006
 40
2.500000
  0
CIRCLE
  8
0
  6
CONTINUOUS
 62
7
 10
-182.000000
 20
-230.975006
 40
2.100000
  0
CIRCLE
  8
0
  6
CONTINUOUS
 62
2
 10
-182.000000
 20
-206.975006
 40
2.500000
  0
CIRCLE
  8
0
  6
CONTINUOUS
 62
7
 10
-175.000000
 20
-214.475006
 40
5.900000
  0
ARC
  8
0
  6
CONTINUOUS
 62
7
 10
-237.000000
 20
-55.974998
 40
4.800000
 50
303.557007
 51
0.000000
  0
ARC
  8
0
  6
CONTINUOUS
 62
7
 10
-173.000000
 20
-55.974998
 40
4.800000
 50
180.000000
 51
236.442993
  0
CIRCLE
  8
0
  6
CONTINUOUS
 62
7
 10
-235.000000
 20
-214.475006
 40
5.900000
  0
ARC
  8
0
  6
DASHED
 62
2
 10
-182.000000
 20
-101.974998
 40
2.500000
 50
216.869995
 51
143.130005
  0
CIRCLE
  8
0
  6
DASHED
 62
2
 10
-182.000000
 20
-101.974998
 40
2.100000
  0
CIRCLE
  8
0
  6
DASHED
 62
2
 10
-182.000000
 20
-101.974998
 40
4.000000
  0
CIRCLE
  8
0
  6
DASHED
 62
2
 10
-182.000000
 20
-125.974998
 40
4.000000
  0
CIRCLE
  8
0
  6
DASHED
 62
2
 10
-182.000000
 20
-125.974998
 40
2.500000
  0
CIRCLE
  8
0
  6
DASHED
 62
2
 10
-182.000000
 20
-125.974998
 40
2.100000
  0
CIRCLE
  8
0
  6
CONTINUOUS
 62
2
 10
-202.500000
 20
-67.974998
 40
1.000000
  0
CIRCLE
  8
0
  6
CONTINUOUS
 62
2
 10
-192.500000
 20
-67.974998
 40
1.000000
  0
CIRCLE
  8
0
  6
CONTINUOUS
 62
7
 10
-192.500000
 20
-67.974998
 40
0.800000
  0
CIRCLE
  8
0
  6
CONTINUOUS
 62
7
 10
-202.500000
 20
-67.974998
 40
0.800000
  0
CIRCLE
  8
0
  6
CONTINUOUS
 62
7
 10
-207.500000
 20
-126.474998
 40
1.200000
  0
CIRCLE
  8
0
  6
CONTINUOUS
 62
2
 10
-207.500000
 20
-126.474998
 40
1.500000
  0
CIRCLE
  8
0
  6
CONTINUOUS
 62
7
 10
-207.500000
 20
-101.474998
 40
1.200000
  0
CIRCLE
  8
0
  6
CONTINUOUS
 62
2
 10
-207.500000
 20
-101.474998
 40
1.500000
  0
CIRCLE
  8
0
  6
CONTINUOUS
 62
2
 10
162.000000
 20
-55.974998
 40
1.500000
  0
CIRCLE
  8
0
  6
CONTINUOUS
 62
7
 10
162.000000
 20
-55.974998
 40
1.250000
  0
CIRCLE
  8
0
  6
CONTINUOUS
 62
7
 10
222.000000
 20
-55.974998
 40
1.250000
  0
CIRCLE
  8
0
  6
CONTINUOUS
 62
2
 10
222.000000
 20
-55.974998
 40
1.500000
  0
CIRCLE
  8
0
  6
CONTINUOUS
 62
2
 10
204.500000
 20
-126.474998
 40
1.500000
  0
CIRCLE
  8
0
  6
CONTINUOUS
 62
7
 10
204.500000
 20
-126.474998
 40
1.200000
  0
CIRCLE
  8
0
  6
CONTINUOUS
 62
2
 10
204.500000
 20
-101.474998
 40
1.500000
  0
CIRCLE
  8
0
  6
CONTINUOUS
 62
7
 10
204.500000
 20
-101.474998
 40
1.200000
  0
CIRCLE
  8
0
  6
CONTINUOUS
 62
2
 10
224.500000
 20
-126.474998
 40
1.500000
  0
CIRCLE
  8
0
  6
CONTINUOUS
 62
7
 10
224.500000
 20
-126.474998
 40
1.200000
  0
CIRCLE
  8
0
  6
CONTINUOUS
 62
2
 10
224.500000
 20
-101.474998
 40
1.500000
  0
CIRCLE
  8
0
  6
CONTINUOUS
 62
7
 10
224.500000
 20
-101.474998
 40
1.200000
  0
CIRCLE
  8
0
  6
CONTINUOUS
 62
7
 10
154.000000
 20
-125.974998
 40
4.000000
  0
CIRCLE
  8
0
  6
CONTINUOUS
 62
2
 10
154.000000
 20
-125.974998
 40
2.500000
  0
CIRCLE
  8
0
  6
CONTINUOUS
 62
7
 10
154.000000
 20
-125.974998
 40
2.100000
  0
CIRCLE
  8
0
  6
CONTINUOUS
 62
7
 10
154.000000
 20
-101.974998
 40
4.000000
  0
CIRCLE
  8
0
  6
CONTINUOUS
 62
2
 10
154.000000
 20
-101.974998
 40
2.500000
  0
CIRCLE
  8
0
  6
CONTINUOUS
 62
7
 10
154.000000
 20
-101.974998
 40
2.100000
  0
ARC
  8
0
  6
CONTINUOUS
 62
7
 10
162.000000
 20
-55.974998
 40
3.000000
 50
180.000000
 51
0.000000
  0
ARC
  8
0
  6
CONTINUOUS
 62
7
 10
222.000000
 20
-55.974998
 40
3.000000
 50
180.000000
 51
0.000000
  0
CIRCLE
  8
0
  6
CONTINUOUS
 62
2
 10
154.000000
 20
-230.975006
 40
2.500000
  0
CIRCLE
  8
0
  6
CONTINUOUS
 62
7
 10
154.000000
 20
-230.975006
 40
2.100000
  0
CIRCLE
  8
0
  6
CONTINUOUS
 62
2
 10
154.000000
 20
-206.975006
 40
2.500000
  0
CIRCLE
  8
0
  6
CONTINUOUS
 62
7
 10
154.000000
 20
-206.975006
 40
2.100000
  0
CIRCLE
  8
0
  6
CONTINUOUS
 62
7
 10
230.000000
 20
-206.975006
 40
2.100000
  0
CIRCLE
  8
0
  6
CONTINUOUS
 62
2
 10
230.000000
 20
-230.975006
 40
2.500000
  0
CIRCLE
  8
0
  6
CONTINUOUS
 62
7
 10
230.000000
 20
-230.975006
 40
2.100000
  0
CIRCLE
  8
0
  6
CONTINUOUS
 62
2
 10
230.000000
 20
-206.975006
 40
2.500000
  0
CIRCLE
  8
0
  6
CONTINUOUS
 62
7
 10
237.000000
 20
-214.475006
 40
5.900000
  0
ARC
  8
0
  6
CONTINUOUS
 62
7
 10
145.000000
 20
-55.974998
 40
4.800000
 50
303.557007
 51
0.000000
  0
ARC
  8
0
  6
CONTINUOUS
 62
7
 10
239.000000
 20
-55.974998
 40
4.800000
 50
180.000000
 51
236.442993
  0
CIRCLE
  8
0
  6
CONTINUOUS
 62
7
 10
147.000000
 20
-214.475006
 40
5.900000
  0
CIRCLE
  8
0
  6
DASHED
 62
2
 10
230.000000
 20
-101.974998
 40
2.500000
  0
CIRCLE
  8
0
  6
DASHED
 62
2
 10
230.000000
 20
-101.974998
 40
2.100000
  0
CIRCLE
  8
0
  6
DASHED
 62
2
 10
230.000000
 20
-101.974998
 40
4.000000
  0
CIRCLE
  8
0
  6
DASHED
 62
2
 10
230.000000
 20
-125.974998
 40
4.000000
  0
CIRCLE
  8
0
  6
DASHED
 62
2
 10
230.000000
 20
-125.974998
 40
2.500000
  0
CIRCLE
  8
0
  6
DASHED
 62
2
 10
230.000000
 20
-125.974998
 40
2.100000
  0
CIRCLE
  8
0
  6
CONTINUOUS
 62
2
 10
199.500000
 20
-67.974998
 40
1.000000
  0
CIRCLE
  8
0
  6
CONTINUOUS
 62
2
 10
209.500000
 20
-67.974998
 40
1.000000
  0
CIRCLE
  8
0
  6
CONTINUOUS
 62
7
 10
209.500000
 20
-67.974998
 40
0.800000
  0
CIRCLE
  8
0
  6
CONTINUOUS
 62
7
 10
199.500000
 20
-67.974998
 40
0.800000
  0
CIRCLE
  8
0
  6
CONTINUOUS
 62
7
 10
184.500000
 20
-126.474998
 40
1.200000
  0
CIRCLE
  8
0
  6
CONTINUOUS
 62
2
 10
184.500000
 20
-126.474998
 40
1.500000
  0
CIRCLE
  8
0
  6
CONTINUOUS
 62
7
 10
184.500000
 20
-101.474998
 40
1.200000
  0
CIRCLE
  8
0
  6
CONTINUOUS
 62
2
 10
184.500000
 20
-101.474998
 40
1.500000
  0
ARC
  8
0
  6
CONTINUOUS
 62
7
 10
-173.000000
 20
-171.975006
 40
4.800000
 50
123.556999
 51
180.000000
  0
ARC
  8
0
  6
CONTINUOUS
 62
7
 10
-237.000000
 20
-171.975006
 40
4.800000
 50
0.000000
 51
56.442600
  0
ARC
  8
0
  6
CONTINUOUS
 62
7
 10
-188.000000
 20
-165.475006
 40
2.000000
 50
270.000000
 51
0.000000
  0
ARC
  8
0
  6
CONTINUOUS
 62
7
 10
-222.000000
 20
-165.475006
 40
2.000000
 50
180.000000
 51
270.000000
  0
ARC
  8
0
  6
CONTINUOUS
 62
7
 10
129.000000
 20
-161.975006
 40
4.250010
 50
319.750000
 51
340.250000
  0
ARC
  8
0
  6
CONTINUOUS
 62
7
 10
129.000000
 20
-161.975006
 40
4.250000
 50
19.749901
 51
40.250599
  0
CIRCLE
  8
0
  6
CONTINUOUS
 62
7
 10
107.500000
 20
-169.475006
 40
6.400000
  0
ARC
  8
0
  6
CONTINUOUS
 62
7
 10
115.800003
 20
-162.975006
 40
1.700010
 50
118.071999
 51
241.925995
  0
ARC
  8
0
  6
CONTINUOUS
 62
7
 10
99.199997
 20
-162.975006
 40
1.699990
 50
298.071014
 51
61.925098
  0
CIRCLE
  8
0
  6
CONTINUOUS
 62
2
 10
97.500000
 20
-171.975006
 40
1.500000
  0
CIRCLE
  8
0
  6
CONTINUOUS
 62
7
 10
97.500000
 20
-171.975006
 40
1.250000
  0
ARC
  8
0
  6
CONTINUOUS
 62
7
 10
129.000000
 20
-161.975006
 40
4.250000
 50
199.750000
 51
220.251007
  0
ARC
  8
0
  6
CONTINUOUS
 62
7
 10
129.000000
 20
-161.975006
 40
4.250000
 50
259.750000
 51
280.251007
  0
CIRCLE
  8
0
  6
CONTINUOUS
 62
7
 10
129.000000
 20
-161.975006
 40
3.000000
  0
ARC
  8
0
  6
CONTINUOUS
 62
7
 10
129.000000
 20
-161.975006
 40
4.250000
 50
139.750000
 51
160.251007
  0
ARC
  8
0
  6
CONTINUOUS
 62
7
 10
129.000000
 20
-161.975006
 40
4.250000
 50
79.750099
 51
100.250999
  0
ARC
  8
0
  6
CONTINUOUS
 62
7
 10
255.000000
 20
-161.975006
 40
4.249990
 50
79.749397
 51
100.250000
  0
ARC
  8
0
  6
CONTINUOUS
 62
7
 10
255.000000
 20
-161.975006
 40
4.250000
 50
139.748993
 51
160.250000
  0
ARC
  8
0
  6
CONTINUOUS
 62
7
 10
255.000000
 20
-161.975006
 40
4.250000
 50
199.748993
 51
220.250000
  0
CIRCLE
  8
0
  6
CONTINUOUS
 62
7
 10
276.500000
 20
-169.475006
 40
6.400000
  0
ARC
  8
0
  6
CONTINUOUS
 62
7
 10
268.200012
 20
-162.975006
 40
1.700010
 50
298.074005
 51
61.928101
  0
ARC
  8
0
  6
CONTINUOUS
 62
7
 10
284.799988
 20
-162.975006
 40
1.699980
 50
118.074997
 51
241.929001
  0
CIRCLE
  8
0
  6
CONTINUOUS
 62
2
 10
286.500000
 20
-171.975006
 40
1.500000
  0
CIRCLE
  8
0
  6
CONTINUOUS
 62
7
 10
286.500000
 20
-171.975006
 40
1.250000
  0
ARC
  8
0
  6
CONTINUOUS
 62
7
 10
255.000000
 20
-161.975006
 40
4.250000
 50
319.748993
 51
340.250000
  0
ARC
  8
0
  6
CONTINUOUS
 62
7
 10
255.000000
 20
-161.975006
 40
4.249990
 50
259.748993
 51
280.250000
  0
CIRCLE
  8
0
  6
CONTINUOUS
 62
7
 10
255.000000
 20
-161.975006
 40
3.000000
  0
ARC
  8
0
  6
CONTINUOUS
 62
7
 10
255.000000
 20
-161.975006
 40
4.249990
 50
19.749599
 51
40.250000
  0
ARC
  8
0
  6
CONTINUOUS
 62
7
 10
239.000000
 20
-171.975006
 40
4.800000
 50
123.556999
 51
180.000000
  0
ARC
  8
0
  6
CONTINUOUS
 62
7
 10
145.000000
 20
-171.975006
 40
4.800000
 50
0.000000
 51
56.442600
  0
ARC
  8
0
  6
CONTINUOUS
 62
7
 10
214.000000
 20
-165.475006
 40
2.000000
 50
270.000000
 51
0.000000
  0
ARC
  8
0
  6
CONTINUOUS
 62
7
 10
170.000000
 20
-165.475006
 40
2.000000
 50
180.000000
 51
270.000000
  0
ARC
  8
0
  6
CONTINUOUS
 62
7
 10
170.000000
 20
200.274994
 40
2.000000
 50
90.000000
 51
180.000000
  0
CIRCLE
  8
0
  6
CONTINUOUS
 62
7
 10
117.500000
 20
93.275002
 40
6.400000
  0
ARC
  8
0
  6
CONTINUOUS
 62
7
 10
125.800003
 20
99.775002
 40
1.700010
 50
118.071999
 51
241.925995
  0
ARC
  8
0
  6
CONTINUOUS
 62
7
 10
109.199997
 20
99.775002
 40
1.699990
 50
298.071014
 51
61.925201
  0
CIRCLE
  8
0
  6
CONTINUOUS
 62
2
 10
107.500000
 20
90.775002
 40
1.500000
  0
CIRCLE
  8
0
  6
CONTINUOUS
 62
7
 10
107.500000
 20
90.775002
 40
1.250000
  0
CIRCLE
  8
0
  6
CONTINUOUS
 62
2
 10
-220.000000
 20
90.775002
 40
1.500000
  0
CIRCLE
  8
0
  6
CONTINUOUS
 62
7
 10
-220.000000
 20
90.775002
 40
1.250000
  0
CIRCLE
  8
0
  6
CONTINUOUS
 62
7
 10
-190.000000
 20
90.775002
 40
1.250000
  0
CIRCLE
  8
0
  6
CONTINUOUS
 62
2
 10
-190.000000
 20
90.775002
 40
1.500000
  0
CIRCLE
  8
0
  6
CONTINUOUS
 62
2
 10
-187.500000
 20
161.274994
 40
1.500000
  0
CIRCLE
  8
0
  6
CONTINUOUS
 62
7
 10
-187.500000
 20
161.274994
 40
1.200000
  0
CIRCLE
  8
0
  6
CONTINUOUS
 62
2
 10
-187.500000
 20
136.274994
 40
1.500000
  0
CIRCLE
  8
0
  6
CONTINUOUS
 62
7
 10
-187.500000
 20
136.274994
 40
1.200000
  0
CIRCLE
  8
0
  6
CONTINUOUS
 62
7
 10
-228.000000
 20
160.774994
 40
4.000000
  0
CIRCLE
  8
0
  6
CONTINUOUS
 62
2
 10
-228.000000
 20
160.774994
 40
2.500000
  0
CIRCLE
  8
0
  6
CONTINUOUS
 62
7
 10
-228.000000
 20
160.774994
 40
2.100000
  0
CIRCLE
  8
0
  6
CONTINUOUS
 62
7
 10
-228.000000
 20
136.774994
 40
4.000000
  0
CIRCLE
  8
0
  6
CONTINUOUS
 62
2
 10
-228.000000
 20
136.774994
 40
2.500000
  0
CIRCLE
  8
0
  6
CONTINUOUS
 62
7
 10
-228.000000
 20
136.774994
 40
2.100000
  0
ARC
  8
0
  6
CONTINUOUS
 62
7
 10
-220.000000
 20
90.775002
 40
3.000000
 50
0.000000
 51
180.000000
  0
ARC
  8
0
  6
CONTINUOUS
 62
7
 10
-190.000000
 20
90.775002
 40
3.000000
 50
0.000000
 51
180.000000
  0
CIRCLE
  8
0
  6
CONTINUOUS
 62
2
 10
-228.000000
 20
31.775000
 40
2.500000
  0
CIRCLE
  8
0
  6
CONTINUOUS
 62
7
 10
-228.000000
 20
31.775000
 40
2.100000
  0
CIRCLE
  8
0
  6
CONTINUOUS
 62
2
 10
-228.000000
 20
55.775002
 40
2.500000
  0
CIRCLE
  8
0
  6
CONTINUOUS
 62
7
 10
-228.000000
 20
55.775002
 40
2.100000
  0
CIRCLE
  8
0
  6
CONTINUOUS
 62
7
 10
-182.000000
 20
55.775002
 40
2.100000
  0
CIRCLE
  8
0
  6
CONTINUOUS
 62
2
 10
-182.000000
 20
31.775000
 40
2.500000
  0
CIRCLE
  8
0
  6
CONTINUOUS
 62
7
 10
-182.000000
 20
31.775000
 40
2.100000
  0
CIRCLE
  8
0
  6
CONTINUOUS
 62
2
 10
-182.000000
 20
55.775002
 40
2.500000
  0
CIRCLE
  8
0
  6
CONTINUOUS
 62
7
 10
-175.000000
 20
48.275002
 40
5.900000
  0
ARC
  8
0
  6
CONTINUOUS
 62
7
 10
-237.000000
 20
90.775002
 40
4.800000
 50
0.000000
 51
56.442600
  0
ARC
  8
0
  6
CONTINUOUS
 62
7
 10
-173.000000
 20
90.775002
 40
4.800000
 50
123.556999
 51
180.000000
  0
CIRCLE
  8
0
  6
CONTINUOUS
 62
7
 10
-235.000000
 20
48.275002
 40
5.900000
  0
ARC
  8
0
  6
DASHED
 62
2
 10
-182.000000
 20
136.774994
 40
2.500000
 50
216.869995
 51
143.130005
  0
CIRCLE
  8
0
  6
DASHED
 62
2
 10
-182.000000
 20
136.774994
 40
2.100000
  0
CIRCLE
  8
0
  6
DASHED
 62
2
 10
-182.000000
 20
136.774994
 40
4.000000
  0
CIRCLE
  8
0
  6
DASHED
 62
2
 10
-182.000000
 20
160.774994
 40
4.000000
  0
CIRCLE
  8
0
  6
DASHED
 62
2
 10
-182.000000
 20
160.774994
 40
2.500000
  0
CIRCLE
  8
0
  6
DASHED
 62
2
 10
-182.000000
 20
160.774994
 40
2.100000
  0
CIRCLE
  8
0
  6
CONTINUOUS
 62
2
 10
-202.500000
 20
102.775002
 40
1.000000
  0
CIRCLE
  8
0
  6
CONTINUOUS
 62
2
 10
-192.500000
 20
102.775002
 40
1.000000
  0
CIRCLE
  8
0
  6
CONTINUOUS
 62
7
 10
-192.500000
 20
102.775002
 40
0.800000
  0
CIRCLE
  8
0
  6
CONTINUOUS
 62
7
 10
-202.500000
 20
102.775002
 40
0.800000
  0
CIRCLE
  8
0
  6
CONTINUOUS
 62
7
 10
-207.500000
 20
161.274994
 40
1.200000
  0
CIRCLE
  8
0
  6
CONTINUOUS
 62
2
 10
-207.500000
 20
161.274994
 40
1.500000
  0
CIRCLE
  8
0
  6
CONTINUOUS
 62
7
 10
-207.500000
 20
136.274994
 40
1.200000
  0
CIRCLE
  8
0
  6
CONTINUOUS
 62
2
 10
-207.500000
 20
136.274994
 40
1.500000
  0
CIRCLE
  8
0
  6
CONTINUOUS
 62
2
 10
162.000000
 20
90.775002
 40
1.500000
  0
CIRCLE
  8
0
  6
CONTINUOUS
 62
7
 10
162.000000
 20
90.775002
 40
1.250000
  0
CIRCLE
  8
0
  6
CONTINUOUS
 62
7
 10
222.000000
 20
90.775002
 40
1.250000
  0
CIRCLE
  8
0
  6
CONTINUOUS
 62
2
 10
222.000000
 20
90.775002
 40
1.500000
  0
CIRCLE
  8
0
  6
CONTINUOUS
 62
2
 10
204.500000
 20
161.274994
 40
1.500000
  0
CIRCLE
  8
0
  6
CONTINUOUS
 62
7
 10
204.500000
 20
161.274994
 40
1.200000
  0
CIRCLE
  8
0
  6
CONTINUOUS
 62
2
 10
204.500000
 20
136.274994
 40
1.500000
  0
CIRCLE
  8
0
  6
CONTINUOUS
 62
7
 10
204.500000
 20
136.274994
 40
1.200000
  0
CIRCLE
  8
0
  6
CONTINUOUS
 62
2
 10
224.500000
 20
161.274994
 40
1.500000
  0
CIRCLE
  8
0
  6
CONTINUOUS
 62
7
 10
224.500000
 20
161.274994
 40
1.200000
  0
CIRCLE
  8
0
  6
CONTINUOUS
 62
2
 10
224.500000
 20
136.274994
 40
1.500000
  0
CIRCLE
  8
0
  6
CONTINUOUS
 62
7
 10
224.500000
 20
136.274994
 40
1.200000
  0
CIRCLE
  8
0
  6
CONTINUOUS
 62
7
 10
154.000000
 20
160.774994
 40
4.000000
  0
CIRCLE
  8
0
  6
CONTINUOUS
 62
2
 10
154.000000
 20
160.774994
 40
2.500000
  0
CIRCLE
  8
0
  6
CONTINUOUS
 62
7
 10
154.000000
 20
160.774994
 40
2.100000
  0
CIRCLE
  8
0
  6
CONTINUOUS
 62
7
 10
154.000000
 20
136.774994
 40
4.000000
  0
CIRCLE
  8
0
  6
CONTINUOUS
 62
2
 10
154.000000
 20
136.774994
 40
2.500000
  0
CIRCLE
  8
0
  6
CONTINUOUS
 62
7
 10
154.000000
 20
136.774994
 40
2.100000
  0
ARC
  8
0
  6
CONTINUOUS
 62
7
 10
162.000000
 20
90.775002
 40
3.000000
 50
0.000000
 51
180.000000
  0
ARC
  8
0
  6
CONTINUOUS
 62
7
 10
222.000000
 20
90.775002
 40
3.000000
 50
0.000000
 51
180.000000
  0
CIRCLE
  8
0
  6
CONTINUOUS
 62
2
 10
154.000000
 20
31.775000
 40
2.500000
  0
CIRCLE
  8
0
  6
CONTINUOUS
 62
7
 10
154.000000
 20
31.775000
 40
2.100000
  0
CIRCLE
  8
0
  6
CONTINUOUS
 62
2
 10
154.000000
 20
55.775002
 40
2.500000
  0
CIRCLE
  8
0
  6
CONTINUOUS
 62
7
 10
154.000000
 20
55.775002
 40
2.100000
  0
CIRCLE
  8
0
  6
CONTINUOUS
 62
7
 10
230.000000
 20
55.775002
 40
2.100000
  0
CIRCLE
  8
0
  6
CONTINUOUS
 62
2
 10
230.000000
 20
31.775000
 40
2.500000
  0
CIRCLE
  8
0
  6
CONTINUOUS
 62
7
 10
230.000000
 20
31.775000
 40
2.100000
  0
CIRCLE
  8
0
  6
CONTINUOUS
 62
2
 10
230.000000
 20
55.775002
 40
2.500000
  0
CIRCLE
  8
0
  6
CONTINUOUS
 62
7
 10
237.000000
 20
48.275002
 40
5.900000
  0
ARC
  8
0
  6
CONTINUOUS
 62
7
 10
145.000000
 20
90.775002
 40
4.800000
 50
0.000000
 51
56.442600
  0
ARC
  8
0
  6
CONTINUOUS
 62
7
 10
239.000000
 20
90.775002
 40
4.800000
 50
123.556999
 51
180.000000
  0
CIRCLE
  8
0
  6
CONTINUOUS
 62
7
 10
147.000000
 20
48.275002
 40
5.900000
  0
CIRCLE
  8
0
  6
DASHED
 62
2
 10
230.000000
 20
136.774994
 40
2.500000
  0
CIRCLE
  8
0
  6
DASHED
 62
2
 10
230.000000
 20
136.774994
 40
2.100000
  0
CIRCLE
  8
0
  6
DASHED
 62
2
 10
230.000000
 20
136.774994
 40
4.000000
  0
CIRCLE
  8
0
  6
DASHED
 62
2
 10
230.000000
 20
160.774994
 40
4.000000
  0
CIRCLE
  8
0
  6
DASHED
 62
2
 10
230.000000
 20
160.774994
 40
2.500000
  0
CIRCLE
  8
0
  6
DASHED
 62
2
 10
230.000000
 20
160.774994
 40
2.100000
  0
CIRCLE
  8
0
  6
CONTINUOUS
 62
2
 10
199.500000
 20
102.775002
 40
1.000000
  0
CIRCLE
  8
0
  6
CONTINUOUS
 62
2
 10
209.500000
 20
102.775002
 40
1.000000
  0
CIRCLE
  8
0
  6
CONTINUOUS
 62
7
 10
209.500000
 20
102.775002
 40
0.800000
  0
CIRCLE
  8
0
  6
CONTINUOUS
 62
7
 10
199.500000
 20
102.775002
 40
0.800000
  0
CIRCLE
  8
0
  6
CONTINUOUS
 62
7
 10
184.500000
 20
161.274994
 40
1.200000
  0
CIRCLE
  8
0
  6
CONTINUOUS
 62
2
 10
184.500000
 20
161.274994
 40
1.500000
  0
CIRCLE
  8
0
  6
CONTINUOUS
 62
7
 10
184.500000
 20
136.274994
 40
1.200000
  0
CIRCLE
  8
0
  6
CONTINUOUS
 62
2
 10
184.500000
 20
136.274994
 40
1.500000
  0
ARC
  8
0
  6
CONTINUOUS
 62
7
 10
96.000000
 20
100.775002
 40
4.250000
 50
319.748993
 51
340.250000
  0
ARC
  8
0
  6
CONTINUOUS
 62
7
 10
96.000000
 20
100.775002
 40
4.250000
 50
259.748993
 51
280.250000
  0
CIRCLE
  8
0
  6
CONTINUOUS
 62
7
 10
96.000000
 20
100.775002
 40
3.000000
  0
ARC
  8
0
  6
CONTINUOUS
 62
7
 10
96.000000
 20
100.775002
 40
4.250000
 50
19.749500
 51
40.250000
  0
ARC
  8
0
  6
CONTINUOUS
 62
7
 10
96.000000
 20
100.775002
 40
4.250000
 50
79.749397
 51
100.250000
  0
ARC
  8
0
  6
CONTINUOUS
 62
7
 10
96.000000
 20
100.775002
 40
4.250000
 50
139.750000
 51
160.250000
  0
ARC
  8
0
  6
CONTINUOUS
 62
7
 10
96.000000
 20
100.775002
 40
4.250000
 50
199.748993
 51
220.250000
  0
ARC
  8
0
  6
CONTINUOUS
 62
7
 10
288.000000
 20
100.775002
 40
4.250000
 50
79.750099
 51
100.250000
  0
ARC
  8
0
  6
CONTINUOUS
 62
7
 10
288.000000
 20
100.775002
 40
4.250000
 50
19.750000
 51
40.250500
  0
ARC
  8
0
  6
CONTINUOUS
 62
7
 10
288.000000
 20
100.775002
 40
4.250000
 50
319.750000
 51
340.250000
  0
CIRCLE
  8
0
  6
CONTINUOUS
 62
7
 10
266.500000
 20
93.275002
 40
6.400000
  0
ARC
  8
0
  6
CONTINUOUS
 62
7
 10
258.200012
 20
99.775002
 40
1.700020
 50
298.074005
 51
61.928101
  0
ARC
  8
0
  6
CONTINUOUS
 62
7
 10
274.799988
 20
99.775002
 40
1.699990
 50
118.074997
 51
241.929001
  0
CIRCLE
  8
0
  6
CONTINUOUS
 62
2
 10
276.500000
 20
90.775002
 40
1.500000
  0
CIRCLE
  8
0
  6
CONTINUOUS
 62
7
 10
276.500000
 20
90.775002
 40
1.250000
  0
ARC
  8
0
  6
CONTINUOUS
 62
7
 10
288.000000
 20
100.775002
 40
4.250000
 50
199.750000
 51
220.250000
  0
ARC
  8
0
  6
CONTINUOUS
 62
7
 10
288.000000
 20
100.775002
 40
4.250000
 50
259.750000
 51
280.250000
  0
CIRCLE
  8
0
  6
CONTINUOUS
 62
7
 10
288.000000
 20
100.775002
 40
3.000000
  0
ARC
  8
0
  6
CONTINUOUS
 62
7
 10
288.000000
 20
100.775002
 40
4.250000
 50
139.750000
 51
160.250000
  0
ARC
  8
0
  6
CONTINUOUS
 62
7
 10
-173.000000
 20
206.774994
 40
4.800000
 50
180.000000
 51
236.442993
  0
ARC
  8
0
  6
CONTINUOUS
 62
7
 10
-237.000000
 20
206.774994
 40
4.800000
 50
303.557007
 51
0.000000
  0
ARC
  8
0
  6
CONTINUOUS
 62
7
 10
-188.000000
 20
200.274994
 40
2.000000
 50
0.000000
 51
90.000000
  0
ARC
  8
0
  6
CONTINUOUS
 62
7
 10
-222.000000
 20
200.274994
 40
2.000000
 50
90.000000
 51
180.000000
  0
ARC
  8
0
  6
CONTINUOUS
 62
7
 10
-286.000000
 20
100.775002
 40
4.249990
 50
199.750000
 51
220.250000
  0
ARC
  8
0
  6
CONTINUOUS
 62
7
 10
-286.000000
 20
100.775002
 40
4.250000
 50
139.750000
 51
160.250000
  0
CIRCLE
  8
0
  6
CONTINUOUS
 62
7
 10
-264.500000
 20
93.275002
 40
6.400000
  0
ARC
  8
0
  6
CONTINUOUS
 62
7
 10
-256.200012
 20
99.775002
 40
1.700010
 50
118.071999
 51
241.925995
  0
ARC
  8
0
  6
CONTINUOUS
 62
7
 10
-272.799988
 20
99.775002
 40
1.699990
 50
298.071014
 51
61.925499
  0
CIRCLE
  8
0
  6
CONTINUOUS
 62
2
 10
-274.500000
 20
90.775002
 40
1.500000
  0
CIRCLE
  8
0
  6
CONTINUOUS
 62
7
 10
-274.500000
 20
90.775002
 40
1.250000
  0
ARC
  8
0
  6
CONTINUOUS
 62
7
 10
-286.000000
 20
100.775002
 40
4.250000
 50
319.748993
 51
340.250000
  0
ARC
  8
0
  6
CONTINUOUS
 62
7
 10
-286.000000
 20
100.775002
 40
4.250000
 50
259.750000
 51
280.250000
  0
CIRCLE
  8
0
  6
CONTINUOUS
 62
7
 10
-286.000000
 20
100.775002
 40
3.000000
  0
ARC
  8
0
  6
CONTINUOUS
 62
7
 10
-286.000000
 20
100.775002
 40
4.249990
 50
19.749599
 51
40.249901
  0
ARC
  8
0
  6
CONTINUOUS
 62
7
 10
-286.000000
 20
100.775002
 40
4.250000
 50
79.749603
 51
100.250000
  0
ARC
  8
0
  6
CONTINUOUS
 62
7
 10
-124.000000
 20
100.775002
 40
4.250000
 50
79.750099
 51
100.250999
  0
ARC
  8
0
  6
CONTINUOUS
 62
7
 10
-124.000000
 20
100.775002
 40
4.250000
 50
19.750000
 51
40.250500
  0
ARC
  8
0
  6
CONTINUOUS
 62
7
 10
-124.000000
 20
100.775002
 40
4.250000
 50
319.750000
 51
340.250000
  0
CIRCLE
  8
0
  6
CONTINUOUS
 62
7
 10
-145.500000
 20
93.275002
 40
6.400000
  0
ARC
  8
0
  6
CONTINUOUS
 62
7
 10
-153.800003
 20
99.775002
 40
1.700010
 50
298.074005
 51
61.928101
  0
ARC
  8
0
  6
CONTINUOUS
 62
7
 10
-137.199997
 20
99.775002
 40
1.700000
 50
118.074997
 51
241.929001
  0
CIRCLE
  8
0
  6
CONTINUOUS
 62
2
 10
-135.500000
 20
90.775002
 40
1.500000
  0
CIRCLE
  8
0
  6
CONTINUOUS
 62
7
 10
-135.500000
 20
90.775002
 40
1.250000
  0
ARC
  8
0
  6
CONTINUOUS
 62
7
 10
-124.000000
 20
100.775002
 40
4.250000
 50
199.750000
 51
220.250000
  0
ARC
  8
0
  6
CONTINUOUS
 62
7
 10
-124.000000
 20
100.775002
 40
4.250000
 50
259.750000
 51
280.251007
  0
CIRCLE
  8
0
  6
CONTINUOUS
 62
7
 10
-124.000000
 20
100.775002
 40
3.000000
  0
ARC
  8
0
  6
CONTINUOUS
 62
7
 10
-124.000000
 20
100.775002
 40
4.250000
 50
139.750000
 51
160.251007
  0
ARC
  8
0
  6
CONTINUOUS
 62
7
 10
239.000000
 20
206.774994
 40
4.800000
 50
180.000000
 51
236.442993
  0
ARC
  8
0
  6
CONTINUOUS
 62
7
 10
145.000000
 20
206.774994
 40
4.800000
 50
303.557007
 51
0.000000
  0
ARC
  8
0
  6
CONTINUOUS
 62
7
 10
214.000000
 20
200.274994
 40
2.000000
 50
0.000000
 51
90.000000
  0
ARC
  8
0
  6
CONTINUOUS
 62
7
 10
-253.000000
 20
-161.975006
 40
4.250010
 50
319.750000
 51
340.250000
  0
ARC
  8
0
  6
CONTINUOUS
 62
7
 10
-253.000000
 20
-161.975006
 40
4.250000
 50
19.749901
 51
40.250599
  0
CIRCLE
  8
0
  6
CONTINUOUS
 62
7
 10
-274.500000
 20
-169.475006
 40
6.400000
  0
ARC
  8
0
  6
CONTINUOUS
 62
7
 10
-266.200012
 20
-162.975006
 40
1.700010
 50
118.071999
 51
241.925995
  0
ARC
  8
0
  6
CONTINUOUS
 62
7
 10
-282.799988
 20
-162.975006
 40
1.699990
 50
298.071014
 51
61.925301
  0
CIRCLE
  8
0
  6
CONTINUOUS
 62
2
 10
-284.500000
 20
-171.975006
 40
1.500000
  0
CIRCLE
  8
0
  6
CONTINUOUS
 62
7
 10
-284.500000
 20
-171.975006
 40
1.250000
  0
ARC
  8
0
  6
CONTINUOUS
 62
7
 10
-253.000000
 20
-161.975006
 40
4.250000
 50
199.750000
 51
220.251007
  0
ARC
  8
0
  6
CONTINUOUS
 62
7
 10
-253.000000
 20
-161.975006
 40
4.250000
 50
259.750000
 51
280.251007
  0
CIRCLE
  8
0
  6
CONTINUOUS
 62
7
 10
-253.000000
 20
-161.975006
 40
3.000000
  0
ARC
  8
0
  6
CONTINUOUS
 62
7
 10
-253.000000
 20
-161.975006
 40
4.250010
 50
139.750000
 51
160.250000
  0
ARC
  8
0
  6
CONTINUOUS
 62
7
 10
-253.000000
 20
-161.975006
 40
4.250000
 50
79.750099
 51
100.250999
  0
ARC
  8
0
  6
CONTINUOUS
 62
7
 10
-157.000000
 20
-161.975006
 40
4.249990
 50
79.749397
 51
100.250000
  0
ARC
  8
0
  6
CONTINUOUS
 62
7
 10
-157.000000
 20
-161.975006
 40
4.250000
 50
139.748993
 51
160.250000
  0
ARC
  8
0
  6
CONTINUOUS
 62
7
 10
-157.000000
 20
-161.975006
 40
4.250000
 50
199.748993
 51
220.250000
  0
CIRCLE
  8
0
  6
CONTINUOUS
 62
7
 10
-135.500000
 20
-169.475006
 40
6.400000
  0
ARC
  8
0
  6
CONTINUOUS
 62
7
 10
-143.800003
 20
-162.975006
 40
1.700000
 50
298.074005
 51
61.928101
  0
ARC
  8
0
  6
CONTINUOUS
 62
7
 10
-127.199997
 20
-162.975006
 40
1.699990
 50
118.074997
 51
241.929001
  0
CIRCLE
  8
0
  6
CONTINUOUS
 62
2
 10
-125.500000
 20
-171.975006
 40
1.500000
  0
CIRCLE
  8
0
  6
CONTINUOUS
 62
7
 10
-125.500000
 20
-171.975006
 40
1.250000
  0
ARC
  8
0
  6
CONTINUOUS
 62
7
 10
-157.000000
 20
-161.975006
 40
4.250000
 50
319.748993
 51
340.250000
  0
ARC
  8
0
  6
CONTINUOUS
 62
7
 10
-157.000000
 20
-161.975006
 40
4.249990
 50
259.748993
 51
280.250000
  0
CIRCLE
  8
0
  6
CONTINUOUS
 62
7
 10
-157.000000
 20
-161.975006
 40
3.000000
  0
ARC
  8
0
  6
CONTINUOUS
 62
7
 10
-157.000000
 20
-161.975006
 40
4.250000
 50
19.749500
 51
40.250000
  0
CIRCLE
  8
0
  6
CONTINUOUS
 62
2
 10
-237.000000
 20
90.775002
 40
2.500000
  0
CIRCLE
  8
0
  6
CONTINUOUS
 62
7
 10
-237.000000
 20
90.775002
 40
2.100000
  0
CIRCLE
  8
0
  6
CONTINUOUS
 62
2
 10
-173.000000
 20
90.775002
 40
2.500000
  0
CIRCLE
  8
0
  6
CONTINUOUS
 62
7
 10
-173.000000
 20
90.775002
 40
2.100000
  0
CIRCLE
  8
0
  6
CONTINUOUS
 62
2
 10
145.000000
 20
90.775002
 40
2.500000
  0
CIRCLE
  8
0
  6
CONTINUOUS
 62
7
 10
145.000000
 20
90.775002
 40
2.100000
  0
CIRCLE
  8
0
  6
CONTINUOUS
 62
2
 10
239.000000
 20
90.775002
 40
2.500000
  0
CIRCLE
  8
0
  6
CONTINUOUS
 62
7
 10
239.000000
 20
90.775002
 40
2.100000
  0
CIRCLE
  8
0
  6
CONTINUOUS
 62
2
 10
-237.000000
 20
-171.975006
 40
2.500000
  0
CIRCLE
  8
0
  6
CONTINUOUS
 62
7
 10
-237.000000
 20
-171.975006
 40
2.100000
  0
CIRCLE
  8
0
  6
CONTINUOUS
 62
2
 10
-173.000000
 20
-171.975006
 40
2.500000
  0
CIRCLE
  8
0
  6
CONTINUOUS
 62
7
 10
-173.000000
 20
-171.975006
 40
2.100000
  0
CIRCLE
  8
0
  6
CONTINUOUS
 62
2
 10
145.000000
 20
-171.975006
 40
2.500000
  0
CIRCLE
  8
0
  6
CONTINUOUS
 62
7
 10
145.000000
 20
-171.975006
 40
2.100000
  0
CIRCLE
  8
0
  6
CONTINUOUS
 62
2
 10
239.000000
 20
-171.975006
 40
2.500000
  0
CIRCLE
  8
0
  6
CONTINUOUS
 62
7
 10
239.000000
 20
-171.975006
 40
2.100000
  0
TEXT
  8
0
 62
7
 10
249.264832
 20
-267.375000
 40
12.500000
  1
KOGANEI CORP.
 50
0.000000
 41
0.771525
 51
0.000000
  7
STANDARD
  0
TEXT
  8
0
 62
7
 10
292.414673
 20
261.500000
 40
9.000000
  1
Ver.1.0
 50
0.000000
 41
1.010331
 51
0.000000
  7
STANDARD
  0
TEXT
  8
0
 62
7
 10
15.774433
 20
-22.500000
 40
9.000000
  1
MODEL:APT-GT12-25-TPQT
 50
0.000000
 41
0.771526
 51
0.000000
  7
STANDARD
  0
TEXT
  8
0
 62
7
 10
-351.135315
 20
261.500000
 40
9.000000
  1
AP TABLE
 50
0.000000
 41
0.775607
 51
0.000000
  7
STANDARD
  0
TEXT
  8
0
 62
7
 10
15.774433
 20
229.000000
 40
9.000000
  1
MODEL:APT-SD12-25-TPQT
 50
0.000000
 41
0.771526
 51
0.000000
  7
STANDARD
  0
TEXT
  8
0
 62
7
 10
-383.750580
 20
-22.500000
 40
9.000000
  1
MODEL:APT-GT12-15-TPQT
 50
0.000000
 41
0.784602
 51
0.000000
  7
STANDARD
  0
TEXT
  8
0
 62
7
 10
-383.750580
 20
229.000000
 40
9.000000
  1
MODEL:APT-SD12-15-TPQT
 50
0.000000
 41
0.784602
 51
0.000000
  7
STANDARD
  0
ENDSEC
  0
EOF
