  0
SECTION
  2
HEADER
  0
ENDSEC
  0
SECTION
  2
TABLES
  0
TABLE
  2
LTYPE
 70
     4
  0
LTYPE
  2
CONTINUOUS
 70
    64
  3
Solid line
 72
    65
 73
     0
 40
0.000000
  0
LTYPE
  2
DASHED
 70
    64
  3
__ __ __ __ __ __ __ __ __ __ __ __ __ __ __
 72
    65
 73
     2
 40
3.500000
 49
2.000000
 49
-1.500000
  0
LTYPE
  2
CENTER
 70
    64
  3
____ _ ____ _ ____ _ ____ _ ____ _ ____ _ ____
 72
    65
 73
     4
 40
17.500000
 49
13.000000
 49
-1.500000
 49
1.500000
 49
-1.500000
  0
LTYPE
  2
PHANTOM
 70
    64
  3
_____ _ _ _____ _ _ _____ _ _ _____ _ _ ____  
 72
    65
 73
     6
 40
15.500000
 49
8.000000
 49
-1.500000
 49
1.500000
 49
-1.500000
 49
1.500000
 49
-1.500000
  0
LTYPE
  2
DASHED1
 70
    64
  3
__ __ __ __ __ __ __ __ __ __ __ __ __ __ __
 72
    65
 73
     2
 40
1.500000
 49
1.000000
 49
-0.500000
  0
LTYPE
  2
DASHED2
 70
    64
  3
__ __ __ __ __ __ __ __ __ __ __ __ __ __ __
 72
    65
 73
     2
 40
3.500000
 49
2.500000
 49
-1.000000
  0
LTYPE
  2
DASHED3
 70
    64
  3
__ __ __ __ __ __ __ __ __ __ __ __ __ __ __
 72
    65
 73
     2
 40
6.000000
 49
4.000000
 49
-2.000000
  0
LTYPE
  2
DASHED4
 70
    64
  3
__ __ __ __ __ __ __ __ __ __ __ __ __ __ __
 72
    65
 73
     2
 40
12.000000
 49
10.000000
 49
-2.000000
  0
LTYPE
  2
DASHED5
 70
    64
  3
__ __ __ __ __ __ __ __ __ __ __ __ __ __ __
 72
    65
 73
     2
 40
17.000000
 49
15.000000
 49
-2.000000
  0
LTYPE
  2
DASHED6
 70
    64
  3
__ __ __ __ __ __ __ __ __ __ __ __ __ __ __
 72
    65
 73
     2
 40
29.000000
 49
27.000000
 49
-2.000000
  0
LTYPE
  2
PHANTOM1
 70
    64
  3
_____ _ _ _____ _ _ _____ _ _ _____ _ _ ____  
 72
    65
 73
     6
 40
31.000000
 49
25.000000
 49
-1.500000
 49
1.000000
 49
-1.000000
 49
1.000000
 49
-1.500000
  0
LTYPE
  2
PHANTOM2
 70
    64
  3
_____ _ _ _____ _ _ _____ _ _ _____ _ _ ____  
 72
    65
 73
     6
 40
36.000000
 49
27.000000
 49
-1.500000
 49
2.500000
 49
-1.000000
 49
2.500000
 49
-1.500000
  0
LTYPE
  2
PHANTOM3
 70
    64
  3
_____ _ _ _____ _ _ _____ _ _ _____ _ _ ____  
 72
    65
 73
     6
 40
78.000000
 49
64.000000
 49
-2.000000
 49
4.000000
 49
-2.000000
 49
4.000000
 49
-2.000000
  0
LTYPE
  2
CENTER1
 70
    64
  3
____ _ ____ _ ____ _ ____ _ ____ _ ____ _ ____
 72
    65
 73
     4
 40
19.000000
 49
14.000000
 49
-1.000000
 49
3.000000
 49
-1.000000
  0
LTYPE
  2
CENTER2
 70
    64
  3
____ _ ____ _ ____ _ ____ _ ____ _ ____ _ ____
 72
    65
 73
     4
 40
28.500000
 49
25.000000
 49
-1.000000
 49
1.500000
 49
-1.000000
  0
LTYPE
  2
CENTER3
 70
    64
  3
____ _ ____ _ ____ _ ____ _ ____ _ ____ _ ____
 72
    65
 73
     4
 40
31.500000
 49
27.000000
 49
-1.000000
 49
2.500000
 49
-1.000000
  0
LTYPE
  2
CENTER4
 70
    64
  3
____ _ ____ _ ____ _ ____ _ ____ _ ____ _ ____
 72
    65
 73
     4
 40
50.000000
 49
45.000000
 49
-1.000000
 49
3.000000
 49
-1.000000
  0
LTYPE
  2
CENTER5
 70
    64
  3
____ _ ____ _ ____ _ ____ _ ____ _ ____ _ ____
 72
    65
 73
     4
 40
100.000000
 49
92.000000
 49
-2.000000
 49
4.000000
 49
-2.000000
  0
LTYPE
  2
SBK1
 70
    64
  3
______ _ _ _ ______ _ _ _ ______ _ _ _ _____  
 72
    65
 73
     8
 40
60.500000
 49
45.000000
 49
-2.000000
 49
2.500000
 49
-2.000000
 49
2.500000
 49
-2.000000
 49
2.500000
 49
-2.000000
  0
LTYPE
  2
SBK2
 70
    64
  3
______ _ _ _ ______ _ _ _ ______ _ _ _ _____  
 72
    65
 73
     8
 40
84.000000
 49
64.000000
 49
-2.000000
 49
4.000000
 49
-2.000000
 49
4.000000
 49
-2.000000
 49
4.000000
 49
-2.000000
  0
LTYPE
  2
STCH
 70
    64
  3
__ __ __ __ __ __ __ __ __ __ __ __ __ __ __
 72
    65
 73
     2
 40
3.000000
 49
1.000000
 49
-2.000000
  0
LTYPE
  2
MTCH
 70
    64
  3
_____ _ _ _____ _ _ _____ _ _ _____ _ _ ____  
 72
    65
 73
     6
 40
80.000000
 49
66.000000
 49
-2.000000
 49
4.000000
 49
-2.000000
 49
4.000000
 49
-2.000000
  0
ENDTAB
  0
TABLE
  2
LAYER
 70
     1
  0
LAYER
  2
0
 70
     0
 62
     7
  6
CONTINUOUS
  0
ENDTAB
  0
TABLE
  2
STYLE
 70
     1
  0
STYLE
  2
STANDARD
 70
     0
 40
0.000000
 41
1.000000
 50
0.000000
 71
     0
 42
0.200000
  3
txt
  4
BIGFONT
  0
ENDTAB
  0
TABLE
  2
VIEW
 70
     0
  0
ENDTAB
  0
ENDSEC
  0
SECTION
  2
BLOCKS
  0
ENDSEC
  0
SECTION
  2
ENTITIES
  0
LINE
  8
0
 10
299.799988
 20
276.250000
 11
299.799988
 21
261.250000
  0
LINE
  8
0
 10
299.799988
 20
-256.750000
 11
299.799988
 21
-276.750000
  0
LINE
  8
0
 10
299.799988
 20
261.250000
 11
399.799988
 21
261.250000
  0
LINE
  8
0
 10
299.799988
 20
-256.750000
 11
399.799988
 21
-256.750000
  0
LINE
  8
0
 10
-420.500000
 20
297.000000
 11
420.500000
 21
297.000000
  0
LINE
  8
0
 10
-420.500000
 20
-297.000000
 11
420.500000
 21
-297.000000
  0
LINE
  8
0
 10
420.500000
 20
297.000000
 11
420.500000
 21
-297.000000
  0
LINE
  8
0
 10
-420.500000
 20
297.000000
 11
-420.500000
 21
-297.000000
  0
LINE
  8
0
 10
399.799988
 20
276.250000
 11
399.799988
 21
-276.750000
  0
LINE
  8
0
 10
-399.250000
 20
276.250000
 11
-399.250000
 21
-276.750000
  0
LINE
  8
0
 10
-399.250000
 20
276.250000
 11
399.799988
 21
276.250000
  0
LINE
  8
0
 10
-399.250000
 20
-276.750000
 11
399.799988
 21
-276.750000
  0
LINE
  8
0
 62
     3
 10
-392.944305
 20
229.121643
 11
-354.673065
 21
267.392883
  0
LINE
  8
0
 62
     3
 10
-354.673126
 20
267.392944
 11
-354.673126
 21
241.368500
  0
LINE
  8
0
 62
     3
 10
-350.080566
 20
236.775940
 11
-343.446899
 21
236.775940
  0
LINE
  8
0
 62
     3
 10
-343.446899
 20
236.775940
 11
-344.365417
 21
234.479660
  0
LINE
  8
0
 62
     3
 10
-392.944397
 20
229.121689
 11
-364.623627
 21
229.121689
  0
LINE
  8
0
 62
     3
 10
-364.623779
 20
229.121796
 11
-363.666779
 21
231.418076
  0
LINE
  8
0
 62
     1
 10
-363.666779
 20
231.418076
 11
-363.028778
 21
232.948929
  0
LINE
  8
0
 62
     1
 10
-344.365417
 20
234.479660
 11
-344.977753
 21
232.948807
  0
LINE
  8
0
 62
     1
 10
-350.080566
 20
234.479675
 11
-344.365387
 21
234.479675
  0
LINE
  8
0
 62
     1
 10
-387.400665
 20
231.417969
 11
-363.666626
 21
231.417969
  0
LINE
  8
0
 62
     1
 10
-387.400696
 20
231.417953
 11
-356.969421
 21
261.849243
  0
LINE
  8
0
 62
     1
 10
-356.969391
 20
261.849243
 11
-356.969391
 21
241.368500
  0
LINE
  8
0
 62
     5
 10
-374.465393
 20
236.775940
 11
-361.433655
 21
236.775940
  0
LINE
  8
0
 62
     5
 10
-374.465302
 20
236.775879
 11
-362.327301
 21
248.913879
  0
LINE
  8
0
 62
     5
 10
-362.327393
 20
248.913940
 11
-362.327393
 21
241.368500
  0
LINE
  8
0
 62
     5
 10
-350.080566
 20
229.121689
 11
-346.508606
 21
229.121689
  0
LINE
  8
0
 62
     5
 10
-350.080566
 20
232.948822
 11
-344.977753
 21
232.948822
  0
LINE
  8
0
 62
     5
 10
-344.977753
 20
232.948807
 11
-346.508606
 21
229.121689
  0
LINE
  8
0
 62
     5
 10
-363.028778
 20
232.948929
 11
-361.433807
 21
236.776047
  0
LINE
  8
0
 62
     5
 10
-383.704895
 20
232.948822
 11
-363.028656
 21
232.948822
  0
LINE
  8
0
 62
     5
 10
-383.704865
 20
232.948822
 11
-358.500244
 21
258.153442
  0
LINE
  8
0
 62
     5
 10
-358.500244
 20
258.153442
 11
-358.500244
 21
241.368500
  0
LINE
  8
0
 10
-399.250000
 20
212.610382
 11
-172.975800
 21
212.610382
  0
LINE
  8
0
 10
-172.975800
 20
212.610382
 11
-172.975800
 21
276.250000
  0
LINE
  8
0
  6
DASHED
 10
-313.459290
 20
206.770294
 11
-230.424103
 21
206.770294
  0
LINE
  8
0
  6
DASHED
 10
-312.556702
 20
118.770294
 11
-229.528503
 21
118.770294
  0
LINE
  8
0
 10
-320.291504
 20
162.770294
 11
-226.543243
 21
162.770294
  0
LINE
  8
0
 10
-269.962494
 20
210.026489
 11
-269.962494
 21
115.306747
  0
LINE
  8
0
 10
-80.493774
 20
162.770294
 11
-137.416656
 21
162.770294
  0
LINE
  8
0
  6
DASHED
 10
-83.493774
 20
205.770264
 11
-83.493774
 21
195.020294
  0
LINE
  8
0
  6
DASHED
 10
-124.493774
 20
205.770294
 11
-125.493774
 21
205.770294
  0
LINE
  8
0
  6
DASHED
 10
-124.493774
 20
119.770294
 11
-125.493774
 21
119.770294
  0
LINE
  8
0
  6
DASHED
 10
-84.493774
 20
206.270294
 11
-105.493774
 21
206.270294
  0
LINE
  8
0
  6
DASHED
 10
-84.493805
 20
119.270294
 11
-105.493774
 21
119.270294
  0
LINE
  8
0
  6
DASHED
 10
-84.493774
 20
206.770294
 11
-89.793762
 21
206.770294
  0
LINE
  8
0
  6
DASHED
 10
-124.493774
 20
206.270294
 11
-124.493774
 21
119.270294
  0
LINE
  8
0
  6
DASHED
 10
-124.493774
 20
195.770294
 11
-125.493774
 21
195.770294
  0
LINE
  8
0
  6
DASHED
 10
-124.493774
 20
129.770294
 11
-125.493774
 21
129.770294
  0
LINE
  8
0
  6
DASHED
 10
-84.494377
 20
206.769638
 11
-83.494385
 21
205.769623
  0
LINE
  8
0
  6
DASHED
 10
-83.493599
 20
119.770248
 11
-84.493614
 21
118.770226
  0
LINE
  8
0
  6
DASHED
 10
-98.493797
 20
206.770309
 11
-98.993843
 21
206.270294
  0
LINE
  8
0
  6
DASHED
 10
-98.994019
 20
119.270172
 11
-98.493980
 21
118.770142
  0
LINE
  8
0
  6
DASHED
 10
-112.493774
 20
206.270294
 11
-124.493774
 21
206.270294
  0
LINE
  8
0
  6
DASHED
 10
-112.493774
 20
119.270294
 11
-124.493774
 21
119.270294
  0
LINE
  8
0
  6
DASHED
 10
-89.793762
 20
206.770294
 11
-89.793762
 21
206.270294
  0
LINE
  8
0
  6
DASHED
 10
-93.193787
 20
206.770294
 11
-93.193787
 21
206.270294
  0
LINE
  8
0
  6
DASHED
 10
-83.493774
 20
190.520294
 11
-83.993774
 21
190.520294
  0
LINE
  8
0
  6
DASHED
 10
-83.493774
 20
195.020294
 11
-83.993774
 21
195.020294
  0
LINE
  8
0
  6
DASHED
 10
-83.493774
 20
135.020294
 11
-83.993774
 21
135.020294
  0
LINE
  8
0
  6
DASHED
 10
-83.493774
 20
130.520294
 11
-83.993774
 21
130.520294
  0
LINE
  8
0
  6
DASHED
 10
-83.993774
 20
205.770294
 11
-83.993774
 21
119.770294
  0
LINE
  8
0
  6
DASHED
 10
-83.993774
 20
143.020294
 11
-83.993774
 21
143.020294
  0
LINE
  8
0
  6
DASHED
 10
-83.493774
 20
142.520294
 11
-83.493774
 21
135.020294
  0
LINE
  8
0
  6
DASHED
 10
-83.993996
 20
143.020111
 11
-83.494011
 21
142.520126
  0
LINE
  8
0
  6
DASHED
 10
-83.993774
 20
169.770294
 11
-83.993774
 21
169.770294
  0
LINE
  8
0
  6
DASHED
 10
-83.993774
 20
155.770294
 11
-83.993774
 21
155.770294
  0
LINE
  8
0
  6
DASHED
 10
-83.493774
 20
169.270264
 11
-83.493774
 21
156.270294
  0
LINE
  8
0
  6
DASHED
 10
-83.993912
 20
169.770111
 11
-83.493889
 21
169.270081
  0
LINE
  8
0
  6
DASHED
 10
-83.493858
 20
156.270279
 11
-83.993904
 21
155.770264
  0
LINE
  8
0
  6
DASHED
 10
-83.493866
 20
184.020340
 11
-83.993866
 21
183.520370
  0
LINE
  8
0
  6
DASHED
 10
-93.193787
 20
119.270294
 11
-93.193787
 21
118.770294
  0
LINE
  8
0
  6
DASHED
 10
-89.793762
 20
119.270294
 11
-89.793762
 21
118.770294
  0
LINE
  8
0
  6
DASHED
 10
-83.493774
 20
190.520294
 11
-83.993774
 21
190.520294
  0
LINE
  8
0
  6
DASHED
 10
-83.493774
 20
195.020294
 11
-83.993774
 21
195.020294
  0
LINE
  8
0
  6
DASHED
 10
-93.193787
 20
206.270294
 11
-93.193787
 21
206.770294
  0
LINE
  8
0
  6
DASHED
 10
-89.793762
 20
206.270294
 11
-89.793762
 21
206.770294
  0
LINE
  8
0
  6
DASHED
 10
-83.493774
 20
130.520294
 11
-83.493774
 21
119.770294
  0
LINE
  8
0
  6
DASHED
 10
-83.993759
 20
119.770340
 11
-84.493790
 21
119.270348
  0
LINE
  8
0
  6
DASHED
 10
-83.493774
 20
190.520294
 11
-83.493774
 21
184.020294
  0
LINE
  8
0
  6
DASHED
 10
-93.193787
 20
206.770294
 11
-98.493774
 21
206.770294
  0
LINE
  8
0
  6
DASHED
 10
-84.494179
 20
206.269913
 11
-83.994186
 21
205.769928
  0
LINE
  8
0
  6
DASHED
 10
-112.493774
 20
198.270294
 11
-112.493774
 21
206.270294
  0
LINE
  8
0
  6
DASHED
 10
-105.493774
 20
198.270294
 11
-105.493774
 21
206.270294
  0
LINE
  8
0
  6
DASHED
 10
-112.493774
 20
198.270294
 11
-105.493774
 21
198.270294
  0
LINE
  8
0
  6
DASHED
 10
-105.493774
 20
127.270294
 11
-105.493774
 21
119.270294
  0
LINE
  8
0
  6
DASHED
 10
-112.493774
 20
127.270294
 11
-105.493774
 21
127.270294
  0
LINE
  8
0
  6
DASHED
 10
-112.493774
 20
127.270294
 11
-112.493774
 21
119.270294
  0
LINE
  8
0
  6
DASHED
 10
92.745255
 20
206.770294
 11
120.037491
 21
206.770294
  0
LINE
  8
0
  6
DASHED
 10
94.493942
 20
118.770294
 11
120.037491
 21
118.770294
  0
LINE
  8
0
  6
DASHED
 10
130.037506
 20
206.270294
 11
130.037506
 21
119.270294
  0
LINE
  8
0
  6
DASHED
 10
120.037506
 20
206.770294
 11
120.037506
 21
193.270294
  0
LINE
  8
0
  6
DASHED
 10
120.037491
 20
206.270294
 11
130.037491
 21
206.270294
  0
LINE
  8
0
  6
DASHED
 10
120.037491
 20
119.270294
 11
130.037491
 21
119.270294
  0
LINE
  8
0
  6
DASHED
 10
93.677597
 20
193.270294
 11
130.037491
 21
193.270294
  0
LINE
  8
0
  6
DASHED
 10
92.659836
 20
132.270294
 11
130.037491
 21
132.270294
  0
LINE
  8
0
  6
DASHED
 10
120.037506
 20
132.270294
 11
120.037506
 21
118.770294
  0
LINE
  8
0
  6
DASHED
 10
93.098007
 20
130.770294
 11
120.037491
 21
130.770294
  0
LINE
  8
0
  6
DASHED
 10
93.559311
 20
194.770294
 11
120.037491
 21
194.770294
  0
LINE
  8
0
 10
83.419006
 20
162.770294
 11
146.954117
 21
162.770294
  0
LINE
  8
0
  6
DASHED
 10
168.037506
 20
160.270294
 11
168.037506
 21
152.270294
  0
LINE
  8
0
  6
DASHED
 10
162.537506
 20
160.270325
 11
162.537506
 21
152.270294
  0
LINE
  8
0
  6
DASHED
 10
158.537506
 20
160.770294
 11
158.537506
 21
151.770294
  0
LINE
  8
0
  6
DASHED
 10
167.537491
 20
151.770294
 11
163.037491
 21
151.770294
  0
LINE
  8
0
  6
DASHED
 10
167.537491
 20
160.770294
 11
163.037491
 21
160.770294
  0
LINE
  8
0
  6
DASHED
 10
158.037491
 20
151.270294
 11
133.037491
 21
151.270294
  0
LINE
  8
0
  6
DASHED
 10
158.037491
 20
161.270294
 11
133.037491
 21
161.270294
  0
LINE
  8
0
  6
DASHED
 10
163.037506
 20
160.770294
 11
163.037506
 21
151.770294
  0
LINE
  8
0
  6
DASHED
 10
162.037506
 20
160.770294
 11
162.037506
 21
151.770294
  0
LINE
  8
0
  6
DASHED
 10
167.537323
 20
160.770218
 11
168.037308
 21
160.270233
  0
LINE
  8
0
  6
DASHED
 10
168.037537
 20
152.270264
 11
167.537506
 21
151.770233
  0
LINE
  8
0
  6
DASHED
 10
163.037415
 20
160.770279
 11
162.537430
 21
160.270279
  0
LINE
  8
0
  6
DASHED
 10
162.537460
 20
152.270233
 11
163.037476
 21
151.770218
  0
LINE
  8
0
  6
DASHED
 10
162.037430
 20
160.770218
 11
162.537430
 21
160.270233
  0
LINE
  8
0
  6
DASHED
 10
162.537521
 20
152.270309
 11
162.037521
 21
151.770325
  0
LINE
  8
0
  6
DASHED
 10
162.037491
 20
151.770294
 11
158.537491
 21
151.770294
  0
LINE
  8
0
  6
DASHED
 10
162.037491
 20
160.770294
 11
158.537491
 21
160.770294
  0
LINE
  8
0
  6
DASHED
 10
158.537491
 20
160.770294
 11
133.037491
 21
160.770294
  0
LINE
  8
0
  6
DASHED
 10
158.537491
 20
151.770294
 11
133.037491
 21
151.770294
  0
LINE
  8
0
  6
DASHED
 10
158.037506
 20
161.270294
 11
158.037506
 21
151.270294
  0
LINE
  8
0
  6
DASHED
 10
158.037399
 20
161.270233
 11
158.537384
 21
160.770233
  0
LINE
  8
0
  6
DASHED
 10
158.037537
 20
151.270279
 11
158.537521
 21
151.770264
  0
LINE
  8
0
  6
DASHED
 10
133.037506
 20
161.720306
 11
133.037506
 21
150.820312
  0
LINE
  8
0
  6
DASHED
 10
132.224319
 20
149.320312
 11
130.850662
 21
149.320312
  0
LINE
  8
0
  6
DASHED
 10
132.224319
 20
163.220306
 11
130.850662
 21
163.220306
  0
LINE
  8
0
  6
DASHED
 10
132.224319
 20
160.220306
 11
130.850662
 21
160.220306
  0
LINE
  8
0
  6
DASHED
 10
132.224319
 20
152.320312
 11
130.850662
 21
152.320312
  0
LINE
  8
0
  6
DASHED
 10
125.240891
 20
156.270294
 11
172.350174
 21
156.270294
  0
LINE
  8
0
 10
319.506256
 20
162.770294
 11
271.506256
 21
162.770294
  0
LINE
  8
0
  6
DASHED
 10
274.506256
 20
205.770294
 11
274.506256
 21
195.770294
  0
LINE
  8
0
  6
DASHED
 10
316.506256
 20
205.770294
 11
316.506256
 21
195.020294
  0
LINE
  8
0
  6
DASHED
 10
275.506256
 20
205.770294
 11
274.506256
 21
205.770294
  0
LINE
  8
0
  6
DASHED
 10
275.506256
 20
119.770294
 11
274.506256
 21
119.770294
  0
LINE
  8
0
  6
DASHED
 10
315.506256
 20
206.270294
 11
294.506256
 21
206.270294
  0
LINE
  8
0
  6
DASHED
 10
315.506226
 20
119.270294
 11
294.506256
 21
119.270294
  0
LINE
  8
0
  6
DASHED
 10
315.506256
 20
206.770294
 11
310.206268
 21
206.770294
  0
LINE
  8
0
  6
DASHED
 10
315.506256
 20
118.770294
 11
310.206268
 21
118.770294
  0
LINE
  8
0
  6
DASHED
 10
275.506256
 20
206.270294
 11
275.506256
 21
119.270294
  0
LINE
  8
0
  6
DASHED
 10
275.506256
 20
195.770294
 11
274.506256
 21
195.770294
  0
LINE
  8
0
  6
DASHED
 10
275.506256
 20
129.770294
 11
274.506256
 21
129.770294
  0
LINE
  8
0
  6
DASHED
 10
274.506256
 20
129.770294
 11
274.506256
 21
119.770294
  0
LINE
  8
0
  6
DASHED
 10
315.505585
 20
206.769638
 11
316.505615
 21
205.769608
  0
LINE
  8
0
  6
DASHED
 10
316.506409
 20
119.770302
 11
315.506409
 21
118.770271
  0
LINE
  8
0
  6
DASHED
 10
301.506195
 20
206.770264
 11
301.006134
 21
206.270248
  0
LINE
  8
0
  6
DASHED
 10
301.006104
 20
119.270164
 11
301.506134
 21
118.770134
  0
LINE
  8
0
  6
DASHED
 10
287.506256
 20
206.270294
 11
287.506256
 21
198.270294
  0
LINE
  8
0
  6
DASHED
 10
294.506256
 20
206.270294
 11
294.506256
 21
201.002350
  0
LINE
  8
0
  6
DASHED
 10
291.774200
 20
198.270294
 11
287.506256
 21
198.270294
  0
LINE
  8
0
  6
DASHED
 10
291.774200
 20
127.270294
 11
287.506256
 21
127.270294
  0
LINE
  8
0
  6
DASHED
 10
294.506256
 20
124.538239
 11
294.506256
 21
119.270294
  0
LINE
  8
0
  6
DASHED
 10
287.506256
 20
127.270294
 11
287.506256
 21
119.270294
  0
LINE
  8
0
  6
DASHED
 10
287.506256
 20
206.270294
 11
275.506256
 21
206.270294
  0
LINE
  8
0
  6
DASHED
 10
287.506256
 20
119.270294
 11
275.506256
 21
119.270294
  0
LINE
  8
0
  6
DASHED
 10
310.206268
 20
206.770294
 11
310.206268
 21
206.270294
  0
LINE
  8
0
  6
DASHED
 10
306.806244
 20
206.770294
 11
306.806244
 21
206.270294
  0
LINE
  8
0
  6
DASHED
 10
316.506256
 20
195.020294
 11
316.006256
 21
195.020294
  0
LINE
  8
0
  6
DASHED
 10
306.806244
 20
118.770294
 11
301.506256
 21
118.770294
  0
LINE
  8
0
  6
DASHED
 10
316.006256
 20
205.770294
 11
316.006256
 21
192.770294
  0
LINE
  8
0
  6
DASHED
 10
306.806244
 20
119.270294
 11
306.806244
 21
118.770294
  0
LINE
  8
0
  6
DASHED
 10
310.206268
 20
119.270294
 11
310.206268
 21
118.770294
  0
LINE
  8
0
  6
DASHED
 10
316.506256
 20
195.020294
 11
316.006256
 21
195.020294
  0
LINE
  8
0
  6
DASHED
 10
306.806244
 20
206.270294
 11
306.806244
 21
206.770294
  0
LINE
  8
0
  6
DASHED
 10
310.206268
 20
206.270294
 11
310.206268
 21
206.770294
  0
LINE
  8
0
  6
DASHED
 10
316.506256
 20
130.520294
 11
316.006256
 21
130.520294
  0
LINE
  8
0
  6
DASHED
 10
316.506256
 20
130.590973
 11
316.506256
 21
119.770294
  0
LINE
  8
0
  6
DASHED
 10
306.806244
 20
206.770294
 11
301.506256
 21
206.770294
  0
LINE
  8
0
  6
DASHED
 10
316.006256
 20
132.770294
 11
316.006256
 21
119.770294
  0
LINE
  8
0
  6
DASHED
 10
316.006134
 20
119.770309
 11
315.506134
 21
119.270340
  0
LINE
  8
0
  6
DASHED
 10
315.506500
 20
206.270645
 11
316.006500
 21
205.770615
  0
LINE
  8
0
 10
-269.962494
 20
62.700287
 11
-269.962494
 21
-52.927673
  0
LINE
  8
0
  6
DASHED
 10
-321.418335
 20
-46.909897
 11
-220.364609
 21
-46.909897
  0
LINE
  8
0
 10
-214.806961
 20
3.090088
 11
-330.412964
 21
3.090088
  0
LINE
  8
0
  6
DASHED
 10
-321.047058
 20
53.090088
 11
-218.328842
 21
53.090088
  0
LINE
  8
0
 10
-79.687851
 20
3.090088
 11
-147.721176
 21
3.090088
  0
LINE
  8
0
  6
DASHED
 10
-83.493774
 20
52.090088
 11
-83.493774
 21
40.840088
  0
LINE
  8
0
 10
-133.493774
 20
52.090088
 11
-133.493774
 21
42.090088
  0
LINE
  8
0
  6
DASHED
 10
-84.493759
 20
53.090088
 11
-91.243820
 21
53.090088
  0
LINE
  8
0
  6
DASHED
 10
-83.993774
 20
52.090057
 11
-83.993774
 21
3.090088
  0
LINE
  8
0
  6
DASHED
 10
-84.493759
 20
52.590088
 11
-110.493790
 21
52.590088
  0
LINE
  8
0
  6
DASHED
 10
-132.493820
 20
52.090088
 11
-133.493790
 21
52.090088
  0
LINE
  8
0
  6
DASHED
 10
-132.493820
 20
42.090088
 11
-133.493790
 21
42.090088
  0
LINE
  8
0
  6
DASHED
 10
-132.493835
 20
52.590073
 11
-132.493835
 21
3.090088
  0
LINE
  8
0
  6
DASHED
 10
-91.243835
 20
53.090088
 11
-91.243835
 21
52.590073
  0
LINE
  8
0
  6
DASHED
 10
-95.743713
 20
53.090088
 11
-95.743713
 21
52.590073
  0
LINE
  8
0
  6
DASHED
 10
-95.743759
 20
53.090088
 11
-102.493820
 21
53.090088
  0
LINE
  8
0
  6
DASHED
 10
-102.494232
 20
53.090267
 11
-102.994255
 21
52.590229
  0
LINE
  8
0
  6
DASHED
 10
-84.493935
 20
53.089882
 11
-83.493958
 21
52.089905
  0
LINE
  8
0
  6
DASHED
 10
-83.493759
 20
40.840088
 11
-83.993698
 21
40.840088
  0
LINE
  8
0
  6
DASHED
 10
-83.493759
 20
35.340088
 11
-83.993698
 21
35.340088
  0
LINE
  8
0
  6
DASHED
 10
-83.993774
 20
28.090088
 11
-83.993774
 21
28.090088
  0
LINE
  8
0
  6
DASHED
 10
-83.493774
 20
35.340088
 11
-83.493774
 21
28.590088
  0
LINE
  8
0
  6
DASHED
 10
-83.993774
 20
8.090088
 11
-83.993774
 21
8.090088
  0
LINE
  8
0
  6
DASHED
 10
-83.493774
 20
7.590073
 11
-83.493774
 21
3.090088
  0
LINE
  8
0
  6
DASHED
 10
-83.494003
 20
28.590300
 11
-83.994049
 21
28.090275
  0
LINE
  8
0
  6
DASHED
 10
-83.994049
 20
8.089829
 11
-83.494080
 21
7.589861
  0
LINE
  8
0
  6
DASHED
 10
-83.493774
 20
-45.909912
 11
-83.493774
 21
-34.659912
  0
LINE
  8
0
  6
DASHED
 10
-84.493759
 20
-46.909897
 11
-91.243820
 21
-46.909897
  0
LINE
  8
0
  6
DASHED
 10
-83.993774
 20
-45.909912
 11
-83.993774
 21
3.090088
  0
LINE
  8
0
  6
DASHED
 10
-84.493759
 20
-46.409912
 11
-110.493790
 21
-46.409912
  0
LINE
  8
0
  6
DASHED
 10
-132.493820
 20
-45.909943
 11
-133.493790
 21
-45.909943
  0
LINE
  8
0
  6
DASHED
 10
-132.493820
 20
-35.909943
 11
-133.493790
 21
-35.909943
  0
LINE
  8
0
  6
DASHED
 10
-132.493835
 20
-46.409912
 11
-132.493835
 21
3.090088
  0
LINE
  8
0
  6
DASHED
 10
-91.243835
 20
-46.909912
 11
-91.243835
 21
-46.409912
  0
LINE
  8
0
  6
DASHED
 10
-95.743713
 20
-46.909912
 11
-95.743713
 21
-46.409912
  0
LINE
  8
0
  6
DASHED
 10
-95.743759
 20
-46.909897
 11
-102.493820
 21
-46.909897
  0
LINE
  8
0
  6
DASHED
 10
-102.494003
 20
-46.910137
 11
-102.993942
 21
-46.410183
  0
LINE
  8
0
  6
DASHED
 10
-84.494049
 20
-46.909718
 11
-83.494072
 21
-45.909737
  0
LINE
  8
0
  6
DASHED
 10
-83.493759
 20
-34.659943
 11
-83.993759
 21
-34.659943
  0
LINE
  8
0
  6
DASHED
 10
-83.493759
 20
-29.159912
 11
-83.993759
 21
-29.159912
  0
LINE
  8
0
  6
DASHED
 10
-83.993774
 20
-21.909912
 11
-83.993774
 21
-21.909912
  0
LINE
  8
0
  6
DASHED
 10
-83.493774
 20
-29.159912
 11
-83.493774
 21
-22.409943
  0
LINE
  8
0
  6
DASHED
 10
-83.993774
 20
-1.909912
 11
-83.993774
 21
-1.909912
  0
LINE
  8
0
  6
DASHED
 10
-83.493774
 20
-1.409912
 11
-83.493774
 21
3.090088
  0
LINE
  8
0
  6
DASHED
 10
-83.493950
 20
-22.410040
 11
-83.993973
 21
-21.910036
  0
LINE
  8
0
  6
DASHED
 10
-83.994118
 20
-1.909653
 11
-83.494102
 21
-1.409623
  0
LINE
  8
0
  6
DASHED
 10
-110.493774
 20
-46.409912
 11
-110.493774
 21
-43.409912
  0
LINE
  8
0
  6
DASHED
 10
-118.493774
 20
-46.409912
 11
-118.493774
 21
-38.409912
  0
LINE
  8
0
  6
DASHED
 10
-115.493790
 20
-38.409943
 11
-118.493790
 21
-38.409943
  0
LINE
  8
0
  6
DASHED
 10
-118.493790
 20
-46.409912
 11
-132.493820
 21
-46.409912
  0
LINE
  8
0
  6
DASHED
 10
-110.493774
 20
52.590073
 11
-110.493774
 21
47.881363
  0
LINE
  8
0
  6
DASHED
 10
-118.493774
 20
52.590073
 11
-118.493774
 21
44.590088
  0
LINE
  8
0
  6
DASHED
 10
-113.785110
 20
44.590088
 11
-118.493790
 21
44.590088
  0
LINE
  8
0
  6
DASHED
 10
-118.493790
 20
52.590088
 11
-132.493820
 21
52.590088
  0
LINE
  8
0
  6
DASHED
 10
-91.243835
 20
53.090088
 11
-91.243835
 21
52.590073
  0
LINE
  8
0
  6
DASHED
 10
-95.743713
 20
53.090088
 11
-95.743713
 21
52.590073
  0
LINE
  8
0
  6
DASHED
 10
-83.493759
 20
40.840088
 11
-83.993759
 21
40.840088
  0
LINE
  8
0
  6
DASHED
 10
-83.493759
 20
35.340088
 11
-83.993759
 21
35.340088
  0
LINE
  8
0
  6
DASHED
 10
-84.493820
 20
52.590012
 11
-83.993828
 21
52.090023
  0
LINE
  8
0
  6
DASHED
 10
-83.993851
 20
-45.909821
 11
-84.493835
 21
-46.409809
  0
LINE
  8
0
  6
DASHED
 10
81.768906
 20
53.090088
 11
118.037521
 21
53.090088
  0
LINE
  8
0
  6
DASHED
 10
84.298706
 20
41.090088
 11
120.037506
 21
41.090088
  0
LINE
  8
0
  6
DASHED
 10
84.688416
 20
39.090088
 11
130.037506
 21
39.090088
  0
LINE
  8
0
  6
DASHED
 10
118.037521
 20
53.090088
 11
118.037521
 21
41.090088
  0
LINE
  8
0
  6
DASHED
 10
118.037521
 20
52.590088
 11
130.037506
 21
52.590088
  0
LINE
  8
0
  6
DASHED
 10
120.037506
 20
52.590088
 11
120.037506
 21
39.090088
  0
LINE
  8
0
 10
76.546127
 20
3.090088
 11
145.290680
 21
3.090088
  0
LINE
  8
0
  6
DASHED
 10
88.855927
 20
-46.909912
 11
118.037521
 21
-46.909912
  0
LINE
  8
0
  6
DASHED
 10
130.037506
 20
52.590088
 11
130.037506
 21
-46.409912
  0
LINE
  8
0
  6
DASHED
 10
85.113831
 20
-34.909912
 11
120.037506
 21
-34.909912
  0
LINE
  8
0
  6
DASHED
 10
84.131958
 20
-32.909912
 11
130.037506
 21
-32.909912
  0
LINE
  8
0
  6
DASHED
 10
118.037521
 20
-34.909912
 11
118.037521
 21
-46.909912
  0
LINE
  8
0
  6
DASHED
 10
118.037521
 20
-46.409912
 11
130.037506
 21
-46.409912
  0
LINE
  8
0
  6
DASHED
 10
120.037506
 20
-32.909912
 11
120.037506
 21
-46.409912
  0
LINE
  8
0
  6
DASHED
 10
176.097900
 20
-3.909912
 11
120.116516
 21
-3.909912
  0
LINE
  8
0
  6
DASHED
 10
172.037506
 20
0.590103
 11
172.037506
 21
-8.409912
  0
LINE
  8
0
  6
DASHED
 10
164.537506
 20
0.590088
 11
164.537506
 21
-8.409912
  0
LINE
  8
0
  6
DASHED
 10
154.537506
 20
1.590088
 11
154.537506
 21
-9.409912
  0
LINE
  8
0
  6
DASHED
 10
171.037476
 20
-9.409912
 11
165.537537
 21
-9.409912
  0
LINE
  8
0
  6
DASHED
 10
171.037476
 20
1.590088
 11
165.537537
 21
1.590088
  0
LINE
  8
0
  6
DASHED
 10
165.537537
 20
1.590088
 11
165.537537
 21
-9.409912
  0
LINE
  8
0
  6
DASHED
 10
163.537537
 20
1.590088
 11
163.537537
 21
-9.409912
  0
LINE
  8
0
  6
DASHED
 10
171.037506
 20
1.590041
 11
172.037476
 21
0.590061
  0
LINE
  8
0
  6
DASHED
 10
172.037186
 20
-8.409620
 11
171.037155
 21
-9.409636
  0
LINE
  8
0
  6
DASHED
 10
165.537445
 20
1.590078
 11
164.537445
 21
0.590077
  0
LINE
  8
0
  6
DASHED
 10
164.537445
 20
-8.409938
 11
165.537476
 21
-9.409960
  0
LINE
  8
0
  6
DASHED
 10
163.537476
 20
-9.409912
 11
154.537506
 21
-9.409912
  0
LINE
  8
0
  6
DASHED
 10
163.537476
 20
1.590088
 11
154.537506
 21
1.590088
  0
LINE
  8
0
  6
DASHED
 10
163.537231
 20
1.589867
 11
164.537231
 21
0.589858
  0
LINE
  8
0
  6
DASHED
 10
164.537399
 20
-8.409770
 11
163.537399
 21
-9.409771
  0
LINE
  8
0
  6
DASHED
 10
154.037506
 20
-9.909912
 11
134.037506
 21
-9.909912
  0
LINE
  8
0
  6
DASHED
 10
154.037506
 20
2.090088
 11
134.037506
 21
2.090088
  0
LINE
  8
0
  6
DASHED
 10
154.537506
 20
1.590088
 11
134.037506
 21
1.590088
  0
LINE
  8
0
  6
DASHED
 10
154.537506
 20
-9.409912
 11
134.037506
 21
-9.409912
  0
LINE
  8
0
  6
DASHED
 10
154.037445
 20
2.090063
 11
154.537491
 21
1.590030
  0
LINE
  8
0
  6
DASHED
 10
154.537415
 20
-9.409809
 11
154.037430
 21
-9.909806
  0
LINE
  8
0
  6
DASHED
 10
154.037506
 20
2.090088
 11
154.037506
 21
-9.909912
  0
LINE
  8
0
  6
DASHED
 10
134.037506
 20
2.440094
 11
134.037506
 21
-10.259918
  0
LINE
  8
0
  6
DASHED
 10
133.314758
 20
-12.009903
 11
130.760254
 21
-12.009903
  0
LINE
  8
0
  6
DASHED
 10
133.314758
 20
4.190109
 11
130.760254
 21
4.190109
  0
LINE
  8
0
  6
DASHED
 10
133.314758
 20
-8.509918
 11
130.760254
 21
-8.509918
  0
LINE
  8
0
  6
DASHED
 10
133.314758
 20
0.690094
 11
130.760254
 21
0.690094
  0
LINE
  8
0
 10
320.312103
 20
3.090088
 11
260.248749
 21
3.090088
  0
LINE
  8
0
  6
DASHED
 10
316.506256
 20
52.090088
 11
316.506256
 21
40.840088
  0
LINE
  8
0
  6
DASHED
 10
266.506134
 20
52.090088
 11
266.506134
 21
42.090088
  0
LINE
  8
0
  6
DASHED
 10
315.506195
 20
53.090088
 11
308.756134
 21
53.090088
  0
LINE
  8
0
  6
DASHED
 10
316.006195
 20
52.090073
 11
316.006195
 21
38.090088
  0
LINE
  8
0
  6
DASHED
 10
315.506195
 20
52.590088
 11
289.506134
 21
52.590088
  0
LINE
  8
0
  6
DASHED
 10
267.506134
 20
52.090088
 11
266.506134
 21
52.090088
  0
LINE
  8
0
  6
DASHED
 10
267.506134
 20
42.090088
 11
266.506134
 21
42.090088
  0
LINE
  8
0
  6
DASHED
 10
267.506134
 20
52.590088
 11
267.506134
 21
3.090088
  0
LINE
  8
0
  6
DASHED
 10
308.756134
 20
53.090088
 11
308.756134
 21
52.590088
  0
LINE
  8
0
  6
DASHED
 10
304.256195
 20
53.090088
 11
304.256195
 21
52.590088
  0
LINE
  8
0
  6
DASHED
 10
304.256195
 20
53.090088
 11
297.506134
 21
53.090088
  0
LINE
  8
0
  6
DASHED
 10
297.505829
 20
53.090321
 11
297.005829
 21
52.590302
  0
LINE
  8
0
  6
DASHED
 10
315.506042
 20
53.089878
 11
316.506042
 21
52.089901
  0
LINE
  8
0
  6
DASHED
 10
316.506256
 20
40.840088
 11
316.006195
 21
40.840088
  0
LINE
  8
0
  6
DASHED
 10
316.506256
 20
-45.909912
 11
316.506256
 21
-34.659912
  0
LINE
  8
0
  6
DASHED
 10
266.506134
 20
-45.909912
 11
266.506134
 21
-35.909912
  0
LINE
  8
0
  6
DASHED
 10
315.506195
 20
-46.909912
 11
308.756134
 21
-46.909912
  0
LINE
  8
0
  6
DASHED
 10
316.006195
 20
-45.909912
 11
316.006195
 21
-31.909912
  0
LINE
  8
0
  6
DASHED
 10
315.506195
 20
-46.409912
 11
289.506134
 21
-46.409912
  0
LINE
  8
0
  6
DASHED
 10
267.506134
 20
-45.909912
 11
266.506134
 21
-45.909912
  0
LINE
  8
0
  6
DASHED
 10
267.506134
 20
-35.909912
 11
266.506134
 21
-35.909912
  0
LINE
  8
0
  6
DASHED
 10
267.506134
 20
-46.409912
 11
267.506134
 21
3.090088
  0
LINE
  8
0
  6
DASHED
 10
304.256195
 20
-46.909912
 11
297.506134
 21
-46.909912
  0
LINE
  8
0
  6
DASHED
 10
297.505890
 20
-46.910149
 11
297.005951
 21
-46.410172
  0
LINE
  8
0
  6
DASHED
 10
315.505920
 20
-46.909599
 11
316.505890
 21
-45.909622
  0
LINE
  8
0
  6
DASHED
 10
289.506134
 20
-46.409912
 11
289.506134
 21
-43.409912
  0
LINE
  8
0
  6
DASHED
 10
281.506134
 20
-46.409912
 11
281.506134
 21
-38.409912
  0
LINE
  8
0
  6
DASHED
 10
284.506134
 20
-38.409912
 11
281.506134
 21
-38.409912
  0
LINE
  8
0
  6
DASHED
 10
281.506134
 20
-46.409912
 11
267.506134
 21
-46.409912
  0
LINE
  8
0
  6
DASHED
 10
281.506134
 20
52.590088
 11
267.506134
 21
52.590088
  0
LINE
  8
0
  6
DASHED
 10
315.506287
 20
52.590256
 11
316.006317
 21
52.090218
  0
LINE
  8
0
  6
DASHED
 10
316.006012
 20
-45.909733
 11
315.506012
 21
-46.409740
  0
LINE
  8
0
  6
DASHED
 10
304.256195
 20
-46.409912
 11
304.256195
 21
-46.909912
  0
LINE
  8
0
  6
DASHED
 10
308.756134
 20
-46.409912
 11
308.756134
 21
-46.909912
  0
LINE
  8
0
  6
DASHED
 10
316.006195
 20
-34.659912
 11
316.506256
 21
-34.659912
  0
LINE
  8
0
  6
DASHED
 10
-334.200775
 20
-228.909912
 11
-207.123444
 21
-228.909912
  0
LINE
  8
0
  6
DASHED
 10
-339.897064
 20
-104.909912
 11
-206.783722
 21
-104.909912
  0
LINE
  8
0
 10
-352.259613
 20
-166.909912
 11
-197.919708
 21
-166.909912
  0
LINE
  8
0
  6
DASHED
 10
-146.993713
 20
-166.909912
 11
-146.993713
 21
-226.909912
  0
LINE
  8
0
  6
DASHED
 10
-142.993713
 20
-226.909912
 11
-146.993713
 21
-226.909912
  0
LINE
  8
0
  6
DASHED
 10
-142.993713
 20
-227.909912
 11
-148.493713
 21
-227.909912
  0
LINE
  8
0
  6
DASHED
 10
-146.993713
 20
-215.909912
 11
-148.493713
 21
-215.909912
  0
LINE
  8
0
  6
DASHED
 10
-83.993774
 20
-166.909912
 11
-83.993774
 21
-227.909912
  0
LINE
  8
0
  6
DASHED
 10
-84.493774
 20
-228.909912
 11
-117.493774
 21
-228.909912
  0
LINE
  8
0
  6
DASHED
 10
-83.493866
 20
-227.909668
 11
-84.493935
 21
-228.909729
  0
LINE
  8
0
  6
DASHED
 10
-117.493767
 20
-228.910019
 11
-117.993805
 21
-228.409988
  0
LINE
  8
0
  6
DASHED
 10
-124.493713
 20
-222.909912
 11
-124.493713
 21
-228.409912
  0
LINE
  8
0
  6
DASHED
 10
-128.225769
 20
-219.909912
 11
-132.493713
 21
-219.909912
  0
LINE
  8
0
  6
DASHED
 10
-132.493713
 20
-219.909912
 11
-132.493713
 21
-228.409912
  0
LINE
  8
0
  6
DASHED
 10
-126.493713
 20
-218.909912
 11
-126.493713
 21
-218.909912
  0
LINE
  8
0
  6
DASHED
 10
-121.493774
 20
-218.909912
 11
-126.493713
 21
-218.909912
  0
LINE
  8
0
  6
DASHED
 10
-121.493774
 20
-222.909912
 11
-124.493713
 21
-222.909912
  0
LINE
  8
0
  6
DASHED
 10
-132.493713
 20
-228.409912
 11
-142.993713
 21
-228.409912
  0
LINE
  8
0
  6
DASHED
 10
-146.993713
 20
-166.909912
 11
-146.993713
 21
-106.909920
  0
LINE
  8
0
  6
DASHED
 10
-142.993713
 20
-106.909912
 11
-146.993713
 21
-106.909912
  0
LINE
  8
0
  6
DASHED
 10
-142.993713
 20
-105.909912
 11
-148.493713
 21
-105.909912
  0
LINE
  8
0
  6
DASHED
 10
-84.493774
 20
-105.409912
 11
-124.493713
 21
-105.409912
  0
LINE
  8
0
  6
DASHED
 10
-146.993713
 20
-117.909912
 11
-148.493713
 21
-117.909912
  0
LINE
  8
0
  6
DASHED
 10
-83.993774
 20
-166.909912
 11
-83.993774
 21
-105.909920
  0
LINE
  8
0
  6
DASHED
 10
-84.493896
 20
-104.909912
 11
-117.493774
 21
-104.909912
  0
LINE
  8
0
  6
DASHED
 10
-83.493942
 20
-105.910141
 11
-84.494003
 21
-104.910072
  0
LINE
  8
0
  6
DASHED
 10
-117.493935
 20
-104.909897
 11
-117.993912
 21
-105.409897
  0
LINE
  8
0
  6
DASHED
 10
-83.493774
 20
-118.659912
 11
-83.993774
 21
-118.659912
  0
LINE
  8
0
  6
DASHED
 10
-83.493774
 20
-118.659920
 11
-83.493774
 21
-105.909920
  0
LINE
  8
0
  6
DASHED
 10
-124.493713
 20
-110.618629
 11
-124.493713
 21
-105.409920
  0
LINE
  8
0
  6
DASHED
 10
-127.784973
 20
-113.909912
 11
-132.493713
 21
-113.909912
  0
LINE
  8
0
  6
DASHED
 10
-132.493713
 20
-113.909920
 11
-132.493713
 21
-105.409920
  0
LINE
  8
0
  6
DASHED
 10
-132.493713
 20
-105.409912
 11
-142.993713
 21
-105.409912
  0
LINE
  8
0
  6
DASHED
 10
-84.493774
 20
-228.409912
 11
-124.493713
 21
-228.409912
  0
LINE
  8
0
  6
DASHED
 10
-83.993828
 20
-227.909866
 11
-84.493774
 21
-228.409821
  0
LINE
  8
0
  6
DASHED
 10
-84.493736
 20
-105.410095
 11
-83.993790
 21
-105.910042
  0
LINE
  8
0
  6
DASHED
 10
-83.493774
 20
-215.159912
 11
-83.993774
 21
-215.159912
  0
LINE
  8
0
  6
DASHED
 10
-83.493774
 20
-215.159912
 11
-83.493774
 21
-227.909912
  0
LINE
  8
0
  6
DASHED
 10
-83.493774
 20
-159.909912
 11
-83.493774
 21
-173.909912
  0
LINE
  8
0
  6
DASHED
 10
-83.993858
 20
-159.410034
 11
-83.493866
 21
-159.910034
  0
LINE
  8
0
  6
DASHED
 10
-83.493797
 20
-173.909851
 11
-83.993828
 21
-174.409882
  0
LINE
  8
0
  6
DASHED
 10
-142.993713
 20
-105.409920
 11
-142.993713
 21
-106.909920
  0
LINE
  8
0
  6
DASHED
 10
-142.993713
 20
-226.909912
 11
-142.993713
 21
-228.409912
  0
LINE
  8
0
  6
DASHED
 10
68.823517
 20
-104.909904
 11
116.037445
 21
-104.909904
  0
LINE
  8
0
  6
DASHED
 10
65.277740
 20
-120.909904
 11
130.037445
 21
-120.909904
  0
LINE
  8
0
  6
DASHED
 10
120.037506
 20
-106.909912
 11
120.037506
 21
-120.909912
  0
LINE
  8
0
  6
DASHED
 10
116.037506
 20
-104.909912
 11
116.037506
 21
-118.909912
  0
LINE
  8
0
  6
DASHED
 10
120.037445
 20
-106.909904
 11
130.037445
 21
-106.909904
  0
LINE
  8
0
  6
DASHED
 10
67.098053
 20
-118.909904
 11
120.037445
 21
-118.909904
  0
LINE
  8
0
 10
45.468536
 20
-166.909912
 11
137.204071
 21
-166.909912
  0
LINE
  8
0
  6
DASHED
 10
58.095428
 20
-228.909912
 11
116.037445
 21
-228.909912
  0
LINE
  8
0
  6
DASHED
 10
130.037506
 20
-105.409912
 11
130.037506
 21
-228.409912
  0
LINE
  8
0
  6
DASHED
 10
55.425262
 20
-212.909912
 11
130.037445
 21
-212.909912
  0
LINE
  8
0
  6
DASHED
 10
120.037445
 20
-226.909912
 11
130.037445
 21
-226.909912
  0
LINE
  8
0
  6
DASHED
 10
120.037506
 20
-212.909912
 11
120.037506
 21
-226.909912
  0
LINE
  8
0
  6
DASHED
 10
116.037506
 20
-214.909912
 11
116.037506
 21
-228.909912
  0
LINE
  8
0
  6
DASHED
 10
55.294769
 20
-214.909912
 11
120.037445
 21
-214.909912
  0
LINE
  8
0
  6
DASHED
 10
116.037445
 20
-105.409904
 11
130.037445
 21
-105.409904
  0
LINE
  8
0
  6
DASHED
 10
116.037445
 20
-228.409912
 11
130.037445
 21
-228.409912
  0
LINE
  8
0
  6
DASHED
 10
178.037506
 20
-167.409912
 11
178.037506
 21
-178.409912
  0
LINE
  8
0
  6
DASHED
 10
177.037506
 20
-179.409912
 11
171.537506
 21
-179.409912
  0
LINE
  8
0
  6
DASHED
 10
177.037506
 20
-166.409912
 11
171.537506
 21
-166.409912
  0
LINE
  8
0
  6
DASHED
 10
170.537506
 20
-166.409912
 11
170.537506
 21
-179.409912
  0
LINE
  8
0
  6
DASHED
 10
160.537506
 20
-166.409912
 11
160.537506
 21
-179.409912
  0
LINE
  8
0
  6
DASHED
 10
159.037506
 20
-180.909912
 11
137.037506
 21
-180.909912
  0
LINE
  8
0
  6
DASHED
 10
159.037506
 20
-164.909912
 11
137.037506
 21
-164.909912
  0
LINE
  8
0
  6
DASHED
 10
171.537506
 20
-166.409912
 11
171.537506
 21
-179.409912
  0
LINE
  8
0
  6
DASHED
 10
177.037430
 20
-166.410126
 11
178.037399
 21
-167.410095
  0
LINE
  8
0
  6
DASHED
 10
178.037430
 20
-178.409790
 11
177.037399
 21
-179.409821
  0
LINE
  8
0
  6
DASHED
 10
171.537476
 20
-166.409897
 11
170.537506
 21
-167.409882
  0
LINE
  8
0
  6
DASHED
 10
170.537445
 20
-178.410019
 11
171.537415
 21
-179.409988
  0
LINE
  8
0
  6
DASHED
 10
170.537506
 20
-179.409912
 11
160.537506
 21
-179.409912
  0
LINE
  8
0
  6
DASHED
 10
170.537506
 20
-166.409912
 11
160.537506
 21
-166.409912
  0
LINE
  8
0
  6
DASHED
 10
159.037506
 20
-164.909912
 11
159.037506
 21
-180.909912
  0
LINE
  8
0
  6
DASHED
 10
169.537506
 20
-166.409912
 11
169.537506
 21
-179.409912
  0
LINE
  8
0
  6
DASHED
 10
159.037888
 20
-164.909531
 11
160.537888
 21
-166.409546
  0
LINE
  8
0
  6
DASHED
 10
160.537521
 20
-179.409821
 11
159.037506
 21
-180.909836
  0
LINE
  8
0
  6
DASHED
 10
160.537506
 20
-179.409912
 11
137.037506
 21
-179.409912
  0
LINE
  8
0
  6
DASHED
 10
160.537506
 20
-166.409912
 11
137.037506
 21
-166.409912
  0
LINE
  8
0
  6
DASHED
 10
137.037506
 20
-164.459900
 11
137.037506
 21
-181.359924
  0
LINE
  8
0
  6
DASHED
 10
135.806915
 20
-183.859924
 11
131.268097
 21
-183.859924
  0
LINE
  8
0
  6
DASHED
 10
135.806915
 20
-161.959900
 11
131.268097
 21
-161.959900
  0
LINE
  8
0
  6
DASHED
 10
135.806915
 20
-166.959900
 11
131.268097
 21
-166.959900
  0
LINE
  8
0
  6
DASHED
 10
135.806915
 20
-178.859924
 11
131.268097
 21
-178.859924
  0
LINE
  8
0
  6
DASHED
 10
251.506256
 20
-215.909912
 11
251.506256
 21
-227.909912
  0
LINE
  8
0
  6
DASHED
 10
253.006256
 20
-166.909912
 11
253.006256
 21
-226.909912
  0
LINE
  8
0
  6
DASHED
 10
257.006226
 20
-226.909912
 11
253.006226
 21
-226.909912
  0
LINE
  8
0
  6
DASHED
 10
257.006256
 20
-226.909912
 11
257.006256
 21
-228.409912
  0
LINE
  8
0
  6
DASHED
 10
257.006226
 20
-227.909912
 11
251.506226
 21
-227.909912
  0
LINE
  8
0
  6
DASHED
 10
253.006226
 20
-215.909912
 11
251.506226
 21
-215.909912
  0
LINE
  8
0
  6
DASHED
 10
316.006256
 20
-211.909912
 11
316.006256
 21
-227.909912
  0
LINE
  8
0
  6
DASHED
 10
315.506165
 20
-228.909912
 11
282.506165
 21
-228.909912
  0
LINE
  8
0
  6
DASHED
 10
316.506042
 20
-227.909683
 11
315.505981
 21
-228.909744
  0
LINE
  8
0
  6
DASHED
 10
282.506073
 20
-228.910156
 11
282.006042
 21
-228.410110
  0
LINE
  8
0
  6
DASHED
 10
251.506256
 20
-117.909912
 11
251.506256
 21
-105.909912
  0
LINE
  8
0
  6
DASHED
 10
253.006256
 20
-166.909912
 11
253.006256
 21
-106.909912
  0
LINE
  8
0
  6
DASHED
 10
257.006226
 20
-106.909904
 11
253.006226
 21
-106.909904
  0
LINE
  8
0
  6
DASHED
 10
257.006256
 20
-106.909912
 11
257.006256
 21
-105.409912
  0
LINE
  8
0
  6
DASHED
 10
257.006226
 20
-105.909904
 11
251.506226
 21
-105.909904
  0
LINE
  8
0
  6
DASHED
 10
315.506165
 20
-105.409904
 11
275.506226
 21
-105.409904
  0
LINE
  8
0
  6
DASHED
 10
253.006226
 20
-117.909904
 11
251.506226
 21
-117.909904
  0
LINE
  8
0
  6
DASHED
 10
316.006256
 20
-121.909912
 11
316.006256
 21
-105.909912
  0
LINE
  8
0
  6
DASHED
 10
315.506042
 20
-104.909904
 11
282.506165
 21
-104.909904
  0
LINE
  8
0
  6
DASHED
 10
316.505859
 20
-105.910217
 11
315.505798
 21
-104.910149
  0
LINE
  8
0
  6
DASHED
 10
282.505981
 20
-104.909698
 11
282.005951
 21
-105.409744
  0
LINE
  8
0
  6
DASHED
 10
316.506165
 20
-118.659904
 11
316.006165
 21
-118.659904
  0
LINE
  8
0
  6
DASHED
 10
316.506256
 20
-118.659912
 11
316.506256
 21
-105.909912
  0
LINE
  8
0
  6
DASHED
 10
275.506256
 20
-110.618622
 11
275.506256
 21
-105.409912
  0
LINE
  8
0
  6
DASHED
 10
272.214966
 20
-113.909904
 11
267.506226
 21
-113.909904
  0
LINE
  8
0
  6
DASHED
 10
267.506256
 20
-113.909912
 11
267.506256
 21
-105.409912
  0
LINE
  8
0
  6
DASHED
 10
267.506226
 20
-105.409904
 11
257.006226
 21
-105.409904
  0
LINE
  8
0
 10
321.886047
 20
-166.909912
 11
246.487793
 21
-166.909912
  0
LINE
  8
0
  6
DASHED
 10
316.005829
 20
-227.909637
 11
315.505859
 21
-228.409592
  0
LINE
  8
0
  6
DASHED
 10
315.506226
 20
-105.410027
 11
316.006195
 21
-105.909973
  0
LINE
  8
0
  6
DASHED
 10
316.506165
 20
-215.159912
 11
316.006165
 21
-215.159912
  0
LINE
  8
0
  6
DASHED
 10
316.506256
 20
-215.159912
 11
316.506256
 21
-227.909912
  0
LINE
  8
0
  6
DASHED
 10
268.506256
 20
-219.909882
 11
268.506256
 21
-228.409882
  0
LINE
  8
0
  6
DASHED
 10
257.006226
 20
-228.410217
 11
268.506226
 21
-228.410217
  0
LINE
  8
0
  6
DASHED
 10
268.506226
 20
-219.910217
 11
272.774170
 21
-219.910217
  0
LINE
  8
0
  6
DASHED
 10
278.506256
 20
-222.909851
 11
278.506256
 21
-228.409882
  0
LINE
  8
0
  6
DASHED
 10
274.506226
 20
-218.910217
 11
278.506226
 21
-218.910217
  0
LINE
  8
0
  6
DASHED
 10
278.506226
 20
-228.410217
 11
315.506104
 21
-228.410217
  0
LINE
  8
0
 10
-173.896133
 20
-166.909912
 11
-73.427299
 21
-166.909912
  0
LINE
  8
0
 10
-399.250000
 20
89.490250
 11
399.799988
 21
89.490250
  0
LINE
  8
0
 10
9.999998
 20
249.999954
 11
9.999998
 21
89.490250
  0
LINE
  8
0
 10
9.999998
 20
-109.999977
 11
9.999998
 21
-276.750000
  0
LINE
  8
0
 10
9.999998
 20
59.999989
 11
9.999998
 21
-79.999985
  0
LINE
  8
0
 10
-399.250000
 20
-79.999985
 11
399.799988
 21
-79.999985
  0
ARC
  8
0
 62
     3
 10
-350.080566
 20
241.368500
 40
4.592560
 50
180.000000
 51
270.000000
  0
ARC
  8
0
 62
     1
 10
-350.080566
 20
241.368500
 40
6.888824
 50
180.000000
 51
270.000000
  0
ARC
  8
0
 62
     5
 10
-350.080566
 20
241.368500
 40
12.246796
 50
180.000000
 51
270.000000
  0
ARC
  8
0
 62
     5
 10
-350.080566
 20
241.368500
 40
8.419678
 50
180.000000
 51
270.000000
  0
ARC
  8
0
  6
DASHED
 10
140.037506
 20
156.270294
 40
10.000001
 50
156.734039
 51
203.265961
  0
ARC
  8
0
  6
DASHED
 10
131.827545
 20
161.720306
 40
1.790039
 50
123.073578
 51
236.926422
  0
ARC
  8
0
  6
DASHED
 10
131.827545
 20
150.820312
 40
1.790039
 50
123.073578
 51
236.926422
  0
ARC
  8
0
  6
DASHED
 10
123.037506
 20
156.270294
 40
10.000001
 50
336.734039
 51
23.265873
  0
ARC
  8
0
  6
DASHED
 10
131.247467
 20
161.720306
 40
1.790039
 50
303.073578
 51
56.926418
  0
ARC
  8
0
  6
DASHED
 10
131.247467
 20
150.820312
 40
1.790039
 50
303.073578
 51
56.926418
  0
ARC
  8
0
  6
DASHED
 10
293.506256
 20
199.270294
 40
2.000004
 50
209.999924
 51
60.000069
  0
ARC
  8
0
  6
DASHED
 10
293.506256
 20
126.270294
 40
1.999998
 50
300.000031
 51
150.000076
  0
ARC
  8
0
  6
DASHED
 10
-115.493774
 20
-43.409943
 40
5.000000
 50
0.000000
 51
90.000000
  0
ARC
  8
0
  6
DASHED
 10
-111.493774
 20
45.590088
 40
2.500002
 50
203.578156
 51
66.421806
  0
ARC
  8
0
  6
DASHED
 10
132.517548
 20
-10.259903
 40
2.480026
 50
135.118896
 51
224.881042
  0
ARC
  8
0
  6
DASHED
 10
145.037506
 20
-3.909912
 40
14.999998
 50
162.141525
 51
197.858459
  0
ARC
  8
0
  6
DASHED
 10
132.517548
 20
2.440094
 40
2.480024
 50
135.118927
 51
224.881058
  0
ARC
  8
0
  6
DASHED
 10
119.037491
 20
-3.909912
 40
15.000000
 50
342.141510
 51
17.858437
  0
ARC
  8
0
  6
DASHED
 10
131.557465
 20
2.440094
 40
2.480025
 50
315.118927
 51
44.881050
  0
ARC
  8
0
  6
DASHED
 10
131.557465
 20
-10.259903
 40
2.480025
 50
315.118927
 51
44.881081
  0
ARC
  8
0
  6
DASHED
 10
284.506134
 20
-43.409912
 40
5.000000
 50
0.000000
 51
90.000000
  0
ARC
  8
0
  6
DASHED
 10
-121.493774
 20
-220.909912
 40
2.000000
 50
270.000000
 51
90.000000
  0
ARC
  8
0
  6
DASHED
 10
-125.493713
 20
-112.909912
 40
2.500000
 50
0.000000
 51
66.421844
  0
ARC
  8
0
  6
DASHED
 10
-125.493713
 20
-112.909912
 40
2.499998
 50
203.578384
 51
0.000000
  0
ARC
  8
0
  6
DASHED
 10
-126.493713
 20
-220.909912
 40
2.000000
 50
90.000000
 51
150.000076
  0
ARC
  8
0
  6
DASHED
 10
133.192291
 20
-181.359924
 40
3.154771
 50
127.584900
 51
232.415100
  0
ARC
  8
0
  6
DASHED
 10
133.192291
 20
-164.459900
 40
3.154771
 50
127.584900
 51
232.415100
  0
ARC
  8
0
  6
DASHED
 10
145.037506
 20
-172.909912
 40
14.999998
 50
156.630051
 51
203.369949
  0
ARC
  8
0
  6
DASHED
 10
122.037506
 20
-172.909912
 40
14.999998
 50
336.630035
 51
23.369898
  0
ARC
  8
0
  6
DASHED
 10
133.882721
 20
-164.459900
 40
3.154771
 50
307.584900
 51
52.415104
  0
ARC
  8
0
  6
DASHED
 10
133.882721
 20
-181.359924
 40
3.154771
 50
307.584900
 51
52.415104
  0
ARC
  8
0
  6
DASHED
 10
274.506256
 20
-112.909904
 40
2.500000
 50
0.000000
 51
66.421844
  0
ARC
  8
0
  6
DASHED
 10
274.506256
 20
-112.909904
 40
2.500005
 50
203.578323
 51
0.000000
  0
ARC
  8
0
  6
DASHED
 10
278.506256
 20
-220.909851
 40
2.000000
 50
270.000000
 51
90.000000
  0
ARC
  8
0
  6
DASHED
 10
274.506256
 20
-220.909851
 40
2.000000
 50
90.000000
 51
150.000443
  0
POLYLINE
  8
0
  6
DASHED
 66
     1
  0
VERTEX
  8
0
  6
DASHED
 10
-230.243591
 20
206.745697
  0
VERTEX
  8
0
  6
DASHED
 10
-230.050919
 20
205.768005
  0
VERTEX
  8
0
  6
DASHED
 10
-229.865250
 20
204.775467
  0
VERTEX
  8
0
  6
DASHED
 10
-229.675934
 20
203.783691
  0
VERTEX
  8
0
  6
DASHED
 10
-229.472366
 20
202.808319
  0
VERTEX
  8
0
  6
DASHED
 10
-229.243927
 20
201.865005
  0
VERTEX
  8
0
  6
DASHED
 10
-228.980011
 20
200.969360
  0
VERTEX
  8
0
  6
DASHED
 10
-228.657974
 20
200.052444
  0
VERTEX
  8
0
  6
DASHED
 10
-228.331772
 20
199.135590
  0
VERTEX
  8
0
  6
DASHED
 10
-228.058273
 20
198.225906
  0
VERTEX
  8
0
  6
DASHED
 10
-227.894363
 20
197.330521
  0
VERTEX
  8
0
  6
DASHED
 10
-227.896942
 20
196.456543
  0
VERTEX
  8
0
  6
DASHED
 10
-228.106827
 20
195.599075
  0
VERTEX
  8
0
  6
DASHED
 10
-228.480820
 20
194.746826
  0
VERTEX
  8
0
  6
DASHED
 10
-228.948441
 20
193.908127
  0
VERTEX
  8
0
  6
DASHED
 10
-229.439178
 20
193.091339
  0
VERTEX
  8
0
  6
DASHED
 10
-229.882568
 20
192.304810
  0
VERTEX
  8
0
  6
DASHED
 10
-230.242889
 20
191.597000
  0
VERTEX
  8
0
  6
DASHED
 10
-230.499130
 20
190.988647
  0
VERTEX
  8
0
  6
DASHED
 10
-230.763000
 20
190.135818
  0
VERTEX
  8
0
  6
DASHED
 10
-231.146149
 20
188.694580
  0
VERTEX
  8
0
  6
DASHED
 10
-231.381165
 20
187.761444
  0
VERTEX
  8
0
  6
DASHED
 10
-231.604736
 20
186.814804
  0
VERTEX
  8
0
  6
DASHED
 10
-231.814850
 20
185.857910
  0
VERTEX
  8
0
  6
DASHED
 10
-232.009506
 20
184.894028
  0
VERTEX
  8
0
  6
DASHED
 10
-232.186722
 20
183.926422
  0
VERTEX
  8
0
  6
DASHED
 10
-232.344482
 20
182.958328
  0
VERTEX
  8
0
  6
DASHED
 10
-232.480804
 20
181.993027
  0
VERTEX
  8
0
  6
DASHED
 10
-232.593674
 20
181.033783
  0
VERTEX
  8
0
  6
DASHED
 10
-232.681107
 20
180.083817
  0
VERTEX
  8
0
  6
DASHED
 10
-232.741089
 20
179.146423
  0
VERTEX
  8
0
  6
DASHED
 10
-232.771637
 20
178.224854
  0
VERTEX
  8
0
  6
DASHED
 10
-232.770752
 20
177.322357
  0
VERTEX
  8
0
  6
DASHED
 10
-232.740479
 20
176.429764
  0
VERTEX
  8
0
  6
DASHED
 10
-232.686295
 20
175.558701
  0
VERTEX
  8
0
  6
DASHED
 10
-232.610550
 20
174.701340
  0
VERTEX
  8
0
  6
DASHED
 10
-232.515549
 20
173.849838
  0
VERTEX
  8
0
  6
DASHED
 10
-232.403625
 20
172.996338
  0
VERTEX
  8
0
  6
DASHED
 10
-232.277115
 20
172.133011
  0
VERTEX
  8
0
  6
DASHED
 10
-232.138336
 20
171.251999
  0
VERTEX
  8
0
  6
DASHED
 10
-231.989624
 20
170.345459
  0
VERTEX
  8
0
  6
DASHED
 10
-231.833313
 20
169.405563
  0
VERTEX
  8
0
  6
DASHED
 10
-231.671722
 20
168.424438
  0
VERTEX
  8
0
  6
DASHED
 10
-231.507172
 20
167.394257
  0
VERTEX
  8
0
  6
DASHED
 10
-231.364990
 20
166.422287
  0
VERTEX
  8
0
  6
DASHED
 10
-231.235718
 20
165.413788
  0
VERTEX
  8
0
  6
DASHED
 10
-231.119598
 20
164.378586
  0
VERTEX
  8
0
  6
DASHED
 10
-231.016891
 20
163.326508
  0
VERTEX
  8
0
  6
DASHED
 10
-230.927872
 20
162.267349
  0
VERTEX
  8
0
  6
DASHED
 10
-230.852783
 20
161.210953
  0
VERTEX
  8
0
  6
DASHED
 10
-230.791901
 20
160.167099
  0
VERTEX
  8
0
  6
DASHED
 10
-230.745483
 20
159.145630
  0
VERTEX
  8
0
  6
DASHED
 10
-230.713776
 20
158.156357
  0
VERTEX
  8
0
  6
DASHED
 10
-230.697052
 20
157.209076
  0
VERTEX
  8
0
  6
DASHED
 10
-230.695557
 20
156.313644
  0
VERTEX
  8
0
  6
DASHED
 10
-230.709564
 20
155.479843
  0
VERTEX
  8
0
  6
DASHED
 10
-230.739334
 20
154.717499
  0
VERTEX
  8
0
  6
DASHED
 10
-230.785126
 20
154.036423
  0
VERTEX
  8
0
  6
DASHED
 10
-230.868790
 20
153.146988
  0
VERTEX
  8
0
  6
DASHED
 10
-230.972809
 20
152.277893
  0
VERTEX
  8
0
  6
DASHED
 10
-231.107193
 20
151.402252
  0
VERTEX
  8
0
  6
DASHED
 10
-231.281967
 20
150.493134
  0
VERTEX
  8
0
  6
DASHED
 10
-231.507172
 20
149.523636
  0
VERTEX
  8
0
  6
DASHED
 10
-231.759323
 20
148.580643
  0
VERTEX
  8
0
  6
DASHED
 10
-232.028290
 20
147.629318
  0
VERTEX
  8
0
  6
DASHED
 10
-232.289001
 20
146.679016
  0
VERTEX
  8
0
  6
DASHED
 10
-232.516357
 20
145.739075
  0
VERTEX
  8
0
  6
DASHED
 10
-232.685303
 20
144.818893
  0
VERTEX
  8
0
  6
DASHED
 10
-232.770752
 20
143.927795
  0
VERTEX
  8
0
  6
DASHED
 10
-232.758270
 20
142.961044
  0
VERTEX
  8
0
  6
DASHED
 10
-232.657410
 20
141.994812
  0
VERTEX
  8
0
  6
DASHED
 10
-232.490570
 20
141.024567
  0
VERTEX
  8
0
  6
DASHED
 10
-232.280197
 20
140.045807
  0
VERTEX
  8
0
  6
DASHED
 10
-232.048706
 20
139.053986
  0
VERTEX
  8
0
  6
DASHED
 10
-231.852753
 20
138.209991
  0
VERTEX
  8
0
  6
DASHED
 10
-231.661484
 20
137.382858
  0
VERTEX
  8
0
  6
DASHED
 10
-231.467010
 20
136.560410
  0
VERTEX
  8
0
  6
DASHED
 10
-231.261383
 20
135.730499
  0
VERTEX
  8
0
  6
DASHED
 10
-231.036728
 20
134.880966
  0
VERTEX
  8
0
  6
DASHED
 10
-230.785126
 20
133.999664
  0
VERTEX
  8
0
  6
DASHED
 10
-230.523071
 20
133.157791
  0
VERTEX
  8
0
  6
DASHED
 10
-230.237579
 20
132.311447
  0
VERTEX
  8
0
  6
DASHED
 10
-229.933243
 20
131.466644
  0
VERTEX
  8
0
  6
DASHED
 10
-229.614639
 20
130.629410
  0
VERTEX
  8
0
  6
DASHED
 10
-229.286346
 20
129.805756
  0
VERTEX
  8
0
  6
DASHED
 10
-228.952942
 20
129.001724
  0
VERTEX
  8
0
  6
DASHED
 10
-228.618988
 20
128.223312
  0
VERTEX
  8
0
  6
DASHED
 10
-228.261032
 20
127.383095
  0
VERTEX
  8
0
  6
DASHED
 10
-227.917618
 20
126.515213
  0
VERTEX
  8
0
  6
DASHED
 10
-227.613037
 20
125.639771
  0
VERTEX
  8
0
  6
DASHED
 10
-227.371536
 20
124.776855
  0
VERTEX
  8
0
  6
DASHED
 10
-227.217392
 20
123.946564
  0
VERTEX
  8
0
  6
DASHED
 10
-227.174896
 20
123.168991
  0
VERTEX
  8
0
  6
DASHED
 10
-227.306137
 20
122.213921
  0
VERTEX
  8
0
  6
DASHED
 10
-227.603851
 20
121.252403
  0
VERTEX
  8
0
  6
DASHED
 10
-228.002960
 20
120.391754
  0
VERTEX
  8
0
  6
DASHED
 10
-228.438477
 20
119.739288
  0
VERTEX
  8
0
  6
DASHED
 10
-229.029510
 20
119.148399
  0
VERTEX
  8
0
  6
DASHED
 10
-229.702057
 20
118.656219
  0
SEQEND
  0
POLYLINE
  8
0
  6
DASHED
 66
     1
  0
VERTEX
  8
0
  6
DASHED
 10
-313.046997
 20
206.671173
  0
VERTEX
  8
0
  6
DASHED
 10
-313.100037
 20
205.753143
  0
VERTEX
  8
0
  6
DASHED
 10
-313.148224
 20
204.818771
  0
VERTEX
  8
0
  6
DASHED
 10
-313.190491
 20
203.876083
  0
VERTEX
  8
0
  6
DASHED
 10
-313.225800
 20
202.933090
  0
VERTEX
  8
0
  6
DASHED
 10
-313.253174
 20
201.997818
  0
VERTEX
  8
0
  6
DASHED
 10
-313.271515
 20
201.078278
  0
VERTEX
  8
0
  6
DASHED
 10
-313.279816
 20
200.182480
  0
VERTEX
  8
0
  6
DASHED
 10
-313.277039
 20
199.318451
  0
VERTEX
  8
0
  6
DASHED
 10
-313.262146
 20
198.494202
  0
VERTEX
  8
0
  6
DASHED
 10
-313.232300
 20
197.617187
  0
VERTEX
  8
0
  6
DASHED
 10
-313.193573
 20
196.760803
  0
VERTEX
  8
0
  6
DASHED
 10
-313.151093
 20
195.909760
  0
VERTEX
  8
0
  6
DASHED
 10
-313.110077
 20
195.048813
  0
VERTEX
  8
0
  6
DASHED
 10
-313.075592
 20
194.162689
  0
VERTEX
  8
0
  6
DASHED
 10
-313.052856
 20
193.236115
  0
VERTEX
  8
0
  6
DASHED
 10
-313.046997
 20
192.253845
  0
VERTEX
  8
0
  6
DASHED
 10
-313.052094
 20
191.412491
  0
VERTEX
  8
0
  6
DASHED
 10
-313.064301
 20
190.640244
  0
VERTEX
  8
0
  6
DASHED
 10
-313.090271
 20
189.902878
  0
VERTEX
  8
0
  6
DASHED
 10
-313.136688
 20
189.166107
  0
VERTEX
  8
0
  6
DASHED
 10
-313.210144
 20
188.395676
  0
VERTEX
  8
0
  6
DASHED
 10
-313.317322
 20
187.557327
  0
VERTEX
  8
0
  6
DASHED
 10
-313.464905
 20
186.616776
  0
VERTEX
  8
0
  6
DASHED
 10
-313.659454
 20
185.539780
  0
VERTEX
  8
0
  6
DASHED
 10
-313.907715
 20
184.292053
  0
VERTEX
  8
0
  6
DASHED
 10
-314.113861
 20
183.325867
  0
VERTEX
  8
0
  6
DASHED
 10
-314.335236
 20
182.342194
  0
VERTEX
  8
0
  6
DASHED
 10
-314.567688
 20
181.344940
  0
VERTEX
  8
0
  6
DASHED
 10
-314.807190
 20
180.338028
  0
VERTEX
  8
0
  6
DASHED
 10
-315.049652
 20
179.325378
  0
VERTEX
  8
0
  6
DASHED
 10
-315.291016
 20
178.310928
  0
VERTEX
  8
0
  6
DASHED
 10
-315.527130
 20
177.298569
  0
VERTEX
  8
0
  6
DASHED
 10
-315.753998
 20
176.292236
  0
VERTEX
  8
0
  6
DASHED
 10
-315.967499
 20
175.295837
  0
VERTEX
  8
0
  6
DASHED
 10
-316.163574
 20
174.313324
  0
VERTEX
  8
0
  6
DASHED
 10
-316.338135
 20
173.348587
  0
VERTEX
  8
0
  6
DASHED
 10
-316.487061
 20
172.405548
  0
VERTEX
  8
0
  6
DASHED
 10
-316.606354
 20
171.488159
  0
VERTEX
  8
0
  6
DASHED
 10
-316.691864
 20
170.600296
  0
VERTEX
  8
0
  6
DASHED
 10
-316.739563
 20
169.745911
  0
VERTEX
  8
0
  6
DASHED
 10
-316.745331
 20
168.928909
  0
VERTEX
  8
0
  6
DASHED
 10
-316.705109
 20
168.153229
  0
VERTEX
  8
0
  6
DASHED
 10
-316.600342
 20
167.206543
  0
VERTEX
  8
0
  6
DASHED
 10
-316.454987
 20
166.295486
  0
VERTEX
  8
0
  6
DASHED
 10
-316.273254
 20
165.404892
  0
VERTEX
  8
0
  6
DASHED
 10
-316.059387
 20
164.519592
  0
VERTEX
  8
0
  6
DASHED
 10
-315.817596
 20
163.624435
  0
VERTEX
  8
0
  6
DASHED
 10
-315.552155
 20
162.704239
  0
VERTEX
  8
0
  6
DASHED
 10
-315.267242
 20
161.743866
  0
VERTEX
  8
0
  6
DASHED
 10
-314.967102
 20
160.728134
  0
VERTEX
  8
0
  6
DASHED
 10
-314.655975
 20
159.641876
  0
VERTEX
  8
0
  6
DASHED
 10
-314.338074
 20
158.469940
  0
VERTEX
  8
0
  6
DASHED
 10
-314.094086
 20
157.483612
  0
VERTEX
  8
0
  6
DASHED
 10
-313.873138
 20
156.477783
  0
VERTEX
  8
0
  6
DASHED
 10
-313.674652
 20
155.456818
  0
VERTEX
  8
0
  6
DASHED
 10
-313.498047
 20
154.425140
  0
VERTEX
  8
0
  6
DASHED
 10
-313.342743
 20
153.387100
  0
VERTEX
  8
0
  6
DASHED
 10
-313.208130
 20
152.347092
  0
VERTEX
  8
0
  6
DASHED
 10
-313.093628
 20
151.309509
  0
VERTEX
  8
0
  6
DASHED
 10
-312.998688
 20
150.278732
  0
VERTEX
  8
0
  6
DASHED
 10
-312.922668
 20
149.259155
  0
VERTEX
  8
0
  6
DASHED
 10
-312.865021
 20
148.255142
  0
VERTEX
  8
0
  6
DASHED
 10
-312.825165
 20
147.271103
  0
VERTEX
  8
0
  6
DASHED
 10
-312.802490
 20
146.311401
  0
VERTEX
  8
0
  6
DASHED
 10
-312.796448
 20
145.380432
  0
VERTEX
  8
0
  6
DASHED
 10
-312.806396
 20
144.482590
  0
VERTEX
  8
0
  6
DASHED
 10
-312.831787
 20
143.622238
  0
VERTEX
  8
0
  6
DASHED
 10
-312.877228
 20
142.664963
  0
VERTEX
  8
0
  6
DASHED
 10
-312.937958
 20
141.678574
  0
VERTEX
  8
0
  6
DASHED
 10
-313.011139
 20
140.673996
  0
VERTEX
  8
0
  6
DASHED
 10
-313.093781
 20
139.662170
  0
VERTEX
  8
0
  6
DASHED
 10
-313.182983
 20
138.653992
  0
VERTEX
  8
0
  6
DASHED
 10
-313.275818
 20
137.660400
  0
VERTEX
  8
0
  6
DASHED
 10
-313.369385
 20
136.692307
  0
VERTEX
  8
0
  6
DASHED
 10
-313.460754
 20
135.760635
  0
VERTEX
  8
0
  6
DASHED
 10
-313.547028
 20
134.876328
  0
VERTEX
  8
0
  6
DASHED
 10
-313.625244
 20
134.050278
  0
VERTEX
  8
0
  6
DASHED
 10
-313.692535
 20
133.293411
  0
VERTEX
  8
0
  6
DASHED
 10
-313.761597
 20
132.376114
  0
VERTEX
  8
0
  6
DASHED
 10
-313.811920
 20
131.438965
  0
VERTEX
  8
0
  6
DASHED
 10
-313.836853
 20
130.503052
  0
VERTEX
  8
0
  6
DASHED
 10
-313.829681
 20
129.589493
  0
VERTEX
  8
0
  6
DASHED
 10
-313.783813
 20
128.719376
  0
VERTEX
  8
0
  6
DASHED
 10
-313.692535
 20
127.913803
  0
VERTEX
  8
0
  6
DASHED
 10
-313.517609
 20
126.975266
  0
VERTEX
  8
0
  6
DASHED
 10
-313.302338
 20
126.064056
  0
VERTEX
  8
0
  6
DASHED
 10
-313.066986
 20
125.109390
  0
VERTEX
  8
0
  6
DASHED
 10
-312.831787
 20
124.040497
  0
VERTEX
  8
0
  6
DASHED
 10
-312.678131
 20
123.153496
  0
VERTEX
  8
0
  6
DASHED
 10
-312.564514
 20
122.260345
  0
VERTEX
  8
0
  6
DASHED
 10
-312.485474
 20
121.362778
  0
VERTEX
  8
0
  6
DASHED
 10
-312.435547
 20
120.462524
  0
VERTEX
  8
0
  6
DASHED
 10
-312.409363
 20
119.561317
  0
VERTEX
  8
0
  6
DASHED
 10
-312.401428
 20
118.660889
  0
SEQEND
  0
POLYLINE
  8
0
  6
DASHED
 66
     1
  0
VERTEX
  8
0
  6
DASHED
 10
92.745270
 20
206.861511
  0
VERTEX
  8
0
  6
DASHED
 10
92.574989
 20
205.957901
  0
VERTEX
  8
0
  6
DASHED
 10
92.444473
 20
205.086578
  0
VERTEX
  8
0
  6
DASHED
 10
92.367210
 20
204.131226
  0
VERTEX
  8
0
  6
DASHED
 10
92.356659
 20
202.975555
  0
VERTEX
  8
0
  6
DASHED
 10
92.397621
 20
202.112320
  0
VERTEX
  8
0
  6
DASHED
 10
92.478584
 20
201.330048
  0
VERTEX
  8
0
  6
DASHED
 10
92.595123
 20
200.569611
  0
VERTEX
  8
0
  6
DASHED
 10
92.742783
 20
199.771896
  0
VERTEX
  8
0
  6
DASHED
 10
92.917137
 20
198.877777
  0
VERTEX
  8
0
  6
DASHED
 10
93.113739
 20
197.828094
  0
VERTEX
  8
0
  6
DASHED
 10
93.328156
 20
196.563751
  0
VERTEX
  8
0
  6
DASHED
 10
93.462227
 20
195.638611
  0
VERTEX
  8
0
  6
DASHED
 10
93.568405
 20
194.727081
  0
VERTEX
  8
0
  6
DASHED
 10
93.649033
 20
193.825073
  0
VERTEX
  8
0
  6
DASHED
 10
93.706467
 20
192.928452
  0
VERTEX
  8
0
  6
DASHED
 10
93.743057
 20
192.033096
  0
VERTEX
  8
0
  6
DASHED
 10
93.761162
 20
191.134872
  0
VERTEX
  8
0
  6
DASHED
 10
93.763115
 20
190.229675
  0
VERTEX
  8
0
  6
DASHED
 10
93.751289
 20
189.313370
  0
VERTEX
  8
0
  6
DASHED
 10
93.728020
 20
188.381836
  0
VERTEX
  8
0
  6
DASHED
 10
93.695663
 20
187.430969
  0
VERTEX
  8
0
  6
DASHED
 10
93.656578
 20
186.456619
  0
VERTEX
  8
0
  6
DASHED
 10
93.613113
 20
185.454697
  0
VERTEX
  8
0
  6
DASHED
 10
93.567612
 20
184.421036
  0
VERTEX
  8
0
  6
DASHED
 10
93.522430
 20
183.351562
  0
VERTEX
  8
0
  6
DASHED
 10
93.484375
 20
182.386307
  0
VERTEX
  8
0
  6
DASHED
 10
93.447517
 20
181.404816
  0
VERTEX
  8
0
  6
DASHED
 10
93.411278
 20
180.410492
  0
VERTEX
  8
0
  6
DASHED
 10
93.375084
 20
179.406693
  0
VERTEX
  8
0
  6
DASHED
 10
93.338356
 20
178.396820
  0
VERTEX
  8
0
  6
DASHED
 10
93.300522
 20
177.384232
  0
VERTEX
  8
0
  6
DASHED
 10
93.261009
 20
176.372345
  0
VERTEX
  8
0
  6
DASHED
 10
93.219238
 20
175.364502
  0
VERTEX
  8
0
  6
DASHED
 10
93.174637
 20
174.364105
  0
VERTEX
  8
0
  6
DASHED
 10
93.126625
 20
173.374527
  0
VERTEX
  8
0
  6
DASHED
 10
93.074638
 20
172.399170
  0
VERTEX
  8
0
  6
DASHED
 10
93.018097
 20
171.441391
  0
VERTEX
  8
0
  6
DASHED
 10
92.956413
 20
170.504593
  0
VERTEX
  8
0
  6
DASHED
 10
92.889030
 20
169.592133
  0
VERTEX
  8
0
  6
DASHED
 10
92.815369
 20
168.707413
  0
VERTEX
  8
0
  6
DASHED
 10
92.734848
 20
167.853806
  0
VERTEX
  8
0
  6
DASHED
 10
92.646896
 20
167.034683
  0
VERTEX
  8
0
  6
DASHED
 10
92.550934
 20
166.253448
  0
VERTEX
  8
0
  6
DASHED
 10
92.420746
 20
165.313843
  0
VERTEX
  8
0
  6
DASHED
 10
92.281982
 20
164.397980
  0
VERTEX
  8
0
  6
DASHED
 10
92.135590
 20
163.496979
  0
VERTEX
  8
0
  6
DASHED
 10
91.982491
 20
162.602005
  0
VERTEX
  8
0
  6
DASHED
 10
91.823639
 20
161.704178
  0
VERTEX
  8
0
  6
DASHED
 10
91.659973
 20
160.794662
  0
VERTEX
  8
0
  6
DASHED
 10
91.492424
 20
159.864578
  0
VERTEX
  8
0
  6
DASHED
 10
91.321945
 20
158.905075
  0
VERTEX
  8
0
  6
DASHED
 10
91.149460
 20
157.907288
  0
VERTEX
  8
0
  6
DASHED
 10
90.975929
 20
156.862350
  0
VERTEX
  8
0
  6
DASHED
 10
90.802277
 20
155.761414
  0
VERTEX
  8
0
  6
DASHED
 10
90.661423
 20
154.804871
  0
VERTEX
  8
0
  6
DASHED
 10
90.532036
 20
153.844498
  0
VERTEX
  8
0
  6
DASHED
 10
90.415245
 20
152.881088
  0
VERTEX
  8
0
  6
DASHED
 10
90.312202
 20
151.915497
  0
VERTEX
  8
0
  6
DASHED
 10
90.224060
 20
150.948517
  0
VERTEX
  8
0
  6
DASHED
 10
90.151947
 20
149.980972
  0
VERTEX
  8
0
  6
DASHED
 10
90.097023
 20
149.013687
  0
VERTEX
  8
0
  6
DASHED
 10
90.060432
 20
148.047501
  0
VERTEX
  8
0
  6
DASHED
 10
90.043312
 20
147.083206
  0
VERTEX
  8
0
  6
DASHED
 10
90.046806
 20
146.121643
  0
VERTEX
  8
0
  6
DASHED
 10
90.072067
 20
145.163620
  0
VERTEX
  8
0
  6
DASHED
 10
90.120239
 20
144.209976
  0
VERTEX
  8
0
  6
DASHED
 10
90.192467
 20
143.261505
  0
VERTEX
  8
0
  6
DASHED
 10
90.289894
 20
142.319046
  0
VERTEX
  8
0
  6
DASHED
 10
90.413666
 20
141.383423
  0
VERTEX
  8
0
  6
DASHED
 10
90.566422
 20
140.447952
  0
VERTEX
  8
0
  6
DASHED
 10
90.750290
 20
139.487595
  0
VERTEX
  8
0
  6
DASHED
 10
90.960754
 20
138.509018
  0
VERTEX
  8
0
  6
DASHED
 10
91.193283
 20
137.518951
  0
VERTEX
  8
0
  6
DASHED
 10
91.443329
 20
136.524063
  0
VERTEX
  8
0
  6
DASHED
 10
91.706375
 20
135.531052
  0
VERTEX
  8
0
  6
DASHED
 10
91.977890
 20
134.546600
  0
VERTEX
  8
0
  6
DASHED
 10
92.253342
 20
133.577423
  0
VERTEX
  8
0
  6
DASHED
 10
92.528191
 20
132.630203
  0
VERTEX
  8
0
  6
DASHED
 10
92.797913
 20
131.711609
  0
VERTEX
  8
0
  6
DASHED
 10
93.057983
 20
130.828369
  0
VERTEX
  8
0
  6
DASHED
 10
93.303856
 20
129.987167
  0
VERTEX
  8
0
  6
DASHED
 10
93.531013
 20
129.194687
  0
VERTEX
  8
0
  6
DASHED
 10
93.734917
 20
128.457611
  0
VERTEX
  8
0
  6
DASHED
 10
93.911041
 20
127.782654
  0
VERTEX
  8
0
  6
DASHED
 10
94.137352
 20
126.824738
  0
VERTEX
  8
0
  6
DASHED
 10
94.346802
 20
125.829865
  0
VERTEX
  8
0
  6
DASHED
 10
94.532715
 20
124.831406
  0
VERTEX
  8
0
  6
DASHED
 10
94.688423
 20
123.862709
  0
VERTEX
  8
0
  6
DASHED
 10
94.807251
 20
122.957138
  0
VERTEX
  8
0
  6
DASHED
 10
94.882538
 20
122.148041
  0
VERTEX
  8
0
  6
DASHED
 10
94.923790
 20
121.323212
  0
VERTEX
  8
0
  6
DASHED
 10
94.936211
 20
120.496811
  0
VERTEX
  8
0
  6
DASHED
 10
94.921791
 20
119.670258
  0
VERTEX
  8
0
  6
DASHED
 10
94.882538
 20
118.844971
  0
SEQEND
  0
POLYLINE
  8
0
  6
DASHED
 66
     1
  0
VERTEX
  8
0
  6
DASHED
 10
-321.047150
 20
53.089607
  0
VERTEX
  8
0
  6
DASHED
 10
-321.255127
 20
52.206276
  0
VERTEX
  8
0
  6
DASHED
 10
-321.451996
 20
51.357346
  0
VERTEX
  8
0
  6
DASHED
 10
-321.637482
 20
50.532803
  0
VERTEX
  8
0
  6
DASHED
 10
-321.811218
 20
49.722652
  0
VERTEX
  8
0
  6
DASHED
 10
-321.972931
 20
48.916882
  0
VERTEX
  8
0
  6
DASHED
 10
-322.122314
 20
48.105488
  0
VERTEX
  8
0
  6
DASHED
 10
-322.259094
 20
47.278469
  0
VERTEX
  8
0
  6
DASHED
 10
-322.382904
 20
46.425812
  0
VERTEX
  8
0
  6
DASHED
 10
-322.493500
 20
45.537518
  0
VERTEX
  8
0
  6
DASHED
 10
-322.590546
 20
44.603580
  0
VERTEX
  8
0
  6
DASHED
 10
-322.673737
 20
43.613995
  0
VERTEX
  8
0
  6
DASHED
 10
-322.742798
 20
42.558754
  0
VERTEX
  8
0
  6
DASHED
 10
-322.797363
 20
41.427853
  0
VERTEX
  8
0
  6
DASHED
 10
-322.837189
 20
40.211288
  0
VERTEX
  8
0
  6
DASHED
 10
-322.852753
 20
39.241241
  0
VERTEX
  8
0
  6
DASHED
 10
-322.850677
 20
38.277584
  0
VERTEX
  8
0
  6
DASHED
 10
-322.832611
 20
37.319340
  0
VERTEX
  8
0
  6
DASHED
 10
-322.800171
 20
36.365528
  0
VERTEX
  8
0
  6
DASHED
 10
-322.755005
 20
35.415176
  0
VERTEX
  8
0
  6
DASHED
 10
-322.698700
 20
34.467308
  0
VERTEX
  8
0
  6
DASHED
 10
-322.632935
 20
33.520943
  0
VERTEX
  8
0
  6
DASHED
 10
-322.559357
 20
32.575108
  0
VERTEX
  8
0
  6
DASHED
 10
-322.479523
 20
31.628826
  0
VERTEX
  8
0
  6
DASHED
 10
-322.395172
 20
30.681120
  0
VERTEX
  8
0
  6
DASHED
 10
-322.307831
 20
29.731012
  0
VERTEX
  8
0
  6
DASHED
 10
-322.219208
 20
28.777529
  0
VERTEX
  8
0
  6
DASHED
 10
-322.130920
 20
27.819693
  0
VERTEX
  8
0
  6
DASHED
 10
-322.044556
 20
26.856525
  0
VERTEX
  8
0
  6
DASHED
 10
-321.961823
 20
25.887053
  0
VERTEX
  8
0
  6
DASHED
 10
-321.884277
 20
24.910295
  0
VERTEX
  8
0
  6
DASHED
 10
-321.813629
 20
23.925280
  0
VERTEX
  8
0
  6
DASHED
 10
-321.751434
 20
22.931028
  0
VERTEX
  8
0
  6
DASHED
 10
-321.699402
 20
21.926563
  0
VERTEX
  8
0
  6
DASHED
 10
-321.659088
 20
20.910910
  0
VERTEX
  8
0
  6
DASHED
 10
-321.632202
 20
19.883091
  0
VERTEX
  8
0
  6
DASHED
 10
-321.620331
 20
18.842129
  0
VERTEX
  8
0
  6
DASHED
 10
-321.625092
 20
17.787048
  0
VERTEX
  8
0
  6
DASHED
 10
-321.646332
 20
16.802801
  0
VERTEX
  8
0
  6
DASHED
 10
-321.683960
 20
15.808762
  0
VERTEX
  8
0
  6
DASHED
 10
-321.736511
 20
14.806178
  0
VERTEX
  8
0
  6
DASHED
 10
-321.802582
 20
13.796299
  0
VERTEX
  8
0
  6
DASHED
 10
-321.880707
 20
12.780370
  0
VERTEX
  8
0
  6
DASHED
 10
-321.969482
 20
11.759638
  0
VERTEX
  8
0
  6
DASHED
 10
-322.067444
 20
10.735351
  0
VERTEX
  8
0
  6
DASHED
 10
-322.173187
 20
9.708755
  0
VERTEX
  8
0
  6
DASHED
 10
-322.285217
 20
8.681097
  0
VERTEX
  8
0
  6
DASHED
 10
-322.402161
 20
7.653625
  0
VERTEX
  8
0
  6
DASHED
 10
-322.522552
 20
6.627587
  0
VERTEX
  8
0
  6
DASHED
 10
-322.644958
 20
5.604228
  0
VERTEX
  8
0
  6
DASHED
 10
-322.767944
 20
4.584796
  0
VERTEX
  8
0
  6
DASHED
 10
-322.890045
 20
3.570538
  0
VERTEX
  8
0
  6
DASHED
 10
-323.009888
 20
2.562701
  0
VERTEX
  8
0
  6
DASHED
 10
-323.126007
 20
1.562532
  0
VERTEX
  8
0
  6
DASHED
 10
-323.236938
 20
0.571278
  0
VERTEX
  8
0
  6
DASHED
 10
-323.341278
 20
-0.409813
  0
VERTEX
  8
0
  6
DASHED
 10
-323.437592
 20
-1.379496
  0
VERTEX
  8
0
  6
DASHED
 10
-323.524414
 20
-2.336521
  0
VERTEX
  8
0
  6
DASHED
 10
-323.600311
 20
-3.279644
  0
VERTEX
  8
0
  6
DASHED
 10
-323.663910
 20
-4.207615
  0
VERTEX
  8
0
  6
DASHED
 10
-323.713684
 20
-5.119190
  0
VERTEX
  8
0
  6
DASHED
 10
-323.748260
 20
-6.013119
  0
VERTEX
  8
0
  6
DASHED
 10
-323.766174
 20
-6.888157
  0
VERTEX
  8
0
  6
DASHED
 10
-323.766022
 20
-7.743056
  0
VERTEX
  8
0
  6
DASHED
 10
-323.746307
 20
-8.576569
  0
VERTEX
  8
0
  6
DASHED
 10
-323.701477
 20
-9.531115
  0
VERTEX
  8
0
  6
DASHED
 10
-323.637756
 20
-10.480975
  0
VERTEX
  8
0
  6
DASHED
 10
-323.556915
 20
-11.427025
  0
VERTEX
  8
0
  6
DASHED
 10
-323.460632
 20
-12.370136
  0
VERTEX
  8
0
  6
DASHED
 10
-323.350616
 20
-13.311183
  0
VERTEX
  8
0
  6
DASHED
 10
-323.228546
 20
-14.251040
  0
VERTEX
  8
0
  6
DASHED
 10
-323.096161
 20
-15.190580
  0
VERTEX
  8
0
  6
DASHED
 10
-322.955139
 20
-16.130678
  0
VERTEX
  8
0
  6
DASHED
 10
-322.807190
 20
-17.072206
  0
VERTEX
  8
0
  6
DASHED
 10
-322.654022
 20
-18.016039
  0
VERTEX
  8
0
  6
DASHED
 10
-322.497345
 20
-18.963051
  0
VERTEX
  8
0
  6
DASHED
 10
-322.338867
 20
-19.914112
  0
VERTEX
  8
0
  6
DASHED
 10
-322.180298
 20
-20.870100
  0
VERTEX
  8
0
  6
DASHED
 10
-322.023315
 20
-21.831888
  0
VERTEX
  8
0
  6
DASHED
 10
-321.869629
 20
-22.800348
  0
VERTEX
  8
0
  6
DASHED
 10
-321.720947
 20
-23.776356
  0
VERTEX
  8
0
  6
DASHED
 10
-321.579010
 20
-24.760782
  0
VERTEX
  8
0
  6
DASHED
 10
-321.445465
 20
-25.754503
  0
VERTEX
  8
0
  6
DASHED
 10
-321.322052
 20
-26.758392
  0
VERTEX
  8
0
  6
DASHED
 10
-321.216858
 20
-27.714886
  0
VERTEX
  8
0
  6
DASHED
 10
-321.124237
 20
-28.672209
  0
VERTEX
  8
0
  6
DASHED
 10
-321.043976
 20
-29.630278
  0
VERTEX
  8
0
  6
DASHED
 10
-320.975769
 20
-30.589008
  0
VERTEX
  8
0
  6
DASHED
 10
-320.919373
 20
-31.548323
  0
VERTEX
  8
0
  6
DASHED
 10
-320.874573
 20
-32.508137
  0
VERTEX
  8
0
  6
DASHED
 10
-320.841095
 20
-33.468372
  0
VERTEX
  8
0
  6
DASHED
 10
-320.818665
 20
-34.428944
  0
VERTEX
  8
0
  6
DASHED
 10
-320.807037
 20
-35.389767
  0
VERTEX
  8
0
  6
DASHED
 10
-320.806000
 20
-36.350765
  0
VERTEX
  8
0
  6
DASHED
 10
-320.815216
 20
-37.311855
  0
VERTEX
  8
0
  6
DASHED
 10
-320.834503
 20
-38.272957
  0
VERTEX
  8
0
  6
DASHED
 10
-320.863586
 20
-39.233982
  0
VERTEX
  8
0
  6
DASHED
 10
-320.902222
 20
-40.194855
  0
VERTEX
  8
0
  6
DASHED
 10
-320.950134
 20
-41.155495
  0
VERTEX
  8
0
  6
DASHED
 10
-321.007080
 20
-42.115814
  0
VERTEX
  8
0
  6
DASHED
 10
-321.072784
 20
-43.075733
  0
VERTEX
  8
0
  6
DASHED
 10
-321.147034
 20
-44.035172
  0
VERTEX
  8
0
  6
DASHED
 10
-321.229553
 20
-44.994045
  0
VERTEX
  8
0
  6
DASHED
 10
-321.320068
 20
-45.952274
  0
VERTEX
  8
0
  6
DASHED
 10
-321.418365
 20
-46.909779
  0
SEQEND
  0
POLYLINE
  8
0
  6
DASHED
 66
     1
  0
VERTEX
  8
0
  6
DASHED
 10
-218.328888
 20
53.089397
  0
VERTEX
  8
0
  6
DASHED
 10
-218.403625
 20
52.411396
  0
VERTEX
  8
0
  6
DASHED
 10
-218.463013
 20
51.870346
  0
VERTEX
  8
0
  6
DASHED
 10
-218.511627
 20
51.259274
  0
VERTEX
  8
0
  6
DASHED
 10
-218.554047
 20
50.371204
  0
VERTEX
  8
0
  6
DASHED
 10
-218.594818
 20
48.999161
  0
VERTEX
  8
0
  6
DASHED
 10
-218.608047
 20
48.037441
  0
VERTEX
  8
0
  6
DASHED
 10
-218.602478
 20
47.104961
  0
VERTEX
  8
0
  6
DASHED
 10
-218.582642
 20
46.192959
  0
VERTEX
  8
0
  6
DASHED
 10
-218.553055
 20
45.292671
  0
VERTEX
  8
0
  6
DASHED
 10
-218.518250
 20
44.395340
  0
VERTEX
  8
0
  6
DASHED
 10
-218.482758
 20
43.492203
  0
VERTEX
  8
0
  6
DASHED
 10
-218.451096
 20
42.574505
  0
VERTEX
  8
0
  6
DASHED
 10
-218.427765
 20
41.633480
  0
VERTEX
  8
0
  6
DASHED
 10
-218.417328
 20
40.660374
  0
VERTEX
  8
0
  6
DASHED
 10
-218.424286
 20
39.646423
  0
VERTEX
  8
0
  6
DASHED
 10
-218.453171
 20
38.582863
  0
VERTEX
  8
0
  6
DASHED
 10
-218.508514
 20
37.460941
  0
VERTEX
  8
0
  6
DASHED
 10
-218.594818
 20
36.271896
  0
VERTEX
  8
0
  6
DASHED
 10
-218.689407
 20
35.308983
  0
VERTEX
  8
0
  6
DASHED
 10
-218.809097
 20
34.342113
  0
VERTEX
  8
0
  6
DASHED
 10
-218.950699
 20
33.372089
  0
VERTEX
  8
0
  6
DASHED
 10
-219.111038
 20
32.399719
  0
VERTEX
  8
0
  6
DASHED
 10
-219.286926
 20
31.425808
  0
VERTEX
  8
0
  6
DASHED
 10
-219.475174
 20
30.451166
  0
VERTEX
  8
0
  6
DASHED
 10
-219.672592
 20
29.476599
  0
VERTEX
  8
0
  6
DASHED
 10
-219.876007
 20
28.502913
  0
VERTEX
  8
0
  6
DASHED
 10
-220.082230
 20
27.530912
  0
VERTEX
  8
0
  6
DASHED
 10
-220.288086
 20
26.561407
  0
VERTEX
  8
0
  6
DASHED
 10
-220.490372
 20
25.595203
  0
VERTEX
  8
0
  6
DASHED
 10
-220.685913
 20
24.633106
  0
VERTEX
  8
0
  6
DASHED
 10
-220.871506
 20
23.675922
  0
VERTEX
  8
0
  6
DASHED
 10
-221.044006
 20
22.724461
  0
VERTEX
  8
0
  6
DASHED
 10
-221.200195
 20
21.779528
  0
VERTEX
  8
0
  6
DASHED
 10
-221.336899
 20
20.841927
  0
VERTEX
  8
0
  6
DASHED
 10
-221.450928
 20
19.912466
  0
VERTEX
  8
0
  6
DASHED
 10
-221.539108
 20
18.991955
  0
VERTEX
  8
0
  6
DASHED
 10
-221.598236
 20
18.081198
  0
VERTEX
  8
0
  6
DASHED
 10
-221.625153
 20
17.181000
  0
VERTEX
  8
0
  6
DASHED
 10
-221.618484
 20
16.202028
  0
VERTEX
  8
0
  6
DASHED
 10
-221.580368
 20
15.217854
  0
VERTEX
  8
0
  6
DASHED
 10
-221.515457
 20
14.229485
  0
VERTEX
  8
0
  6
DASHED
 10
-221.428436
 20
13.237922
  0
VERTEX
  8
0
  6
DASHED
 10
-221.323990
 20
12.244171
  0
VERTEX
  8
0
  6
DASHED
 10
-221.206787
 20
11.249239
  0
VERTEX
  8
0
  6
DASHED
 10
-221.081512
 20
10.254128
  0
VERTEX
  8
0
  6
DASHED
 10
-220.952820
 20
9.259846
  0
VERTEX
  8
0
  6
DASHED
 10
-220.825409
 20
8.267395
  0
VERTEX
  8
0
  6
DASHED
 10
-220.703949
 20
7.277781
  0
VERTEX
  8
0
  6
DASHED
 10
-220.593109
 20
6.292009
  0
VERTEX
  8
0
  6
DASHED
 10
-220.497559
 20
5.311084
  0
VERTEX
  8
0
  6
DASHED
 10
-220.421997
 20
4.336010
  0
VERTEX
  8
0
  6
DASHED
 10
-220.371078
 20
3.367793
  0
VERTEX
  8
0
  6
DASHED
 10
-220.349487
 20
2.407437
  0
VERTEX
  8
0
  6
DASHED
 10
-220.361908
 20
1.455947
  0
VERTEX
  8
0
  6
DASHED
 10
-220.412994
 20
0.514328
  0
VERTEX
  8
0
  6
DASHED
 10
-220.506653
 20
-0.444030
  0
VERTEX
  8
0
  6
DASHED
 10
-220.637146
 20
-1.409647
  0
VERTEX
  8
0
  6
DASHED
 10
-220.798752
 20
-2.380643
  0
VERTEX
  8
0
  6
DASHED
 10
-220.985794
 20
-3.355138
  0
VERTEX
  8
0
  6
DASHED
 10
-221.192566
 20
-4.331248
  0
VERTEX
  8
0
  6
DASHED
 10
-221.413361
 20
-5.307095
  0
VERTEX
  8
0
  6
DASHED
 10
-221.642517
 20
-6.280796
  0
VERTEX
  8
0
  6
DASHED
 10
-221.874298
 20
-7.250470
  0
VERTEX
  8
0
  6
DASHED
 10
-222.103043
 20
-8.214236
  0
VERTEX
  8
0
  6
DASHED
 10
-222.323029
 20
-9.170215
  0
VERTEX
  8
0
  6
DASHED
 10
-222.528580
 20
-10.116522
  0
VERTEX
  8
0
  6
DASHED
 10
-222.713989
 20
-11.051279
  0
VERTEX
  8
0
  6
DASHED
 10
-222.873550
 20
-11.972605
  0
VERTEX
  8
0
  6
DASHED
 10
-223.001587
 20
-12.878616
  0
VERTEX
  8
0
  6
DASHED
 10
-223.092407
 20
-13.767434
  0
VERTEX
  8
0
  6
DASHED
 10
-223.140289
 20
-14.637177
  0
VERTEX
  8
0
  6
DASHED
 10
-223.144867
 20
-15.583463
  0
VERTEX
  8
0
  6
DASHED
 10
-223.107605
 20
-16.522844
  0
VERTEX
  8
0
  6
DASHED
 10
-223.033356
 20
-17.457630
  0
VERTEX
  8
0
  6
DASHED
 10
-222.926941
 20
-18.390137
  0
VERTEX
  8
0
  6
DASHED
 10
-222.793228
 20
-19.322670
  0
VERTEX
  8
0
  6
DASHED
 10
-222.637039
 20
-20.257545
  0
VERTEX
  8
0
  6
DASHED
 10
-222.463257
 20
-21.197075
  0
VERTEX
  8
0
  6
DASHED
 10
-222.276703
 20
-22.143568
  0
VERTEX
  8
0
  6
DASHED
 10
-222.082245
 20
-23.099339
  0
VERTEX
  8
0
  6
DASHED
 10
-221.884705
 20
-24.066696
  0
VERTEX
  8
0
  6
DASHED
 10
-221.688934
 20
-25.047955
  0
VERTEX
  8
0
  6
DASHED
 10
-221.499786
 20
-26.045424
  0
VERTEX
  8
0
  6
DASHED
 10
-221.322113
 20
-27.061417
  0
VERTEX
  8
0
  6
DASHED
 10
-221.174194
 20
-28.025806
  0
VERTEX
  8
0
  6
DASHED
 10
-221.043747
 20
-29.021687
  0
VERTEX
  8
0
  6
DASHED
 10
-220.929642
 20
-30.041298
  0
VERTEX
  8
0
  6
DASHED
 10
-220.830704
 20
-31.076881
  0
VERTEX
  8
0
  6
DASHED
 10
-220.745773
 20
-32.120682
  0
VERTEX
  8
0
  6
DASHED
 10
-220.673721
 20
-33.164940
  0
VERTEX
  8
0
  6
DASHED
 10
-220.613358
 20
-34.201897
  0
VERTEX
  8
0
  6
DASHED
 10
-220.563538
 20
-35.223797
  0
VERTEX
  8
0
  6
DASHED
 10
-220.523117
 20
-36.222881
  0
VERTEX
  8
0
  6
DASHED
 10
-220.490921
 20
-37.191395
  0
VERTEX
  8
0
  6
DASHED
 10
-220.465805
 20
-38.121574
  0
VERTEX
  8
0
  6
DASHED
 10
-220.446609
 20
-39.005665
  0
VERTEX
  8
0
  6
DASHED
 10
-220.432190
 20
-39.835911
  0
VERTEX
  8
0
  6
DASHED
 10
-220.421371
 20
-40.604553
  0
VERTEX
  8
0
  6
DASHED
 10
-220.412994
 20
-41.303833
  0
VERTEX
  8
0
  6
DASHED
 10
-220.402634
 20
-42.234821
  0
VERTEX
  8
0
  6
DASHED
 10
-220.392914
 20
-43.165668
  0
VERTEX
  8
0
  6
DASHED
 10
-220.384018
 20
-44.096451
  0
VERTEX
  8
0
  6
DASHED
 10
-220.376205
 20
-45.027245
  0
VERTEX
  8
0
  6
DASHED
 10
-220.369690
 20
-45.958118
  0
VERTEX
  8
0
  6
DASHED
 10
-220.364685
 20
-46.889149
  0
SEQEND
  0
POLYLINE
  8
0
  6
DASHED
 66
     1
  0
VERTEX
  8
0
  6
DASHED
 10
82.092926
 20
52.999481
  0
VERTEX
  8
0
  6
DASHED
 10
82.258636
 20
52.069603
  0
VERTEX
  8
0
  6
DASHED
 10
82.429298
 20
51.117691
  0
VERTEX
  8
0
  6
DASHED
 10
82.603416
 20
50.152081
  0
VERTEX
  8
0
  6
DASHED
 10
82.779503
 20
49.181095
  0
VERTEX
  8
0
  6
DASHED
 10
82.956062
 20
48.213058
  0
VERTEX
  8
0
  6
DASHED
 10
83.131599
 20
47.256302
  0
VERTEX
  8
0
  6
DASHED
 10
83.304634
 20
46.319145
  0
VERTEX
  8
0
  6
DASHED
 10
83.473663
 20
45.409924
  0
VERTEX
  8
0
  6
DASHED
 10
83.637199
 20
44.536957
  0
VERTEX
  8
0
  6
DASHED
 10
83.793755
 20
43.708576
  0
VERTEX
  8
0
  6
DASHED
 10
83.941833
 20
42.933105
  0
VERTEX
  8
0
  6
DASHED
 10
84.103867
 20
42.094620
  0
VERTEX
  8
0
  6
DASHED
 10
84.249046
 20
41.351238
  0
VERTEX
  8
0
  6
DASHED
 10
84.390289
 20
40.631638
  0
VERTEX
  8
0
  6
DASHED
 10
84.540527
 20
39.864494
  0
VERTEX
  8
0
  6
DASHED
 10
84.712685
 20
38.978489
  0
VERTEX
  8
0
  6
DASHED
 10
84.919685
 20
37.902294
  0
VERTEX
  8
0
  6
DASHED
 10
85.174438
 20
36.564590
  0
VERTEX
  8
0
  6
DASHED
 10
85.356766
 20
35.594612
  0
VERTEX
  8
0
  6
DASHED
 10
85.536537
 20
34.620365
  0
VERTEX
  8
0
  6
DASHED
 10
85.713295
 20
33.642750
  0
VERTEX
  8
0
  6
DASHED
 10
85.886589
 20
32.662674
  0
VERTEX
  8
0
  6
DASHED
 10
86.055962
 20
31.681046
  0
VERTEX
  8
0
  6
DASHED
 10
86.220955
 20
30.698769
  0
VERTEX
  8
0
  6
DASHED
 10
86.381126
 20
29.716751
  0
VERTEX
  8
0
  6
DASHED
 10
86.536018
 20
28.735899
  0
VERTEX
  8
0
  6
DASHED
 10
86.685173
 20
27.757116
  0
VERTEX
  8
0
  6
DASHED
 10
86.828140
 20
26.781309
  0
VERTEX
  8
0
  6
DASHED
 10
86.964470
 20
25.809385
  0
VERTEX
  8
0
  6
DASHED
 10
87.093697
 20
24.842251
  0
VERTEX
  8
0
  6
DASHED
 10
87.215370
 20
23.880810
  0
VERTEX
  8
0
  6
DASHED
 10
87.329048
 20
22.925970
  0
VERTEX
  8
0
  6
DASHED
 10
87.434265
 20
21.978638
  0
VERTEX
  8
0
  6
DASHED
 10
87.534714
 20
21.000866
  0
VERTEX
  8
0
  6
DASHED
 10
87.627518
 20
20.020407
  0
VERTEX
  8
0
  6
DASHED
 10
87.712997
 20
19.037724
  0
VERTEX
  8
0
  6
DASHED
 10
87.791443
 20
18.053280
  0
VERTEX
  8
0
  6
DASHED
 10
87.863159
 20
17.067543
  0
VERTEX
  8
0
  6
DASHED
 10
87.928459
 20
16.080978
  0
VERTEX
  8
0
  6
DASHED
 10
87.987633
 20
15.094049
  0
VERTEX
  8
0
  6
DASHED
 10
88.040993
 20
14.107219
  0
VERTEX
  8
0
  6
DASHED
 10
88.088844
 20
13.120956
  0
VERTEX
  8
0
  6
DASHED
 10
88.131485
 20
12.135724
  0
VERTEX
  8
0
  6
DASHED
 10
88.169212
 20
11.151987
  0
VERTEX
  8
0
  6
DASHED
 10
88.202347
 20
10.170212
  0
VERTEX
  8
0
  6
DASHED
 10
88.231178
 20
9.190861
  0
VERTEX
  8
0
  6
DASHED
 10
88.256012
 20
8.214401
  0
VERTEX
  8
0
  6
DASHED
 10
88.274376
 20
7.253286
  0
VERTEX
  8
0
  6
DASHED
 10
88.283394
 20
6.280113
  0
VERTEX
  8
0
  6
DASHED
 10
88.281326
 20
5.298741
  0
VERTEX
  8
0
  6
DASHED
 10
88.266403
 20
4.313030
  0
VERTEX
  8
0
  6
DASHED
 10
88.236862
 20
3.326841
  0
VERTEX
  8
0
  6
DASHED
 10
88.190956
 20
2.344033
  0
VERTEX
  8
0
  6
DASHED
 10
88.126923
 20
1.368466
  0
VERTEX
  8
0
  6
DASHED
 10
88.042999
 20
0.404000
  0
VERTEX
  8
0
  6
DASHED
 10
87.937431
 20
-0.545505
  0
VERTEX
  8
0
  6
DASHED
 10
87.808464
 20
-1.476189
  0
VERTEX
  8
0
  6
DASHED
 10
87.654335
 20
-2.384192
  0
VERTEX
  8
0
  6
DASHED
 10
87.473274
 20
-3.265655
  0
VERTEX
  8
0
  6
DASHED
 10
87.263542
 20
-4.116716
  0
VERTEX
  8
0
  6
DASHED
 10
87.023376
 20
-4.933517
  0
VERTEX
  8
0
  6
DASHED
 10
86.715851
 20
-5.827641
  0
VERTEX
  8
0
  6
DASHED
 10
86.373505
 20
-6.718001
  0
VERTEX
  8
0
  6
DASHED
 10
86.004784
 20
-7.604762
  0
VERTEX
  8
0
  6
DASHED
 10
85.618141
 20
-8.488088
  0
VERTEX
  8
0
  6
DASHED
 10
85.222031
 20
-9.368143
  0
VERTEX
  8
0
  6
DASHED
 10
84.824921
 20
-10.245093
  0
VERTEX
  8
0
  6
DASHED
 10
84.435242
 20
-11.119102
  0
VERTEX
  8
0
  6
DASHED
 10
84.061470
 20
-11.990335
  0
VERTEX
  8
0
  6
DASHED
 10
83.712051
 20
-12.858956
  0
VERTEX
  8
0
  6
DASHED
 10
83.395439
 20
-13.725129
  0
VERTEX
  8
0
  6
DASHED
 10
83.120087
 20
-14.589020
  0
VERTEX
  8
0
  6
DASHED
 10
82.878502
 20
-15.503991
  0
VERTEX
  8
0
  6
DASHED
 10
82.680130
 20
-16.436600
  0
VERTEX
  8
0
  6
DASHED
 10
82.522034
 20
-17.382732
  0
VERTEX
  8
0
  6
DASHED
 10
82.401314
 20
-18.338282
  0
VERTEX
  8
0
  6
DASHED
 10
82.315048
 20
-19.299133
  0
VERTEX
  8
0
  6
DASHED
 10
82.260315
 20
-20.261179
  0
VERTEX
  8
0
  6
DASHED
 10
82.234192
 20
-21.220306
  0
VERTEX
  8
0
  6
DASHED
 10
82.233772
 20
-22.172407
  0
VERTEX
  8
0
  6
DASHED
 10
82.256126
 20
-23.113367
  0
VERTEX
  8
0
  6
DASHED
 10
82.298340
 20
-24.039078
  0
VERTEX
  8
0
  6
DASHED
 10
82.369278
 20
-25.023647
  0
VERTEX
  8
0
  6
DASHED
 10
82.472755
 20
-26.031897
  0
VERTEX
  8
0
  6
DASHED
 10
82.606789
 20
-27.048460
  0
VERTEX
  8
0
  6
DASHED
 10
82.769402
 20
-28.057970
  0
VERTEX
  8
0
  6
DASHED
 10
82.958611
 20
-29.045065
  0
VERTEX
  8
0
  6
DASHED
 10
83.172440
 20
-29.994375
  0
VERTEX
  8
0
  6
DASHED
 10
83.408905
 20
-30.890539
  0
VERTEX
  8
0
  6
DASHED
 10
83.666031
 20
-31.718189
  0
VERTEX
  8
0
  6
DASHED
 10
83.941833
 20
-32.461960
  0
VERTEX
  8
0
  6
DASHED
 10
84.282562
 20
-33.243008
  0
VERTEX
  8
0
  6
DASHED
 10
84.660652
 20
-34.028942
  0
VERTEX
  8
0
  6
DASHED
 10
85.058861
 20
-34.807762
  0
VERTEX
  8
0
  6
DASHED
 10
85.459923
 20
-35.567471
  0
VERTEX
  8
0
  6
DASHED
 10
85.846603
 20
-36.296070
  0
VERTEX
  8
0
  6
DASHED
 10
86.201630
 20
-36.981552
  0
VERTEX
  8
0
  6
DASHED
 10
86.624161
 20
-37.857269
  0
VERTEX
  8
0
  6
DASHED
 10
87.020317
 20
-38.761009
  0
VERTEX
  8
0
  6
DASHED
 10
87.366638
 20
-39.648125
  0
VERTEX
  8
0
  6
DASHED
 10
87.639679
 20
-40.473969
  0
VERTEX
  8
0
  6
DASHED
 10
87.863495
 20
-41.318363
  0
VERTEX
  8
0
  6
DASHED
 10
88.053391
 20
-42.172867
  0
VERTEX
  8
0
  6
DASHED
 10
88.256012
 20
-43.144638
  0
VERTEX
  8
0
  6
DASHED
 10
88.456627
 20
-44.070820
  0
VERTEX
  8
0
  6
DASHED
 10
88.664040
 20
-44.994774
  0
VERTEX
  8
0
  6
DASHED
 10
88.872879
 20
-45.918129
  0
VERTEX
  8
0
  6
DASHED
 10
89.077728
 20
-46.842499
  0
SEQEND
  0
POLYLINE
  8
0
  6
DASHED
 66
     1
  0
VERTEX
  8
0
  6
DASHED
 10
-339.897064
 20
-105.064682
  0
VERTEX
  8
0
  6
DASHED
 10
-340.208405
 20
-105.958710
  0
VERTEX
  8
0
  6
DASHED
 10
-340.483307
 20
-106.825226
  0
VERTEX
  8
0
  6
DASHED
 10
-340.713165
 20
-107.704163
  0
VERTEX
  8
0
  6
DASHED
 10
-340.889465
 20
-108.635437
  0
VERTEX
  8
0
  6
DASHED
 10
-341.003601
 20
-109.658981
  0
VERTEX
  8
0
  6
DASHED
 10
-341.047028
 20
-110.814713
  0
VERTEX
  8
0
  6
DASHED
 10
-341.017883
 20
-111.713715
  0
VERTEX
  8
0
  6
DASHED
 10
-340.929657
 20
-112.609993
  0
VERTEX
  8
0
  6
DASHED
 10
-340.792542
 20
-113.503922
  0
VERTEX
  8
0
  6
DASHED
 10
-340.616760
 20
-114.395882
  0
VERTEX
  8
0
  6
DASHED
 10
-340.412537
 20
-115.286240
  0
VERTEX
  8
0
  6
DASHED
 10
-340.190063
 20
-116.175385
  0
VERTEX
  8
0
  6
DASHED
 10
-339.959595
 20
-117.063675
  0
VERTEX
  8
0
  6
DASHED
 10
-339.731262
 20
-117.951508
  0
VERTEX
  8
0
  6
DASHED
 10
-339.515350
 20
-118.839241
  0
VERTEX
  8
0
  6
DASHED
 10
-339.322052
 20
-119.727264
  0
VERTEX
  8
0
  6
DASHED
 10
-339.146729
 20
-120.661896
  0
VERTEX
  8
0
  6
DASHED
 10
-339.009644
 20
-121.528717
  0
VERTEX
  8
0
  6
DASHED
 10
-338.902924
 20
-122.362747
  0
VERTEX
  8
0
  6
DASHED
 10
-338.818726
 20
-123.199013
  0
VERTEX
  8
0
  6
DASHED
 10
-338.749146
 20
-124.072540
  0
VERTEX
  8
0
  6
DASHED
 10
-338.686310
 20
-125.018364
  0
VERTEX
  8
0
  6
DASHED
 10
-338.622345
 20
-126.071503
  0
VERTEX
  8
0
  6
DASHED
 10
-338.549408
 20
-127.266983
  0
VERTEX
  8
0
  6
DASHED
 10
-338.459564
 20
-128.639832
  0
VERTEX
  8
0
  6
DASHED
 10
-338.388184
 20
-129.607269
  0
VERTEX
  8
0
  6
DASHED
 10
-338.308655
 20
-130.558899
  0
VERTEX
  8
0
  6
DASHED
 10
-338.222351
 20
-131.497849
  0
VERTEX
  8
0
  6
DASHED
 10
-338.130554
 20
-132.427231
  0
VERTEX
  8
0
  6
DASHED
 10
-338.034668
 20
-133.350159
  0
VERTEX
  8
0
  6
DASHED
 10
-337.935974
 20
-134.269745
  0
VERTEX
  8
0
  6
DASHED
 10
-337.835846
 20
-135.189102
  0
VERTEX
  8
0
  6
DASHED
 10
-337.735596
 20
-136.111328
  0
VERTEX
  8
0
  6
DASHED
 10
-337.636597
 20
-137.039581
  0
VERTEX
  8
0
  6
DASHED
 10
-337.540192
 20
-137.976929
  0
VERTEX
  8
0
  6
DASHED
 10
-337.447662
 20
-138.926498
  0
VERTEX
  8
0
  6
DASHED
 10
-337.360382
 20
-139.891418
  0
VERTEX
  8
0
  6
DASHED
 10
-337.279724
 20
-140.874786
  0
VERTEX
  8
0
  6
DASHED
 10
-337.206970
 20
-141.879730
  0
VERTEX
  8
0
  6
DASHED
 10
-337.143494
 20
-142.909348
  0
VERTEX
  8
0
  6
DASHED
 10
-337.090607
 20
-143.966766
  0
VERTEX
  8
0
  6
DASHED
 10
-337.049652
 20
-145.055084
  0
VERTEX
  8
0
  6
DASHED
 10
-337.022003
 20
-146.177429
  0
VERTEX
  8
0
  6
DASHED
 10
-337.012421
 20
-147.157684
  0
VERTEX
  8
0
  6
DASHED
 10
-337.018616
 20
-148.141678
  0
VERTEX
  8
0
  6
DASHED
 10
-337.040161
 20
-149.128769
  0
VERTEX
  8
0
  6
DASHED
 10
-337.076538
 20
-150.118332
  0
VERTEX
  8
0
  6
DASHED
 10
-337.127258
 20
-151.109741
  0
VERTEX
  8
0
  6
DASHED
 10
-337.191895
 20
-152.102386
  0
VERTEX
  8
0
  6
DASHED
 10
-337.269928
 20
-153.095627
  0
VERTEX
  8
0
  6
DASHED
 10
-337.360870
 20
-154.088821
  0
VERTEX
  8
0
  6
DASHED
 10
-337.464294
 20
-155.081375
  0
VERTEX
  8
0
  6
DASHED
 10
-337.579681
 20
-156.072647
  0
VERTEX
  8
0
  6
DASHED
 10
-337.706543
 20
-157.062012
  0
VERTEX
  8
0
  6
DASHED
 10
-337.844452
 20
-158.048843
  0
VERTEX
  8
0
  6
DASHED
 10
-337.992889
 20
-159.032501
  0
VERTEX
  8
0
  6
DASHED
 10
-338.151367
 20
-160.012390
  0
VERTEX
  8
0
  6
DASHED
 10
-338.319458
 20
-160.987854
  0
VERTEX
  8
0
  6
DASHED
 10
-338.496643
 20
-161.958282
  0
VERTEX
  8
0
  6
DASHED
 10
-338.682465
 20
-162.923035
  0
VERTEX
  8
0
  6
DASHED
 10
-338.876404
 20
-163.881500
  0
VERTEX
  8
0
  6
DASHED
 10
-339.078033
 20
-164.833054
  0
VERTEX
  8
0
  6
DASHED
 10
-339.286865
 20
-165.777054
  0
VERTEX
  8
0
  6
DASHED
 10
-339.502411
 20
-166.712891
  0
VERTEX
  8
0
  6
DASHED
 10
-339.724182
 20
-167.639923
  0
VERTEX
  8
0
  6
DASHED
 10
-339.951721
 20
-168.557526
  0
VERTEX
  8
0
  6
DASHED
 10
-340.184540
 20
-169.465088
  0
VERTEX
  8
0
  6
DASHED
 10
-340.433350
 20
-170.409897
  0
VERTEX
  8
0
  6
DASHED
 10
-340.690277
 20
-171.369156
  0
VERTEX
  8
0
  6
DASHED
 10
-340.953888
 20
-172.340652
  0
VERTEX
  8
0
  6
DASHED
 10
-341.222778
 20
-173.322144
  0
VERTEX
  8
0
  6
DASHED
 10
-341.495575
 20
-174.311417
  0
VERTEX
  8
0
  6
DASHED
 10
-341.770782
 20
-175.306244
  0
VERTEX
  8
0
  6
DASHED
 10
-342.047089
 20
-176.304413
  0
VERTEX
  8
0
  6
DASHED
 10
-342.323029
 20
-177.303696
  0
VERTEX
  8
0
  6
DASHED
 10
-342.597198
 20
-178.301865
  0
VERTEX
  8
0
  6
DASHED
 10
-342.868195
 20
-179.296692
  0
VERTEX
  8
0
  6
DASHED
 10
-343.134583
 20
-180.285965
  0
VERTEX
  8
0
  6
DASHED
 10
-343.395020
 20
-181.267456
  0
VERTEX
  8
0
  6
DASHED
 10
-343.648041
 20
-182.238953
  0
VERTEX
  8
0
  6
DASHED
 10
-343.892242
 20
-183.198196
  0
VERTEX
  8
0
  6
DASHED
 10
-344.126221
 20
-184.143005
  0
VERTEX
  8
0
  6
DASHED
 10
-344.348602
 20
-185.071136
  0
VERTEX
  8
0
  6
DASHED
 10
-344.557892
 20
-185.980362
  0
VERTEX
  8
0
  6
DASHED
 10
-344.752777
 20
-186.868469
  0
VERTEX
  8
0
  6
DASHED
 10
-344.931793
 20
-187.733246
  0
VERTEX
  8
0
  6
DASHED
 10
-345.093536
 20
-188.572433
  0
VERTEX
  8
0
  6
DASHED
 10
-345.236603
 20
-189.383835
  0
VERTEX
  8
0
  6
DASHED
 10
-345.359589
 20
-190.165222
  0
VERTEX
  8
0
  6
DASHED
 10
-345.498810
 20
-191.165726
  0
VERTEX
  8
0
  6
DASHED
 10
-345.619629
 20
-192.166931
  0
VERTEX
  8
0
  6
DASHED
 10
-345.717377
 20
-193.167618
  0
VERTEX
  8
0
  6
DASHED
 10
-345.787323
 20
-194.166580
  0
VERTEX
  8
0
  6
DASHED
 10
-345.824799
 20
-195.162643
  0
VERTEX
  8
0
  6
DASHED
 10
-345.825134
 20
-196.154602
  0
VERTEX
  8
0
  6
DASHED
 10
-345.783630
 20
-197.141235
  0
VERTEX
  8
0
  6
DASHED
 10
-345.695618
 20
-198.121368
  0
VERTEX
  8
0
  6
DASHED
 10
-345.556396
 20
-199.093781
  0
VERTEX
  8
0
  6
DASHED
 10
-345.361267
 20
-200.057297
  0
VERTEX
  8
0
  6
DASHED
 10
-345.105560
 20
-201.010696
  0
VERTEX
  8
0
  6
DASHED
 10
-344.784576
 20
-201.952789
  0
VERTEX
  8
0
  6
DASHED
 10
-344.405548
 20
-202.854233
  0
VERTEX
  8
0
  6
DASHED
 10
-343.958527
 20
-203.759750
  0
VERTEX
  8
0
  6
DASHED
 10
-343.456085
 20
-204.665466
  0
VERTEX
  8
0
  6
DASHED
 10
-342.910980
 20
-205.567490
  0
VERTEX
  8
0
  6
DASHED
 10
-342.335815
 20
-206.461929
  0
VERTEX
  8
0
  6
DASHED
 10
-341.743256
 20
-207.344894
  0
VERTEX
  8
0
  6
DASHED
 10
-341.145966
 20
-208.212509
  0
VERTEX
  8
0
  6
DASHED
 10
-340.556610
 20
-209.060867
  0
VERTEX
  8
0
  6
DASHED
 10
-339.987854
 20
-209.886093
  0
VERTEX
  8
0
  6
DASHED
 10
-339.452362
 20
-210.684296
  0
VERTEX
  8
0
  6
DASHED
 10
-338.962799
 20
-211.451584
  0
VERTEX
  8
0
  6
DASHED
 10
-338.531799
 20
-212.184067
  0
VERTEX
  8
0
  6
DASHED
 10
-338.172028
 20
-212.877869
  0
VERTEX
  8
0
  6
DASHED
 10
-337.789398
 20
-213.741989
  0
VERTEX
  8
0
  6
DASHED
 10
-337.449829
 20
-214.622742
  0
VERTEX
  8
0
  6
DASHED
 10
-337.146454
 20
-215.518036
  0
VERTEX
  8
0
  6
DASHED
 10
-336.872528
 20
-216.425797
  0
VERTEX
  8
0
  6
DASHED
 10
-336.621246
 20
-217.343918
  0
VERTEX
  8
0
  6
DASHED
 10
-336.385864
 20
-218.270325
  0
VERTEX
  8
0
  6
DASHED
 10
-336.159515
 20
-219.202911
  0
VERTEX
  8
0
  6
DASHED
 10
-335.930054
 20
-220.174561
  0
VERTEX
  8
0
  6
DASHED
 10
-335.698303
 20
-221.183105
  0
VERTEX
  8
0
  6
DASHED
 10
-335.470428
 20
-222.201019
  0
VERTEX
  8
0
  6
DASHED
 10
-335.252686
 20
-223.200760
  0
VERTEX
  8
0
  6
DASHED
 10
-335.051208
 20
-224.154770
  0
VERTEX
  8
0
  6
DASHED
 10
-334.872253
 20
-225.035522
  0
VERTEX
  8
0
  6
DASHED
 10
-334.722015
 20
-225.815460
  0
VERTEX
  8
0
  6
DASHED
 10
-334.566650
 20
-226.675629
  0
VERTEX
  8
0
  6
DASHED
 10
-334.419403
 20
-227.537628
  0
VERTEX
  8
0
  6
DASHED
 10
-334.279694
 20
-228.401047
  0
VERTEX
  8
0
  6
DASHED
 10
-334.147003
 20
-229.265472
  0
SEQEND
  0
POLYLINE
  8
0
  6
DASHED
 66
     1
  0
VERTEX
  8
0
  6
DASHED
 10
-206.783722
 20
-104.777176
  0
VERTEX
  8
0
  6
DASHED
 10
-206.243210
 20
-105.414497
  0
VERTEX
  8
0
  6
DASHED
 10
-205.742477
 20
-105.995834
  0
VERTEX
  8
0
  6
DASHED
 10
-205.310745
 20
-106.661011
  0
VERTEX
  8
0
  6
DASHED
 10
-204.977219
 20
-107.549858
  0
VERTEX
  8
0
  6
DASHED
 10
-204.771149
 20
-108.802200
  0
VERTEX
  8
0
  6
DASHED
 10
-204.793564
 20
-109.699814
  0
VERTEX
  8
0
  6
DASHED
 10
-204.994980
 20
-110.624832
  0
VERTEX
  8
0
  6
DASHED
 10
-205.340088
 20
-111.567139
  0
VERTEX
  8
0
  6
DASHED
 10
-205.793549
 20
-112.516571
  0
VERTEX
  8
0
  6
DASHED
 10
-206.320053
 20
-113.463005
  0
VERTEX
  8
0
  6
DASHED
 10
-206.884277
 20
-114.396301
  0
VERTEX
  8
0
  6
DASHED
 10
-207.450897
 20
-115.306313
  0
VERTEX
  8
0
  6
DASHED
 10
-207.984604
 20
-116.182899
  0
VERTEX
  8
0
  6
DASHED
 10
-208.450043
 20
-117.015930
  0
VERTEX
  8
0
  6
DASHED
 10
-208.811935
 20
-117.795258
  0
VERTEX
  8
0
  6
DASHED
 10
-209.034927
 20
-118.510750
  0
VERTEX
  8
0
  6
DASHED
 10
-209.083710
 20
-119.152267
  0
VERTEX
  8
0
  6
DASHED
 10
-208.974380
 20
-119.897102
  0
VERTEX
  8
0
  6
DASHED
 10
-208.761215
 20
-120.527534
  0
VERTEX
  8
0
  6
DASHED
 10
-208.401459
 20
-121.216805
  0
VERTEX
  8
0
  6
DASHED
 10
-207.852371
 20
-122.138145
  0
VERTEX
  8
0
  6
DASHED
 10
-207.071198
 20
-123.464783
  0
VERTEX
  8
0
  6
DASHED
 10
-206.591553
 20
-124.319260
  0
VERTEX
  8
0
  6
DASHED
 10
-206.165283
 20
-125.125977
  0
VERTEX
  8
0
  6
DASHED
 10
-205.788574
 20
-125.901329
  0
VERTEX
  8
0
  6
DASHED
 10
-205.457626
 20
-126.661736
  0
VERTEX
  8
0
  6
DASHED
 10
-205.168594
 20
-127.423599
  0
VERTEX
  8
0
  6
DASHED
 10
-204.917694
 20
-128.203323
  0
VERTEX
  8
0
  6
DASHED
 10
-204.701111
 20
-129.017319
  0
VERTEX
  8
0
  6
DASHED
 10
-204.515030
 20
-129.882004
  0
VERTEX
  8
0
  6
DASHED
 10
-204.355621
 20
-130.813766
  0
VERTEX
  8
0
  6
DASHED
 10
-204.219101
 20
-131.829041
  0
VERTEX
  8
0
  6
DASHED
 10
-204.101639
 20
-132.944214
  0
VERTEX
  8
0
  6
DASHED
 10
-203.999435
 20
-134.175690
  0
VERTEX
  8
0
  6
DASHED
 10
-203.908661
 20
-135.539886
  0
VERTEX
  8
0
  6
DASHED
 10
-203.860092
 20
-136.505539
  0
VERTEX
  8
0
  6
DASHED
 10
-203.829086
 20
-137.483475
  0
VERTEX
  8
0
  6
DASHED
 10
-203.814682
 20
-138.472122
  0
VERTEX
  8
0
  6
DASHED
 10
-203.815964
 20
-139.469910
  0
VERTEX
  8
0
  6
DASHED
 10
-203.832001
 20
-140.475250
  0
VERTEX
  8
0
  6
DASHED
 10
-203.861847
 20
-141.486603
  0
VERTEX
  8
0
  6
DASHED
 10
-203.904556
 20
-142.502365
  0
VERTEX
  8
0
  6
DASHED
 10
-203.959229
 20
-143.520981
  0
VERTEX
  8
0
  6
DASHED
 10
-204.024902
 20
-144.540878
  0
VERTEX
  8
0
  6
DASHED
 10
-204.100662
 20
-145.560486
  0
VERTEX
  8
0
  6
DASHED
 10
-204.185562
 20
-146.578247
  0
VERTEX
  8
0
  6
DASHED
 10
-204.278671
 20
-147.592560
  0
VERTEX
  8
0
  6
DASHED
 10
-204.379044
 20
-148.601868
  0
VERTEX
  8
0
  6
DASHED
 10
-204.485779
 20
-149.604599
  0
VERTEX
  8
0
  6
DASHED
 10
-204.597900
 20
-150.599182
  0
VERTEX
  8
0
  6
DASHED
 10
-204.714508
 20
-151.584061
  0
VERTEX
  8
0
  6
DASHED
 10
-204.834656
 20
-152.557632
  0
VERTEX
  8
0
  6
DASHED
 10
-204.957413
 20
-153.518356
  0
VERTEX
  8
0
  6
DASHED
 10
-205.081833
 20
-154.464630
  0
VERTEX
  8
0
  6
DASHED
 10
-205.207001
 20
-155.394913
  0
VERTEX
  8
0
  6
DASHED
 10
-205.331955
 20
-156.307617
  0
VERTEX
  8
0
  6
DASHED
 10
-205.455795
 20
-157.201172
  0
VERTEX
  8
0
  6
DASHED
 10
-205.577576
 20
-158.074020
  0
VERTEX
  8
0
  6
DASHED
 10
-205.696350
 20
-158.924576
  0
VERTEX
  8
0
  6
DASHED
 10
-205.811188
 20
-159.751266
  0
VERTEX
  8
0
  6
DASHED
 10
-205.921173
 20
-160.552521
  0
VERTEX
  8
0
  6
DASHED
 10
-206.048874
 20
-161.498322
  0
VERTEX
  8
0
  6
DASHED
 10
-206.174469
 20
-162.442856
  0
VERTEX
  8
0
  6
DASHED
 10
-206.298172
 20
-163.386414
  0
VERTEX
  8
0
  6
DASHED
 10
-206.420135
 20
-164.329254
  0
VERTEX
  8
0
  6
DASHED
 10
-206.540573
 20
-165.271683
  0
VERTEX
  8
0
  6
DASHED
 10
-206.659668
 20
-166.213989
  0
VERTEX
  8
0
  6
DASHED
 10
-206.777588
 20
-167.156448
  0
VERTEX
  8
0
  6
DASHED
 10
-206.894531
 20
-168.099350
  0
VERTEX
  8
0
  6
DASHED
 10
-207.010681
 20
-169.042984
  0
VERTEX
  8
0
  6
DASHED
 10
-207.126221
 20
-169.987640
  0
VERTEX
  8
0
  6
DASHED
 10
-207.241348
 20
-170.933594
  0
VERTEX
  8
0
  6
DASHED
 10
-207.356232
 20
-171.881134
  0
VERTEX
  8
0
  6
DASHED
 10
-207.471069
 20
-172.830536
  0
VERTEX
  8
0
  6
DASHED
 10
-207.586060
 20
-173.782104
  0
VERTEX
  8
0
  6
DASHED
 10
-207.701355
 20
-174.736130
  0
VERTEX
  8
0
  6
DASHED
 10
-207.817169
 20
-175.692886
  0
VERTEX
  8
0
  6
DASHED
 10
-207.933685
 20
-176.652649
  0
VERTEX
  8
0
  6
DASHED
 10
-208.050171
 20
-177.627640
  0
VERTEX
  8
0
  6
DASHED
 10
-208.163574
 20
-178.617554
  0
VERTEX
  8
0
  6
DASHED
 10
-208.272430
 20
-179.619125
  0
VERTEX
  8
0
  6
DASHED
 10
-208.375320
 20
-180.629105
  0
VERTEX
  8
0
  6
DASHED
 10
-208.470779
 20
-181.644211
  0
VERTEX
  8
0
  6
DASHED
 10
-208.557343
 20
-182.661194
  0
VERTEX
  8
0
  6
DASHED
 10
-208.633591
 20
-183.676819
  0
VERTEX
  8
0
  6
DASHED
 10
-208.698044
 20
-184.687790
  0
VERTEX
  8
0
  6
DASHED
 10
-208.749268
 20
-185.690872
  0
VERTEX
  8
0
  6
DASHED
 10
-208.785812
 20
-186.682816
  0
VERTEX
  8
0
  6
DASHED
 10
-208.806229
 20
-187.660324
  0
VERTEX
  8
0
  6
DASHED
 10
-208.809052
 20
-188.620178
  0
VERTEX
  8
0
  6
DASHED
 10
-208.792847
 20
-189.559082
  0
VERTEX
  8
0
  6
DASHED
 10
-208.756165
 20
-190.473816
  0
VERTEX
  8
0
  6
DASHED
 10
-208.697540
 20
-191.361084
  0
VERTEX
  8
0
  6
DASHED
 10
-208.615540
 20
-192.217651
  0
VERTEX
  8
0
  6
DASHED
 10
-208.508698
 20
-193.040253
  0
VERTEX
  8
0
  6
DASHED
 10
-208.350464
 20
-193.990601
  0
VERTEX
  8
0
  6
DASHED
 10
-208.160187
 20
-194.946350
  0
VERTEX
  8
0
  6
DASHED
 10
-207.941711
 20
-195.904999
  0
VERTEX
  8
0
  6
DASHED
 10
-207.698929
 20
-196.864075
  0
VERTEX
  8
0
  6
DASHED
 10
-207.435715
 20
-197.821060
  0
VERTEX
  8
0
  6
DASHED
 10
-207.155945
 20
-198.773499
  0
VERTEX
  8
0
  6
DASHED
 10
-206.863464
 20
-199.718872
  0
VERTEX
  8
0
  6
DASHED
 10
-206.562164
 20
-200.654709
  0
VERTEX
  8
0
  6
DASHED
 10
-206.255905
 20
-201.578506
  0
VERTEX
  8
0
  6
DASHED
 10
-205.948578
 20
-202.487778
  0
VERTEX
  8
0
  6
DASHED
 10
-205.644043
 20
-203.380051
  0
VERTEX
  8
0
  6
DASHED
 10
-205.346161
 20
-204.252808
  0
VERTEX
  8
0
  6
DASHED
 10
-205.028931
 20
-205.215805
  0
VERTEX
  8
0
  6
DASHED
 10
-204.720901
 20
-206.214905
  0
VERTEX
  8
0
  6
DASHED
 10
-204.428268
 20
-207.235367
  0
VERTEX
  8
0
  6
DASHED
 10
-204.157257
 20
-208.262466
  0
VERTEX
  8
0
  6
DASHED
 10
-203.914093
 20
-209.281509
  0
VERTEX
  8
0
  6
DASHED
 10
-203.704987
 20
-210.277756
  0
VERTEX
  8
0
  6
DASHED
 10
-203.536179
 20
-211.236481
  0
VERTEX
  8
0
  6
DASHED
 10
-203.413864
 20
-212.142975
  0
VERTEX
  8
0
  6
DASHED
 10
-203.344284
 20
-212.982513
  0
VERTEX
  8
0
  6
DASHED
 10
-203.333649
 20
-213.740387
  0
VERTEX
  8
0
  6
DASHED
 10
-203.383636
 20
-214.612259
  0
VERTEX
  8
0
  6
DASHED
 10
-203.472839
 20
-215.400879
  0
VERTEX
  8
0
  6
DASHED
 10
-203.594543
 20
-216.242340
  0
VERTEX
  8
0
  6
DASHED
 10
-203.742050
 20
-217.272659
  0
VERTEX
  8
0
  6
DASHED
 10
-203.908661
 20
-218.627899
  0
VERTEX
  8
0
  6
DASHED
 10
-204.025482
 20
-219.616486
  0
VERTEX
  8
0
  6
DASHED
 10
-204.163742
 20
-220.655121
  0
VERTEX
  8
0
  6
DASHED
 10
-204.324188
 20
-221.720459
  0
VERTEX
  8
0
  6
DASHED
 10
-204.507568
 20
-222.789154
  0
VERTEX
  8
0
  6
DASHED
 10
-204.714630
 20
-223.837845
  0
VERTEX
  8
0
  6
DASHED
 10
-204.946121
 20
-224.843201
  0
VERTEX
  8
0
  6
DASHED
 10
-205.202789
 20
-225.781891
  0
VERTEX
  8
0
  6
DASHED
 10
-205.485382
 20
-226.630554
  0
VERTEX
  8
0
  6
DASHED
 10
-205.794647
 20
-227.365845
  0
VERTEX
  8
0
  6
DASHED
 10
-206.131332
 20
-227.964432
  0
VERTEX
  8
0
  6
DASHED
 10
-206.496185
 20
-228.402954
  0
VERTEX
  8
0
  6
DASHED
 10
-207.049561
 20
-228.857513
  0
VERTEX
  8
0
  6
DASHED
 10
-207.646210
 20
-229.265472
  0
SEQEND
  0
POLYLINE
  8
0
  6
DASHED
 66
     1
  0
VERTEX
  8
0
  6
DASHED
 10
69.048004
 20
-104.959770
  0
VERTEX
  8
0
  6
DASHED
 10
68.826591
 20
-105.919357
  0
VERTEX
  8
0
  6
DASHED
 10
68.614990
 20
-106.900116
  0
VERTEX
  8
0
  6
DASHED
 10
68.425926
 20
-107.889862
  0
VERTEX
  8
0
  6
DASHED
 10
68.272156
 20
-108.876396
  0
VERTEX
  8
0
  6
DASHED
 10
68.166428
 20
-109.847549
  0
VERTEX
  8
0
  6
DASHED
 10
68.121475
 20
-110.791122
  0
VERTEX
  8
0
  6
DASHED
 10
68.150055
 20
-111.694939
  0
VERTEX
  8
0
  6
DASHED
 10
68.247154
 20
-112.593575
  0
VERTEX
  8
0
  6
DASHED
 10
68.372223
 20
-113.502686
  0
VERTEX
  8
0
  6
DASHED
 10
68.486374
 20
-114.403008
  0
VERTEX
  8
0
  6
DASHED
 10
68.550735
 20
-115.275269
  0
VERTEX
  8
0
  6
DASHED
 10
68.526421
 20
-116.100212
  0
VERTEX
  8
0
  6
DASHED
 10
68.374542
 20
-116.858574
  0
VERTEX
  8
0
  6
DASHED
 10
68.049110
 20
-117.614365
  0
VERTEX
  8
0
  6
DASHED
 10
67.596581
 20
-118.307480
  0
VERTEX
  8
0
  6
DASHED
 10
67.037346
 20
-118.981895
  0
VERTEX
  8
0
  6
DASHED
 10
66.391838
 20
-119.681618
  0
VERTEX
  8
0
  6
DASHED
 10
65.680450
 20
-120.450645
  0
VERTEX
  8
0
  6
DASHED
 10
65.133789
 20
-121.068153
  0
VERTEX
  8
0
  6
DASHED
 10
64.676773
 20
-121.613739
  0
VERTEX
  8
0
  6
DASHED
 10
64.262321
 20
-122.148170
  0
VERTEX
  8
0
  6
DASHED
 10
63.843349
 20
-122.732216
  0
VERTEX
  8
0
  6
DASHED
 10
63.372765
 20
-123.426651
  0
VERTEX
  8
0
  6
DASHED
 10
62.803478
 20
-124.292244
  0
VERTEX
  8
0
  6
DASHED
 10
62.088409
 20
-125.389763
  0
VERTEX
  8
0
  6
DASHED
 10
61.558422
 20
-126.200203
  0
VERTEX
  8
0
  6
DASHED
 10
61.028843
 20
-127.006828
  0
VERTEX
  8
0
  6
DASHED
 10
60.501263
 20
-127.811913
  0
VERTEX
  8
0
  6
DASHED
 10
59.977272
 20
-128.617767
  0
VERTEX
  8
0
  6
DASHED
 10
59.458454
 20
-129.426666
  0
VERTEX
  8
0
  6
DASHED
 10
58.946396
 20
-130.240891
  0
VERTEX
  8
0
  6
DASHED
 10
58.442688
 20
-131.062744
  0
VERTEX
  8
0
  6
DASHED
 10
57.948921
 20
-131.894501
  0
VERTEX
  8
0
  6
DASHED
 10
57.466679
 20
-132.738464
  0
VERTEX
  8
0
  6
DASHED
 10
56.997551
 20
-133.596924
  0
VERTEX
  8
0
  6
DASHED
 10
56.543125
 20
-134.472153
  0
VERTEX
  8
0
  6
DASHED
 10
56.104992
 20
-135.366440
  0
VERTEX
  8
0
  6
DASHED
 10
55.684734
 20
-136.282089
  0
VERTEX
  8
0
  6
DASHED
 10
55.283943
 20
-137.221375
  0
VERTEX
  8
0
  6
DASHED
 10
54.904205
 20
-138.186584
  0
VERTEX
  8
0
  6
DASHED
 10
54.571911
 20
-139.111755
  0
VERTEX
  8
0
  6
DASHED
 10
54.268375
 20
-140.044785
  0
VERTEX
  8
0
  6
DASHED
 10
53.992851
 20
-140.985382
  0
VERTEX
  8
0
  6
DASHED
 10
53.744595
 20
-141.933304
  0
VERTEX
  8
0
  6
DASHED
 10
53.522854
 20
-142.888275
  0
VERTEX
  8
0
  6
DASHED
 10
53.326889
 20
-143.850021
  0
VERTEX
  8
0
  6
DASHED
 10
53.155952
 20
-144.818268
  0
VERTEX
  8
0
  6
DASHED
 10
53.009296
 20
-145.792770
  0
VERTEX
  8
0
  6
DASHED
 10
52.886181
 20
-146.773239
  0
VERTEX
  8
0
  6
DASHED
 10
52.785854
 20
-147.759415
  0
VERTEX
  8
0
  6
DASHED
 10
52.707569
 20
-148.751038
  0
VERTEX
  8
0
  6
DASHED
 10
52.650589
 20
-149.747818
  0
VERTEX
  8
0
  6
DASHED
 10
52.614159
 20
-150.749512
  0
VERTEX
  8
0
  6
DASHED
 10
52.597538
 20
-151.755844
  0
VERTEX
  8
0
  6
DASHED
 10
52.599976
 20
-152.766556
  0
VERTEX
  8
0
  6
DASHED
 10
52.620731
 20
-153.781357
  0
VERTEX
  8
0
  6
DASHED
 10
52.659058
 20
-154.799988
  0
VERTEX
  8
0
  6
DASHED
 10
52.712276
 20
-155.786530
  0
VERTEX
  8
0
  6
DASHED
 10
52.780109
 20
-156.771530
  0
VERTEX
  8
0
  6
DASHED
 10
52.860847
 20
-157.755005
  0
VERTEX
  8
0
  6
DASHED
 10
52.952774
 20
-158.736923
  0
VERTEX
  8
0
  6
DASHED
 10
53.054180
 20
-159.717255
  0
VERTEX
  8
0
  6
DASHED
 10
53.163345
 20
-160.695999
  0
VERTEX
  8
0
  6
DASHED
 10
53.278564
 20
-161.673157
  0
VERTEX
  8
0
  6
DASHED
 10
53.398117
 20
-162.648682
  0
VERTEX
  8
0
  6
DASHED
 10
53.520294
 20
-163.622559
  0
VERTEX
  8
0
  6
DASHED
 10
53.643379
 20
-164.594803
  0
VERTEX
  8
0
  6
DASHED
 10
53.765663
 20
-165.565369
  0
VERTEX
  8
0
  6
DASHED
 10
53.885429
 20
-166.534256
  0
VERTEX
  8
0
  6
DASHED
 10
54.000965
 20
-167.501450
  0
VERTEX
  8
0
  6
DASHED
 10
54.110558
 20
-168.466934
  0
VERTEX
  8
0
  6
DASHED
 10
54.212494
 20
-169.430679
  0
VERTEX
  8
0
  6
DASHED
 10
54.305061
 20
-170.392685
  0
VERTEX
  8
0
  6
DASHED
 10
54.386543
 20
-171.352936
  0
VERTEX
  8
0
  6
DASHED
 10
54.455231
 20
-172.311401
  0
VERTEX
  8
0
  6
DASHED
 10
54.507610
 20
-173.269119
  0
VERTEX
  8
0
  6
DASHED
 10
54.542328
 20
-174.239044
  0
VERTEX
  8
0
  6
DASHED
 10
54.559612
 20
-175.218948
  0
VERTEX
  8
0
  6
DASHED
 10
54.559700
 20
-176.206604
  0
VERTEX
  8
0
  6
DASHED
 10
54.542816
 20
-177.199783
  0
VERTEX
  8
0
  6
DASHED
 10
54.509190
 20
-178.196259
  0
VERTEX
  8
0
  6
DASHED
 10
54.459057
 20
-179.193787
  0
VERTEX
  8
0
  6
DASHED
 10
54.392639
 20
-180.190140
  0
VERTEX
  8
0
  6
DASHED
 10
54.310173
 20
-181.183075
  0
VERTEX
  8
0
  6
DASHED
 10
54.211887
 20
-182.170395
  0
VERTEX
  8
0
  6
DASHED
 10
54.098011
 20
-183.149841
  0
VERTEX
  8
0
  6
DASHED
 10
53.968773
 20
-184.119186
  0
VERTEX
  8
0
  6
DASHED
 10
53.824406
 20
-185.076218
  0
VERTEX
  8
0
  6
DASHED
 10
53.665138
 20
-186.018677
  0
VERTEX
  8
0
  6
DASHED
 10
53.491199
 20
-186.944351
  0
VERTEX
  8
0
  6
DASHED
 10
53.302822
 20
-187.851013
  0
VERTEX
  8
0
  6
DASHED
 10
53.100235
 20
-188.736404
  0
VERTEX
  8
0
  6
DASHED
 10
52.883667
 20
-189.598328
  0
VERTEX
  8
0
  6
DASHED
 10
52.616142
 20
-190.601044
  0
VERTEX
  8
0
  6
DASHED
 10
52.341545
 20
-191.620087
  0
VERTEX
  8
0
  6
DASHED
 10
52.068474
 20
-192.649414
  0
VERTEX
  8
0
  6
DASHED
 10
51.805515
 20
-193.682907
  0
VERTEX
  8
0
  6
DASHED
 10
51.561272
 20
-194.714539
  0
VERTEX
  8
0
  6
DASHED
 10
51.344330
 20
-195.738190
  0
VERTEX
  8
0
  6
DASHED
 10
51.163288
 20
-196.747818
  0
VERTEX
  8
0
  6
DASHED
 10
51.026737
 20
-197.737335
  0
VERTEX
  8
0
  6
DASHED
 10
50.943272
 20
-198.700653
  0
VERTEX
  8
0
  6
DASHED
 10
50.921486
 20
-199.631729
  0
VERTEX
  8
0
  6
DASHED
 10
50.969971
 20
-200.524475
  0
VERTEX
  8
0
  6
DASHED
 10
51.097324
 20
-201.372803
  0
VERTEX
  8
0
  6
DASHED
 10
51.312134
 20
-202.170654
  0
VERTEX
  8
0
  6
DASHED
 10
51.645985
 20
-203.020248
  0
VERTEX
  8
0
  6
DASHED
 10
52.058590
 20
-203.876694
  0
VERTEX
  8
0
  6
DASHED
 10
52.526276
 20
-204.735840
  0
VERTEX
  8
0
  6
DASHED
 10
53.025356
 20
-205.593552
  0
VERTEX
  8
0
  6
DASHED
 10
53.532158
 20
-206.445663
  0
VERTEX
  8
0
  6
DASHED
 10
54.022999
 20
-207.288040
  0
VERTEX
  8
0
  6
DASHED
 10
54.474197
 20
-208.116547
  0
VERTEX
  8
0
  6
DASHED
 10
54.862083
 20
-208.927032
  0
VERTEX
  8
0
  6
DASHED
 10
55.162968
 20
-209.715347
  0
VERTEX
  8
0
  6
DASHED
 10
55.353180
 20
-210.477356
  0
VERTEX
  8
0
  6
DASHED
 10
55.447201
 20
-211.358063
  0
VERTEX
  8
0
  6
DASHED
 10
55.456711
 20
-212.263153
  0
VERTEX
  8
0
  6
DASHED
 10
55.413609
 20
-213.181458
  0
VERTEX
  8
0
  6
DASHED
 10
55.349804
 20
-214.101791
  0
VERTEX
  8
0
  6
DASHED
 10
55.297195
 20
-215.013031
  0
VERTEX
  8
0
  6
DASHED
 10
55.287685
 20
-215.903976
  0
VERTEX
  8
0
  6
DASHED
 10
55.353180
 20
-216.763489
  0
VERTEX
  8
0
  6
DASHED
 10
55.550335
 20
-217.718185
  0
VERTEX
  8
0
  6
DASHED
 10
55.860016
 20
-218.689148
  0
VERTEX
  8
0
  6
DASHED
 10
56.239719
 20
-219.647186
  0
VERTEX
  8
0
  6
DASHED
 10
56.646927
 20
-220.563095
  0
VERTEX
  8
0
  6
DASHED
 10
57.039127
 20
-221.407654
  0
VERTEX
  8
0
  6
DASHED
 10
57.373810
 20
-222.151642
  0
VERTEX
  8
0
  6
DASHED
 10
57.659111
 20
-222.843536
  0
VERTEX
  8
0
  6
DASHED
 10
57.906006
 20
-223.528564
  0
VERTEX
  8
0
  6
DASHED
 10
58.111294
 20
-224.254761
  0
VERTEX
  8
0
  6
DASHED
 10
58.271759
 20
-225.070190
  0
VERTEX
  8
0
  6
DASHED
 10
58.359661
 20
-225.876114
  0
VERTEX
  8
0
  6
DASHED
 10
58.376583
 20
-226.690872
  0
VERTEX
  8
0
  6
DASHED
 10
58.327103
 20
-227.506775
  0
VERTEX
  8
0
  6
DASHED
 10
58.215805
 20
-228.316147
  0
VERTEX
  8
0
  6
DASHED
 10
58.047272
 20
-229.111298
  0
SEQEND
  0
TEXT
  8
0
 10
305.721680
 20
264.529999
 40
5.800000
  1
DATE: MAY ,1992
 50
0.000000
 41
1.052632
 51
0.000000
  7
STANDARD
  0
TEXT
  8
0
 10
-323.292908
 20
237.150192
 40
9.200000
  1
MT SLIDE TABLE
 50
0.000000
 41
1.052632
 51
0.000000
  7
STANDARD
  0
TEXT
  8
0
 10
-393.901611
 20
217.592209
 40
7.259630
  1
alpha series
 50
0.000000
 41
0.612674
 51
0.000000
  7
STANDARD
  0
TEXT
  8
0
 10
-21.178129
 20
251.999939
 40
10.000000
  1
AMT 10
 50
0.000000
 41
1.052632
 51
0.000000
  7
STANDARD
  0
TEXT
  8
0
 10
-21.178129
 20
61.999985
 40
10.000000
  1
AMT 16
 50
0.000000
 41
1.052632
 51
0.000000
  7
STANDARD
  0
TEXT
  8
0
 10
-21.178129
 20
-107.999985
 40
10.000000
  1
AMT 25
 50
0.000000
 41
1.052632
 51
0.000000
  7
STANDARD
  0
TEXT
  8
0
 10
-226.178085
 20
91.999985
 40
10.000000
  1
SUB PLATE
 50
0.000000
 41
1.052632
 51
0.000000
  7
STANDARD
  0
TEXT
  8
0
 10
-226.178085
 20
-77.999985
 40
10.000000
  1
SUB PLATE
 50
0.000000
 41
1.052632
 51
0.000000
  7
STANDARD
  0
TEXT
  8
0
 10
-236.178085
 20
-267.999939
 40
10.000000
  1
SUB PLATE
 50
0.000000
 41
1.052632
 51
0.000000
  7
STANDARD
  0
TEXT
  8
0
 10
143.821854
 20
91.999985
 40
10.000000
  1
FOOT BACKET
 50
0.000000
 41
1.052632
 51
0.000000
  7
STANDARD
  0
TEXT
  8
0
 10
133.821854
 20
-77.999985
 40
10.000000
  1
FOOT BACKET
 50
0.000000
 41
1.052632
 51
0.000000
  7
STANDARD
  0
TEXT
  8
0
 10
123.821846
 20
-267.999939
 40
10.000000
  1
FOOT BACKET
 50
0.000000
 41
1.052632
 51
0.000000
  7
STANDARD
  0
TEXT
  8
0
 10
295.700867
 20
-272.049988
 40
7.000000
  1
KOGANEI CORP.
 50
0.000000
 41
1.139832
 51
0.000000
  7
STANDARD
  0
POINT
  8
0
 10
-269.962494
 20
162.770294
  0
POINT
  8
0
 10
-239.962494
 20
162.770294
  0
LINE
  8
0
 10
-299.962494
 20
205.770294
 11
-299.962494
 21
130.770294
  0
LINE
  8
0
 10
-299.962494
 20
205.770294
 11
-239.962494
 21
205.770294
  0
LINE
  8
0
 10
-239.962494
 20
205.770294
 11
-239.962494
 21
130.770294
  0
LINE
  8
0
 10
-239.962494
 20
130.770294
 11
-239.962494
 21
119.770294
  0
LINE
  8
0
 10
-299.962494
 20
119.770294
 11
-239.962494
 21
119.770294
  0
LINE
  8
0
 10
-299.962494
 20
130.770294
 11
-299.962494
 21
119.770294
  0
LINE
  8
0
 10
-283.962494
 20
190.770294
 11
-290.962494
 21
190.770294
  0
LINE
  8
0
 10
-287.462494
 20
194.270294
 11
-287.462494
 21
187.270294
  0
LINE
  8
0
 10
-247.084320
 20
200.770294
 11
-257.651398
 21
200.770294
  0
LINE
  8
0
 10
-252.462494
 20
205.935562
 11
-252.462494
 21
196.074234
  0
LINE
  8
0
 10
-247.084320
 20
124.770294
 11
-257.651398
 21
124.770294
  0
LINE
  8
0
 10
-252.462494
 20
129.935562
 11
-252.462494
 21
120.074234
  0
LINE
  8
0
 10
-253.962494
 20
125.765274
 11
-253.962494
 21
123.775314
  0
LINE
  8
0
 10
-250.962494
 20
125.765289
 11
-250.962494
 21
123.775314
  0
LINE
  8
0
 10
-250.962372
 20
125.765190
 11
-252.462387
 21
126.570236
  0
LINE
  8
0
 10
-252.462585
 20
126.570389
 11
-253.962555
 21
125.765396
  0
LINE
  8
0
 10
-253.962418
 20
123.775284
 11
-252.462402
 21
122.970245
  0
LINE
  8
0
 10
-252.462585
 20
122.970535
 11
-250.962555
 21
123.775566
  0
LINE
  8
0
 10
-282.084320
 20
124.770294
 11
-292.651398
 21
124.770294
  0
LINE
  8
0
 10
-287.462494
 20
129.935562
 11
-287.462494
 21
120.074234
  0
LINE
  8
0
 10
-288.962494
 20
125.765274
 11
-288.962494
 21
123.775314
  0
LINE
  8
0
 10
-285.962494
 20
125.765289
 11
-285.962494
 21
123.775314
  0
LINE
  8
0
 10
-285.962402
 20
125.765213
 11
-287.462402
 21
126.570259
  0
LINE
  8
0
 10
-287.462555
 20
126.570419
 11
-288.962524
 21
125.765427
  0
LINE
  8
0
 10
-288.962494
 20
123.775330
 11
-287.462463
 21
122.970291
  0
LINE
  8
0
 10
-287.462585
 20
122.970566
 11
-285.962555
 21
123.775604
  0
LINE
  8
0
 10
-282.084320
 20
200.770294
 11
-292.651398
 21
200.770294
  0
LINE
  8
0
 10
-287.462494
 20
205.935562
 11
-287.462494
 21
196.074234
  0
LINE
  8
0
 10
-288.962494
 20
201.765274
 11
-288.962494
 21
199.775314
  0
LINE
  8
0
 10
-285.962494
 20
201.765289
 11
-285.962494
 21
199.775314
  0
LINE
  8
0
 10
-285.962341
 20
201.765167
 11
-287.462372
 21
202.570221
  0
LINE
  8
0
 10
-287.462524
 20
202.570404
 11
-288.962494
 21
201.765411
  0
LINE
  8
0
 10
-288.962433
 20
199.775284
 11
-287.462402
 21
198.970230
  0
LINE
  8
0
 10
-287.462585
 20
198.970520
 11
-285.962555
 21
199.775543
  0
LINE
  8
0
 10
-283.962494
 20
134.770294
 11
-290.962494
 21
134.770294
  0
LINE
  8
0
 10
-287.462494
 20
138.270294
 11
-287.462494
 21
131.270294
  0
LINE
  8
0
 10
-248.962494
 20
134.770294
 11
-255.962494
 21
134.770294
  0
LINE
  8
0
 10
-252.462494
 20
138.270294
 11
-252.462494
 21
131.270294
  0
LINE
  8
0
 10
-248.962494
 20
190.770294
 11
-255.962494
 21
190.770294
  0
LINE
  8
0
 10
-252.462494
 20
194.270294
 11
-252.462494
 21
187.270294
  0
LINE
  8
0
 10
-253.962494
 20
201.765274
 11
-253.962494
 21
199.775314
  0
LINE
  8
0
 10
-250.962494
 20
201.765289
 11
-250.962494
 21
199.775314
  0
LINE
  8
0
 10
-250.962357
 20
201.765198
 11
-252.462372
 21
202.570236
  0
LINE
  8
0
 10
-252.462524
 20
202.570419
 11
-253.962494
 21
201.765427
  0
LINE
  8
0
 10
-253.962479
 20
199.775269
 11
-252.462463
 21
198.970215
  0
LINE
  8
0
 10
-252.462585
 20
198.970535
 11
-250.962555
 21
199.775574
  0
CIRCLE
  8
0
 10
-287.462494
 20
190.770294
 40
2.000000
  0
CIRCLE
  8
0
 10
-287.462494
 20
190.770294
 40
1.300000
  0
CIRCLE
  8
0
 10
-252.462494
 20
124.770294
 40
4.000000
  0
CIRCLE
  8
0
 10
-252.462494
 20
124.770294
 40
3.250000
  0
CIRCLE
  8
0
 10
-287.462494
 20
124.770294
 40
4.000000
  0
CIRCLE
  8
0
 10
-287.462494
 20
124.770294
 40
3.250000
  0
CIRCLE
  8
0
 10
-287.462494
 20
200.770294
 40
4.000000
  0
CIRCLE
  8
0
 10
-287.462494
 20
200.770294
 40
3.250000
  0
CIRCLE
  8
0
 10
-287.462494
 20
134.770294
 40
2.000000
  0
CIRCLE
  8
0
 10
-287.462494
 20
134.770294
 40
1.300000
  0
CIRCLE
  8
0
 10
-252.462494
 20
134.770294
 40
2.000000
  0
CIRCLE
  8
0
 10
-252.462494
 20
134.770294
 40
1.300000
  0
CIRCLE
  8
0
 10
-252.462494
 20
190.770294
 40
2.000000
  0
CIRCLE
  8
0
 10
-252.462494
 20
190.770294
 40
1.300000
  0
CIRCLE
  8
0
 10
-252.462494
 20
200.770294
 40
3.250000
  0
CIRCLE
  8
0
 10
-252.462494
 20
200.770294
 40
4.000000
  0
POINT
  8
0
 10
-83.493774
 20
162.770294
  0
POINT
  8
0
 10
-63.493774
 20
162.770294
  0
LINE
  8
0
 10
-125.493774
 20
205.770294
 11
-125.493774
 21
119.770294
  0
LINE
  8
0
 10
-133.493774
 20
205.770294
 11
-133.493774
 21
119.770294
  0
LINE
  8
0
 10
-125.493774
 20
119.770294
 11
-133.493774
 21
119.770294
  0
LINE
  8
0
 10
-125.493774
 20
205.770294
 11
-133.493774
 21
205.770294
  0
POINT
  8
0
 10
130.037506
 20
162.770294
  0
POINT
  8
0
 10
140.037506
 20
162.770294
  0
LINE
  8
0
 10
140.037506
 20
192.770294
 11
140.037506
 21
160.770294
  0
LINE
  8
0
 10
130.037506
 20
132.770294
 11
140.037506
 21
132.770294
  0
LINE
  8
0
 10
130.037506
 20
192.770294
 11
140.037506
 21
192.770294
  0
LINE
  8
0
 10
135.037506
 20
192.629440
 11
135.037506
 21
179.611542
  0
LINE
  8
0
 10
128.690216
 20
185.770294
 11
140.930908
 21
185.770294
  0
LINE
  8
0
 10
135.037506
 20
146.629440
 11
135.037506
 21
133.611542
  0
LINE
  8
0
 10
128.690216
 20
139.770294
 11
140.930908
 21
139.770294
  0
LINE
  8
0
 10
140.037506
 20
151.770294
 11
140.037506
 21
132.770294
  0
CIRCLE
  8
0
 10
135.037506
 20
185.770294
 40
2.250000
  0
CIRCLE
  8
0
 10
135.037506
 20
185.770294
 40
4.000000
  0
CIRCLE
  8
0
 10
135.037506
 20
139.770294
 40
2.250000
  0
CIRCLE
  8
0
 10
135.037506
 20
139.770294
 40
4.000000
  0
POINT
  8
0
 10
316.506256
 20
162.770294
  0
POINT
  8
0
 10
336.506256
 20
162.770294
  0
LINE
  8
0
 10
310.006256
 20
177.765274
 11
310.006256
 21
175.775314
  0
LINE
  8
0
 10
313.006256
 20
177.765289
 11
313.006256
 21
175.775314
  0
LINE
  8
0
 10
313.006348
 20
177.765137
 11
311.506348
 21
178.570175
  0
LINE
  8
0
 10
311.506226
 20
178.570450
 11
310.006256
 21
177.765442
  0
LINE
  8
0
 10
310.006256
 20
175.775131
 11
311.506256
 21
174.970093
  0
LINE
  8
0
 10
311.506134
 20
174.970551
 11
313.006165
 21
175.775574
  0
LINE
  8
0
 10
317.014893
 20
176.770294
 11
305.910583
 21
176.770294
  0
LINE
  8
0
 10
311.506256
 20
182.700439
 11
311.506256
 21
171.139771
  0
LINE
  8
0
 10
306.506256
 20
192.770294
 11
306.506256
 21
132.770294
  0
LINE
  8
0
 10
316.506256
 20
192.770294
 11
316.506256
 21
132.770294
  0
LINE
  8
0
 10
316.506256
 20
132.770294
 11
306.506256
 21
132.770294
  0
LINE
  8
0
 10
316.506256
 20
192.770294
 11
306.506256
 21
192.770294
  0
LINE
  8
0
 10
310.006256
 20
149.765274
 11
310.006256
 21
147.775314
  0
LINE
  8
0
 10
313.006256
 20
149.765289
 11
313.006256
 21
147.775314
  0
LINE
  8
0
 10
313.006287
 20
149.765106
 11
311.506256
 21
150.570160
  0
LINE
  8
0
 10
311.506195
 20
150.570419
 11
310.006226
 21
149.765427
  0
LINE
  8
0
 10
310.006256
 20
147.775162
 11
311.506287
 21
146.970108
  0
LINE
  8
0
 10
311.506165
 20
146.970551
 11
313.006165
 21
147.775589
  0
LINE
  8
0
 10
317.014893
 20
148.770294
 11
305.910583
 21
148.770294
  0
LINE
  8
0
 10
311.506256
 20
154.700439
 11
311.506256
 21
143.139771
  0
CIRCLE
  8
0
 10
311.506256
 20
176.770294
 40
4.000000
  0
CIRCLE
  8
0
 10
311.506256
 20
176.770294
 40
3.250000
  0
CIRCLE
  8
0
 10
311.506256
 20
148.770294
 40
4.000000
  0
CIRCLE
  8
0
 10
311.506256
 20
148.770294
 40
3.250000
  0
POINT
  8
0
 10
-269.962494
 20
3.090088
  0
POINT
  8
0
 10
-229.962494
 20
3.090088
  0
LINE
  8
0
 10
-309.962494
 20
52.090088
 11
-309.962494
 21
-34.909927
  0
LINE
  8
0
 10
-229.962494
 20
52.090088
 11
-229.962494
 21
-34.909927
  0
LINE
  8
0
 10
-309.962494
 20
52.090088
 11
-229.962494
 21
52.090088
  0
LINE
  8
0
 10
-309.962494
 20
-45.909943
 11
-229.962494
 21
-45.909943
  0
LINE
  8
0
 10
-309.962494
 20
-34.909927
 11
-309.962494
 21
-45.909912
  0
LINE
  8
0
 10
-229.962494
 20
-34.909927
 11
-229.962494
 21
-45.909912
  0
LINE
  8
0
 10
-297.462494
 20
38.461945
 11
-297.462494
 21
30.099800
  0
LINE
  8
0
 10
-301.566956
 20
34.090088
 11
-293.135315
 21
34.090088
  0
LINE
  8
0
 10
-297.462494
 20
-34.086380
 11
-297.462494
 21
-45.814941
  0
LINE
  8
0
 10
-304.038696
 20
-39.909927
 11
-291.174255
 21
-39.909927
  0
LINE
  8
0
 10
-295.462524
 20
-38.676071
 11
-295.462524
 21
-41.143768
  0
LINE
  8
0
 10
-299.462524
 20
-38.675949
 11
-299.462524
 21
-41.143906
  0
LINE
  8
0
 10
-299.462585
 20
-38.675804
 11
-299.462128
 21
-38.675095
  0
LINE
  8
0
 10
-297.462524
 20
-37.559887
 11
-295.462494
 21
-38.676067
  0
LINE
  8
0
 10
-295.462646
 20
-41.143555
 11
-297.462616
 21
-42.259705
  0
LINE
  8
0
 10
-297.462555
 20
-42.259907
 11
-299.462555
 21
-41.143894
  0
LINE
  8
0
 10
-299.462555
 20
-38.675842
 11
-297.462555
 21
-37.559826
  0
LINE
  8
0
 10
-297.462494
 20
-23.538055
 11
-297.462494
 21
-31.900192
  0
LINE
  8
0
 10
-301.566956
 20
-27.909912
 11
-293.135315
 21
-27.909912
  0
LINE
  8
0
 10
-242.462494
 20
-23.538055
 11
-242.462494
 21
-31.900192
  0
LINE
  8
0
 10
-246.566956
 20
-27.909912
 11
-238.135315
 21
-27.909912
  0
LINE
  8
0
 10
-242.462494
 20
38.461945
 11
-242.462494
 21
30.099800
  0
LINE
  8
0
 10
-246.566956
 20
34.090088
 11
-238.135315
 21
34.090088
  0
LINE
  8
0
 10
-297.462494
 20
51.913635
 11
-297.462494
 21
40.185074
  0
LINE
  8
0
 10
-304.038696
 20
46.090103
 11
-291.174255
 21
46.090103
  0
LINE
  8
0
 10
-295.462524
 20
47.323944
 11
-295.462524
 21
44.856247
  0
LINE
  8
0
 10
-299.462524
 20
47.324081
 11
-299.462524
 21
44.856125
  0
LINE
  8
0
 10
-299.462585
 20
47.324127
 11
-299.462128
 21
47.324825
  0
LINE
  8
0
 10
-297.462494
 20
48.440071
 11
-295.462494
 21
47.323898
  0
LINE
  8
0
 10
-295.462524
 20
44.856339
 11
-297.462524
 21
43.740189
  0
LINE
  8
0
 10
-297.462494
 20
43.740063
 11
-299.462494
 21
44.856091
  0
LINE
  8
0
 10
-299.462494
 20
47.324150
 11
-297.462524
 21
48.440163
  0
LINE
  8
0
 10
-242.462494
 20
51.913635
 11
-242.462494
 21
40.185074
  0
LINE
  8
0
 10
-249.038696
 20
46.090103
 11
-236.174255
 21
46.090103
  0
LINE
  8
0
 10
-240.462524
 20
47.323944
 11
-240.462524
 21
44.856247
  0
LINE
  8
0
 10
-244.462494
 20
47.324081
 11
-244.462494
 21
44.856125
  0
LINE
  8
0
 10
-244.462570
 20
47.324192
 11
-244.462128
 21
47.324898
  0
LINE
  8
0
 10
-242.462509
 20
48.440056
 11
-240.462479
 21
47.323875
  0
LINE
  8
0
 10
-240.462585
 20
44.856339
 11
-242.462555
 21
43.740189
  0
LINE
  8
0
 10
-242.462540
 20
43.740108
 11
-244.462524
 21
44.856121
  0
LINE
  8
0
 10
-244.462555
 20
47.324177
 11
-242.462555
 21
48.440197
  0
LINE
  8
0
 10
-242.462494
 20
-34.086380
 11
-242.462494
 21
-45.814941
  0
LINE
  8
0
 10
-249.038696
 20
-39.909927
 11
-236.174255
 21
-39.909927
  0
LINE
  8
0
 10
-240.462524
 20
-38.676071
 11
-240.462524
 21
-41.143768
  0
LINE
  8
0
 10
-244.462494
 20
-38.675949
 11
-244.462494
 21
-41.143906
  0
LINE
  8
0
 10
-244.462509
 20
-38.675861
 11
-244.462082
 21
-38.675159
  0
LINE
  8
0
 10
-242.462555
 20
-37.559910
 11
-240.462524
 21
-38.676090
  0
LINE
  8
0
 10
-240.462631
 20
-41.143604
 11
-242.462601
 21
-42.259754
  0
LINE
  8
0
 10
-242.462524
 20
-42.259945
 11
-244.462509
 21
-41.143932
  0
LINE
  8
0
 10
-244.462555
 20
-38.675888
 11
-242.462555
 21
-37.559868
  0
CIRCLE
  8
0
 10
-297.462494
 20
34.090088
 40
2.500000
  0
CIRCLE
  8
0
 10
-297.462494
 20
34.090088
 40
1.750000
  0
CIRCLE
  8
0
 10
-297.462555
 20
-39.909927
 40
4.750000
  0
CIRCLE
  8
0
 10
-297.462555
 20
-39.909927
 40
4.000000
  0
CIRCLE
  8
0
 10
-297.462494
 20
-27.909912
 40
2.500000
  0
CIRCLE
  8
0
 10
-297.462494
 20
-27.909912
 40
1.750000
  0
CIRCLE
  8
0
 10
-242.462494
 20
-27.909912
 40
2.500000
  0
CIRCLE
  8
0
 10
-242.462494
 20
-27.909912
 40
1.750000
  0
CIRCLE
  8
0
 10
-242.462494
 20
34.090088
 40
2.500000
  0
CIRCLE
  8
0
 10
-242.462494
 20
34.090088
 40
1.750000
  0
CIRCLE
  8
0
 10
-297.462555
 20
46.090103
 40
4.750000
  0
CIRCLE
  8
0
 10
-297.462555
 20
46.090103
 40
4.000000
  0
CIRCLE
  8
0
 10
-242.462524
 20
46.090103
 40
4.750000
  0
CIRCLE
  8
0
 10
-242.462524
 20
46.090103
 40
4.000000
  0
CIRCLE
  8
0
 10
-242.462524
 20
-39.909927
 40
4.750000
  0
CIRCLE
  8
0
 10
-242.462524
 20
-39.909927
 40
4.000000
  0
POINT
  8
0
 10
-83.493774
 20
3.090088
  0
POINT
  8
0
 10
-63.493774
 20
3.090088
  0
LINE
  8
0
 10
-133.493805
 20
52.090088
 11
-133.493805
 21
42.090088
  0
LINE
  8
0
 10
-133.493805
 20
-45.909912
 11
-133.493805
 21
42.090088
  0
LINE
  8
0
 10
-143.493805
 20
52.090088
 11
-143.493805
 21
-45.909912
  0
LINE
  8
0
 10
-133.493805
 20
-45.909943
 11
-143.493805
 21
-45.909943
  0
LINE
  8
0
 10
-133.493805
 20
52.090088
 11
-143.493805
 21
52.090088
  0
POINT
  8
0
 10
130.037506
 20
3.090088
  0
POINT
  8
0
 10
142.037506
 20
3.090088
  0
LINE
  8
0
 10
142.037506
 20
38.090088
 11
142.037506
 21
2.090088
  0
LINE
  8
0
 10
130.037506
 20
38.090088
 11
142.037506
 21
38.090088
  0
LINE
  8
0
 10
130.037506
 20
-31.909912
 11
142.037506
 21
-31.909912
  0
LINE
  8
0
 10
126.698853
 20
-24.409912
 11
146.283752
 21
-24.409912
  0
LINE
  8
0
 10
136.037476
 20
-15.014984
 11
136.037476
 21
-34.303162
  0
LINE
  8
0
 10
126.698853
 20
30.590088
 11
146.283752
 21
30.590088
  0
LINE
  8
0
 10
136.037476
 20
39.985016
 11
136.037476
 21
20.696838
  0
LINE
  8
0
 10
142.037506
 20
-9.909912
 11
142.037506
 21
-31.909912
  0
CIRCLE
  8
0
 10
136.037476
 20
-24.409912
 40
2.750000
  0
CIRCLE
  8
0
 10
136.037476
 20
-24.409912
 40
4.750000
  0
CIRCLE
  8
0
 10
136.037476
 20
30.590088
 40
2.750000
  0
CIRCLE
  8
0
 10
136.037476
 20
30.590088
 40
4.750000
  0
POINT
  8
0
 10
316.506256
 20
3.090088
  0
POINT
  8
0
 10
336.506256
 20
3.090088
  0
LINE
  8
0
 10
316.506256
 20
-31.909912
 11
316.506256
 21
38.090088
  0
LINE
  8
0
 10
304.506256
 20
-31.909912
 11
304.506256
 21
38.090088
  0
LINE
  8
0
 10
316.506256
 20
-31.909912
 11
304.506256
 21
-31.909912
  0
LINE
  8
0
 10
316.506256
 20
38.090088
 11
304.506256
 21
38.090088
  0
LINE
  8
0
 10
310.506134
 20
25.913635
 11
310.506134
 21
14.185089
  0
LINE
  8
0
 10
303.929962
 20
20.090088
 11
316.794373
 21
20.090088
  0
LINE
  8
0
 10
312.506134
 20
21.323944
 11
312.506134
 21
18.856262
  0
LINE
  8
0
 10
308.506165
 20
21.324066
 11
308.506165
 21
18.856110
  0
LINE
  8
0
 10
310.506104
 20
22.439945
 11
312.506104
 21
21.323782
  0
LINE
  8
0
 10
312.506012
 20
18.856304
 11
310.506042
 21
17.740154
  0
LINE
  8
0
 10
310.506073
 20
17.740011
 11
308.506073
 21
18.856037
  0
LINE
  8
0
 10
308.506104
 20
21.324047
 11
310.506104
 21
22.440079
  0
LINE
  8
0
 10
310.506195
 20
-8.086365
 11
310.506195
 21
-19.814919
  0
LINE
  8
0
 10
303.929962
 20
-13.909912
 11
316.794373
 21
-13.909912
  0
LINE
  8
0
 10
312.506165
 20
-12.676056
 11
312.506165
 21
-15.143738
  0
LINE
  8
0
 10
308.506195
 20
-12.675934
 11
308.506195
 21
-15.143890
  0
LINE
  8
0
 10
310.506165
 20
-11.559991
 11
312.506134
 21
-12.676155
  0
LINE
  8
0
 10
312.506165
 20
-15.143652
 11
310.506195
 21
-16.259802
  0
LINE
  8
0
 10
310.506165
 20
-16.259918
 11
308.506165
 21
-15.143887
  0
LINE
  8
0
 10
308.506195
 20
-12.675913
 11
310.506195
 21
-11.559887
  0
CIRCLE
  8
0
 10
310.506104
 20
20.090088
 40
4.750000
  0
CIRCLE
  8
0
 10
310.506104
 20
20.090088
 40
4.000000
  0
CIRCLE
  8
0
 10
310.506134
 20
-13.909912
 40
4.750000
  0
CIRCLE
  8
0
 10
310.506134
 20
-13.909912
 40
4.000000
  0
POINT
  8
0
 10
-269.962494
 20
-166.909912
  0
POINT
  8
0
 10
-219.962494
 20
-166.909912
  0
LINE
  8
0
 10
-219.962494
 20
-105.909912
 11
-219.962494
 21
-227.909912
  0
LINE
  8
0
 10
-319.962494
 20
-105.909912
 11
-319.962494
 21
-227.909912
  0
LINE
  8
0
 10
-319.962494
 20
-105.909912
 11
-219.962494
 21
-105.909912
  0
LINE
  8
0
 10
-319.962494
 20
-227.909912
 11
-219.962494
 21
-227.909912
  0
LINE
  8
0
 10
-228.054291
 20
-221.909912
 11
-241.920868
 21
-221.909912
  0
LINE
  8
0
 10
-234.962494
 20
-214.512146
 11
-234.962494
 21
-229.087158
  0
LINE
  8
0
 10
-237.462494
 20
-220.343872
 11
-237.462494
 21
-223.475952
  0
LINE
  8
0
 10
-232.462494
 20
-220.343872
 11
-232.462494
 21
-223.475952
  0
LINE
  8
0
 10
-232.462555
 20
-220.343781
 11
-234.962540
 21
-218.959839
  0
LINE
  8
0
 10
-234.962418
 20
-218.960114
 11
-237.462341
 21
-220.344025
  0
LINE
  8
0
 10
-237.462479
 20
-223.476013
 11
-234.962555
 21
-224.859924
  0
LINE
  8
0
 10
-234.962418
 20
-224.860184
 11
-232.462433
 21
-223.476242
  0
LINE
  8
0
 10
-228.054291
 20
-111.909912
 11
-241.920868
 21
-111.909912
  0
LINE
  8
0
 10
-234.962494
 20
-104.512146
 11
-234.962494
 21
-119.087158
  0
LINE
  8
0
 10
-237.462494
 20
-110.343872
 11
-237.462494
 21
-113.475952
  0
LINE
  8
0
 10
-232.462494
 20
-110.343872
 11
-232.462494
 21
-113.475952
  0
LINE
  8
0
 10
-232.462494
 20
-110.343811
 11
-234.962479
 21
-108.959862
  0
LINE
  8
0
 10
-234.962463
 20
-108.960007
 11
-237.462402
 21
-110.343933
  0
LINE
  8
0
 10
-237.462494
 20
-113.475937
 11
-234.962570
 21
-114.859863
  0
LINE
  8
0
 10
-234.962387
 20
-114.860168
 11
-232.462402
 21
-113.476212
  0
LINE
  8
0
 10
-298.054291
 20
-111.909912
 11
-311.920868
 21
-111.909912
  0
LINE
  8
0
 10
-304.962494
 20
-104.512146
 11
-304.962494
 21
-119.087158
  0
LINE
  8
0
 10
-307.462494
 20
-110.343872
 11
-307.462494
 21
-113.475952
  0
LINE
  8
0
 10
-302.462494
 20
-110.343872
 11
-302.462494
 21
-113.475952
  0
LINE
  8
0
 10
-302.462524
 20
-110.343796
 11
-304.962494
 21
-108.959854
  0
LINE
  8
0
 10
-304.962402
 20
-108.960068
 11
-307.462341
 21
-110.343994
  0
LINE
  8
0
 10
-307.462524
 20
-113.475960
 11
-304.962585
 21
-114.859879
  0
LINE
  8
0
 10
-304.962372
 20
-114.860191
 11
-302.462402
 21
-113.476242
  0
LINE
  8
0
 10
-298.054291
 20
-221.909912
 11
-311.920868
 21
-221.909912
  0
LINE
  8
0
 10
-304.962494
 20
-214.512146
 11
-304.962494
 21
-229.087158
  0
LINE
  8
0
 10
-307.462494
 20
-220.343872
 11
-307.462494
 21
-223.475952
  0
LINE
  8
0
 10
-302.462494
 20
-220.343872
 11
-302.462494
 21
-223.475952
  0
LINE
  8
0
 10
-302.462524
 20
-220.343826
 11
-304.962524
 21
-218.959869
  0
LINE
  8
0
 10
-304.962402
 20
-218.960052
 11
-307.462311
 21
-220.343964
  0
LINE
  8
0
 10
-307.462402
 20
-223.475998
 11
-304.962494
 21
-224.859909
  0
LINE
  8
0
 10
-304.962402
 20
-224.860138
 11
-302.462433
 21
-223.476196
  0
LINE
  8
0
 10
-310.106781
 20
-126.909912
 11
-300.047760
 21
-126.909912
  0
LINE
  8
0
 10
-304.962433
 20
-122.190582
 11
-304.962433
 21
-131.503387
  0
LINE
  8
0
 10
-310.106842
 20
-206.909912
 11
-300.047821
 21
-206.909912
  0
LINE
  8
0
 10
-304.962494
 20
-202.190582
 11
-304.962494
 21
-211.503387
  0
LINE
  8
0
 10
-240.106781
 20
-126.909912
 11
-230.047760
 21
-126.909912
  0
LINE
  8
0
 10
-234.962433
 20
-122.190582
 11
-234.962433
 21
-131.503387
  0
LINE
  8
0
 10
-240.106781
 20
-206.909912
 11
-230.047760
 21
-206.909912
  0
LINE
  8
0
 10
-234.962433
 20
-202.190582
 11
-234.962433
 21
-211.503387
  0
CIRCLE
  8
0
 10
-234.962494
 20
-221.909912
 40
5.000000
  0
CIRCLE
  8
0
 10
-234.962494
 20
-221.909912
 40
5.750000
  0
CIRCLE
  8
0
 10
-234.962494
 20
-111.909912
 40
5.000000
  0
CIRCLE
  8
0
 10
-234.962494
 20
-111.909912
 40
5.750000
  0
CIRCLE
  8
0
 10
-304.962494
 20
-111.909912
 40
5.000000
  0
CIRCLE
  8
0
 10
-304.962494
 20
-111.909912
 40
5.750000
  0
CIRCLE
  8
0
 10
-304.962494
 20
-221.909912
 40
5.000000
  0
CIRCLE
  8
0
 10
-304.962494
 20
-221.909912
 40
5.750000
  0
CIRCLE
  8
0
 10
-304.962372
 20
-126.909912
 40
3.000000
  0
CIRCLE
  8
0
 10
-304.962372
 20
-126.909912
 40
2.250000
  0
CIRCLE
  8
0
 10
-304.962433
 20
-206.909912
 40
3.000000
  0
CIRCLE
  8
0
 10
-304.962433
 20
-206.909912
 40
2.250000
  0
CIRCLE
  8
0
 10
-234.962372
 20
-126.909912
 40
3.000000
  0
CIRCLE
  8
0
 10
-234.962372
 20
-126.909912
 40
2.250000
  0
CIRCLE
  8
0
 10
-234.962372
 20
-206.909912
 40
3.000000
  0
CIRCLE
  8
0
 10
-234.962372
 20
-206.909912
 40
2.250000
  0
POINT
  8
0
 10
-83.493774
 20
-166.909912
  0
POINT
  8
0
 10
-63.493774
 20
-166.909912
  0
LINE
  8
0
 10
-148.493713
 20
-215.909912
 11
-148.493713
 21
-227.909912
  0
LINE
  8
0
 10
-148.493713
 20
-215.909912
 11
-148.493713
 21
-105.909912
  0
LINE
  8
0
 10
-160.493713
 20
-105.909912
 11
-160.493713
 21
-227.909912
  0
LINE
  8
0
 10
-148.493713
 20
-227.909912
 11
-160.493713
 21
-227.909912
  0
LINE
  8
0
 10
-148.493713
 20
-105.909912
 11
-160.493713
 21
-105.909912
  0
POINT
  8
0
 10
130.037506
 20
-166.909912
  0
POINT
  8
0
 10
145.037506
 20
-166.909912
  0
LINE
  8
0
 10
145.037506
 20
-121.909912
 11
145.037506
 21
-164.909912
  0
LINE
  8
0
 10
130.037445
 20
-211.909912
 11
145.037445
 21
-211.909912
  0
LINE
  8
0
 10
130.037445
 20
-121.909912
 11
145.037445
 21
-121.909912
  0
LINE
  8
0
 10
145.037506
 20
-180.909912
 11
145.037506
 21
-211.909912
  0
LINE
  8
0
 10
128.879364
 20
-131.909912
 11
145.956146
 21
-131.909912
  0
LINE
  8
0
 10
137.537506
 20
-123.022339
 11
137.537506
 21
-140.404114
  0
LINE
  8
0
 10
128.879364
 20
-201.909912
 11
145.956146
 21
-201.909912
  0
LINE
  8
0
 10
137.537506
 20
-193.022339
 11
137.537506
 21
-210.404114
  0
CIRCLE
  8
0
 10
137.537506
 20
-131.909912
 40
3.300000
  0
CIRCLE
  8
0
 10
137.537506
 20
-131.909912
 40
5.500000
  0
CIRCLE
  8
0
 10
137.537506
 20
-201.909912
 40
3.300000
  0
CIRCLE
  8
0
 10
137.537506
 20
-201.909912
 40
5.500000
  0
POINT
  8
0
 10
316.506256
 20
-166.909912
  0
POINT
  8
0
 10
336.506256
 20
-166.909912
  0
LINE
  8
0
 10
315.914398
 20
-144.409912
 11
302.047821
 21
-144.409912
  0
LINE
  8
0
 10
309.006256
 20
-137.012146
 11
309.006256
 21
-151.587158
  0
LINE
  8
0
 10
306.506256
 20
-142.843872
 11
306.506256
 21
-145.975952
  0
LINE
  8
0
 10
311.506256
 20
-142.843872
 11
311.506256
 21
-145.975952
  0
LINE
  8
0
 10
311.506287
 20
-142.843765
 11
309.006226
 21
-141.459793
  0
LINE
  8
0
 10
309.006439
 20
-141.460083
 11
306.506500
 21
-142.843994
  0
LINE
  8
0
 10
306.506134
 20
-145.975967
 11
309.006073
 21
-147.359879
  0
LINE
  8
0
 10
309.006409
 20
-147.360107
 11
311.506378
 21
-145.976166
  0
LINE
  8
0
 10
316.506195
 20
-211.909912
 11
301.506195
 21
-211.909912
  0
LINE
  8
0
 10
316.506195
 20
-121.909912
 11
301.506195
 21
-121.909912
  0
LINE
  8
0
 10
301.506256
 20
-121.909912
 11
301.506256
 21
-211.909912
  0
LINE
  8
0
 10
316.506256
 20
-121.909912
 11
316.506256
 21
-211.909912
  0
LINE
  8
0
 10
315.914398
 20
-189.409912
 11
302.047821
 21
-189.409912
  0
LINE
  8
0
 10
309.006256
 20
-182.012146
 11
309.006256
 21
-196.587158
  0
LINE
  8
0
 10
306.506256
 20
-187.843872
 11
306.506256
 21
-190.975952
  0
LINE
  8
0
 10
311.506256
 20
-187.843872
 11
311.506256
 21
-190.975952
  0
LINE
  8
0
 10
311.506195
 20
-187.843826
 11
309.006226
 21
-186.459869
  0
LINE
  8
0
 10
309.006378
 20
-186.460114
 11
306.506439
 21
-187.844025
  0
LINE
  8
0
 10
306.506287
 20
-190.975891
 11
309.006195
 21
-192.359818
  0
LINE
  8
0
 10
309.006500
 20
-192.360092
 11
311.506409
 21
-190.976181
  0
CIRCLE
  8
0
 10
309.006256
 20
-144.409912
 40
5.000000
  0
CIRCLE
  8
0
 10
309.006256
 20
-144.409912
 40
5.750000
  0
CIRCLE
  8
0
 10
309.006256
 20
-189.409912
 40
5.000000
  0
CIRCLE
  8
0
 10
309.006256
 20
-189.409912
 40
5.750000
  0
ENDSEC
  0
EOF
