  0
SECTION
  2
HEADER
  0
ENDSEC
  0
SECTION
  2
TABLES
  0
TABLE
  2
LTYPE
 70
     4
  0
LTYPE
  2
CONTINUOUS
 70
    64
  3
Solid line
 72
    65
 73
     0
 40
0.000000
  0
LTYPE
  2
DASHED
 70
    64
  3
__ __ __ __ __ __ __ __ __ __ __ __ __ __ __
 72
    65
 73
     2
 40
3.500000
 49
2.000000
 49
-1.500000
  0
LTYPE
  2
CENTER
 70
    64
  3
____ _ ____ _ ____ _ ____ _ ____ _ ____ _ ____
 72
    65
 73
     4
 40
17.500000
 49
13.000000
 49
-1.500000
 49
1.500000
 49
-1.500000
  0
LTYPE
  2
PHANTOM
 70
    64
  3
_____ _ _ _____ _ _ _____ _ _ _____ _ _ ____  
 72
    65
 73
     6
 40
15.500000
 49
8.000000
 49
-1.500000
 49
1.500000
 49
-1.500000
 49
1.500000
 49
-1.500000
  0
LTYPE
  2
DASHED1
 70
    64
  3
__ __ __ __ __ __ __ __ __ __ __ __ __ __ __
 72
    65
 73
     2
 40
1.500000
 49
1.000000
 49
-0.500000
  0
LTYPE
  2
DASHED2
 70
    64
  3
__ __ __ __ __ __ __ __ __ __ __ __ __ __ __
 72
    65
 73
     2
 40
3.500000
 49
2.500000
 49
-1.000000
  0
LTYPE
  2
DASHED3
 70
    64
  3
__ __ __ __ __ __ __ __ __ __ __ __ __ __ __
 72
    65
 73
     2
 40
6.000000
 49
4.000000
 49
-2.000000
  0
LTYPE
  2
DASHED4
 70
    64
  3
__ __ __ __ __ __ __ __ __ __ __ __ __ __ __
 72
    65
 73
     2
 40
12.000000
 49
10.000000
 49
-2.000000
  0
LTYPE
  2
DASHED5
 70
    64
  3
__ __ __ __ __ __ __ __ __ __ __ __ __ __ __
 72
    65
 73
     2
 40
17.000000
 49
15.000000
 49
-2.000000
  0
LTYPE
  2
DASHED6
 70
    64
  3
__ __ __ __ __ __ __ __ __ __ __ __ __ __ __
 72
    65
 73
     2
 40
29.000000
 49
27.000000
 49
-2.000000
  0
LTYPE
  2
PHANTOM1
 70
    64
  3
_____ _ _ _____ _ _ _____ _ _ _____ _ _ ____  
 72
    65
 73
     6
 40
31.000000
 49
25.000000
 49
-1.500000
 49
1.000000
 49
-1.000000
 49
1.000000
 49
-1.500000
  0
LTYPE
  2
PHANTOM2
 70
    64
  3
_____ _ _ _____ _ _ _____ _ _ _____ _ _ ____  
 72
    65
 73
     6
 40
36.000000
 49
27.000000
 49
-1.500000
 49
2.500000
 49
-1.000000
 49
2.500000
 49
-1.500000
  0
LTYPE
  2
PHANTOM3
 70
    64
  3
_____ _ _ _____ _ _ _____ _ _ _____ _ _ ____  
 72
    65
 73
     6
 40
78.000000
 49
64.000000
 49
-2.000000
 49
4.000000
 49
-2.000000
 49
4.000000
 49
-2.000000
  0
LTYPE
  2
CENTER1
 70
    64
  3
____ _ ____ _ ____ _ ____ _ ____ _ ____ _ ____
 72
    65
 73
     4
 40
19.000000
 49
14.000000
 49
-1.000000
 49
3.000000
 49
-1.000000
  0
LTYPE
  2
CENTER2
 70
    64
  3
____ _ ____ _ ____ _ ____ _ ____ _ ____ _ ____
 72
    65
 73
     4
 40
28.500000
 49
25.000000
 49
-1.000000
 49
1.500000
 49
-1.000000
  0
LTYPE
  2
CENTER3
 70
    64
  3
____ _ ____ _ ____ _ ____ _ ____ _ ____ _ ____
 72
    65
 73
     4
 40
31.500000
 49
27.000000
 49
-1.000000
 49
2.500000
 49
-1.000000
  0
LTYPE
  2
CENTER4
 70
    64
  3
____ _ ____ _ ____ _ ____ _ ____ _ ____ _ ____
 72
    65
 73
     4
 40
50.000000
 49
45.000000
 49
-1.000000
 49
3.000000
 49
-1.000000
  0
LTYPE
  2
CENTER5
 70
    64
  3
____ _ ____ _ ____ _ ____ _ ____ _ ____ _ ____
 72
    65
 73
     4
 40
100.000000
 49
92.000000
 49
-2.000000
 49
4.000000
 49
-2.000000
  0
LTYPE
  2
SBK1
 70
    64
  3
______ _ _ _ ______ _ _ _ ______ _ _ _ _____  
 72
    65
 73
     8
 40
60.500000
 49
45.000000
 49
-2.000000
 49
2.500000
 49
-2.000000
 49
2.500000
 49
-2.000000
 49
2.500000
 49
-2.000000
  0
LTYPE
  2
SBK2
 70
    64
  3
______ _ _ _ ______ _ _ _ ______ _ _ _ _____  
 72
    65
 73
     8
 40
84.000000
 49
64.000000
 49
-2.000000
 49
4.000000
 49
-2.000000
 49
4.000000
 49
-2.000000
 49
4.000000
 49
-2.000000
  0
LTYPE
  2
STCH
 70
    64
  3
__ __ __ __ __ __ __ __ __ __ __ __ __ __ __
 72
    65
 73
     2
 40
3.000000
 49
1.000000
 49
-2.000000
  0
LTYPE
  2
MTCH
 70
    64
  3
_____ _ _ _____ _ _ _____ _ _ _____ _ _ ____  
 72
    65
 73
     6
 40
80.000000
 49
66.000000
 49
-2.000000
 49
4.000000
 49
-2.000000
 49
4.000000
 49
-2.000000
  0
ENDTAB
  0
TABLE
  2
LAYER
 70
     1
  0
LAYER
  2
0
 70
     0
 62
     7
  6
CONTINUOUS
  0
ENDTAB
  0
TABLE
  2
STYLE
 70
     1
  0
STYLE
  2
STANDARD
 70
     0
 40
0.000000
 41
1.000000
 50
0.000000
 71
     0
 42
0.200000
  3
txt
  4
BIGFONT
  0
ENDTAB
  0
TABLE
  2
VIEW
 70
     0
  0
ENDTAB
  0
ENDSEC
  0
SECTION
  2
BLOCKS
  0
ENDSEC
  0
SECTION
  2
ENTITIES
  0
LINE
  8
0
 10
299.799988
 20
276.250000
 11
299.799988
 21
261.250000
  0
LINE
  8
0
 10
299.799988
 20
-256.750000
 11
299.799988
 21
-276.750000
  0
LINE
  8
0
 10
299.799988
 20
261.250000
 11
399.799988
 21
261.250000
  0
LINE
  8
0
 10
299.799988
 20
-256.750000
 11
399.799988
 21
-256.750000
  0
LINE
  8
0
 10
-420.500000
 20
297.000000
 11
420.500000
 21
297.000000
  0
LINE
  8
0
 10
-420.500000
 20
-297.000000
 11
420.500000
 21
-297.000000
  0
LINE
  8
0
 10
420.500000
 20
297.000000
 11
420.500000
 21
-297.000000
  0
LINE
  8
0
 10
-420.500000
 20
297.000000
 11
-420.500000
 21
-297.000000
  0
LINE
  8
0
 10
399.799988
 20
276.250000
 11
399.799988
 21
-276.750000
  0
LINE
  8
0
 10
-399.250000
 20
276.250000
 11
-399.250000
 21
-276.750000
  0
LINE
  8
0
 10
-399.250000
 20
276.250000
 11
399.799988
 21
276.250000
  0
LINE
  8
0
 10
-399.250000
 20
-276.750000
 11
399.799988
 21
-276.750000
  0
LINE
  8
0
 62
     3
 10
-392.944305
 20
229.121643
 11
-354.673065
 21
267.392883
  0
LINE
  8
0
 62
     3
 10
-354.673126
 20
267.392944
 11
-354.673126
 21
241.368500
  0
LINE
  8
0
 62
     3
 10
-350.080566
 20
236.775940
 11
-343.446899
 21
236.775940
  0
LINE
  8
0
 62
     3
 10
-343.446899
 20
236.775940
 11
-344.365417
 21
234.479660
  0
LINE
  8
0
 62
     3
 10
-392.944397
 20
229.121689
 11
-364.623627
 21
229.121689
  0
LINE
  8
0
 62
     3
 10
-364.623840
 20
229.121811
 11
-363.666840
 21
231.418091
  0
LINE
  8
0
 62
     1
 10
-363.666840
 20
231.418091
 11
-363.028839
 21
232.948944
  0
LINE
  8
0
 62
     1
 10
-344.365417
 20
234.479660
 11
-344.977753
 21
232.948807
  0
LINE
  8
0
 62
     1
 10
-350.080566
 20
234.479675
 11
-344.365387
 21
234.479675
  0
LINE
  8
0
 62
     1
 10
-387.400665
 20
231.417969
 11
-363.666626
 21
231.417969
  0
LINE
  8
0
 62
     1
 10
-387.400696
 20
231.417953
 11
-356.969421
 21
261.849243
  0
LINE
  8
0
 62
     1
 10
-356.969391
 20
261.849243
 11
-356.969391
 21
241.368500
  0
LINE
  8
0
 62
     5
 10
-374.465393
 20
236.775940
 11
-361.433655
 21
236.775940
  0
LINE
  8
0
 62
     5
 10
-374.465302
 20
236.775879
 11
-362.327301
 21
248.913879
  0
LINE
  8
0
 62
     5
 10
-362.327393
 20
248.913940
 11
-362.327393
 21
241.368500
  0
LINE
  8
0
 62
     5
 10
-350.080566
 20
229.121689
 11
-346.508606
 21
229.121689
  0
LINE
  8
0
 62
     5
 10
-350.080566
 20
232.948822
 11
-344.977753
 21
232.948822
  0
LINE
  8
0
 62
     5
 10
-344.977753
 20
232.948807
 11
-346.508606
 21
229.121689
  0
LINE
  8
0
 62
     5
 10
-363.028839
 20
232.948944
 11
-361.433868
 21
236.776062
  0
LINE
  8
0
 62
     5
 10
-383.704895
 20
232.948822
 11
-363.028656
 21
232.948822
  0
LINE
  8
0
 62
     5
 10
-383.704865
 20
232.948822
 11
-358.500244
 21
258.153442
  0
LINE
  8
0
 62
     5
 10
-358.500244
 20
258.153442
 11
-358.500244
 21
241.368500
  0
LINE
  8
0
 10
-399.250000
 20
212.610382
 11
-172.975800
 21
212.610382
  0
LINE
  8
0
 10
-172.975800
 20
212.610382
 11
-172.975800
 21
276.250000
  0
ARC
  8
0
 62
     3
 10
-350.080566
 20
241.368500
 40
4.592560
 50
180.000000
 51
270.000000
  0
ARC
  8
0
 62
     1
 10
-350.080566
 20
241.368500
 40
6.888824
 50
180.000000
 51
270.000000
  0
ARC
  8
0
 62
     5
 10
-350.080566
 20
241.368500
 40
12.246796
 50
180.000000
 51
270.000000
  0
ARC
  8
0
 62
     5
 10
-350.080566
 20
241.368500
 40
8.419678
 50
180.000000
 51
270.000000
  0
TEXT
  8
0
 10
305.721680
 20
264.529999
 40
5.800000
  1
DATE: MAY ,1992
 50
0.000000
 41
1.052632
 51
0.000000
  7
STANDARD
  0
TEXT
  8
0
 10
-323.292908
 20
237.150192
 40
9.200000
  1
MT SLIDE TABLE
 50
0.000000
 41
1.052632
 51
0.000000
  7
STANDARD
  0
TEXT
  8
0
 10
-393.901611
 20
217.592209
 40
7.259630
  1
alpha series
 50
0.000000
 41
0.612674
 51
0.000000
  7
STANDARD
  0
TEXT
  8
0
 10
-377.749939
 20
181.229965
 40
9.200000
  1
MODEL: AMT 25*ST(150)
 50
0.000000
 41
1.052632
 51
0.000000
  7
STANDARD
  0
TEXT
  8
0
 10
295.700867
 20
-272.049988
 40
7.000000
  1
KOGANEI CORP.
 50
0.000000
 41
1.139832
 51
0.000000
  7
STANDARD
  0
POINT
  8
0
 10
-60.000000
 20
-80.000000
  0
POINT
  8
0
 10
161.000000
 20
-80.000000
  0
LINE
  8
0
 10
-131.000000
 20
-80.000000
 11
161.000000
 21
-80.000000
  0
LINE
  8
0
 10
-145.000000
 20
-16.500000
 11
-145.000000
 21
-79.500000
  0
LINE
  8
0
 10
175.000000
 20
-16.500000
 11
175.000000
 21
-79.500000
  0
LINE
  8
0
 10
-110.000000
 20
-15.000000
 11
-110.000000
 21
-31.000000
  0
LINE
  8
0
 10
-10.000000
 20
-15.000000
 11
-10.000000
 21
-31.000000
  0
LINE
  8
0
 10
-135.000000
 20
-16.500000
 11
-135.000000
 21
-22.000000
  0
LINE
  8
0
 10
165.000000
 20
-16.500000
 11
165.000000
 21
-22.000000
  0
LINE
  8
0
 10
-131.000000
 20
-20.500000
 11
-131.000000
 21
-80.000000
  0
LINE
  8
0
 10
161.000000
 20
-20.500000
 11
161.000000
 21
-80.000000
  0
LINE
  8
0
 10
-195.564896
 20
-30.000000
 11
-110.000000
 21
-30.000000
  0
LINE
  8
0
 10
-193.000000
 20
-24.500000
 11
-193.000000
 21
-35.500000
  0
LINE
  8
0
 10
-192.000000
 20
-36.500000
 11
-186.500000
 21
-36.500000
  0
LINE
  8
0
 10
-192.000000
 20
-23.500000
 11
-186.500000
 21
-23.500000
  0
LINE
  8
0
 10
-185.500000
 20
-23.500000
 11
-185.500000
 21
-36.500000
  0
LINE
  8
0
 10
-175.500000
 20
-23.500000
 11
-175.500000
 21
-36.500000
  0
LINE
  8
0
 10
-174.000000
 20
-38.000000
 11
-152.000000
 21
-38.000000
  0
LINE
  8
0
 10
-174.000000
 20
-22.000000
 11
-152.000000
 21
-22.000000
  0
LINE
  8
0
 10
-192.000000
 20
-23.500000
 11
-192.000000
 21
-36.500000
  0
LINE
  8
0
 10
-186.500000
 20
-23.500000
 11
-186.500000
 21
-36.500000
  0
LINE
  8
0
 10
-191.999985
 20
-23.500015
 11
-192.999985
 21
-24.500015
  0
LINE
  8
0
 10
-192.999954
 20
-35.499969
 11
-191.999954
 21
-36.499969
  0
LINE
  8
0
 10
-186.499969
 20
-23.500019
 11
-185.499969
 21
-24.500023
  0
LINE
  8
0
 10
-185.499969
 20
-35.500034
 11
-186.499969
 21
-36.500034
  0
LINE
  8
0
 10
-185.500000
 20
-36.500000
 11
-175.500000
 21
-36.500000
  0
LINE
  8
0
 10
-185.500000
 20
-23.500000
 11
-175.500000
 21
-23.500000
  0
LINE
  8
0
 10
-174.000000
 20
-22.000000
 11
-174.000000
 21
-38.000000
  0
LINE
  8
0
 10
-184.500000
 20
-23.500000
 11
-184.500000
 21
-36.500000
  0
LINE
  8
0
 10
-174.000183
 20
-21.999821
 11
-175.500183
 21
-23.499821
  0
LINE
  8
0
 10
-175.500153
 20
-36.500095
 11
-174.000137
 21
-38.000107
  0
LINE
  8
0
 10
-175.500000
 20
-36.500000
 11
-152.000000
 21
-36.500000
  0
LINE
  8
0
 10
-175.500000
 20
-23.500000
 11
-152.000000
 21
-23.500000
  0
LINE
  8
0
 10
-192.000000
 20
-35.500000
 11
-186.500000
 21
-35.500000
  0
LINE
  8
0
 10
-192.000000
 20
-34.500000
 11
-186.500000
 21
-34.500000
  0
LINE
  8
0
 10
-192.000000
 20
-33.500000
 11
-186.500000
 21
-33.500000
  0
LINE
  8
0
 10
-192.000000
 20
-32.500000
 11
-186.500000
 21
-32.500000
  0
LINE
  8
0
 10
-192.000000
 20
-31.500000
 11
-186.500000
 21
-31.500000
  0
LINE
  8
0
 10
-192.000000
 20
-30.500000
 11
-186.500000
 21
-30.500000
  0
LINE
  8
0
 10
-192.000000
 20
-29.500000
 11
-186.500000
 21
-29.500000
  0
LINE
  8
0
 10
-192.000000
 20
-28.500000
 11
-186.500000
 21
-28.500000
  0
LINE
  8
0
 10
-192.000000
 20
-27.500000
 11
-186.500000
 21
-27.500000
  0
LINE
  8
0
 10
-192.000000
 20
-26.500000
 11
-186.500000
 21
-26.500000
  0
LINE
  8
0
 10
-192.000000
 20
-25.500000
 11
-186.500000
 21
-25.500000
  0
LINE
  8
0
 10
-192.000000
 20
-24.500000
 11
-186.500000
 21
-24.500000
  0
LINE
  8
0
 10
-60.000000
 20
-8.000008
 11
-60.000000
 21
-36.666664
  0
LINE
  8
0
 10
-110.000000
 20
-15.000000
 11
-10.000000
 21
-15.000000
  0
LINE
  8
0
 10
-145.000000
 20
-16.500000
 11
-110.000000
 21
-16.500000
  0
LINE
  8
0
 10
-10.000000
 20
-16.500000
 11
175.000000
 21
-16.500000
  0
LINE
  8
0
 10
-110.000000
 20
-30.000000
 11
-10.000000
 21
-30.000000
  0
LINE
  8
0
 10
-10.000000
 20
-18.500000
 11
165.000000
 21
-18.500000
  0
LINE
  8
0
 10
-10.000000
 20
-20.500000
 11
165.000000
 21
-20.500000
  0
LINE
  8
0
 10
-135.000000
 20
-18.500000
 11
-110.000000
 21
-18.500000
  0
LINE
  8
0
 10
-135.000000
 20
-20.500000
 11
-110.000000
 21
-20.500000
  0
LINE
  8
0
 10
-145.000000
 20
-22.000000
 11
-131.000000
 21
-22.000000
  0
LINE
  8
0
 10
-145.000000
 20
-31.000000
 11
175.000000
 21
-31.000000
  0
LINE
  8
0
 10
-145.000000
 20
-39.500000
 11
175.000000
 21
-39.500000
  0
LINE
  8
0
 10
-131.000000
 20
-45.500000
 11
161.000000
 21
-45.500000
  0
LINE
  8
0
 10
-131.000000
 20
-64.750000
 11
161.000000
 21
-64.750000
  0
LINE
  8
0
 10
-131.000000
 20
-59.250000
 11
161.000000
 21
-59.250000
  0
LINE
  8
0
 10
161.000000
 20
-22.000000
 11
175.000000
 21
-22.000000
  0
LINE
  8
0
 10
161.000000
 20
-79.500000
 11
175.000000
 21
-79.500000
  0
LINE
  8
0
 10
-145.000000
 20
-79.500000
 11
-131.000000
 21
-79.500000
  0
LINE
  8
0
 10
-129.500000
 20
-22.750000
 11
-129.500000
 21
-31.000000
  0
LINE
  8
0
 10
-122.500000
 20
-21.500000
 11
-122.500000
 21
-31.000000
  0
LINE
  8
0
 10
-128.642136
 20
-25.000000
 11
-123.357864
 21
-25.000000
  0
LINE
  8
0
 10
-111.000000
 20
-20.500000
 11
-111.000000
 21
-31.000000
  0
LINE
  8
0
 10
-121.642136
 20
-24.999996
 11
-111.000000
 21
-24.999996
  0
LINE
  8
0
 10
-131.000000
 20
-22.000000
 11
-129.415726
 21
-22.000000
  0
LINE
  8
0
 10
-131.000000
 20
-23.000000
 11
-129.500000
 21
-23.000000
  0
LINE
  8
0
 10
159.500000
 20
-22.750000
 11
159.500000
 21
-31.000000
  0
LINE
  8
0
 10
152.500000
 20
-21.500000
 11
152.500000
 21
-31.000000
  0
LINE
  8
0
 10
158.642136
 20
-25.000000
 11
153.357864
 21
-25.000000
  0
LINE
  8
0
 10
141.000000
 20
-21.500000
 11
141.000000
 21
-31.000000
  0
LINE
  8
0
 10
151.642136
 20
-24.999996
 11
141.857864
 21
-24.999996
  0
LINE
  8
0
 10
161.000000
 20
-22.000000
 11
159.415726
 21
-22.000000
  0
LINE
  8
0
 10
161.000000
 20
-23.000000
 11
159.500000
 21
-23.000000
  0
LINE
  8
0
 10
131.000000
 20
-28.000000
 11
131.000000
 21
-31.000000
  0
LINE
  8
0
 10
141.000000
 20
-27.500000
 11
131.500000
 21
-27.500000
  0
LINE
  8
0
 10
131.500000
 20
-27.500000
 11
131.500000
 21
-31.000000
  0
LINE
  8
0
 10
131.499908
 20
-27.499916
 11
130.999893
 21
-27.999916
  0
LINE
  8
0
 10
-121.500000
 20
-20.500000
 11
-121.500000
 21
-31.000000
  0
LINE
  8
0
 10
-122.500000
 20
-21.500000
 11
-121.500000
 21
-21.500000
  0
LINE
  8
0
 10
-111.000000
 20
-21.500000
 11
-110.000000
 21
-21.500000
  0
LINE
  8
0
 10
142.000000
 20
-20.500000
 11
142.000000
 21
-31.000000
  0
LINE
  8
0
 10
151.500000
 20
-20.500000
 11
151.500000
 21
-31.000000
  0
LINE
  8
0
 10
141.000000
 20
-21.500000
 11
142.000000
 21
-21.500000
  0
LINE
  8
0
 10
151.500000
 20
-21.500000
 11
152.500000
 21
-21.500000
  0
LINE
  8
0
 10
-152.000000
 20
-20.500000
 11
-152.000000
 21
-39.500000
  0
LINE
  8
0
 10
-152.000000
 20
-39.500000
 11
-145.000000
 21
-39.500000
  0
LINE
  8
0
 10
-152.000000
 20
-20.500000
 11
-145.000000
 21
-20.500000
  0
LINE
  8
0
 10
225.564880
 20
-30.000000
 11
128.903870
 21
-30.000000
  0
LINE
  8
0
 10
223.000000
 20
-24.500000
 11
223.000000
 21
-35.500000
  0
LINE
  8
0
 10
222.000000
 20
-36.500000
 11
216.500000
 21
-36.500000
  0
LINE
  8
0
 10
222.000000
 20
-23.500000
 11
216.500000
 21
-23.500000
  0
LINE
  8
0
 10
215.500000
 20
-23.500000
 11
215.500000
 21
-36.500000
  0
LINE
  8
0
 10
205.500000
 20
-23.500000
 11
205.500000
 21
-36.500000
  0
LINE
  8
0
 10
204.000000
 20
-38.000000
 11
182.000000
 21
-38.000000
  0
LINE
  8
0
 10
204.000000
 20
-22.000000
 11
182.000000
 21
-22.000000
  0
LINE
  8
0
 10
222.000000
 20
-23.500000
 11
222.000000
 21
-36.500000
  0
LINE
  8
0
 10
216.500000
 20
-23.500000
 11
216.500000
 21
-36.500000
  0
LINE
  8
0
 10
221.999939
 20
-23.500050
 11
222.999939
 21
-24.500053
  0
LINE
  8
0
 10
222.999817
 20
-35.499863
 11
221.999817
 21
-36.499866
  0
LINE
  8
0
 10
216.499939
 20
-23.499985
 11
215.499939
 21
-24.499985
  0
LINE
  8
0
 10
215.499939
 20
-35.500027
 11
216.499939
 21
-36.500031
  0
LINE
  8
0
 10
215.500000
 20
-36.500000
 11
205.500000
 21
-36.500000
  0
LINE
  8
0
 10
215.500000
 20
-23.500000
 11
205.500000
 21
-23.500000
  0
LINE
  8
0
 10
204.000000
 20
-22.000000
 11
204.000000
 21
-38.000000
  0
LINE
  8
0
 10
214.500000
 20
-23.500000
 11
214.500000
 21
-36.500000
  0
LINE
  8
0
 10
204.000122
 20
-21.999908
 11
205.500122
 21
-23.499912
  0
LINE
  8
0
 10
205.500031
 20
-36.499962
 11
204.000000
 21
-37.999973
  0
LINE
  8
0
 10
205.500000
 20
-36.500000
 11
182.000000
 21
-36.500000
  0
LINE
  8
0
 10
205.500000
 20
-23.500000
 11
182.000000
 21
-23.500000
  0
LINE
  8
0
 10
222.000000
 20
-35.500000
 11
216.500000
 21
-35.500000
  0
LINE
  8
0
 10
222.000000
 20
-34.500000
 11
216.500000
 21
-34.500000
  0
LINE
  8
0
 10
222.000000
 20
-33.500000
 11
216.500000
 21
-33.500000
  0
LINE
  8
0
 10
222.000000
 20
-32.500000
 11
216.500000
 21
-32.500000
  0
LINE
  8
0
 10
222.000000
 20
-31.500000
 11
216.500000
 21
-31.500000
  0
LINE
  8
0
 10
222.000000
 20
-30.500000
 11
216.500000
 21
-30.500000
  0
LINE
  8
0
 10
222.000000
 20
-29.500000
 11
216.500000
 21
-29.500000
  0
LINE
  8
0
 10
222.000000
 20
-28.500000
 11
216.500000
 21
-28.500000
  0
LINE
  8
0
 10
222.000000
 20
-27.500000
 11
216.500000
 21
-27.500000
  0
LINE
  8
0
 10
222.000000
 20
-26.500000
 11
216.500000
 21
-26.500000
  0
LINE
  8
0
 10
222.000000
 20
-25.500000
 11
216.500000
 21
-25.500000
  0
LINE
  8
0
 10
222.000000
 20
-24.500000
 11
216.500000
 21
-24.500000
  0
LINE
  8
0
 10
182.000000
 20
-20.500000
 11
182.000000
 21
-39.500000
  0
LINE
  8
0
 10
182.000000
 20
-39.500000
 11
175.000000
 21
-39.500000
  0
LINE
  8
0
 10
182.000000
 20
-20.500000
 11
175.000000
 21
-20.500000
  0
LINE
  8
0
 10
-106.000000
 20
-59.250000
 11
-106.000000
 21
-64.750000
  0
LINE
  8
0
 10
-97.000000
 20
-59.250000
 11
-97.000000
 21
-64.750000
  0
LINE
  8
0
 10
-82.000000
 20
-59.250000
 11
-82.000000
 21
-64.750000
  0
LINE
  8
0
 10
-73.000000
 20
-59.250000
 11
-73.000000
 21
-64.750000
  0
LINE
  8
0
 10
-108.500000
 20
-62.000000
 11
-70.500000
 21
-62.000000
  0
LINE
  8
0
 10
112.000000
 20
-59.250000
 11
112.000000
 21
-64.750000
  0
LINE
  8
0
 10
103.000000
 20
-59.250000
 11
103.000000
 21
-64.750000
  0
LINE
  8
0
 10
127.000000
 20
-59.250000
 11
127.000000
 21
-64.750000
  0
LINE
  8
0
 10
136.000000
 20
-59.250000
 11
136.000000
 21
-64.750000
  0
LINE
  8
0
 10
100.500000
 20
-62.000000
 11
138.500000
 21
-62.000000
  0
LINE
  8
0
 10
107.500000
 20
-57.000000
 11
107.500000
 21
-67.000000
  0
LINE
  8
0
 10
131.500000
 20
-57.000000
 11
131.500000
 21
-67.000000
  0
LINE
  8
0
 10
-101.500000
 20
-57.000000
 11
-101.500000
 21
-67.000000
  0
LINE
  8
0
 10
-77.500000
 20
-57.000000
 11
-77.500000
 21
-67.000000
  0
LINE
  8
0
 10
176.200134
 20
-30.000000
 11
180.799866
 21
-30.000000
  0
LINE
  8
0
 10
-150.799866
 20
-30.000000
 11
-146.200134
 21
-30.000000
  0
ARC
  8
0
 10
-137.500000
 20
-30.000000
 40
14.999999
 50
356.177460
 51
19.471220
  0
ARC
  8
0
 10
-137.500000
 20
-30.000000
 40
14.999999
 50
356.177460
 51
0.000000
  0
ARC
  8
0
 10
-114.500000
 20
-30.000000
 40
14.999999
 50
160.528793
 51
183.822525
  0
ARC
  8
0
 10
-114.500000
 20
-30.000000
 40
15.000000
 50
179.999969
 51
183.822525
  0
ARC
  8
0
 10
-125.879578
 20
-22.750000
 40
3.379578
 50
0.000000
 51
41.740906
  0
ARC
  8
0
 10
-125.879578
 20
-22.750000
 40
3.379574
 50
318.259094
 51
0.000000
  0
ARC
  8
0
 10
-126.120422
 20
-22.750000
 40
3.379576
 50
138.259048
 51
179.999939
  0
ARC
  8
0
 10
-126.120422
 20
-22.750000
 40
3.379578
 50
179.999939
 51
221.740906
  0
ARC
  8
0
 10
-107.500000
 20
-30.000000
 40
15.000000
 50
179.999969
 51
183.822525
  0
ARC
  8
0
 10
167.500000
 20
-30.000000
 40
15.000003
 50
160.528748
 51
183.822525
  0
ARC
  8
0
 10
144.500000
 20
-30.000000
 40
14.999999
 50
356.177460
 51
19.471220
  0
ARC
  8
0
 10
155.879578
 20
-22.750000
 40
3.379576
 50
138.259048
 51
179.999939
  0
ARC
  8
0
 10
155.879578
 20
-22.750000
 40
3.379578
 50
179.999939
 51
221.740906
  0
ARC
  8
0
 10
156.120422
 20
-22.750000
 40
3.379578
 50
0.000000
 51
41.740906
  0
ARC
  8
0
 10
156.120422
 20
-22.750000
 40
3.379574
 50
318.259094
 51
0.000000
  0
ARC
  8
0
 10
-142.000000
 20
-25.250000
 40
10.000003
 50
151.640717
 51
208.359283
  0
ARC
  8
0
 10
-142.000000
 20
-34.750000
 40
10.000009
 50
151.640656
 51
208.359238
  0
ARC
  8
0
 10
-155.000000
 20
-34.750000
 40
10.000001
 50
331.640717
 51
28.359310
  0
ARC
  8
0
 10
-155.000000
 20
-25.250000
 40
10.000005
 50
331.640686
 51
28.359272
  0
ARC
  8
0
 10
185.000000
 20
-25.250000
 40
10.000003
 50
151.640717
 51
208.359283
  0
ARC
  8
0
 10
172.000000
 20
-25.250000
 40
10.000005
 50
331.640686
 51
28.359272
  0
ARC
  8
0
 10
172.000000
 20
-34.750000
 40
10.000001
 50
331.640717
 51
28.359310
  0
ARC
  8
0
 10
185.000000
 20
-34.750000
 40
9.999995
 50
151.640610
 51
208.359238
  0
CIRCLE
  8
0
 10
-101.500000
 20
-62.000000
 40
2.500000
  0
CIRCLE
  8
0
 10
-77.500000
 20
-62.000000
 40
2.500000
  0
CIRCLE
  8
0
 10
-77.500000
 20
-62.000000
 40
2.100000
  0
CIRCLE
  8
0
 10
-101.500000
 20
-62.000000
 40
2.100000
  0
CIRCLE
  8
0
 10
107.500000
 20
-62.000000
 40
2.100000
  0
CIRCLE
  8
0
 10
131.500000
 20
-62.000000
 40
2.100000
  0
CIRCLE
  8
0
 10
131.500000
 20
-62.000000
 40
2.500000
  0
CIRCLE
  8
0
 10
107.500000
 20
-62.000000
 40
2.500000
  0
POINT
  8
0
 10
-60.000015
 20
110.000031
  0
POINT
  8
0
 10
174.999985
 20
110.000031
  0
LINE
  8
0
 10
-135.000015
 20
170.000031
 11
-135.000015
 21
156.000031
  0
LINE
  8
0
 10
-131.000015
 20
172.000031
 11
-131.000015
 21
158.000031
  0
LINE
  8
0
 10
-145.000015
 20
170.000031
 11
-135.000015
 21
170.000031
  0
LINE
  8
0
 10
-135.000015
 20
166.500031
 11
-131.000015
 21
166.500031
  0
LINE
  8
0
 10
-141.873840
 20
162.833344
 11
-141.166733
 21
162.126251
  0
LINE
  8
0
 10
-138.833282
 20
165.873871
 11
-138.126175
 21
165.166763
  0
LINE
  8
0
 10
-141.873932
 20
165.166840
 11
-141.166840
 21
165.873932
  0
LINE
  8
0
 10
-138.833435
 20
162.126343
 11
-138.126343
 21
162.833435
  0
LINE
  8
0
 10
-141.873840
 20
165.166840
 11
-141.414261
 21
164.707260
  0
LINE
  8
0
 10
-141.166718
 20
165.873932
 11
-140.707123
 21
165.414322
  0
LINE
  8
0
 10
-141.166840
 20
162.126282
 11
-140.707230
 21
162.585892
  0
LINE
  8
0
 10
-141.873932
 20
162.833359
 11
-141.414337
 21
163.292969
  0
LINE
  8
0
 10
-139.292938
 20
162.585937
 11
-138.833298
 21
162.126297
  0
LINE
  8
0
 10
-138.585800
 20
163.292999
 11
-138.126190
 21
162.833389
  0
LINE
  8
0
 10
-139.292999
 20
165.414291
 11
-138.833389
 21
165.873901
  0
LINE
  8
0
 10
-138.585907
 20
164.707214
 11
-138.126282
 21
165.166824
  0
LINE
  8
0
 10
-145.615692
 20
164.000031
 11
-134.396103
 21
164.000031
  0
LINE
  8
0
 10
-140.000015
 20
169.691788
 11
-140.000015
 21
158.472214
  0
LINE
  8
0
 10
-145.000015
 20
171.500031
 11
-145.000015
 21
48.500031
  0
LINE
  8
0
 10
-145.000015
 20
50.000031
 11
-135.000015
 21
50.000031
  0
LINE
  8
0
 10
-135.000015
 20
64.000031
 11
-135.000015
 21
50.000031
  0
LINE
  8
0
 10
-131.000015
 20
62.000031
 11
-131.000015
 21
48.000031
  0
LINE
  8
0
 10
-135.000015
 20
53.500031
 11
-131.000015
 21
53.500031
  0
LINE
  8
0
 10
-141.873856
 20
54.833302
 11
-141.166748
 21
54.126194
  0
LINE
  8
0
 10
-138.833298
 20
57.873840
 11
-138.126190
 21
57.166733
  0
LINE
  8
0
 10
-141.873932
 20
57.166832
 11
-141.166840
 21
57.873940
  0
LINE
  8
0
 10
-138.833374
 20
54.126251
 11
-138.126282
 21
54.833359
  0
LINE
  8
0
 10
-141.873871
 20
57.166805
 11
-141.414276
 21
56.707211
  0
LINE
  8
0
 10
-141.166733
 20
57.873890
 11
-140.707123
 21
57.414272
  0
LINE
  8
0
 10
-141.166809
 20
54.126266
 11
-140.707214
 21
54.585880
  0
LINE
  8
0
 10
-141.873917
 20
54.833385
 11
-141.414307
 21
55.292999
  0
LINE
  8
0
 10
-139.292938
 20
54.585892
 11
-138.833313
 21
54.126255
  0
LINE
  8
0
 10
-138.585800
 20
55.292953
 11
-138.126190
 21
54.833340
  0
LINE
  8
0
 10
-139.292969
 20
57.414322
 11
-138.833374
 21
57.873936
  0
LINE
  8
0
 10
-138.585876
 20
56.707203
 11
-138.126266
 21
57.166817
  0
LINE
  8
0
 10
-145.615692
 20
56.000031
 11
-134.396103
 21
56.000031
  0
LINE
  8
0
 10
-140.000015
 20
61.691788
 11
-140.000015
 21
50.472214
  0
LINE
  8
0
 10
89.999985
 20
182.124969
 11
89.999985
 21
41.127853
  0
LINE
  8
0
 10
-145.000015
 20
171.500031
 11
-131.000015
 21
171.500031
  0
LINE
  8
0
 10
-145.000015
 20
48.500031
 11
-131.000015
 21
48.500031
  0
LINE
  8
0
 10
-131.000015
 20
172.000031
 11
160.999985
 21
172.000031
  0
LINE
  8
0
 10
-145.000015
 20
156.000031
 11
174.999985
 21
156.000031
  0
LINE
  8
0
 10
164.999985
 20
170.000031
 11
164.999985
 21
156.000031
  0
LINE
  8
0
 10
160.999985
 20
172.000031
 11
160.999985
 21
158.000031
  0
LINE
  8
0
 10
164.999985
 20
170.000031
 11
174.999985
 21
170.000031
  0
LINE
  8
0
 10
160.999985
 20
166.500031
 11
164.999985
 21
166.500031
  0
LINE
  8
0
 10
-135.000015
 20
158.000031
 11
164.999985
 21
158.000031
  0
LINE
  8
0
 10
168.126251
 20
162.833374
 11
168.833359
 21
162.126251
  0
LINE
  8
0
 10
171.166840
 20
165.873993
 11
171.873947
 21
165.166901
  0
LINE
  8
0
 10
168.126144
 20
165.166748
 11
168.833252
 21
165.873856
  0
LINE
  8
0
 10
171.166656
 20
162.126221
 11
171.873764
 21
162.833344
  0
LINE
  8
0
 10
168.126221
 20
165.166916
 11
168.585815
 21
164.707321
  0
LINE
  8
0
 10
168.833435
 20
165.874084
 11
169.293045
 21
165.414459
  0
LINE
  8
0
 10
168.833267
 20
162.126190
 11
169.292877
 21
162.585800
  0
LINE
  8
0
 10
168.126114
 20
162.833328
 11
168.585739
 21
163.292938
  0
LINE
  8
0
 10
170.707138
 20
162.585999
 11
171.166779
 21
162.126373
  0
LINE
  8
0
 10
171.414368
 20
163.293152
 11
171.873978
 21
162.833527
  0
LINE
  8
0
 10
170.707062
 20
165.414261
 11
171.166672
 21
165.873871
  0
LINE
  8
0
 10
171.414200
 20
164.707123
 11
171.873810
 21
165.166733
  0
LINE
  8
0
 10
164.384308
 20
164.000031
 11
175.603897
 21
164.000031
  0
LINE
  8
0
 10
169.999985
 20
169.691788
 11
169.999985
 21
158.472214
  0
LINE
  8
0
 10
-155.227234
 20
110.000031
 11
184.772675
 21
110.000031
  0
LINE
  8
0
 10
-131.000015
 20
48.000031
 11
160.999985
 21
48.000031
  0
LINE
  8
0
 10
174.999985
 20
171.500031
 11
174.999985
 21
48.500031
  0
LINE
  8
0
 10
-145.000015
 20
64.000031
 11
174.999985
 21
64.000031
  0
LINE
  8
0
 10
164.999985
 20
50.000031
 11
174.999985
 21
50.000031
  0
LINE
  8
0
 10
164.999985
 20
64.000031
 11
164.999985
 21
50.000031
  0
LINE
  8
0
 10
160.999985
 20
62.000031
 11
160.999985
 21
48.000031
  0
LINE
  8
0
 10
160.999985
 20
53.500031
 11
164.999985
 21
53.500031
  0
LINE
  8
0
 10
-135.000015
 20
62.000031
 11
164.999985
 21
62.000031
  0
LINE
  8
0
 10
168.126266
 20
54.833378
 11
168.833374
 21
54.126270
  0
LINE
  8
0
 10
171.166763
 20
57.873959
 11
171.873871
 21
57.166855
  0
LINE
  8
0
 10
168.126144
 20
57.166721
 11
168.833252
 21
57.873829
  0
LINE
  8
0
 10
171.166687
 20
54.126209
 11
171.873795
 21
54.833313
  0
LINE
  8
0
 10
168.126221
 20
57.166897
 11
168.585815
 21
56.707302
  0
LINE
  8
0
 10
168.833374
 20
57.874016
 11
169.292999
 21
57.414398
  0
LINE
  8
0
 10
168.833298
 20
54.126148
 11
169.292908
 21
54.585762
  0
LINE
  8
0
 10
168.126160
 20
54.833271
 11
168.585770
 21
55.292889
  0
LINE
  8
0
 10
170.707138
 20
54.585983
 11
171.166763
 21
54.126347
  0
LINE
  8
0
 10
171.414307
 20
55.293079
 11
171.873932
 21
54.833466
  0
LINE
  8
0
 10
170.707092
 20
57.414207
 11
171.166718
 21
57.873821
  0
LINE
  8
0
 10
171.414230
 20
56.707085
 11
171.873840
 21
57.166698
  0
LINE
  8
0
 10
164.384308
 20
56.000031
 11
175.603897
 21
56.000031
  0
LINE
  8
0
 10
169.999985
 20
61.691788
 11
169.999985
 21
50.472214
  0
LINE
  8
0
 10
160.999985
 20
171.500031
 11
174.999985
 21
171.500031
  0
LINE
  8
0
 10
160.999985
 20
48.500031
 11
174.999985
 21
48.500031
  0
LINE
  8
0
 10
-10.000015
 20
171.000031
 11
-10.000015
 21
158.000031
  0
LINE
  8
0
 10
-110.000015
 20
171.000031
 11
-110.000015
 21
158.000031
  0
LINE
  8
0
 10
-110.000015
 20
171.000031
 11
-10.000015
 21
171.000031
  0
LINE
  8
0
 10
-110.000015
 20
159.000031
 11
-10.000015
 21
159.000031
  0
LINE
  8
0
 10
-95.000015
 20
170.333344
 11
-95.000015
 21
159.489655
  0
LINE
  8
0
 10
-100.427063
 20
165.000031
 11
-89.402664
 21
165.000031
  0
LINE
  8
0
 10
-25.000015
 20
170.333344
 11
-25.000015
 21
159.489655
  0
LINE
  8
0
 10
-65.427063
 20
165.000031
 11
-54.402664
 21
165.000031
  0
LINE
  8
0
 10
-110.000015
 20
49.000031
 11
-10.000015
 21
49.000031
  0
LINE
  8
0
 10
-110.000015
 20
61.000031
 11
-10.000015
 21
61.000031
  0
LINE
  8
0
 10
-110.000015
 20
62.000031
 11
-110.000015
 21
49.000031
  0
LINE
  8
0
 10
-10.000015
 20
62.000031
 11
-10.000015
 21
49.000031
  0
LINE
  8
0
 10
-57.000015
 20
61.000031
 11
-57.000015
 21
49.000031
  0
LINE
  8
0
 10
-63.000015
 20
61.000031
 11
-63.000015
 21
49.000031
  0
LINE
  8
0
 10
-95.000015
 20
60.333336
 11
-95.000015
 21
49.489662
  0
LINE
  8
0
 10
-100.427063
 20
55.000031
 11
-89.402664
 21
55.000031
  0
LINE
  8
0
 10
-25.000015
 20
60.333336
 11
-25.000015
 21
49.489662
  0
LINE
  8
0
 10
-30.427063
 20
55.000031
 11
-19.402664
 21
55.000031
  0
LINE
  8
0
 10
-60.000015
 20
182.517151
 11
-60.000015
 21
41.127853
  0
LINE
  8
0
 10
-30.427063
 20
165.000031
 11
-19.402664
 21
165.000031
  0
LINE
  8
0
 10
-195.564911
 20
104.000031
 11
-129.574875
 21
104.000031
  0
LINE
  8
0
 10
-193.000015
 20
109.500031
 11
-193.000015
 21
98.500031
  0
LINE
  8
0
 10
-192.000015
 20
97.500031
 11
-186.500015
 21
97.500031
  0
LINE
  8
0
 10
-192.000015
 20
110.500031
 11
-186.500015
 21
110.500031
  0
LINE
  8
0
 10
-185.500015
 20
110.500031
 11
-185.500015
 21
97.500031
  0
LINE
  8
0
 10
-175.500015
 20
110.500031
 11
-175.500015
 21
97.500031
  0
LINE
  8
0
 10
-174.000015
 20
96.000031
 11
-152.000015
 21
96.000031
  0
LINE
  8
0
 10
-174.000015
 20
112.000031
 11
-152.000015
 21
112.000031
  0
LINE
  8
0
 10
-192.000015
 20
110.500031
 11
-192.000015
 21
97.500031
  0
LINE
  8
0
 10
-186.500015
 20
110.500031
 11
-186.500015
 21
97.500031
  0
LINE
  8
0
 10
-191.999985
 20
110.500000
 11
-192.999985
 21
109.500000
  0
LINE
  8
0
 10
-192.999969
 20
98.500038
 11
-191.999969
 21
97.500038
  0
LINE
  8
0
 10
-186.499969
 20
110.500023
 11
-185.499969
 21
109.500023
  0
LINE
  8
0
 10
-185.499969
 20
98.499985
 11
-186.499969
 21
97.499985
  0
LINE
  8
0
 10
-185.500015
 20
97.500031
 11
-175.500015
 21
97.500031
  0
LINE
  8
0
 10
-185.500015
 20
110.500031
 11
-175.500015
 21
110.500031
  0
LINE
  8
0
 10
-174.000015
 20
112.000031
 11
-174.000015
 21
96.000031
  0
LINE
  8
0
 10
-184.500015
 20
110.500031
 11
-184.500015
 21
97.500031
  0
LINE
  8
0
 10
-174.000214
 20
112.000221
 11
-175.500214
 21
110.500221
  0
LINE
  8
0
 10
-175.500092
 20
97.499969
 11
-174.000076
 21
95.999954
  0
LINE
  8
0
 10
-175.500015
 20
97.500031
 11
-152.000015
 21
97.500031
  0
LINE
  8
0
 10
-175.500015
 20
110.500031
 11
-152.000015
 21
110.500031
  0
LINE
  8
0
 10
-152.000015
 20
112.450027
 11
-152.000015
 21
95.550034
  0
LINE
  8
0
 10
-150.769455
 20
93.050034
 11
-146.230576
 21
93.050034
  0
LINE
  8
0
 10
-150.769455
 20
114.950027
 11
-146.230576
 21
114.950027
  0
LINE
  8
0
 10
-150.769455
 20
109.950027
 11
-146.230576
 21
109.950027
  0
LINE
  8
0
 10
-150.769455
 20
98.050034
 11
-146.230576
 21
98.050034
  0
LINE
  8
0
 10
225.564865
 20
104.000031
 11
159.574844
 21
104.000031
  0
LINE
  8
0
 10
222.999985
 20
109.500031
 11
222.999985
 21
98.500031
  0
LINE
  8
0
 10
221.999985
 20
97.500031
 11
216.499985
 21
97.500031
  0
LINE
  8
0
 10
221.999985
 20
110.500031
 11
216.499985
 21
110.500031
  0
LINE
  8
0
 10
215.499985
 20
110.500031
 11
215.499985
 21
97.500031
  0
LINE
  8
0
 10
205.499985
 20
110.500031
 11
205.499985
 21
97.500031
  0
LINE
  8
0
 10
203.999985
 20
96.000031
 11
181.999985
 21
96.000031
  0
LINE
  8
0
 10
203.999985
 20
112.000031
 11
181.999985
 21
112.000031
  0
LINE
  8
0
 10
221.999985
 20
110.500031
 11
221.999985
 21
97.500031
  0
LINE
  8
0
 10
216.499985
 20
110.500031
 11
216.499985
 21
97.500031
  0
LINE
  8
0
 10
221.999924
 20
110.499985
 11
222.999924
 21
109.499985
  0
LINE
  8
0
 10
222.999924
 20
98.500015
 11
221.999924
 21
97.500015
  0
LINE
  8
0
 10
216.499954
 20
110.500000
 11
215.499954
 21
109.500000
  0
LINE
  8
0
 10
215.499924
 20
98.499962
 11
216.499924
 21
97.499962
  0
LINE
  8
0
 10
215.499985
 20
97.500031
 11
205.499985
 21
97.500031
  0
LINE
  8
0
 10
215.499985
 20
110.500031
 11
205.499985
 21
110.500031
  0
LINE
  8
0
 10
203.999985
 20
112.000031
 11
203.999985
 21
96.000031
  0
LINE
  8
0
 10
214.499985
 20
110.500031
 11
214.499985
 21
97.500031
  0
LINE
  8
0
 10
204.000290
 20
112.000290
 11
205.500290
 21
110.500290
  0
LINE
  8
0
 10
205.499985
 20
97.500046
 11
203.999985
 21
96.000038
  0
LINE
  8
0
 10
205.499985
 20
97.500031
 11
181.999985
 21
97.500031
  0
LINE
  8
0
 10
205.499985
 20
110.500031
 11
181.999985
 21
110.500031
  0
LINE
  8
0
 10
181.999985
 20
112.450027
 11
181.999985
 21
95.550034
  0
LINE
  8
0
 10
180.769424
 20
93.050034
 11
176.230545
 21
93.050034
  0
LINE
  8
0
 10
180.769424
 20
114.950027
 11
176.230545
 21
114.950027
  0
LINE
  8
0
 10
180.769424
 20
109.950027
 11
176.230545
 21
109.950027
  0
LINE
  8
0
 10
180.769424
 20
98.050034
 11
176.230545
 21
98.050034
  0
CIRCLE
  8
0
 10
-140.000015
 20
164.000031
 40
4.150000
  0
ARC
  8
0
 10
-140.000031
 20
166.121368
 40
1.000001
 50
225.000000
 51
315.000000
  0
ARC
  8
0
 10
-142.121353
 20
164.000031
 40
1.000001
 50
315.000000
 51
45.000000
  0
ARC
  8
0
 10
-137.878708
 20
164.000031
 40
1.000001
 50
135.000000
 51
225.000000
  0
ARC
  8
0
 10
-140.000031
 20
161.878723
 40
0.999990
 50
45.000618
 51
134.999374
  0
CIRCLE
  8
0
 10
-140.000015
 20
56.000031
 40
4.150000
  0
ARC
  8
0
 10
-140.000031
 20
58.121368
 40
0.999998
 50
224.999847
 51
315.000153
  0
ARC
  8
0
 10
-142.121353
 20
56.000031
 40
0.999998
 50
315.000153
 51
45.000156
  0
ARC
  8
0
 10
-137.878708
 20
56.000031
 40
1.000004
 50
134.999847
 51
224.999847
  0
ARC
  8
0
 10
-140.000031
 20
53.878723
 40
0.999993
 50
45.000774
 51
134.999222
  0
CIRCLE
  8
0
 10
169.999985
 20
164.000031
 40
4.150000
  0
ARC
  8
0
 10
169.999969
 20
166.121368
 40
1.000001
 50
225.000000
 51
315.000000
  0
ARC
  8
0
 10
167.878647
 20
164.000031
 40
1.000001
 50
315.000000
 51
45.000000
  0
ARC
  8
0
 10
172.121292
 20
164.000031
 40
1.000001
 50
135.000000
 51
225.000000
  0
ARC
  8
0
 10
169.999969
 20
161.878723
 40
1.000001
 50
45.000000
 51
135.000000
  0
CIRCLE
  8
0
 10
169.999985
 20
56.000031
 40
4.150000
  0
ARC
  8
0
 10
169.999969
 20
58.121368
 40
0.999998
 50
224.999847
 51
315.000153
  0
ARC
  8
0
 10
167.878647
 20
56.000031
 40
0.999998
 50
315.000153
 51
45.000156
  0
ARC
  8
0
 10
172.121292
 20
56.000031
 40
1.000004
 50
134.999847
 51
224.999847
  0
ARC
  8
0
 10
169.999969
 20
53.878723
 40
1.000004
 50
45.000156
 51
134.999847
  0
CIRCLE
  8
0
 10
-95.000015
 20
165.000031
 40
2.250000
  0
CIRCLE
  8
0
 10
-95.000015
 20
165.000031
 40
3.000000
  0
CIRCLE
  8
0
 10
-25.000015
 20
55.000031
 40
3.000000
  0
CIRCLE
  8
0
 10
-25.000015
 20
165.000031
 40
3.000000
  0
CIRCLE
  8
0
 10
-60.000015
 20
165.000031
 40
3.000000
  0
CIRCLE
  8
0
 10
-25.000015
 20
165.000031
 40
2.250000
  0
CIRCLE
  8
0
 10
-95.000015
 20
55.000031
 40
3.000000
  0
CIRCLE
  8
0
 10
-25.000015
 20
55.000031
 40
2.250000
  0
CIRCLE
  8
0
 10
-95.000015
 20
55.000031
 40
2.250000
  0
ARC
  8
0
 10
-148.154785
 20
112.450027
 40
3.154771
 50
307.584900
 51
52.415104
  0
ARC
  8
0
 10
-148.154785
 20
95.550034
 40
3.154781
 50
307.585114
 51
52.415104
  0
ARC
  8
0
 10
-160.000015
 20
104.000031
 40
14.999998
 50
336.630035
 51
23.369902
  0
ARC
  8
0
 10
-148.845245
 20
95.550034
 40
3.154771
 50
127.584900
 51
232.414886
  0
ARC
  8
0
 10
-137.000015
 20
104.000031
 40
14.999998
 50
156.630051
 51
203.369904
  0
ARC
  8
0
 10
-148.845245
 20
112.450027
 40
3.154771
 50
127.584900
 51
232.415100
  0
ARC
  8
0
 10
178.845215
 20
112.450027
 40
3.154771
 50
307.584900
 51
52.415104
  0
ARC
  8
0
 10
178.845215
 20
95.550034
 40
3.154771
 50
307.584900
 51
52.415104
  0
ARC
  8
0
 10
166.999985
 20
104.000031
 40
14.999998
 50
336.630035
 51
23.369925
  0
ARC
  8
0
 10
178.154755
 20
95.550034
 40
3.154771
 50
127.584900
 51
232.415100
  0
ARC
  8
0
 10
178.154755
 20
112.450027
 40
3.154771
 50
127.584900
 51
232.415100
  0
ARC
  8
0
 10
189.999985
 20
104.000031
 40
14.999998
 50
156.630051
 51
203.369919
  0
POINT
  8
0
 10
-310.000000
 20
110.000000
  0
POINT
  8
0
 10
-246.500000
 20
110.000000
  0
LINE
  8
0
 10
-310.000000
 20
110.000000
 11
-310.000000
 21
105.000000
  0
LINE
  8
0
 10
-245.000000
 20
61.000000
 11
-245.000000
 21
49.000000
  0
LINE
  8
0
 10
-309.000000
 20
48.000000
 11
-294.750000
 21
48.000000
  0
LINE
  8
0
 10
-246.500000
 20
110.000000
 11
-246.500000
 21
50.000000
  0
LINE
  8
0
 10
-250.500000
 20
96.500000
 11
-248.500000
 21
96.500000
  0
LINE
  8
0
 10
-250.500000
 20
92.500000
 11
-248.500000
 21
92.500000
  0
LINE
  8
0
 10
-250.500000
 20
96.500000
 11
-250.500000
 21
92.500000
  0
LINE
  8
0
 10
-248.500000
 20
92.500000
 11
-248.500000
 21
66.000000
  0
LINE
  8
0
 10
-248.500000
 20
110.000000
 11
-248.500000
 21
96.500000
  0
LINE
  8
0
 10
-248.000000
 20
64.000000
 11
-246.500000
 21
64.000000
  0
LINE
  8
0
 10
-252.500000
 20
62.000000
 11
-248.000000
 21
62.000000
  0
LINE
  8
0
 10
-250.500000
 20
50.000000
 11
-246.500000
 21
50.000000
  0
LINE
  8
0
 10
-252.500000
 20
62.000000
 11
-252.500000
 21
53.000000
  0
LINE
  8
0
 10
-248.000000
 20
64.000000
 11
-248.000000
 21
62.000000
  0
LINE
  8
0
 10
-250.000000
 20
66.000000
 11
-250.000000
 21
62.000000
  0
LINE
  8
0
 10
-250.000000
 20
66.000000
 11
-248.500000
 21
66.000000
  0
LINE
  8
0
 10
-252.500000
 20
53.000000
 11
-250.500000
 21
53.000000
  0
LINE
  8
0
 10
-250.500000
 20
53.000000
 11
-250.500000
 21
48.500000
  0
LINE
  8
0
 10
-250.500000
 20
49.000000
 11
-245.000000
 21
49.000000
  0
LINE
  8
0
 10
-309.000000
 20
48.500000
 11
-269.000000
 21
48.500000
  0
LINE
  8
0
 10
-246.500000
 20
61.000000
 11
-245.000000
 21
61.000000
  0
LINE
  8
0
 10
-309.500000
 20
110.000000
 11
-309.500000
 21
49.000000
  0
LINE
  8
0
 10
-294.750000
 20
48.500000
 11
-294.750000
 21
48.000000
  0
LINE
  8
0
 10
-289.250000
 20
48.500000
 11
-289.250000
 21
48.000000
  0
LINE
  8
0
 10
-289.250000
 20
48.000000
 11
-276.000000
 21
48.000000
  0
LINE
  8
0
 10
-309.500000
 20
49.000023
 11
-308.999969
 21
48.500011
  0
LINE
  8
0
 10
-310.000000
 20
49.000084
 11
-309.000000
 21
48.000084
  0
LINE
  8
0
 10
-276.000122
 20
48.000084
 11
-275.500092
 21
48.500076
  0
LINE
  8
0
 10
-310.000000
 20
68.250000
 11
-309.500000
 21
68.250000
  0
LINE
  8
0
 10
-310.000000
 20
61.750000
 11
-309.500000
 21
61.750000
  0
LINE
  8
0
 10
-310.000000
 20
61.750000
 11
-310.000000
 21
49.000000
  0
LINE
  8
0
 10
-310.000000
 20
77.250000
 11
-310.000000
 21
68.250000
  0
LINE
  8
0
 10
-310.000000
 20
105.000046
 11
-309.500000
 21
104.500031
  0
LINE
  8
0
 10
-309.499878
 20
77.749924
 11
-309.999908
 21
77.249916
  0
LINE
  8
0
 10
-269.000000
 20
54.000000
 11
-269.000000
 21
48.500000
  0
LINE
  8
0
 10
-265.267944
 20
57.000000
 11
-261.000000
 21
57.000000
  0
LINE
  8
0
 10
-261.000000
 20
57.000000
 11
-261.000000
 21
48.500000
  0
LINE
  8
0
 10
-267.000000
 20
58.000000
 11
-267.000000
 21
58.000000
  0
LINE
  8
0
 10
-272.000000
 20
58.000000
 11
-267.000000
 21
58.000000
  0
LINE
  8
0
 10
-272.000000
 20
54.000000
 11
-269.000000
 21
54.000000
  0
LINE
  8
0
 10
-261.000000
 20
48.500000
 11
-250.500000
 21
48.500000
  0
LINE
  8
0
 10
-302.500000
 20
92.124466
 11
-302.500000
 21
82.971512
  0
LINE
  8
0
 10
-307.262482
 20
87.500000
 11
-297.762634
 21
87.500000
  0
LINE
  8
0
 10
-310.000000
 20
110.000000
 11
-310.000000
 21
115.000000
  0
LINE
  8
0
 10
-245.000000
 20
159.000000
 11
-245.000000
 21
171.000000
  0
LINE
  8
0
 10
-309.000000
 20
172.000000
 11
-294.750000
 21
172.000000
  0
LINE
  8
0
 10
-246.500000
 20
110.000000
 11
-246.500000
 21
170.000000
  0
LINE
  8
0
 10
-250.500000
 20
123.500000
 11
-248.500000
 21
123.500000
  0
LINE
  8
0
 10
-250.500000
 20
127.500000
 11
-248.500000
 21
127.500000
  0
LINE
  8
0
 10
-250.500000
 20
123.500000
 11
-250.500000
 21
127.500000
  0
LINE
  8
0
 10
-248.500000
 20
127.500000
 11
-248.500000
 21
154.000000
  0
LINE
  8
0
 10
-248.500000
 20
110.000000
 11
-248.500000
 21
123.500000
  0
LINE
  8
0
 10
-248.000000
 20
156.000000
 11
-246.500000
 21
156.000000
  0
LINE
  8
0
 10
-252.500000
 20
158.000000
 11
-248.000000
 21
158.000000
  0
LINE
  8
0
 10
-250.500000
 20
170.000000
 11
-246.500000
 21
170.000000
  0
LINE
  8
0
 10
-252.500000
 20
158.000000
 11
-252.500000
 21
167.000000
  0
LINE
  8
0
 10
-248.000000
 20
156.000000
 11
-248.000000
 21
158.000000
  0
LINE
  8
0
 10
-250.000000
 20
154.000000
 11
-250.000000
 21
158.000000
  0
LINE
  8
0
 10
-250.000000
 20
154.000000
 11
-248.500000
 21
154.000000
  0
LINE
  8
0
 10
-252.500000
 20
167.000000
 11
-250.500000
 21
167.000000
  0
LINE
  8
0
 10
-250.500000
 20
167.000000
 11
-250.500000
 21
171.500000
  0
LINE
  8
0
 10
-250.500000
 20
171.000000
 11
-245.000000
 21
171.000000
  0
LINE
  8
0
 10
-309.000000
 20
171.500000
 11
-269.000000
 21
171.500000
  0
LINE
  8
0
 10
-246.500000
 20
159.000000
 11
-245.000000
 21
159.000000
  0
LINE
  8
0
 10
-309.500000
 20
110.000000
 11
-309.500000
 21
171.000000
  0
LINE
  8
0
 10
-294.750000
 20
171.500000
 11
-294.750000
 21
172.000000
  0
LINE
  8
0
 10
-289.250000
 20
171.500000
 11
-289.250000
 21
172.000000
  0
LINE
  8
0
 10
-289.250000
 20
172.000000
 11
-276.000000
 21
172.000000
  0
LINE
  8
0
 10
-309.499939
 20
170.999969
 11
-308.999908
 21
171.499985
  0
LINE
  8
0
 10
-309.999939
 20
170.999969
 11
-308.999939
 21
171.999969
  0
LINE
  8
0
 10
-276.000061
 20
171.999969
 11
-275.500061
 21
171.499969
  0
LINE
  8
0
 10
-310.000000
 20
151.750000
 11
-309.500000
 21
151.750000
  0
LINE
  8
0
 10
-310.000000
 20
158.250000
 11
-309.500000
 21
158.250000
  0
LINE
  8
0
 10
-310.000000
 20
158.250000
 11
-310.000000
 21
171.000000
  0
LINE
  8
0
 10
-310.000000
 20
142.750000
 11
-310.000000
 21
151.750000
  0
LINE
  8
0
 10
-309.999969
 20
114.999908
 11
-309.499969
 21
115.499931
  0
LINE
  8
0
 10
-309.499969
 20
142.250015
 11
-310.000000
 21
142.750031
  0
LINE
  8
0
 10
-269.000000
 20
166.291290
 11
-269.000000
 21
171.500000
  0
LINE
  8
0
 10
-265.708710
 20
163.000000
 11
-261.000000
 21
163.000000
  0
LINE
  8
0
 10
-261.000000
 20
163.000000
 11
-261.000000
 21
171.500000
  0
LINE
  8
0
 10
-261.000000
 20
171.500000
 11
-250.500000
 21
171.500000
  0
LINE
  8
0
 10
-307.262482
 20
132.500000
 11
-297.762634
 21
132.500000
  0
LINE
  8
0
 10
-288.908112
 20
165.000000
 11
-275.041595
 21
165.000000
  0
LINE
  8
0
 10
-282.000000
 20
172.397766
 11
-282.000000
 21
157.822754
  0
LINE
  8
0
 10
-279.500000
 20
166.566040
 11
-279.500000
 21
163.433960
  0
LINE
  8
0
 10
-284.500000
 20
166.566040
 11
-284.500000
 21
163.433960
  0
LINE
  8
0
 10
-284.500061
 20
166.566071
 11
-282.000061
 21
167.950027
  0
LINE
  8
0
 10
-282.000000
 20
167.949982
 11
-279.500000
 21
166.566040
  0
LINE
  8
0
 10
-279.500061
 20
163.433945
 11
-282.000061
 21
162.049988
  0
LINE
  8
0
 10
-281.999939
 20
162.049988
 11
-284.499939
 21
163.433945
  0
LINE
  8
0
 10
-315.379822
 20
110.000000
 11
-239.981567
 21
110.000000
  0
LINE
  8
0
 10
-302.500000
 20
117.397766
 11
-302.500000
 21
102.822754
  0
LINE
  8
0
 10
-300.000000
 20
111.566040
 11
-300.000000
 21
108.433960
  0
LINE
  8
0
 10
-305.000000
 20
111.566040
 11
-305.000000
 21
108.433960
  0
LINE
  8
0
 10
-304.999969
 20
111.566078
 11
-302.499969
 21
112.950043
  0
LINE
  8
0
 10
-302.499969
 20
112.949989
 11
-300.000000
 21
111.566040
  0
LINE
  8
0
 10
-300.000000
 20
108.433998
 11
-302.500000
 21
107.050034
  0
LINE
  8
0
 10
-302.500000
 20
107.050003
 11
-304.999969
 21
108.433952
  0
LINE
  8
0
 10
-270.908112
 20
63.500000
 11
-257.041595
 21
63.500000
  0
LINE
  8
0
 10
-264.000000
 20
70.897766
 11
-264.000000
 21
56.322754
  0
LINE
  8
0
 10
-261.500000
 20
65.066040
 11
-261.500000
 21
61.933960
  0
LINE
  8
0
 10
-266.500000
 20
65.066040
 11
-266.500000
 21
61.933960
  0
LINE
  8
0
 10
-266.500031
 20
65.066032
 11
-264.000031
 21
66.449997
  0
LINE
  8
0
 10
-263.999939
 20
66.449966
 11
-261.499969
 21
65.066017
  0
LINE
  8
0
 10
-261.500031
 20
61.933960
 11
-264.000031
 21
60.549999
  0
LINE
  8
0
 10
-263.999969
 20
60.550007
 11
-266.499969
 21
61.933952
  0
LINE
  8
0
 10
-282.000000
 20
67.614655
 11
-282.000000
 21
52.226837
  0
LINE
  8
0
 10
-288.977570
 20
60.000000
 11
-274.199158
 21
60.000000
  0
LINE
  8
0
 10
-282.000000
 20
97.614655
 11
-282.000000
 21
82.226837
  0
LINE
  8
0
 10
-288.977570
 20
90.000000
 11
-274.199158
 21
90.000000
  0
LINE
  8
0
 10
-272.072693
 20
104.000000
 11
-248.612366
 21
104.000000
  0
LINE
  8
0
 10
-260.000000
 20
115.783600
 11
-260.000000
 21
91.837799
  0
LINE
  8
0
 10
-250.500000
 20
109.445404
 11
-250.500000
 21
98.554581
  0
LINE
  8
0
 10
-269.500000
 20
109.445389
 11
-269.500000
 21
98.554596
  0
LINE
  8
0
 10
-269.499908
 20
109.445198
 11
-259.999908
 21
114.949791
  0
LINE
  8
0
 10
-260.000031
 20
114.949997
 11
-250.500015
 21
109.445404
  0
LINE
  8
0
 10
-250.499908
 20
98.554436
 11
-259.999908
 21
93.049835
  0
LINE
  8
0
 10
-260.000000
 20
93.050041
 11
-269.500000
 21
98.554634
  0
LINE
  8
0
 10
-302.500000
 20
127.875534
 11
-302.500000
 21
137.028488
  0
ARC
  8
0
 10
-272.000000
 20
56.000000
 40
2.000000
 50
90.000000
 51
270.000000
  0
CIRCLE
  8
0
 10
-302.500000
 20
87.500000
 40
3.000000
  0
CIRCLE
  8
0
 10
-302.500000
 20
87.500000
 40
2.250000
  0
CIRCLE
  8
0
 10
-302.500000
 20
132.500000
 40
3.000000
  0
CIRCLE
  8
0
 10
-302.500000
 20
132.500000
 40
2.250000
  0
CIRCLE
  8
0
 10
-282.000000
 20
165.000000
 40
5.000000
  0
CIRCLE
  8
0
 10
-282.000000
 20
165.000000
 40
5.750000
  0
CIRCLE
  8
0
 10
-302.500000
 20
110.000000
 40
5.000000
  0
CIRCLE
  8
0
 10
-302.500000
 20
110.000000
 40
5.750000
  0
CIRCLE
  8
0
 10
-264.000000
 20
63.500000
 40
5.000000
  0
CIRCLE
  8
0
 10
-264.000000
 20
63.500000
 40
5.750000
  0
CIRCLE
  8
0
 10
-282.000000
 20
60.000000
 40
5.000000
  0
CIRCLE
  8
0
 10
-282.000000
 20
60.000000
 40
4.250000
  0
CIRCLE
  8
0
 10
-282.000000
 20
90.000000
 40
5.000000
  0
CIRCLE
  8
0
 10
-282.000000
 20
90.000000
 40
4.250000
  0
CIRCLE
  8
0
 10
-260.000000
 20
104.000000
 40
8.000000
  0
CIRCLE
  8
0
 10
-260.000000
 20
104.000000
 40
6.500000
  0
CIRCLE
  8
0
 10
-260.000000
 20
104.000000
 40
7.250000
  0
ARC
  8
0
 10
-268.000000
 20
164.000000
 40
2.500002
 50
113.578156
 51
336.421844
  0
CIRCLE
  8
0
 10
-260.000000
 20
104.000000
 40
9.500000
  0
ARC
  8
0
 10
-267.000000
 20
56.000000
 40
2.000004
 50
29.999931
 51
90.000000
  0
POINT
  8
0
 10
331.000000
 20
110.000015
  0
POINT
  8
0
 10
351.000000
 20
110.000015
  0
LINE
  8
0
 10
331.000000
 20
110.000015
 11
331.000000
 21
105.000015
  0
LINE
  8
0
 10
266.000000
 20
61.000015
 11
266.000000
 21
49.000015
  0
LINE
  8
0
 10
267.500000
 20
110.000015
 11
267.500000
 21
50.000015
  0
LINE
  8
0
 10
271.500000
 20
96.500015
 11
269.500000
 21
96.500015
  0
LINE
  8
0
 10
271.500000
 20
92.500015
 11
269.500000
 21
92.500015
  0
LINE
  8
0
 10
271.500000
 20
96.500015
 11
271.500000
 21
92.500015
  0
LINE
  8
0
 10
269.500000
 20
92.500015
 11
269.500000
 21
66.000015
  0
LINE
  8
0
 10
269.500000
 20
110.000015
 11
269.500000
 21
96.500015
  0
LINE
  8
0
 10
269.000000
 20
64.000015
 11
267.500000
 21
64.000015
  0
LINE
  8
0
 10
273.500000
 20
62.000015
 11
269.000000
 21
62.000015
  0
LINE
  8
0
 10
271.500000
 20
50.000015
 11
267.500000
 21
50.000015
  0
LINE
  8
0
 10
273.500000
 20
62.000015
 11
273.500000
 21
53.000015
  0
LINE
  8
0
 10
269.000000
 20
64.000015
 11
269.000000
 21
62.000015
  0
LINE
  8
0
 10
271.000000
 20
66.000015
 11
271.000000
 21
62.000015
  0
LINE
  8
0
 10
271.000000
 20
66.000015
 11
269.500000
 21
66.000015
  0
LINE
  8
0
 10
273.500000
 20
53.000015
 11
271.500000
 21
53.000015
  0
LINE
  8
0
 10
271.500000
 20
53.000015
 11
271.500000
 21
48.500015
  0
LINE
  8
0
 10
271.500000
 20
49.000015
 11
266.000000
 21
49.000015
  0
LINE
  8
0
 10
267.500000
 20
61.000015
 11
266.000000
 21
61.000015
  0
LINE
  8
0
 10
330.500000
 20
110.000015
 11
330.500000
 21
74.784943
  0
LINE
  8
0
 10
315.750000
 20
56.500015
 11
315.750000
 21
55.500015
  0
LINE
  8
0
 10
310.250000
 20
56.500015
 11
310.250000
 21
55.500015
  0
LINE
  8
0
 10
329.999969
 20
48.000015
 11
315.750000
 21
48.000015
  0
LINE
  8
0
 10
330.999969
 20
49.000011
 11
329.999969
 21
48.000008
  0
LINE
  8
0
 10
297.000000
 20
47.999996
 11
296.500000
 21
48.500000
  0
LINE
  8
0
 10
331.000000
 20
68.250015
 11
327.000000
 21
68.250015
  0
LINE
  8
0
 10
331.000000
 20
61.750015
 11
327.000000
 21
61.750015
  0
LINE
  8
0
 10
331.000000
 20
77.250015
 11
331.000000
 21
68.250015
  0
LINE
  8
0
 10
331.000000
 20
105.000046
 11
330.500000
 21
104.500031
  0
LINE
  8
0
 10
330.499908
 20
77.749969
 11
330.999908
 21
77.249954
  0
LINE
  8
0
 10
290.000000
 20
54.000015
 11
290.000000
 21
48.500015
  0
LINE
  8
0
 10
286.267944
 20
57.000015
 11
282.000000
 21
57.000015
  0
LINE
  8
0
 10
282.000000
 20
57.000015
 11
282.000000
 21
48.500015
  0
LINE
  8
0
 10
288.000000
 20
58.000015
 11
288.000000
 21
58.000015
  0
LINE
  8
0
 10
293.000000
 20
58.000015
 11
288.000000
 21
58.000015
  0
LINE
  8
0
 10
293.000000
 20
54.000015
 11
290.000000
 21
54.000015
  0
LINE
  8
0
 10
282.000000
 20
48.500015
 11
271.500000
 21
48.500015
  0
LINE
  8
0
 10
323.500000
 20
92.124481
 11
323.500000
 21
82.971527
  0
LINE
  8
0
 10
328.262482
 20
87.500015
 11
318.762634
 21
87.500015
  0
LINE
  8
0
 10
331.000000
 20
110.000015
 11
331.000000
 21
115.000015
  0
LINE
  8
0
 10
266.000000
 20
159.000015
 11
266.000000
 21
171.000015
  0
LINE
  8
0
 10
267.500000
 20
110.000015
 11
267.500000
 21
170.000015
  0
LINE
  8
0
 10
271.500000
 20
123.500015
 11
269.500000
 21
123.500015
  0
LINE
  8
0
 10
271.500000
 20
127.500015
 11
269.500000
 21
127.500015
  0
LINE
  8
0
 10
271.500000
 20
123.500015
 11
271.500000
 21
127.500015
  0
LINE
  8
0
 10
269.500000
 20
127.500015
 11
269.500000
 21
154.000015
  0
LINE
  8
0
 10
269.500000
 20
110.000015
 11
269.500000
 21
123.500015
  0
LINE
  8
0
 10
269.000000
 20
156.000015
 11
267.500000
 21
156.000015
  0
LINE
  8
0
 10
273.500000
 20
158.000015
 11
269.000000
 21
158.000015
  0
LINE
  8
0
 10
271.500000
 20
170.000015
 11
267.500000
 21
170.000015
  0
LINE
  8
0
 10
273.500000
 20
158.000015
 11
273.500000
 21
167.000015
  0
LINE
  8
0
 10
269.000000
 20
156.000015
 11
269.000000
 21
158.000015
  0
LINE
  8
0
 10
271.000000
 20
154.000015
 11
271.000000
 21
158.000015
  0
LINE
  8
0
 10
271.000000
 20
154.000015
 11
269.500000
 21
154.000015
  0
LINE
  8
0
 10
273.500000
 20
167.000015
 11
271.500000
 21
167.000015
  0
LINE
  8
0
 10
271.500000
 20
167.000015
 11
271.500000
 21
171.500015
  0
LINE
  8
0
 10
271.500000
 20
171.000015
 11
266.000000
 21
171.000015
  0
LINE
  8
0
 10
306.099792
 20
171.500015
 11
290.000000
 21
171.500015
  0
LINE
  8
0
 10
267.500000
 20
159.000015
 11
266.000000
 21
159.000015
  0
LINE
  8
0
 10
330.500000
 20
110.000015
 11
330.500000
 21
145.785385
  0
LINE
  8
0
 10
315.750000
 20
171.500015
 11
315.750000
 21
172.000015
  0
LINE
  8
0
 10
310.250000
 20
171.500015
 11
310.250000
 21
172.000015
  0
LINE
  8
0
 10
330.999847
 20
170.999893
 11
329.999847
 21
171.999893
  0
LINE
  8
0
 10
297.000000
 20
172.000000
 11
296.500031
 21
171.500031
  0
LINE
  8
0
 10
331.000000
 20
151.750015
 11
330.500000
 21
151.750015
  0
LINE
  8
0
 10
331.000000
 20
158.250015
 11
330.500000
 21
158.250015
  0
LINE
  8
0
 10
331.000000
 20
158.250015
 11
331.000000
 21
171.000015
  0
LINE
  8
0
 10
331.000000
 20
142.750015
 11
331.000000
 21
151.750015
  0
LINE
  8
0
 10
330.999908
 20
114.999954
 11
330.499908
 21
115.499985
  0
LINE
  8
0
 10
330.499939
 20
142.250015
 11
330.999969
 21
142.750031
  0
LINE
  8
0
 10
290.000000
 20
166.291306
 11
290.000000
 21
171.500015
  0
LINE
  8
0
 10
286.708710
 20
163.000015
 11
282.000000
 21
163.000015
  0
LINE
  8
0
 10
282.000000
 20
163.000015
 11
282.000000
 21
171.500015
  0
LINE
  8
0
 10
282.000000
 20
171.500015
 11
271.500000
 21
171.500015
  0
LINE
  8
0
 10
323.500000
 20
127.875549
 11
323.500000
 21
137.028503
  0
LINE
  8
0
 10
328.262482
 20
132.500015
 11
318.762634
 21
132.500015
  0
LINE
  8
0
 10
309.908112
 20
165.000015
 11
296.041595
 21
165.000015
  0
LINE
  8
0
 10
303.000000
 20
172.397781
 11
303.000000
 21
157.822769
  0
LINE
  8
0
 10
300.500000
 20
166.566055
 11
300.500000
 21
163.433975
  0
LINE
  8
0
 10
305.500000
 20
166.566055
 11
305.500000
 21
163.433975
  0
LINE
  8
0
 10
305.500031
 20
166.566055
 11
303.000031
 21
167.950027
  0
LINE
  8
0
 10
302.999969
 20
167.949982
 11
300.500000
 21
166.566055
  0
LINE
  8
0
 10
300.500031
 20
163.433975
 11
303.000092
 21
162.050018
  0
LINE
  8
0
 10
303.000000
 20
162.050034
 11
305.499969
 21
163.433990
  0
LINE
  8
0
 10
336.379822
 20
110.000015
 11
260.981567
 21
110.000015
  0
LINE
  8
0
 10
323.500000
 20
117.397781
 11
323.500000
 21
102.822769
  0
LINE
  8
0
 10
321.000000
 20
111.566055
 11
321.000000
 21
108.433975
  0
LINE
  8
0
 10
326.000000
 20
111.566055
 11
326.000000
 21
108.433975
  0
LINE
  8
0
 10
325.999969
 20
111.566048
 11
323.499969
 21
112.950005
  0
LINE
  8
0
 10
323.499969
 20
112.950005
 11
320.999969
 21
111.566040
  0
LINE
  8
0
 10
321.000000
 20
108.434021
 11
323.500000
 21
107.050072
  0
LINE
  8
0
 10
323.500000
 20
107.050018
 11
326.000000
 21
108.433975
  0
LINE
  8
0
 10
291.908112
 20
63.500015
 11
278.041595
 21
63.500015
  0
LINE
  8
0
 10
285.000000
 20
70.897781
 11
285.000000
 21
56.322769
  0
LINE
  8
0
 10
282.500000
 20
65.066055
 11
282.500000
 21
61.933975
  0
LINE
  8
0
 10
287.500000
 20
65.066055
 11
287.500000
 21
61.933975
  0
LINE
  8
0
 10
287.500000
 20
65.066086
 11
285.000000
 21
66.450043
  0
LINE
  8
0
 10
284.999939
 20
66.449982
 11
282.499969
 21
65.066025
  0
LINE
  8
0
 10
282.500000
 20
61.934017
 11
285.000000
 21
60.550060
  0
LINE
  8
0
 10
284.999939
 20
60.549980
 11
287.499939
 21
61.933926
  0
LINE
  8
0
 10
333.281891
 20
65.000015
 11
317.855774
 21
65.000015
  0
LINE
  8
0
 10
313.000000
 20
57.985168
 11
313.000000
 21
44.947212
  0
LINE
  8
0
 10
317.500000
 20
51.000015
 11
315.750000
 21
51.000015
  0
LINE
  8
0
 10
317.500000
 20
55.500015
 11
315.750000
 21
55.500015
  0
LINE
  8
0
 10
315.750000
 20
56.500015
 11
310.250000
 21
56.500015
  0
LINE
  8
0
 10
317.500000
 20
55.500015
 11
317.500000
 21
51.000015
  0
LINE
  8
0
 10
308.500000
 20
55.500015
 11
308.500000
 21
51.000015
  0
LINE
  8
0
 10
310.250000
 20
55.500015
 11
308.500000
 21
55.500015
  0
LINE
  8
0
 10
310.250000
 20
51.000015
 11
308.500000
 21
51.000015
  0
LINE
  8
0
 10
303.573547
 20
48.500015
 11
290.000000
 21
48.500015
  0
LINE
  8
0
 10
310.250000
 20
51.000015
 11
310.250000
 21
48.000015
  0
LINE
  8
0
 10
315.750000
 20
51.000015
 11
315.750000
 21
48.000015
  0
LINE
  8
0
 10
327.000000
 20
60.000015
 11
321.500000
 21
60.000015
  0
LINE
  8
0
 10
327.000000
 20
70.000015
 11
321.500000
 21
70.000015
  0
LINE
  8
0
 10
327.000000
 20
70.000015
 11
327.000000
 21
68.250015
  0
LINE
  8
0
 10
321.500000
 20
70.000015
 11
321.500000
 21
68.250015
  0
LINE
  8
0
 10
320.500000
 20
68.250015
 11
320.500000
 21
61.750015
  0
LINE
  8
0
 10
321.500000
 20
68.250015
 11
320.500000
 21
68.250015
  0
LINE
  8
0
 10
321.500000
 20
61.750015
 11
320.500000
 21
61.750015
  0
LINE
  8
0
 10
321.500000
 20
61.750015
 11
321.500000
 21
60.000015
  0
LINE
  8
0
 10
327.000000
 20
61.750015
 11
327.000000
 21
60.000015
  0
LINE
  8
0
 10
315.750000
 20
163.500015
 11
315.750000
 21
164.500015
  0
LINE
  8
0
 10
310.250000
 20
163.500015
 11
310.250000
 21
164.500015
  0
LINE
  8
0
 10
331.000000
 20
151.750015
 11
327.000000
 21
151.750015
  0
LINE
  8
0
 10
331.000000
 20
158.250015
 11
327.000000
 21
158.250015
  0
LINE
  8
0
 10
333.281891
 20
155.000015
 11
317.855774
 21
155.000015
  0
LINE
  8
0
 10
313.000000
 20
162.014862
 11
313.000000
 21
175.052811
  0
LINE
  8
0
 10
317.500000
 20
169.000015
 11
315.750000
 21
169.000015
  0
LINE
  8
0
 10
317.500000
 20
164.500015
 11
315.750000
 21
164.500015
  0
LINE
  8
0
 10
315.750000
 20
163.500015
 11
310.250000
 21
163.500015
  0
LINE
  8
0
 10
317.500000
 20
164.500015
 11
317.500000
 21
169.000015
  0
LINE
  8
0
 10
308.500000
 20
167.912643
 11
308.500000
 21
169.000015
  0
LINE
  8
0
 10
310.250000
 20
164.500015
 11
309.432831
 21
164.500015
  0
LINE
  8
0
 10
310.250000
 20
169.000015
 11
308.500000
 21
169.000015
  0
LINE
  8
0
 10
310.250000
 20
169.000015
 11
310.250000
 21
172.000015
  0
LINE
  8
0
 10
315.750000
 20
169.000015
 11
315.750000
 21
172.000015
  0
LINE
  8
0
 10
327.000000
 20
160.000015
 11
321.500000
 21
160.000015
  0
LINE
  8
0
 10
327.000000
 20
150.000015
 11
321.500000
 21
150.000015
  0
LINE
  8
0
 10
327.000000
 20
150.000015
 11
327.000000
 21
151.750015
  0
LINE
  8
0
 10
321.500000
 20
150.000015
 11
321.500000
 21
151.750015
  0
LINE
  8
0
 10
320.500000
 20
151.750015
 11
320.500000
 21
158.250015
  0
LINE
  8
0
 10
321.500000
 20
151.750015
 11
320.500000
 21
151.750015
  0
LINE
  8
0
 10
321.500000
 20
158.250015
 11
320.500000
 21
158.250015
  0
LINE
  8
0
 10
321.500000
 20
158.250015
 11
321.500000
 21
160.000015
  0
LINE
  8
0
 10
327.000000
 20
158.250015
 11
327.000000
 21
160.000015
  0
LINE
  8
0
 10
293.072693
 20
104.000015
 11
269.612366
 21
104.000015
  0
LINE
  8
0
 10
281.000000
 20
115.783615
 11
281.000000
 21
91.837814
  0
LINE
  8
0
 10
271.500000
 20
109.445419
 11
271.500000
 21
98.554596
  0
LINE
  8
0
 10
290.500000
 20
109.445404
 11
290.500000
 21
98.554611
  0
LINE
  8
0
 10
290.499908
 20
109.445244
 11
280.999908
 21
114.949837
  0
LINE
  8
0
 10
280.999969
 20
114.949997
 11
271.499969
 21
109.445396
  0
LINE
  8
0
 10
271.499878
 20
98.554405
 11
280.999878
 21
93.049805
  0
LINE
  8
0
 10
280.999939
 20
93.050011
 11
290.499939
 21
98.554604
  0
LINE
  8
0
 10
297.000000
 20
171.999954
 11
310.250000
 21
171.999954
  0
LINE
  8
0
 10
315.750000
 20
171.999954
 11
329.999908
 21
171.999954
  0
LINE
  8
0
 10
310.250000
 20
171.500015
 11
315.750000
 21
171.500015
  0
LINE
  8
0
 10
330.500000
 20
158.250015
 11
330.500000
 21
151.750015
  0
LINE
  8
0
 10
310.250000
 20
48.000015
 11
297.000000
 21
48.000015
  0
LINE
  8
0
 10
331.000000
 20
61.750015
 11
331.000000
 21
49.000038
  0
LINE
  8
0
 10
310.250000
 20
48.500015
 11
315.750000
 21
48.500015
  0
LINE
  8
0
 10
330.500000
 20
68.250015
 11
330.500000
 21
61.750015
  0
ARC
  8
0
 10
293.000000
 20
56.000015
 40
2.000000
 50
270.000000
 51
90.000000
  0
CIRCLE
  8
0
 10
323.500000
 20
87.500015
 40
3.000000
  0
CIRCLE
  8
0
 10
323.500000
 20
87.500015
 40
2.250000
  0
CIRCLE
  8
0
 10
323.500000
 20
132.500015
 40
3.000000
  0
CIRCLE
  8
0
 10
323.500000
 20
132.500015
 40
2.250000
  0
CIRCLE
  8
0
 10
303.000000
 20
165.000015
 40
5.000000
  0
CIRCLE
  8
0
 10
303.000000
 20
165.000015
 40
5.750000
  0
CIRCLE
  8
0
 10
323.500000
 20
110.000015
 40
5.000000
  0
CIRCLE
  8
0
 10
323.500000
 20
110.000015
 40
5.750000
  0
CIRCLE
  8
0
 10
285.000000
 20
63.500015
 40
5.000000
  0
CIRCLE
  8
0
 10
285.000000
 20
63.500015
 40
5.750000
  0
ARC
  8
0
 10
289.000000
 20
164.000015
 40
2.500000
 50
0.000000
 51
66.421844
  0
ARC
  8
0
 10
289.000000
 20
164.000015
 40
2.500002
 50
203.578156
 51
0.000000
  0
CIRCLE
  8
0
 10
281.000000
 20
104.000015
 40
8.000000
  0
CIRCLE
  8
0
 10
281.000000
 20
104.000015
 40
9.500000
  0
CIRCLE
  8
0
 10
281.000000
 20
104.000015
 40
7.250000
  0
CIRCLE
  8
0
 10
281.000000
 20
104.000015
 40
6.500000
  0
ARC
  8
0
 10
288.000000
 20
56.000015
 40
2.000000
 50
90.000000
 51
150.000076
  0
POLYLINE
  8
0
 66
     1
  0
VERTEX
  8
0
 10
303.526947
 20
47.980797
  0
VERTEX
  8
0
 10
303.612000
 20
48.869080
  0
VERTEX
  8
0
 10
303.720642
 20
49.760426
  0
VERTEX
  8
0
 10
303.851196
 20
50.650532
  0
VERTEX
  8
0
 10
304.002045
 20
51.535099
  0
VERTEX
  8
0
 10
304.171509
 20
52.409817
  0
VERTEX
  8
0
 10
304.357941
 20
53.270390
  0
VERTEX
  8
0
 10
304.559662
 20
54.112511
  0
VERTEX
  8
0
 10
304.789429
 20
55.008690
  0
VERTEX
  8
0
 10
305.024750
 20
55.859570
  0
VERTEX
  8
0
 10
305.286133
 20
56.701355
  0
VERTEX
  8
0
 10
305.594055
 20
57.570255
  0
VERTEX
  8
0
 10
305.968994
 20
58.502480
  0
VERTEX
  8
0
 10
306.431427
 20
59.534233
  0
VERTEX
  8
0
 10
306.866547
 20
60.410835
  0
VERTEX
  8
0
 10
307.340118
 20
61.272602
  0
VERTEX
  8
0
 10
307.848236
 20
62.118805
  0
VERTEX
  8
0
 10
308.386932
 20
62.948696
  0
VERTEX
  8
0
 10
308.952271
 20
63.761547
  0
VERTEX
  8
0
 10
309.540314
 20
64.556610
  0
VERTEX
  8
0
 10
310.147125
 20
65.333160
  0
VERTEX
  8
0
 10
310.768799
 20
66.090446
  0
VERTEX
  8
0
 10
311.401367
 20
66.827744
  0
VERTEX
  8
0
 10
312.026886
 20
67.525375
  0
VERTEX
  8
0
 10
312.675293
 20
68.211899
  0
VERTEX
  8
0
 10
313.345093
 20
68.879570
  0
VERTEX
  8
0
 10
314.034698
 20
69.520645
  0
VERTEX
  8
0
 10
314.742645
 20
70.127365
  0
VERTEX
  8
0
 10
315.467316
 20
70.691994
  0
VERTEX
  8
0
 10
316.207275
 20
71.206779
  0
VERTEX
  8
0
 10
316.960876
 20
71.663971
  0
VERTEX
  8
0
 10
317.726685
 20
72.055832
  0
VERTEX
  8
0
 10
318.584137
 20
72.409332
  0
VERTEX
  8
0
 10
319.500580
 20
72.716209
  0
VERTEX
  8
0
 10
320.450806
 20
72.982697
  0
VERTEX
  8
0
 10
321.409607
 20
73.215034
  0
VERTEX
  8
0
 10
322.351776
 20
73.419456
  0
VERTEX
  8
0
 10
323.252136
 20
73.602203
  0
VERTEX
  8
0
 10
324.085449
 20
73.769516
  0
VERTEX
  8
0
 10
324.826569
 20
73.927628
  0
VERTEX
  8
0
 10
325.793182
 20
74.151726
  0
VERTEX
  8
0
 10
326.775848
 20
74.376678
  0
VERTEX
  8
0
 10
327.719788
 20
74.570732
  0
VERTEX
  8
0
 10
328.570160
 20
74.702148
  0
VERTEX
  8
0
 10
329.406067
 20
74.769264
  0
VERTEX
  8
0
 10
330.246887
 20
74.787529
  0
VERTEX
  8
0
 10
331.087372
 20
74.766693
  0
SEQEND
  0
POLYLINE
  8
0
 66
     1
  0
VERTEX
  8
0
 10
331.040314
 20
145.818344
  0
VERTEX
  8
0
 10
330.262787
 20
145.770798
  0
VERTEX
  8
0
 10
329.515137
 20
145.744354
  0
VERTEX
  8
0
 10
328.751343
 20
145.741699
  0
VERTEX
  8
0
 10
327.925354
 20
145.765472
  0
VERTEX
  8
0
 10
326.991180
 20
145.818344
  0
VERTEX
  8
0
 10
326.139099
 20
145.887772
  0
VERTEX
  8
0
 10
325.293579
 20
145.980988
  0
VERTEX
  8
0
 10
324.452362
 20
146.100159
  0
VERTEX
  8
0
 10
323.613068
 20
146.247482
  0
VERTEX
  8
0
 10
322.773376
 20
146.425171
  0
VERTEX
  8
0
 10
321.930939
 20
146.635406
  0
VERTEX
  8
0
 10
321.083466
 20
146.880402
  0
VERTEX
  8
0
 10
320.242828
 20
147.144592
  0
VERTEX
  8
0
 10
319.454559
 20
147.414230
  0
VERTEX
  8
0
 10
318.694092
 20
147.716675
  0
VERTEX
  8
0
 10
317.937042
 20
148.079239
  0
VERTEX
  8
0
 10
317.158844
 20
148.529266
  0
VERTEX
  8
0
 10
316.335083
 20
149.094116
  0
VERTEX
  8
0
 10
315.441254
 20
149.801086
  0
VERTEX
  8
0
 10
314.710449
 20
150.485077
  0
VERTEX
  8
0
 10
314.022247
 20
151.261749
  0
VERTEX
  8
0
 10
313.379028
 20
152.111771
  0
VERTEX
  8
0
 10
312.783051
 20
153.015747
  0
VERTEX
  8
0
 10
312.236725
 20
153.954285
  0
VERTEX
  8
0
 10
311.742310
 20
154.908051
  0
VERTEX
  8
0
 10
311.302185
 20
155.857635
  0
VERTEX
  8
0
 10
310.918640
 20
156.783691
  0
VERTEX
  8
0
 10
310.594055
 20
157.666840
  0
VERTEX
  8
0
 10
310.330719
 20
158.487686
  0
VERTEX
  8
0
 10
310.130951
 20
159.226883
  0
VERTEX
  8
0
 10
309.926300
 20
160.185379
  0
VERTEX
  8
0
 10
309.754944
 20
161.191040
  0
VERTEX
  8
0
 10
309.619507
 20
162.175461
  0
VERTEX
  8
0
 10
309.522705
 20
163.070251
  0
VERTEX
  8
0
 10
309.467163
 20
163.807037
  0
VERTEX
  8
0
 10
309.433472
 20
164.603745
  0
VERTEX
  8
0
 10
309.334412
 20
165.532883
  0
VERTEX
  8
0
 10
309.104187
 20
166.485092
  0
VERTEX
  8
0
 10
308.750366
 20
167.404144
  0
VERTEX
  8
0
 10
308.338715
 20
168.188049
  0
VERTEX
  8
0
 10
307.801971
 20
168.975403
  0
VERTEX
  8
0
 10
307.210266
 20
169.781143
  0
VERTEX
  8
0
 10
306.772156
 20
170.423218
  0
VERTEX
  8
0
 10
306.355438
 20
171.080032
  0
VERTEX
  8
0
 10
305.951996
 20
171.744812
  0
SEQEND
  0
POINT
  8
0
 10
-60.000000
 20
-190.000000
  0
POINT
  8
0
 10
175.000000
 20
-190.000000
  0
LINE
  8
0
 10
-195.564896
 20
-184.000000
 11
-129.574860
 21
-184.000000
  0
LINE
  8
0
 10
-193.000000
 20
-178.500000
 11
-193.000000
 21
-189.500000
  0
LINE
  8
0
 10
-192.000000
 20
-190.500000
 11
-186.500000
 21
-190.500000
  0
LINE
  8
0
 10
-192.000000
 20
-177.500000
 11
-186.500000
 21
-177.500000
  0
LINE
  8
0
 10
-185.500000
 20
-177.500000
 11
-185.500000
 21
-190.500000
  0
LINE
  8
0
 10
-175.500000
 20
-177.500000
 11
-175.500000
 21
-190.500000
  0
LINE
  8
0
 10
-174.000000
 20
-192.000000
 11
-152.000000
 21
-192.000000
  0
LINE
  8
0
 10
-174.000000
 20
-176.000000
 11
-152.000000
 21
-176.000000
  0
LINE
  8
0
 10
-192.000000
 20
-177.500000
 11
-192.000000
 21
-190.500000
  0
LINE
  8
0
 10
-186.500000
 20
-177.500000
 11
-186.500000
 21
-190.500000
  0
LINE
  8
0
 10
-191.999985
 20
-177.500000
 11
-192.999985
 21
-178.500000
  0
LINE
  8
0
 10
-192.999969
 20
-189.499969
 11
-191.999969
 21
-190.499969
  0
LINE
  8
0
 10
-186.499939
 20
-177.499969
 11
-185.499939
 21
-178.499969
  0
LINE
  8
0
 10
-185.499985
 20
-189.500046
 11
-186.499969
 21
-190.500015
  0
LINE
  8
0
 10
-185.500000
 20
-190.500000
 11
-175.500000
 21
-190.500000
  0
LINE
  8
0
 10
-185.500000
 20
-177.500000
 11
-175.500000
 21
-177.500000
  0
LINE
  8
0
 10
-174.000000
 20
-176.000000
 11
-174.000000
 21
-192.000000
  0
LINE
  8
0
 10
-184.500000
 20
-177.500000
 11
-184.500000
 21
-190.500000
  0
LINE
  8
0
 10
-174.000092
 20
-175.999939
 11
-175.500092
 21
-177.499954
  0
LINE
  8
0
 10
-175.500153
 20
-190.500107
 11
-174.000137
 21
-192.000122
  0
LINE
  8
0
 10
-175.500000
 20
-190.500000
 11
-152.000000
 21
-190.500000
  0
LINE
  8
0
 10
-175.500000
 20
-177.500000
 11
-152.000000
 21
-177.500000
  0
LINE
  8
0
 10
-131.000000
 20
-252.000000
 11
161.000000
 21
-252.000000
  0
LINE
  8
0
 10
-155.227219
 20
-190.000000
 11
184.318146
 21
-190.000000
  0
LINE
  8
0
 10
-131.000000
 20
-128.000000
 11
161.000000
 21
-128.000000
  0
LINE
  8
0
 10
-145.000000
 20
-251.500000
 11
-145.000000
 21
-128.500000
  0
LINE
  8
0
 10
175.000000
 20
-251.500000
 11
175.000000
 21
-128.500000
  0
LINE
  8
0
 10
-131.000000
 20
-252.000000
 11
-131.000000
 21
-128.000000
  0
LINE
  8
0
 10
161.000000
 20
-252.000000
 11
161.000000
 21
-128.000000
  0
LINE
  8
0
 10
-145.000000
 20
-251.500000
 11
-131.000000
 21
-251.500000
  0
LINE
  8
0
 10
-145.000000
 20
-128.500000
 11
-131.000000
 21
-128.500000
  0
LINE
  8
0
 10
161.000000
 20
-251.500000
 11
175.000000
 21
-251.500000
  0
LINE
  8
0
 10
161.000000
 20
-128.500000
 11
175.000000
 21
-128.500000
  0
LINE
  8
0
 10
-131.000000
 20
-141.750000
 11
161.000000
 21
-141.750000
  0
LINE
  8
0
 10
-131.000000
 20
-148.250000
 11
161.000000
 21
-148.250000
  0
LINE
  8
0
 10
-131.000000
 20
-238.250000
 11
161.000000
 21
-238.250000
  0
LINE
  8
0
 10
-131.000000
 20
-231.750000
 11
161.000000
 21
-231.750000
  0
LINE
  8
0
 10
-131.000000
 20
-197.500000
 11
161.000000
 21
-197.500000
  0
LINE
  8
0
 10
-131.000000
 20
-182.500000
 11
161.000000
 21
-182.500000
  0
LINE
  8
0
 10
-131.000000
 20
-155.500000
 11
161.000000
 21
-155.500000
  0
LINE
  8
0
 10
-131.000000
 20
-224.500000
 11
161.000000
 21
-224.500000
  0
LINE
  8
0
 10
-131.000000
 20
-209.500000
 11
161.000000
 21
-209.500000
  0
LINE
  8
0
 10
-131.000000
 20
-181.500000
 11
161.000000
 21
-181.500000
  0
LINE
  8
0
 10
-131.000000
 20
-198.500000
 11
161.000000
 21
-198.500000
  0
LINE
  8
0
 10
-131.000000
 20
-223.500000
 11
161.000000
 21
-223.500000
  0
LINE
  8
0
 10
-131.000000
 20
-251.000000
 11
161.000000
 21
-251.000000
  0
LINE
  8
0
 10
-131.000000
 20
-129.000000
 11
161.000000
 21
-129.000000
  0
LINE
  8
0
 10
-131.000000
 20
-156.500000
 11
161.000000
 21
-156.500000
  0
LINE
  8
0
 10
-152.000000
 20
-175.550003
 11
-152.000000
 21
-192.449997
  0
LINE
  8
0
 10
-150.769440
 20
-194.949997
 11
-146.230560
 21
-194.949997
  0
LINE
  8
0
 10
-150.769440
 20
-173.050003
 11
-146.230560
 21
-173.050003
  0
LINE
  8
0
 10
-150.769440
 20
-178.050003
 11
-146.230560
 21
-178.050003
  0
LINE
  8
0
 10
-150.769440
 20
-189.949997
 11
-146.230560
 21
-189.949997
  0
LINE
  8
0
 10
225.564880
 20
-184.000000
 11
159.574860
 21
-184.000000
  0
LINE
  8
0
 10
223.000000
 20
-178.500000
 11
223.000000
 21
-189.500000
  0
LINE
  8
0
 10
222.000000
 20
-190.500000
 11
216.500000
 21
-190.500000
  0
LINE
  8
0
 10
222.000000
 20
-177.500000
 11
216.500000
 21
-177.500000
  0
LINE
  8
0
 10
215.500000
 20
-177.500000
 11
215.500000
 21
-190.500000
  0
LINE
  8
0
 10
205.500000
 20
-177.500000
 11
205.500000
 21
-190.500000
  0
LINE
  8
0
 10
204.000000
 20
-192.000000
 11
182.000000
 21
-192.000000
  0
LINE
  8
0
 10
204.000000
 20
-176.000000
 11
182.000000
 21
-176.000000
  0
LINE
  8
0
 10
222.000000
 20
-177.500000
 11
222.000000
 21
-190.500000
  0
LINE
  8
0
 10
216.500000
 20
-177.500000
 11
216.500000
 21
-190.500000
  0
LINE
  8
0
 10
221.999969
 20
-177.500015
 11
222.999969
 21
-178.500015
  0
LINE
  8
0
 10
222.999939
 20
-189.499985
 11
221.999939
 21
-190.499985
  0
LINE
  8
0
 10
216.499908
 20
-177.499969
 11
215.499908
 21
-178.499969
  0
LINE
  8
0
 10
215.499939
 20
-189.500015
 11
216.499939
 21
-190.500000
  0
LINE
  8
0
 10
215.500000
 20
-190.500000
 11
205.500000
 21
-190.500000
  0
LINE
  8
0
 10
215.500000
 20
-177.500000
 11
205.500000
 21
-177.500000
  0
LINE
  8
0
 10
204.000000
 20
-176.000000
 11
204.000000
 21
-192.000000
  0
LINE
  8
0
 10
214.500000
 20
-177.500000
 11
214.500000
 21
-190.500000
  0
LINE
  8
0
 10
203.999969
 20
-176.000031
 11
205.499969
 21
-177.500046
  0
LINE
  8
0
 10
205.499969
 20
-190.499985
 11
203.999969
 21
-191.999985
  0
LINE
  8
0
 10
205.500000
 20
-190.500000
 11
182.000000
 21
-190.500000
  0
LINE
  8
0
 10
205.500000
 20
-177.500000
 11
182.000000
 21
-177.500000
  0
LINE
  8
0
 10
182.000000
 20
-175.550003
 11
182.000000
 21
-192.449997
  0
LINE
  8
0
 10
180.769440
 20
-194.949997
 11
176.230560
 21
-194.949997
  0
LINE
  8
0
 10
180.769440
 20
-173.050003
 11
176.230560
 21
-173.050003
  0
LINE
  8
0
 10
180.769440
 20
-178.050003
 11
176.230560
 21
-178.050003
  0
LINE
  8
0
 10
180.769440
 20
-189.949997
 11
176.230560
 21
-189.949997
  0
ARC
  8
0
 10
178.845230
 20
-175.550003
 40
3.154771
 50
307.584900
 51
52.415104
  0
ARC
  8
0
 10
178.154770
 20
-175.550003
 40
3.154771
 50
127.584900
 51
232.415100
  0
ARC
  8
0
 10
-160.000000
 20
-184.000000
 40
14.999998
 50
336.630035
 51
23.369898
  0
ARC
  8
0
 10
-148.154770
 20
-175.550003
 40
3.154771
 50
307.584900
 51
52.415104
  0
ARC
  8
0
 10
190.000000
 20
-184.000000
 40
14.999998
 50
156.630051
 51
203.369949
  0
ARC
  8
0
 10
178.154770
 20
-192.449997
 40
3.154771
 50
127.584900
 51
232.415100
  0
ARC
  8
0
 10
-148.154770
 20
-192.449997
 40
3.154771
 50
307.584900
 51
52.415104
  0
ARC
  8
0
 10
167.000000
 20
-184.000000
 40
14.999998
 50
336.630035
 51
23.369898
  0
ARC
  8
0
 10
178.845230
 20
-192.449997
 40
3.154771
 50
307.584900
 51
52.415104
  0
ARC
  8
0
 10
-137.000000
 20
-184.000000
 40
14.999998
 50
156.630051
 51
203.369949
  0
ARC
  8
0
 10
-148.845230
 20
-175.550003
 40
3.154771
 50
127.584900
 51
232.415100
  0
ARC
  8
0
 10
-148.845230
 20
-192.449997
 40
3.154771
 50
127.584900
 51
232.415100
  0
TEXT
  8
0
 10
8.392843
 20
229.000092
 40
6.000000
  1
ST
 50
0.000000
 41
1.052632
 51
0.000000
  7
STANDARD
  0
LINE
  8
0
 10
-60.000015
 20
228.000092
 11
89.999985
 21
228.000092
  0
LINE
  8
0
 10
-60.000015
 20
228.000092
 11
-57.102238
 21
228.776550
  0
LINE
  8
0
 10
-60.000015
 20
228.000092
 11
-57.102238
 21
227.223633
  0
LINE
  8
0
 10
89.999985
 20
228.000092
 11
87.102211
 21
227.223633
  0
LINE
  8
0
 10
89.999985
 20
228.000092
 11
87.102211
 21
228.776550
  0
LINE
  8
0
 10
-60.000015
 20
182.517151
 11
-60.000015
 21
229.500092
  0
LINE
  8
0
 10
89.999985
 20
182.124969
 11
89.999985
 21
229.500092
  0
TEXT
  8
0
 10
-14.477769
 20
16.014683
 40
6.000000
  1
170+ST
 50
359.899994
 41
1.052632
 51
0.000000
  7
STANDARD
  0
LINE
  8
0
 10
-145.000015
 20
14.982197
 11
174.999985
 21
14.982197
  0
LINE
  8
0
 10
-145.000015
 20
14.982197
 11
-142.102234
 21
15.758654
  0
LINE
  8
0
 10
-145.000015
 20
14.982197
 11
-142.102234
 21
14.205740
  0
LINE
  8
0
 10
174.999985
 20
14.982197
 11
172.102203
 21
14.205740
  0
LINE
  8
0
 10
174.999985
 20
14.982197
 11
172.102203
 21
15.758654
  0
LINE
  8
0
 10
-145.000015
 20
48.500031
 11
-145.000015
 21
13.482197
  0
LINE
  8
0
 10
174.999985
 20
48.500031
 11
174.999985
 21
13.482197
  0
ENDSEC
  0
EOF
