  0
SECTION
  2
HEADER
  0
ENDSEC
  0
SECTION
  2
TABLES
  0
TABLE
  2
LTYPE
 70
     4
  0
LTYPE
  2
CONTINUOUS
 70
    64
  3
Solid line
 72
    65
 73
     0
 40
0.000000
  0
LTYPE
  2
DASHED
 70
    64
  3
__ __ __ __ __ __ __ __ __ __ __ __ __ __ __
 72
    65
 73
     2
 40
3.500000
 49
2.000000
 49
-1.500000
  0
LTYPE
  2
CENTER
 70
    64
  3
____ _ ____ _ ____ _ ____ _ ____ _ ____ _ ____
 72
    65
 73
     4
 40
17.500000
 49
13.000000
 49
-1.500000
 49
1.500000
 49
-1.500000
  0
LTYPE
  2
PHANTOM
 70
    64
  3
_____ _ _ _____ _ _ _____ _ _ _____ _ _ ____  
 72
    65
 73
     6
 40
15.500000
 49
8.000000
 49
-1.500000
 49
1.500000
 49
-1.500000
 49
1.500000
 49
-1.500000
  0
LTYPE
  2
DASHED1
 70
    64
  3
__ __ __ __ __ __ __ __ __ __ __ __ __ __ __
 72
    65
 73
     2
 40
1.500000
 49
1.000000
 49
-0.500000
  0
LTYPE
  2
DASHED2
 70
    64
  3
__ __ __ __ __ __ __ __ __ __ __ __ __ __ __
 72
    65
 73
     2
 40
3.500000
 49
2.500000
 49
-1.000000
  0
LTYPE
  2
DASHED3
 70
    64
  3
__ __ __ __ __ __ __ __ __ __ __ __ __ __ __
 72
    65
 73
     2
 40
6.000000
 49
4.000000
 49
-2.000000
  0
LTYPE
  2
DASHED4
 70
    64
  3
__ __ __ __ __ __ __ __ __ __ __ __ __ __ __
 72
    65
 73
     2
 40
12.000000
 49
10.000000
 49
-2.000000
  0
LTYPE
  2
DASHED5
 70
    64
  3
__ __ __ __ __ __ __ __ __ __ __ __ __ __ __
 72
    65
 73
     2
 40
17.000000
 49
15.000000
 49
-2.000000
  0
LTYPE
  2
DASHED6
 70
    64
  3
__ __ __ __ __ __ __ __ __ __ __ __ __ __ __
 72
    65
 73
     2
 40
29.000000
 49
27.000000
 49
-2.000000
  0
LTYPE
  2
PHANTOM1
 70
    64
  3
_____ _ _ _____ _ _ _____ _ _ _____ _ _ ____  
 72
    65
 73
     6
 40
31.000000
 49
25.000000
 49
-1.500000
 49
1.000000
 49
-1.000000
 49
1.000000
 49
-1.500000
  0
LTYPE
  2
PHANTOM2
 70
    64
  3
_____ _ _ _____ _ _ _____ _ _ _____ _ _ ____  
 72
    65
 73
     6
 40
36.000000
 49
27.000000
 49
-1.500000
 49
2.500000
 49
-1.000000
 49
2.500000
 49
-1.500000
  0
LTYPE
  2
PHANTOM3
 70
    64
  3
_____ _ _ _____ _ _ _____ _ _ _____ _ _ ____  
 72
    65
 73
     6
 40
78.000000
 49
64.000000
 49
-2.000000
 49
4.000000
 49
-2.000000
 49
4.000000
 49
-2.000000
  0
LTYPE
  2
CENTER1
 70
    64
  3
____ _ ____ _ ____ _ ____ _ ____ _ ____ _ ____
 72
    65
 73
     4
 40
19.000000
 49
14.000000
 49
-1.000000
 49
3.000000
 49
-1.000000
  0
LTYPE
  2
CENTER2
 70
    64
  3
____ _ ____ _ ____ _ ____ _ ____ _ ____ _ ____
 72
    65
 73
     4
 40
28.500000
 49
25.000000
 49
-1.000000
 49
1.500000
 49
-1.000000
  0
LTYPE
  2
CENTER3
 70
    64
  3
____ _ ____ _ ____ _ ____ _ ____ _ ____ _ ____
 72
    65
 73
     4
 40
31.500000
 49
27.000000
 49
-1.000000
 49
2.500000
 49
-1.000000
  0
LTYPE
  2
CENTER4
 70
    64
  3
____ _ ____ _ ____ _ ____ _ ____ _ ____ _ ____
 72
    65
 73
     4
 40
50.000000
 49
45.000000
 49
-1.000000
 49
3.000000
 49
-1.000000
  0
LTYPE
  2
CENTER5
 70
    64
  3
____ _ ____ _ ____ _ ____ _ ____ _ ____ _ ____
 72
    65
 73
     4
 40
100.000000
 49
92.000000
 49
-2.000000
 49
4.000000
 49
-2.000000
  0
LTYPE
  2
SBK1
 70
    64
  3
______ _ _ _ ______ _ _ _ ______ _ _ _ _____  
 72
    65
 73
     8
 40
60.500000
 49
45.000000
 49
-2.000000
 49
2.500000
 49
-2.000000
 49
2.500000
 49
-2.000000
 49
2.500000
 49
-2.000000
  0
LTYPE
  2
SBK2
 70
    64
  3
______ _ _ _ ______ _ _ _ ______ _ _ _ _____  
 72
    65
 73
     8
 40
84.000000
 49
64.000000
 49
-2.000000
 49
4.000000
 49
-2.000000
 49
4.000000
 49
-2.000000
 49
4.000000
 49
-2.000000
  0
LTYPE
  2
STCH
 70
    64
  3
__ __ __ __ __ __ __ __ __ __ __ __ __ __ __
 72
    65
 73
     2
 40
3.000000
 49
1.000000
 49
-2.000000
  0
LTYPE
  2
MTCH
 70
    64
  3
_____ _ _ _____ _ _ _____ _ _ _____ _ _ ____  
 72
    65
 73
     6
 40
80.000000
 49
66.000000
 49
-2.000000
 49
4.000000
 49
-2.000000
 49
4.000000
 49
-2.000000
  0
ENDTAB
  0
TABLE
  2
LAYER
 70
     1
  0
LAYER
  2
0
 70
     0
 62
     7
  6
CONTINUOUS
  0
ENDTAB
  0
TABLE
  2
STYLE
 70
     1
  0
STYLE
  2
STANDARD
 70
     0
 40
0.000000
 41
1.000000
 50
0.000000
 71
     0
 42
0.200000
  3
txt
  4
BIGFONT
  0
ENDTAB
  0
TABLE
  2
VIEW
 70
     0
  0
ENDTAB
  0
ENDSEC
  0
SECTION
  2
BLOCKS
  0
ENDSEC
  0
SECTION
  2
ENTITIES
  0
LINE
  8
0
 10
299.799988
 20
276.250000
 11
299.799988
 21
261.250000
  0
LINE
  8
0
 10
299.799988
 20
-256.750000
 11
299.799988
 21
-276.750000
  0
LINE
  8
0
 10
299.799988
 20
261.250000
 11
399.799988
 21
261.250000
  0
LINE
  8
0
 10
299.799988
 20
-256.750000
 11
399.799988
 21
-256.750000
  0
LINE
  8
0
 10
-420.500000
 20
297.000000
 11
420.500000
 21
297.000000
  0
LINE
  8
0
 10
-420.500000
 20
-297.000000
 11
420.500000
 21
-297.000000
  0
LINE
  8
0
 10
420.500000
 20
297.000000
 11
420.500000
 21
-297.000000
  0
LINE
  8
0
 10
-420.500000
 20
297.000000
 11
-420.500000
 21
-297.000000
  0
LINE
  8
0
 10
399.799988
 20
276.250000
 11
399.799988
 21
-276.750000
  0
LINE
  8
0
 10
-399.250000
 20
276.250000
 11
-399.250000
 21
-276.750000
  0
LINE
  8
0
 10
-399.250000
 20
276.250000
 11
399.799988
 21
276.250000
  0
LINE
  8
0
 10
-399.250000
 20
-276.750000
 11
399.799988
 21
-276.750000
  0
LINE
  8
0
 62
     3
 10
-392.944305
 20
229.121643
 11
-354.673065
 21
267.392883
  0
LINE
  8
0
 62
     3
 10
-354.673126
 20
267.392944
 11
-354.673126
 21
241.368500
  0
LINE
  8
0
 62
     3
 10
-350.080566
 20
236.775940
 11
-343.446899
 21
236.775940
  0
LINE
  8
0
 62
     3
 10
-343.446899
 20
236.775940
 11
-344.365417
 21
234.479660
  0
LINE
  8
0
 62
     3
 10
-392.944397
 20
229.121689
 11
-364.623627
 21
229.121689
  0
LINE
  8
0
 62
     3
 10
-364.623779
 20
229.121796
 11
-363.666779
 21
231.418076
  0
LINE
  8
0
 62
     1
 10
-363.666779
 20
231.418076
 11
-363.028778
 21
232.948929
  0
LINE
  8
0
 62
     1
 10
-344.365417
 20
234.479660
 11
-344.977753
 21
232.948807
  0
LINE
  8
0
 62
     1
 10
-350.080566
 20
234.479675
 11
-344.365387
 21
234.479675
  0
LINE
  8
0
 62
     1
 10
-387.400665
 20
231.417969
 11
-363.666626
 21
231.417969
  0
LINE
  8
0
 62
     1
 10
-387.400696
 20
231.417953
 11
-356.969421
 21
261.849243
  0
LINE
  8
0
 62
     1
 10
-356.969391
 20
261.849243
 11
-356.969391
 21
241.368500
  0
LINE
  8
0
 62
     5
 10
-374.465393
 20
236.775940
 11
-361.433655
 21
236.775940
  0
LINE
  8
0
 62
     5
 10
-374.465302
 20
236.775879
 11
-362.327301
 21
248.913879
  0
LINE
  8
0
 62
     5
 10
-362.327393
 20
248.913940
 11
-362.327393
 21
241.368500
  0
LINE
  8
0
 62
     5
 10
-350.080566
 20
229.121689
 11
-346.508606
 21
229.121689
  0
LINE
  8
0
 62
     5
 10
-350.080566
 20
232.948822
 11
-344.977753
 21
232.948822
  0
LINE
  8
0
 62
     5
 10
-344.977753
 20
232.948807
 11
-346.508606
 21
229.121689
  0
LINE
  8
0
 62
     5
 10
-363.028778
 20
232.948929
 11
-361.433807
 21
236.776047
  0
LINE
  8
0
 62
     5
 10
-383.704895
 20
232.948822
 11
-363.028656
 21
232.948822
  0
LINE
  8
0
 62
     5
 10
-383.704865
 20
232.948822
 11
-358.500244
 21
258.153442
  0
LINE
  8
0
 62
     5
 10
-358.500244
 20
258.153442
 11
-358.500244
 21
241.368500
  0
LINE
  8
0
 10
-399.250000
 20
212.610382
 11
-172.975800
 21
212.610382
  0
LINE
  8
0
 10
-172.975800
 20
212.610382
 11
-172.975800
 21
276.250000
  0
ARC
  8
0
 62
     3
 10
-350.080566
 20
241.368500
 40
4.592560
 50
180.000000
 51
270.000000
  0
ARC
  8
0
 62
     1
 10
-350.080566
 20
241.368500
 40
6.888824
 50
180.000000
 51
270.000000
  0
ARC
  8
0
 62
     5
 10
-350.080566
 20
241.368500
 40
12.246796
 50
180.000000
 51
270.000000
  0
ARC
  8
0
 62
     5
 10
-350.080566
 20
241.368500
 40
8.419678
 50
180.000000
 51
270.000000
  0
TEXT
  8
0
 10
305.721680
 20
264.529999
 40
5.800000
  1
DATE: MAY ,1992
 50
0.000000
 41
1.052632
 51
0.000000
  7
STANDARD
  0
TEXT
  8
0
 10
-323.292908
 20
237.150192
 40
9.200000
  1
MT SLIDE TABLE
 50
0.000000
 41
1.052632
 51
0.000000
  7
STANDARD
  0
TEXT
  8
0
 10
-393.901611
 20
217.592209
 40
7.259630
  1
alpha series
 50
0.000000
 41
0.612674
 51
0.000000
  7
STANDARD
  0
TEXT
  8
0
 10
-377.749939
 20
181.229965
 40
9.200000
  1
MODEL: AMT 10*ST(200)
 50
0.000000
 41
1.052632
 51
0.000000
  7
STANDARD
  0
TEXT
  8
0
 10
295.700867
 20
-272.049988
 40
7.000000
  1
KOGANEI CORP.
 50
0.000000
 41
1.139832
 51
0.000000
  7
STANDARD
  0
POINT
  8
0
 10
-60.000000
 20
-80.000000
  0
POINT
  8
0
 10
183.000000
 20
-80.000000
  0
LINE
  8
0
 10
-154.518463
 20
-50.000000
 11
-102.999992
 21
-50.000000
  0
LINE
  8
0
 10
-102.999992
 20
-80.000000
 11
183.000000
 21
-80.000000
  0
LINE
  8
0
 10
-112.999992
 20
-39.000000
 11
-89.999992
 21
-39.000000
  0
LINE
  8
0
 10
-112.999992
 20
-39.000000
 11
-112.999992
 21
-79.500000
  0
LINE
  8
0
 10
-102.999992
 20
-39.000000
 11
-102.999992
 21
-80.000000
  0
LINE
  8
0
 10
183.000000
 20
-39.000000
 11
183.000000
 21
-80.000000
  0
LINE
  8
0
 10
193.000000
 20
-39.000000
 11
193.000000
 21
-79.500000
  0
LINE
  8
0
 10
-89.999992
 20
-38.000000
 11
-29.999992
 21
-38.000000
  0
LINE
  8
0
 10
-89.999992
 20
-38.000000
 11
-89.999992
 21
-50.000000
  0
LINE
  8
0
 10
-29.999992
 20
-38.000000
 11
-29.999992
 21
-50.000000
  0
LINE
  8
0
 10
-115.539391
 20
-50.000000
 11
-113.460594
 21
-50.000000
  0
LINE
  8
0
 10
-89.999992
 20
-49.000000
 11
-29.999992
 21
-49.000000
  0
LINE
  8
0
 10
-29.999992
 20
-39.000000
 11
193.000000
 21
-39.000000
  0
LINE
  8
0
 10
-102.999992
 20
-73.699997
 11
183.000000
 21
-73.699997
  0
LINE
  8
0
 10
-102.999992
 20
-70.300003
 11
183.000000
 21
-70.300003
  0
LINE
  8
0
 10
-112.999992
 20
-58.500000
 11
193.000000
 21
-58.500000
  0
LINE
  8
0
 10
-112.999992
 20
-51.000000
 11
193.000000
 21
-51.000000
  0
LINE
  8
0
 10
-112.999992
 20
-79.500000
 11
-102.999992
 21
-79.500000
  0
LINE
  8
0
 10
183.000000
 20
-79.500000
 11
193.000000
 21
-79.500000
  0
LINE
  8
0
 10
-102.999992
 20
-64.500000
 11
183.000000
 21
-64.500000
  0
LINE
  8
0
 10
-151.000000
 20
-46.000015
 11
-151.000000
 21
-54.000000
  0
LINE
  8
0
 10
-145.500000
 20
-45.999985
 11
-145.500000
 21
-54.000000
  0
LINE
  8
0
 10
-141.500000
 20
-45.500000
 11
-141.500000
 21
-54.500000
  0
LINE
  8
0
 10
-150.500000
 20
-54.500000
 11
-146.000000
 21
-54.500000
  0
LINE
  8
0
 10
-150.500000
 20
-45.500000
 11
-146.000000
 21
-45.500000
  0
LINE
  8
0
 10
-141.000000
 20
-55.000000
 11
-115.999992
 21
-55.000000
  0
LINE
  8
0
 10
-141.000000
 20
-45.000000
 11
-115.999992
 21
-45.000000
  0
LINE
  8
0
 10
-150.500000
 20
-45.500000
 11
-150.500000
 21
-54.500000
  0
LINE
  8
0
 10
-146.000000
 20
-45.500000
 11
-146.000000
 21
-54.500000
  0
LINE
  8
0
 10
-145.000000
 20
-45.500000
 11
-145.000000
 21
-54.500000
  0
LINE
  8
0
 10
-150.499954
 20
-45.500038
 11
-150.999954
 21
-46.000057
  0
LINE
  8
0
 10
-150.999969
 20
-53.999969
 11
-150.499954
 21
-54.499977
  0
LINE
  8
0
 10
-145.999969
 20
-45.499996
 11
-145.499969
 21
-45.999985
  0
LINE
  8
0
 10
-145.499939
 20
-54.000031
 11
-145.999939
 21
-54.500031
  0
LINE
  8
0
 10
-144.999908
 20
-45.500103
 11
-145.499908
 21
-46.000095
  0
LINE
  8
0
 10
-145.499969
 20
-54.000000
 11
-144.999985
 21
-54.499989
  0
LINE
  8
0
 10
-145.000000
 20
-54.500000
 11
-141.500000
 21
-54.500000
  0
LINE
  8
0
 10
-145.000000
 20
-45.500000
 11
-141.500000
 21
-45.500000
  0
LINE
  8
0
 10
-141.500000
 20
-45.500000
 11
-115.999992
 21
-45.500000
  0
LINE
  8
0
 10
-141.500000
 20
-54.500000
 11
-115.999992
 21
-54.500000
  0
LINE
  8
0
 10
-141.000000
 20
-45.000000
 11
-141.000000
 21
-55.000000
  0
LINE
  8
0
 10
-140.999924
 20
-45.000038
 11
-141.499939
 21
-45.500050
  0
LINE
  8
0
 10
-140.999969
 20
-55.000000
 11
-141.499969
 21
-54.499989
  0
LINE
  8
0
 10
-29.999992
 20
-41.000000
 11
183.000000
 21
-41.000000
  0
LINE
  8
0
 10
-29.999992
 20
-42.000000
 11
183.000000
 21
-42.000000
  0
LINE
  8
0
 10
-102.999992
 20
-41.000000
 11
-89.999992
 21
-41.000000
  0
LINE
  8
0
 10
-102.999992
 20
-42.000000
 11
-89.999992
 21
-42.000000
  0
LINE
  8
0
 10
-101.999992
 20
-44.549999
 11
-101.999992
 21
-50.000000
  0
LINE
  8
0
 10
-98.999992
 20
-44.049999
 11
-98.999992
 21
-50.000000
  0
LINE
  8
0
 10
-97.999992
 20
-43.049999
 11
-97.999992
 21
-50.000000
  0
LINE
  8
0
 10
-90.999992
 20
-43.049999
 11
-90.999992
 21
-50.000000
  0
LINE
  8
0
 10
-102.999992
 20
-45.000000
 11
-101.999992
 21
-45.000000
  0
LINE
  8
0
 10
-102.999992
 20
-45.500000
 11
-101.999992
 21
-45.500000
  0
LINE
  8
0
 10
-101.186806
 20
-43.049999
 11
-99.813179
 21
-43.049999
  0
LINE
  8
0
 10
-97.999992
 20
-43.049999
 11
-90.999992
 21
-43.049999
  0
LINE
  8
0
 10
-98.999992
 20
-44.049999
 11
-97.999992
 21
-44.049999
  0
LINE
  8
0
 10
-90.999992
 20
-44.049999
 11
-89.999992
 21
-44.049999
  0
LINE
  8
0
 10
-97.999992
 20
-46.049999
 11
-90.999992
 21
-46.049999
  0
LINE
  8
0
 10
-101.186806
 20
-46.049999
 11
-99.813179
 21
-46.049999
  0
LINE
  8
0
 10
182.000000
 20
-44.549999
 11
182.000000
 21
-50.000000
  0
LINE
  8
0
 10
179.000000
 20
-44.049999
 11
179.000000
 21
-49.941452
  0
LINE
  8
0
 10
178.000000
 20
-43.049999
 11
178.000000
 21
-50.000000
  0
LINE
  8
0
 10
171.000000
 20
-43.049999
 11
171.000000
 21
-50.000000
  0
LINE
  8
0
 10
183.000000
 20
-45.000000
 11
182.000000
 21
-45.000000
  0
LINE
  8
0
 10
183.000000
 20
-45.500000
 11
182.000000
 21
-45.500000
  0
LINE
  8
0
 10
181.186829
 20
-43.049999
 11
179.813202
 21
-43.049999
  0
LINE
  8
0
 10
178.000000
 20
-43.049999
 11
171.000000
 21
-43.049999
  0
LINE
  8
0
 10
179.000000
 20
-44.049999
 11
178.000000
 21
-44.049999
  0
LINE
  8
0
 10
171.000000
 20
-44.049999
 11
170.000000
 21
-44.049999
  0
LINE
  8
0
 10
178.000000
 20
-46.049999
 11
171.000000
 21
-46.049999
  0
LINE
  8
0
 10
181.186829
 20
-46.049999
 11
179.813202
 21
-46.049999
  0
LINE
  8
0
 10
170.000000
 20
-44.049999
 11
170.000000
 21
-50.000000
  0
LINE
  8
0
 10
162.500000
 20
-49.000000
 11
162.500000
 21
-50.000000
  0
LINE
  8
0
 10
163.000000
 20
-48.500000
 11
170.000000
 21
-48.500000
  0
LINE
  8
0
 10
163.000000
 20
-48.500000
 11
163.000000
 21
-50.000000
  0
LINE
  8
0
 10
163.000015
 20
-48.499985
 11
162.500015
 21
-48.999989
  0
LINE
  8
0
 10
-115.999992
 20
-44.000000
 11
-115.999992
 21
-56.000000
  0
LINE
  8
0
 10
-115.999992
 20
-44.000000
 11
-112.999992
 21
-44.000000
  0
LINE
  8
0
 10
-115.999992
 20
-56.000000
 11
-112.999992
 21
-56.000000
  0
LINE
  8
0
 10
234.000000
 20
-50.000000
 11
180.711151
 21
-50.000000
  0
LINE
  8
0
 10
231.000000
 20
-46.000015
 11
231.000000
 21
-54.000000
  0
LINE
  8
0
 10
225.500000
 20
-45.999985
 11
225.500000
 21
-54.000000
  0
LINE
  8
0
 10
221.500000
 20
-45.500000
 11
221.500000
 21
-54.500000
  0
LINE
  8
0
 10
230.500000
 20
-54.500000
 11
226.000000
 21
-54.500000
  0
LINE
  8
0
 10
230.500000
 20
-45.500000
 11
226.000000
 21
-45.500000
  0
LINE
  8
0
 10
221.000000
 20
-55.000000
 11
196.000000
 21
-55.000000
  0
LINE
  8
0
 10
221.000000
 20
-45.000000
 11
196.000000
 21
-45.000000
  0
LINE
  8
0
 10
230.500000
 20
-45.500000
 11
230.500000
 21
-54.500000
  0
LINE
  8
0
 10
226.000000
 20
-45.500000
 11
226.000000
 21
-54.500000
  0
LINE
  8
0
 10
225.000000
 20
-45.500000
 11
225.000000
 21
-54.500000
  0
LINE
  8
0
 10
230.500031
 20
-45.499973
 11
231.000031
 21
-45.999992
  0
LINE
  8
0
 10
230.999969
 20
-53.999931
 11
230.499969
 21
-54.499943
  0
LINE
  8
0
 10
225.999847
 20
-45.499897
 11
225.499847
 21
-45.999893
  0
LINE
  8
0
 10
225.499939
 20
-54.000061
 11
225.999939
 21
-54.500061
  0
LINE
  8
0
 10
224.999786
 20
-45.500198
 11
225.499786
 21
-46.000195
  0
LINE
  8
0
 10
225.500031
 20
-54.000038
 11
225.000031
 21
-54.500023
  0
LINE
  8
0
 10
225.000000
 20
-54.500000
 11
221.500000
 21
-54.500000
  0
LINE
  8
0
 10
225.000000
 20
-45.500000
 11
221.500000
 21
-45.500000
  0
LINE
  8
0
 10
221.500000
 20
-45.500000
 11
196.000000
 21
-45.500000
  0
LINE
  8
0
 10
221.500000
 20
-54.500000
 11
196.000000
 21
-54.500000
  0
LINE
  8
0
 10
221.000000
 20
-45.000000
 11
221.000000
 21
-55.000000
  0
LINE
  8
0
 10
220.999939
 20
-45.000038
 11
221.499939
 21
-45.500038
  0
LINE
  8
0
 10
221.000000
 20
-54.999969
 11
221.500000
 21
-54.499950
  0
LINE
  8
0
 10
196.000000
 20
-44.000000
 11
196.000000
 21
-56.000000
  0
LINE
  8
0
 10
196.000000
 20
-44.000000
 11
193.000000
 21
-44.000000
  0
LINE
  8
0
 10
196.000000
 20
-56.000000
 11
193.000000
 21
-56.000000
  0
LINE
  8
0
 10
183.000000
 20
-44.500000
 11
193.000000
 21
-44.500000
  0
LINE
  8
0
 10
-112.999992
 20
-44.500000
 11
-102.999992
 21
-44.500000
  0
LINE
  8
0
 10
-82.999992
 20
-70.300003
 11
-82.999992
 21
-73.699997
  0
LINE
  8
0
 10
-77.499992
 20
-70.300003
 11
-77.499992
 21
-73.699997
  0
LINE
  8
0
 10
-67.499992
 20
-70.300003
 11
-67.499992
 21
-73.699997
  0
LINE
  8
0
 10
-61.999992
 20
-70.300003
 11
-61.999992
 21
-73.699997
  0
LINE
  8
0
 10
163.000000
 20
-70.300003
 11
163.000000
 21
-73.699997
  0
LINE
  8
0
 10
157.500000
 20
-70.300003
 11
157.500000
 21
-73.699997
  0
LINE
  8
0
 10
147.500000
 20
-70.300003
 11
147.500000
 21
-73.699997
  0
LINE
  8
0
 10
142.000000
 20
-70.300003
 11
142.000000
 21
-73.699997
  0
LINE
  8
0
 10
-102.999992
 20
-50.000000
 11
183.000000
 21
-50.000000
  0
LINE
  8
0
 10
-84.999992
 20
-72.000000
 11
-59.999992
 21
-72.000000
  0
LINE
  8
0
 10
140.000000
 20
-72.000000
 11
165.000000
 21
-72.000000
  0
LINE
  8
0
 10
144.750000
 20
-69.000000
 11
144.750000
 21
-75.000000
  0
LINE
  8
0
 10
160.250000
 20
-69.000000
 11
160.250000
 21
-75.000000
  0
LINE
  8
0
 10
-80.249992
 20
-69.000000
 11
-80.249992
 21
-75.000000
  0
LINE
  8
0
 10
-64.749992
 20
-69.000000
 11
-64.749992
 21
-75.000000
  0
LINE
  8
0
 10
-59.999992
 20
-31.000004
 11
-59.999992
 21
-56.666664
  0
ARC
  8
0
 10
-108.999992
 20
-50.000000
 40
10.000000
 50
0.000000
 51
23.265974
  0
ARC
  8
0
 10
-100.790031
 20
-44.549999
 40
1.790039
 50
0.000000
 51
56.926418
  0
ARC
  8
0
 10
-100.790031
 20
-44.549999
 40
1.790039
 50
303.073578
 51
0.000000
  0
ARC
  8
0
 10
-100.209953
 20
-44.549999
 40
1.790039
 50
180.000000
 51
236.926422
  0
ARC
  8
0
 10
-100.209953
 20
-44.549999
 40
1.790039
 50
123.073578
 51
180.000000
  0
ARC
  8
0
 10
-91.999992
 20
-50.000000
 40
9.999997
 50
156.733994
 51
179.999954
  0
ARC
  8
0
 10
189.000000
 20
-50.000000
 40
10.000004
 50
156.734009
 51
179.999954
  0
ARC
  8
0
 10
180.790039
 20
-44.549999
 40
1.790039
 50
123.073578
 51
180.000000
  0
ARC
  8
0
 10
180.790039
 20
-44.549999
 40
1.790039
 50
180.000000
 51
236.926422
  0
ARC
  8
0
 10
180.209961
 20
-44.549999
 40
1.790039
 50
303.073578
 51
0.000000
  0
ARC
  8
0
 10
180.209961
 20
-44.549999
 40
1.790039
 50
0.000000
 51
56.926418
  0
ARC
  8
0
 10
172.000000
 20
-50.000000
 40
10.000000
 50
0.000000
 51
23.265974
  0
ARC
  8
0
 10
-105.999992
 20
-47.000000
 40
9.999997
 50
162.542419
 51
197.457565
  0
ARC
  8
0
 10
-105.999992
 20
-53.000000
 40
10.000000
 50
162.542374
 51
197.457504
  0
ARC
  8
0
 10
-122.999992
 20
-47.000000
 40
9.999999
 50
342.542389
 51
17.457542
  0
ARC
  8
0
 10
-122.999992
 20
-53.000000
 40
9.999995
 50
342.542450
 51
17.457605
  0
ARC
  8
0
 10
186.000000
 20
-47.000000
 40
10.000006
 50
342.542419
 51
17.457529
  0
ARC
  8
0
 10
186.000000
 20
-53.000000
 40
10.000003
 50
342.542480
 51
17.457592
  0
ARC
  8
0
 10
203.000000
 20
-53.000000
 40
10.000007
 50
162.542389
 51
197.457504
  0
ARC
  8
0
 10
203.000000
 20
-47.000000
 40
10.000005
 50
162.542435
 51
197.457550
  0
CIRCLE
  8
0
 10
160.250000
 20
-72.000000
 40
1.500000
  0
CIRCLE
  8
0
 10
160.250000
 20
-72.000000
 40
1.250000
  0
CIRCLE
  8
0
 10
-64.749992
 20
-72.000000
 40
1.500000
  0
CIRCLE
  8
0
 10
-64.749992
 20
-72.000000
 40
1.250000
  0
CIRCLE
  8
0
 10
-80.249992
 20
-72.000000
 40
1.500000
  0
CIRCLE
  8
0
 10
-80.249992
 20
-72.000000
 40
1.250000
  0
CIRCLE
  8
0
 10
144.750000
 20
-72.000000
 40
1.500000
  0
CIRCLE
  8
0
 10
144.750000
 20
-72.000000
 40
1.250000
  0
POINT
  8
0
 10
-60.000000
 20
110.000000
  0
POINT
  8
0
 10
193.000000
 20
110.000000
  0
LINE
  8
0
 10
-112.999992
 20
153.500000
 11
-112.999992
 21
66.500000
  0
LINE
  8
0
 10
-112.999992
 20
153.500000
 11
-102.999992
 21
153.500000
  0
LINE
  8
0
 10
-112.999992
 20
66.500000
 11
-102.999992
 21
66.500000
  0
LINE
  8
0
 10
-102.999992
 20
154.000000
 11
-102.999992
 21
140.500000
  0
LINE
  8
0
 10
-102.999992
 20
79.500000
 11
-102.999992
 21
66.000000
  0
LINE
  8
0
 10
-109.166763
 20
73.373825
 11
-108.707153
 21
72.914207
  0
LINE
  8
0
 10
-109.873840
 20
72.666718
 11
-109.414230
 21
72.207108
  0
LINE
  8
0
 10
-109.166786
 20
69.626221
 11
-108.707169
 21
70.085846
  0
LINE
  8
0
 10
-109.873894
 20
70.333328
 11
-109.414276
 21
70.792953
  0
LINE
  8
0
 10
-106.833313
 20
69.626236
 11
-106.126205
 21
70.333344
  0
LINE
  8
0
 10
-109.873924
 20
72.666763
 11
-109.166817
 21
73.373871
  0
LINE
  8
0
 10
-109.873856
 20
70.333267
 11
-109.166748
 21
69.626160
  0
LINE
  8
0
 10
-106.833305
 20
73.373825
 11
-106.126205
 21
72.666718
  0
LINE
  8
0
 10
-107.292908
 20
70.085785
 11
-106.833298
 21
69.626175
  0
LINE
  8
0
 10
-106.585831
 20
70.792885
 11
-106.126221
 21
70.333267
  0
LINE
  8
0
 10
-107.292953
 20
72.914268
 11
-106.833344
 21
73.373886
  0
LINE
  8
0
 10
-106.585846
 20
72.207161
 11
-106.126221
 21
72.666786
  0
LINE
  8
0
 10
-113.611290
 20
71.500000
 11
-102.334709
 21
71.500000
  0
LINE
  8
0
 10
-107.999992
 20
76.880951
 11
-107.999992
 21
66.031242
  0
LINE
  8
0
 10
-109.166733
 20
150.373840
 11
-108.707115
 21
149.914215
  0
LINE
  8
0
 10
-109.873840
 20
149.666748
 11
-109.414215
 21
149.207138
  0
LINE
  8
0
 10
-109.166824
 20
146.626251
 11
-108.707199
 21
147.085876
  0
LINE
  8
0
 10
-109.873932
 20
147.333359
 11
-109.414314
 21
147.792969
  0
LINE
  8
0
 10
-106.833359
 20
146.626251
 11
-106.126251
 21
147.333359
  0
LINE
  8
0
 10
-109.873947
 20
149.666809
 11
-109.166840
 21
150.373932
  0
LINE
  8
0
 10
-109.873848
 20
147.333282
 11
-109.166748
 21
146.626175
  0
LINE
  8
0
 10
-106.833282
 20
150.373840
 11
-106.126175
 21
149.666748
  0
LINE
  8
0
 10
-107.292900
 20
147.085815
 11
-106.833267
 21
146.626190
  0
LINE
  8
0
 10
-106.585815
 20
147.792923
 11
-106.126160
 21
147.333267
  0
LINE
  8
0
 10
-107.292984
 20
149.914307
 11
-106.833374
 21
150.373917
  0
LINE
  8
0
 10
-106.585884
 20
149.207184
 11
-106.126259
 21
149.666809
  0
LINE
  8
0
 10
-113.611290
 20
148.500000
 11
-102.334709
 21
148.500000
  0
LINE
  8
0
 10
-107.999992
 20
153.880951
 11
-107.999992
 21
143.031250
  0
LINE
  8
0
 10
-102.999992
 20
154.000000
 11
183.000000
 21
154.000000
  0
LINE
  8
0
 10
-102.999992
 20
66.000000
 11
183.000000
 21
66.000000
  0
LINE
  8
0
 10
193.000000
 20
153.500000
 11
193.000000
 21
66.500000
  0
LINE
  8
0
 10
183.000000
 20
154.000000
 11
183.000000
 21
140.500000
  0
LINE
  8
0
 10
183.000000
 20
153.500000
 11
193.000000
 21
153.500000
  0
LINE
  8
0
 10
183.000000
 20
66.500000
 11
193.000000
 21
66.500000
  0
LINE
  8
0
 10
-112.999992
 20
140.500000
 11
193.000000
 21
140.500000
  0
LINE
  8
0
 10
-112.999992
 20
79.500000
 11
193.000000
 21
79.500000
  0
LINE
  8
0
 10
183.000000
 20
79.500000
 11
183.000000
 21
66.000000
  0
LINE
  8
0
 10
-102.999992
 20
78.000000
 11
183.000000
 21
78.000000
  0
LINE
  8
0
 10
-102.999992
 20
142.000000
 11
183.000000
 21
142.000000
  0
LINE
  8
0
 10
-119.263115
 20
110.000000
 11
197.382080
 21
110.000000
  0
LINE
  8
0
 10
186.833405
 20
73.373917
 11
187.293030
 21
72.914291
  0
LINE
  8
0
 10
186.126297
 20
72.666824
 11
186.585907
 21
72.207214
  0
LINE
  8
0
 10
186.833298
 20
69.626144
 11
187.292923
 21
70.085754
  0
LINE
  8
0
 10
186.126190
 20
70.333290
 11
186.585815
 21
70.792908
  0
LINE
  8
0
 10
189.166733
 20
69.626175
 11
189.873840
 21
70.333282
  0
LINE
  8
0
 10
186.126160
 20
72.666718
 11
186.833252
 21
73.373817
  0
LINE
  8
0
 10
186.126312
 20
70.333359
 11
186.833420
 21
69.626251
  0
LINE
  8
0
 10
189.166824
 20
73.373932
 11
189.873932
 21
72.666832
  0
LINE
  8
0
 10
188.707230
 20
70.085892
 11
189.166840
 21
69.626282
  0
LINE
  8
0
 10
189.414322
 20
70.792992
 11
189.873962
 21
70.333359
  0
LINE
  8
0
 10
188.707138
 20
72.914230
 11
189.166748
 21
73.373840
  0
LINE
  8
0
 10
189.414230
 20
72.207077
 11
189.873856
 21
72.666687
  0
LINE
  8
0
 10
182.388702
 20
71.500000
 11
193.665283
 21
71.500000
  0
LINE
  8
0
 10
188.000000
 20
76.880951
 11
188.000000
 21
66.031250
  0
LINE
  8
0
 10
186.833405
 20
150.373917
 11
187.293015
 21
149.914307
  0
LINE
  8
0
 10
186.126297
 20
149.666809
 11
186.585922
 21
149.207199
  0
LINE
  8
0
 10
186.833252
 20
146.626144
 11
187.292892
 21
147.085785
  0
LINE
  8
0
 10
186.126129
 20
147.333267
 11
186.585754
 21
147.792877
  0
LINE
  8
0
 10
189.166702
 20
146.626190
 11
189.873810
 21
147.333282
  0
LINE
  8
0
 10
186.126160
 20
149.666687
 11
186.833267
 21
150.373795
  0
LINE
  8
0
 10
186.126266
 20
147.333359
 11
186.833374
 21
146.626251
  0
LINE
  8
0
 10
189.166870
 20
150.373932
 11
189.873978
 21
149.666824
  0
LINE
  8
0
 10
188.707245
 20
147.085876
 11
189.166855
 21
146.626266
  0
LINE
  8
0
 10
189.414307
 20
147.792999
 11
189.873947
 21
147.333359
  0
LINE
  8
0
 10
188.707062
 20
149.914200
 11
189.166702
 21
150.373840
  0
LINE
  8
0
 10
189.414185
 20
149.207092
 11
189.873825
 21
149.666718
  0
LINE
  8
0
 10
182.388702
 20
148.500000
 11
193.665283
 21
148.500000
  0
LINE
  8
0
 10
188.000000
 20
153.880951
 11
188.000000
 21
143.031250
  0
LINE
  8
0
 10
-89.999992
 20
153.000000
 11
-89.999992
 21
142.000000
  0
LINE
  8
0
 10
-89.999992
 20
153.000000
 11
-30.000000
 21
153.000000
  0
LINE
  8
0
 10
-30.000000
 20
153.000000
 11
-30.000000
 21
142.000000
  0
LINE
  8
0
 10
-89.999992
 20
143.000000
 11
-30.000000
 21
143.000000
  0
LINE
  8
0
 10
-89.999992
 20
77.000000
 11
-30.000000
 21
77.000000
  0
LINE
  8
0
 10
-30.000000
 20
78.000000
 11
-30.000000
 21
67.000000
  0
LINE
  8
0
 10
-89.999992
 20
67.000000
 11
-30.000000
 21
67.000000
  0
LINE
  8
0
 10
-89.999992
 20
78.000000
 11
-89.999992
 21
67.000000
  0
LINE
  8
0
 10
-62.000000
 20
77.000000
 11
-62.000000
 21
67.000000
  0
LINE
  8
0
 10
-58.000000
 20
77.000000
 11
-58.000000
 21
67.000000
  0
LINE
  8
0
 10
-81.352837
 20
148.000000
 11
-73.843719
 21
148.000000
  0
LINE
  8
0
 10
-77.500000
 20
151.545166
 11
-77.500000
 21
144.392517
  0
LINE
  8
0
 10
-81.352837
 20
72.000000
 11
-73.843719
 21
72.000000
  0
LINE
  8
0
 10
-77.500000
 20
75.545166
 11
-77.500000
 21
68.392517
  0
LINE
  8
0
 10
-46.352829
 20
72.000000
 11
-38.843719
 21
72.000000
  0
LINE
  8
0
 10
-42.500000
 20
75.545166
 11
-42.500000
 21
68.392517
  0
LINE
  8
0
 10
-63.852829
 20
148.000000
 11
-56.343719
 21
148.000000
  0
LINE
  8
0
 10
-42.500000
 20
151.545166
 11
-42.500000
 21
144.392517
  0
LINE
  8
0
 10
-46.352829
 20
148.000000
 11
-38.843719
 21
148.000000
  0
LINE
  8
0
 10
-151.000000
 20
107.499985
 11
-151.000000
 21
99.500000
  0
LINE
  8
0
 10
-145.500000
 20
107.500015
 11
-145.500000
 21
99.500000
  0
LINE
  8
0
 10
-141.500000
 20
108.000000
 11
-141.500000
 21
99.000000
  0
LINE
  8
0
 10
-150.500000
 20
99.000000
 11
-146.000000
 21
99.000000
  0
LINE
  8
0
 10
-150.500000
 20
108.000000
 11
-146.000000
 21
108.000000
  0
LINE
  8
0
 10
-141.000000
 20
98.500000
 11
-115.999992
 21
98.500000
  0
LINE
  8
0
 10
-141.000000
 20
108.500000
 11
-115.999992
 21
108.500000
  0
LINE
  8
0
 10
-150.500000
 20
108.000000
 11
-150.500000
 21
99.000000
  0
LINE
  8
0
 10
-146.000000
 20
108.000000
 11
-146.000000
 21
99.000000
  0
LINE
  8
0
 10
-145.000000
 20
108.000000
 11
-145.000000
 21
99.000000
  0
LINE
  8
0
 10
-150.499969
 20
107.999939
 11
-150.999969
 21
107.499931
  0
LINE
  8
0
 10
-150.999969
 20
99.499985
 11
-150.499969
 21
98.999977
  0
LINE
  8
0
 10
-145.999969
 20
107.999977
 11
-145.499969
 21
107.499985
  0
LINE
  8
0
 10
-145.499985
 20
99.499969
 11
-145.999969
 21
98.999985
  0
LINE
  8
0
 10
-144.999939
 20
107.999924
 11
-145.499939
 21
107.499939
  0
LINE
  8
0
 10
-145.499985
 20
99.500008
 11
-145.000000
 21
99.000015
  0
LINE
  8
0
 10
-145.000000
 20
99.000000
 11
-141.500000
 21
99.000000
  0
LINE
  8
0
 10
-145.000000
 20
108.000000
 11
-141.500000
 21
108.000000
  0
LINE
  8
0
 10
-141.500000
 20
108.000000
 11
-115.999992
 21
108.000000
  0
LINE
  8
0
 10
-141.500000
 20
99.000000
 11
-115.999992
 21
99.000000
  0
LINE
  8
0
 10
-141.000000
 20
108.500000
 11
-141.000000
 21
98.500000
  0
LINE
  8
0
 10
-140.999939
 20
108.499939
 11
-141.499939
 21
107.999939
  0
LINE
  8
0
 10
-140.999985
 20
98.500015
 11
-141.499969
 21
99.000008
  0
LINE
  8
0
 10
-115.999992
 20
108.949997
 11
-115.999992
 21
98.050003
  0
LINE
  8
0
 10
-115.186821
 20
96.550003
 11
-113.813194
 21
96.550003
  0
LINE
  8
0
 10
-115.186821
 20
110.449997
 11
-113.813194
 21
110.449997
  0
LINE
  8
0
 10
-115.186821
 20
107.449997
 11
-113.813194
 21
107.449997
  0
LINE
  8
0
 10
-115.186821
 20
99.550003
 11
-113.813194
 21
99.550003
  0
LINE
  8
0
 10
231.000000
 20
107.499985
 11
231.000000
 21
99.500000
  0
LINE
  8
0
 10
225.500000
 20
107.500015
 11
225.500000
 21
99.500000
  0
LINE
  8
0
 10
221.500000
 20
108.000000
 11
221.500000
 21
99.000000
  0
LINE
  8
0
 10
230.500000
 20
99.000000
 11
226.000000
 21
99.000000
  0
LINE
  8
0
 10
230.500000
 20
108.000000
 11
226.000000
 21
108.000000
  0
LINE
  8
0
 10
221.000000
 20
98.500000
 11
196.000000
 21
98.500000
  0
LINE
  8
0
 10
221.000000
 20
108.500000
 11
196.000000
 21
108.500000
  0
LINE
  8
0
 10
230.500000
 20
108.000000
 11
230.500000
 21
99.000000
  0
LINE
  8
0
 10
226.000000
 20
108.000000
 11
226.000000
 21
99.000000
  0
LINE
  8
0
 10
225.000000
 20
108.000000
 11
225.000000
 21
99.000000
  0
LINE
  8
0
 10
230.499939
 20
107.999893
 11
230.999939
 21
107.499886
  0
LINE
  8
0
 10
230.999969
 20
99.500008
 11
230.499939
 21
98.999985
  0
LINE
  8
0
 10
225.999969
 20
108.000000
 11
225.499969
 21
107.499985
  0
LINE
  8
0
 10
225.499939
 20
99.499916
 11
225.999939
 21
98.999916
  0
LINE
  8
0
 10
224.999939
 20
107.999931
 11
225.499939
 21
107.499954
  0
LINE
  8
0
 10
225.499969
 20
99.500008
 11
225.000000
 21
99.000023
  0
LINE
  8
0
 10
225.000000
 20
99.000000
 11
221.500000
 21
99.000000
  0
LINE
  8
0
 10
225.000000
 20
108.000000
 11
221.500000
 21
108.000000
  0
LINE
  8
0
 10
221.500000
 20
108.000000
 11
196.000000
 21
108.000000
  0
LINE
  8
0
 10
221.500000
 20
99.000000
 11
196.000000
 21
99.000000
  0
LINE
  8
0
 10
221.000000
 20
108.500000
 11
221.000000
 21
98.500000
  0
LINE
  8
0
 10
220.999908
 20
108.499924
 11
221.499908
 21
107.999931
  0
LINE
  8
0
 10
220.999969
 20
98.500023
 11
221.499969
 21
99.000008
  0
LINE
  8
0
 10
196.000000
 20
108.949997
 11
196.000000
 21
98.050003
  0
LINE
  8
0
 10
195.186798
 20
96.550003
 11
193.813171
 21
96.550003
  0
LINE
  8
0
 10
195.186798
 20
110.449997
 11
193.813171
 21
110.449997
  0
LINE
  8
0
 10
195.186798
 20
107.449997
 11
193.813171
 21
107.449997
  0
LINE
  8
0
 10
195.186798
 20
99.550003
 11
193.813171
 21
99.550003
  0
LINE
  8
0
 10
188.203400
 20
103.500000
 11
235.312653
 21
103.500000
  0
LINE
  8
0
 10
-60.000000
 20
160.000000
 11
-60.000000
 21
60.000000
  0
LINE
  8
0
 10
-156.000000
 20
103.500000
 11
-105.999992
 21
103.500000
  0
LINE
  8
0
 10
140.000000
 20
160.000000
 11
140.000000
 21
60.000000
  0
CIRCLE
  8
0
 10
-107.999992
 20
71.500000
 40
4.150000
  0
ARC
  8
0
 10
-107.999992
 20
73.621323
 40
1.000001
 50
225.000000
 51
314.999695
  0
ARC
  8
0
 10
-105.878685
 20
71.500000
 40
0.999996
 50
134.999695
 51
224.999695
  0
ARC
  8
0
 10
-107.999992
 20
69.378693
 40
1.000006
 50
44.999691
 51
135.000305
  0
ARC
  8
0
 10
-110.121330
 20
71.500000
 40
0.999996
 50
314.999695
 51
45.000000
  0
CIRCLE
  8
0
 10
-107.999992
 20
148.500000
 40
4.150000
  0
ARC
  8
0
 10
-107.999992
 20
150.621323
 40
1.000001
 50
225.000000
 51
314.999695
  0
ARC
  8
0
 10
-105.878685
 20
148.500000
 40
0.999996
 50
134.999695
 51
224.999695
  0
ARC
  8
0
 10
-107.999992
 20
146.378693
 40
1.000006
 50
44.999691
 51
135.000305
  0
ARC
  8
0
 10
-110.121330
 20
148.500000
 40
0.999996
 50
314.999695
 51
45.000000
  0
ARC
  8
0
 10
188.000000
 20
150.621323
 40
1.000001
 50
225.000000
 51
315.000000
  0
ARC
  8
0
 10
190.121307
 20
71.500000
 40
1.000001
 50
135.000000
 51
225.000000
  0
CIRCLE
  8
0
 10
188.000000
 20
148.500000
 40
4.150000
  0
ARC
  8
0
 10
185.878662
 20
71.500000
 40
1.000001
 50
315.000000
 51
45.000000
  0
CIRCLE
  8
0
 10
188.000000
 20
71.500000
 40
4.150000
  0
ARC
  8
0
 10
188.000000
 20
73.621323
 40
1.000001
 50
225.000000
 51
315.000000
  0
ARC
  8
0
 10
188.000000
 20
69.378693
 40
1.000001
 50
45.000000
 51
135.000000
  0
ARC
  8
0
 10
185.878662
 20
148.500000
 40
1.000001
 50
315.000000
 51
45.000000
  0
ARC
  8
0
 10
190.121307
 20
148.500000
 40
1.000001
 50
135.000000
 51
225.000000
  0
ARC
  8
0
 10
188.000000
 20
146.378693
 40
1.000001
 50
45.000000
 51
135.000000
  0
CIRCLE
  8
0
 10
-77.500000
 20
72.000000
 40
2.000000
  0
CIRCLE
  8
0
 10
-42.500000
 20
72.000000
 40
1.250000
  0
CIRCLE
  8
0
 10
-42.500000
 20
72.000000
 40
2.000000
  0
CIRCLE
  8
0
 10
-42.500000
 20
148.000000
 40
1.250000
  0
CIRCLE
  8
0
 10
-60.000000
 20
148.000000
 40
2.000000
  0
CIRCLE
  8
0
 10
-77.500000
 20
148.000000
 40
1.250000
  0
CIRCLE
  8
0
 10
-77.500000
 20
148.000000
 40
2.000000
  0
CIRCLE
  8
0
 10
-77.500000
 20
72.000000
 40
1.250000
  0
CIRCLE
  8
0
 10
-42.500000
 20
148.000000
 40
2.000000
  0
ARC
  8
0
 10
-122.999992
 20
103.500000
 40
10.000001
 50
336.734039
 51
23.265896
  0
ARC
  8
0
 10
-114.790031
 20
98.050003
 40
1.790043
 50
303.073792
 51
56.926418
  0
ARC
  8
0
 10
-114.790031
 20
108.949997
 40
1.790039
 50
303.073578
 51
56.926418
  0
ARC
  8
0
 10
-114.209953
 20
98.050003
 40
1.790039
 50
123.073578
 51
236.926208
  0
ARC
  8
0
 10
-105.999992
 20
103.500000
 40
9.999998
 50
156.734085
 51
203.265900
  0
ARC
  8
0
 10
-114.209953
 20
108.949997
 40
1.790039
 50
123.073578
 51
236.926422
  0
ARC
  8
0
 10
194.209961
 20
98.050003
 40
1.790039
 50
303.073578
 51
56.926418
  0
ARC
  8
0
 10
194.209961
 20
108.949997
 40
1.790039
 50
303.073578
 51
56.926418
  0
ARC
  8
0
 10
203.000000
 20
103.500000
 40
9.999998
 50
156.734085
 51
203.265915
  0
ARC
  8
0
 10
194.790039
 20
108.949997
 40
1.790039
 50
123.073578
 51
236.926422
  0
ARC
  8
0
 10
194.790039
 20
98.050003
 40
1.790039
 50
123.073578
 51
236.926422
  0
ARC
  8
0
 10
186.000000
 20
103.500000
 40
10.000001
 50
336.734039
 51
23.265913
  0
POINT
  8
0
 10
-280.000000
 20
110.000000
  0
POINT
  8
0
 10
-239.000000
 20
110.000000
  0
LINE
  8
0
 10
-283.000000
 20
110.000000
 11
-235.000000
 21
110.000000
  0
LINE
  8
0
 10
-238.000000
 20
153.000000
 11
-238.000000
 21
143.000000
  0
LINE
  8
0
 10
-280.000000
 20
152.999985
 11
-280.000000
 21
142.250000
  0
LINE
  8
0
 10
-239.000000
 20
153.000000
 11
-238.000000
 21
153.000000
  0
LINE
  8
0
 10
-239.000000
 20
67.000000
 11
-238.000000
 21
67.000000
  0
LINE
  8
0
 10
-279.000000
 20
153.500000
 11
-258.000000
 21
153.500000
  0
LINE
  8
0
 10
-279.000000
 20
66.500000
 11
-258.000000
 21
66.500000
  0
LINE
  8
0
 10
-279.000000
 20
154.000000
 11
-273.700012
 21
154.000000
  0
LINE
  8
0
 10
-279.000000
 20
66.000000
 11
-273.700012
 21
66.000000
  0
LINE
  8
0
 10
-239.000000
 20
153.500000
 11
-239.000000
 21
66.500000
  0
LINE
  8
0
 10
-239.000000
 20
143.000000
 11
-238.000000
 21
143.000000
  0
LINE
  8
0
 10
-239.000000
 20
77.000000
 11
-238.000000
 21
77.000000
  0
LINE
  8
0
 10
-238.000000
 20
77.000000
 11
-238.000000
 21
67.000000
  0
LINE
  8
0
 10
-278.999817
 20
153.999756
 11
-279.999817
 21
152.999741
  0
LINE
  8
0
 10
-280.000000
 20
67.000015
 11
-279.000031
 21
66.000038
  0
LINE
  8
0
 10
-265.000000
 20
154.000000
 11
-264.500031
 21
153.500015
  0
LINE
  8
0
 10
-264.499939
 20
66.499931
 11
-264.999939
 21
65.999939
  0
LINE
  8
0
 10
-251.000000
 20
153.500000
 11
-251.000000
 21
145.500000
  0
LINE
  8
0
 10
-258.000000
 20
153.500000
 11
-258.000000
 21
148.232056
  0
LINE
  8
0
 10
-255.267944
 20
145.500000
 11
-251.000000
 21
145.500000
  0
LINE
  8
0
 10
-255.267944
 20
74.500000
 11
-251.000000
 21
74.500000
  0
LINE
  8
0
 10
-258.000000
 20
71.767944
 11
-258.000000
 21
66.500000
  0
LINE
  8
0
 10
-251.000000
 20
74.500000
 11
-251.000000
 21
66.500000
  0
LINE
  8
0
 10
-251.000000
 20
153.500000
 11
-239.000000
 21
153.500000
  0
LINE
  8
0
 10
-251.000000
 20
66.500000
 11
-239.000000
 21
66.500000
  0
LINE
  8
0
 10
-273.700012
 20
154.000000
 11
-273.700012
 21
153.500000
  0
LINE
  8
0
 10
-270.299988
 20
154.000000
 11
-270.299988
 21
153.500000
  0
LINE
  8
0
 10
-280.000000
 20
137.750000
 11
-279.500000
 21
137.750000
  0
LINE
  8
0
 10
-280.000000
 20
142.250000
 11
-279.500000
 21
142.250000
  0
LINE
  8
0
 10
-280.000000
 20
82.250000
 11
-279.500000
 21
82.250000
  0
LINE
  8
0
 10
-280.000000
 20
77.750000
 11
-279.500000
 21
77.750000
  0
LINE
  8
0
 10
-280.000000
 20
137.750000
 11
-280.000000
 21
131.250000
  0
LINE
  8
0
 10
-270.299988
 20
154.000000
 11
-265.000000
 21
154.000000
  0
LINE
  8
0
 10
-270.299988
 20
66.000000
 11
-265.000000
 21
66.000000
  0
LINE
  8
0
 10
-280.000000
 20
77.750000
 11
-280.000000
 21
67.000000
  0
LINE
  8
0
 10
-273.700012
 20
66.500000
 11
-273.700012
 21
66.000000
  0
LINE
  8
0
 10
-270.299988
 20
66.500000
 11
-270.299988
 21
66.000000
  0
LINE
  8
0
 10
-246.000000
 20
151.500000
 11
-246.000000
 21
142.500000
  0
LINE
  8
0
 10
-241.000000
 20
139.500000
 11
-239.000000
 21
139.500000
  0
LINE
  8
0
 10
-241.000000
 20
142.500000
 11
-241.000000
 21
139.500000
  0
LINE
  8
0
 10
-242.000000
 20
142.500000
 11
-242.000000
 21
137.500000
  0
LINE
  8
0
 10
-246.000000
 20
151.500000
 11
-244.500000
 21
151.500000
  0
LINE
  8
0
 10
-246.000000
 20
142.500000
 11
-241.000000
 21
142.500000
  0
LINE
  8
0
 10
-244.500000
 20
153.500000
 11
-244.500000
 21
151.500000
  0
LINE
  8
0
 10
-242.000000
 20
137.500000
 11
-241.000000
 21
137.500000
  0
LINE
  8
0
 10
-241.000000
 20
137.500000
 11
-241.000000
 21
112.000000
  0
LINE
  8
0
 10
-242.000000
 20
112.000000
 11
-241.000000
 21
112.000000
  0
LINE
  8
0
 10
-242.000000
 20
112.000000
 11
-242.000000
 21
110.000000
  0
LINE
  8
0
 10
-244.500000
 20
66.500000
 11
-244.500000
 21
68.500000
  0
LINE
  8
0
 10
-246.000000
 20
68.500000
 11
-244.500000
 21
68.500000
  0
LINE
  8
0
 10
-246.000000
 20
68.500000
 11
-246.000000
 21
77.500000
  0
LINE
  8
0
 10
-246.000000
 20
77.500000
 11
-241.000000
 21
77.500000
  0
LINE
  8
0
 10
-241.000000
 20
77.500000
 11
-241.000000
 21
80.500000
  0
LINE
  8
0
 10
-241.000000
 20
80.500000
 11
-239.000000
 21
80.500000
  0
LINE
  8
0
 10
-242.000000
 20
77.500000
 11
-242.000000
 21
82.500000
  0
LINE
  8
0
 10
-242.000000
 20
82.500000
 11
-241.000000
 21
82.500000
  0
LINE
  8
0
 10
-241.000000
 20
82.500000
 11
-241.000000
 21
108.000000
  0
LINE
  8
0
 10
-242.000000
 20
108.000000
 11
-242.000000
 21
110.000000
  0
LINE
  8
0
 10
-278.500000
 20
124.000000
 11
-271.500000
 21
124.000000
  0
LINE
  8
0
 10
-278.500000
 20
96.000000
 11
-271.500000
 21
96.000000
  0
LINE
  8
0
 10
-268.000000
 20
98.000000
 11
-260.000000
 21
98.000000
  0
LINE
  8
0
 10
-268.000000
 20
76.000000
 11
-260.000000
 21
76.000000
  0
LINE
  8
0
 10
-264.000000
 20
102.000000
 11
-264.000000
 21
94.000000
  0
LINE
  8
0
 10
-264.000000
 20
80.000000
 11
-264.000000
 21
72.000000
  0
LINE
  8
0
 10
-275.000000
 20
99.500000
 11
-275.000000
 21
92.500000
  0
LINE
  8
0
 10
-275.000000
 20
127.500000
 11
-275.000000
 21
120.500000
  0
LINE
  8
0
 10
-279.500000
 20
152.999985
 11
-279.500000
 21
67.000000
  0
LINE
  8
0
 10
-279.500031
 20
67.000038
 11
-279.000000
 21
66.500000
  0
LINE
  8
0
 10
-279.500000
 20
90.250000
 11
-279.500000
 21
90.250000
  0
LINE
  8
0
 10
-280.000000
 20
89.750000
 11
-280.000000
 21
82.250000
  0
LINE
  8
0
 10
-279.499939
 20
90.249939
 11
-279.999939
 21
89.749947
  0
LINE
  8
0
 10
-279.500000
 20
117.000000
 11
-279.500000
 21
117.000000
  0
LINE
  8
0
 10
-279.500000
 20
103.000000
 11
-279.500000
 21
103.000000
  0
LINE
  8
0
 10
-280.000000
 20
116.499985
 11
-280.000000
 21
103.500000
  0
LINE
  8
0
 10
-279.499969
 20
116.999916
 11
-279.999969
 21
116.499901
  0
LINE
  8
0
 10
-280.000000
 20
103.500000
 11
-279.500000
 21
103.000015
  0
LINE
  8
0
 10
-280.000000
 20
131.249985
 11
-279.500000
 21
130.750000
  0
LINE
  8
0
 10
-278.999908
 20
153.499924
 11
-279.499908
 21
152.999908
  0
LINE
  8
0
 10
-269.378174
 20
146.500000
 11
-258.811127
 21
146.500000
  0
LINE
  8
0
 10
-264.000000
 20
151.665268
 11
-264.000000
 21
141.803940
  0
LINE
  8
0
 10
-262.500000
 20
147.494980
 11
-262.500000
 21
145.505020
  0
LINE
  8
0
 10
-265.500000
 20
147.494995
 11
-265.500000
 21
145.505020
  0
LINE
  8
0
 10
-265.500061
 20
147.495209
 11
-264.000061
 21
148.300232
  0
LINE
  8
0
 10
-263.999969
 20
148.300018
 11
-262.500000
 21
147.495010
  0
LINE
  8
0
 10
-262.500092
 20
145.505264
 11
-264.000122
 21
144.700226
  0
LINE
  8
0
 10
-264.000061
 20
144.700027
 11
-265.500061
 21
145.505051
  0
LINE
  8
0
 10
-280.378174
 20
106.000000
 11
-269.811127
 21
106.000000
  0
LINE
  8
0
 10
-275.000000
 20
111.165268
 11
-275.000000
 21
101.303940
  0
LINE
  8
0
 10
-273.500000
 20
106.994980
 11
-273.500000
 21
105.005020
  0
LINE
  8
0
 10
-276.500000
 20
106.994995
 11
-276.500000
 21
105.005020
  0
LINE
  8
0
 10
-276.500092
 20
106.995140
 11
-275.000061
 21
107.800171
  0
LINE
  8
0
 10
-274.999969
 20
107.800003
 11
-273.500000
 21
106.994980
  0
LINE
  8
0
 10
-273.500092
 20
105.005173
 11
-275.000092
 21
104.200142
  0
LINE
  8
0
 10
-275.000031
 20
104.200005
 11
-276.500061
 21
105.005043
  0
LINE
  8
0
 10
-257.378174
 20
79.000000
 11
-246.811127
 21
79.000000
  0
LINE
  8
0
 10
-252.000000
 20
84.165268
 11
-252.000000
 21
74.303940
  0
LINE
  8
0
 10
-250.500000
 20
79.994980
 11
-250.500000
 21
78.005020
  0
LINE
  8
0
 10
-253.500000
 20
79.994995
 11
-253.500000
 21
78.005020
  0
LINE
  8
0
 10
-253.500076
 20
79.995132
 11
-252.000076
 21
80.800163
  0
LINE
  8
0
 10
-251.999969
 20
80.799980
 11
-250.500000
 21
79.994980
  0
LINE
  8
0
 10
-250.500076
 20
78.005165
 11
-252.000092
 21
77.200134
  0
LINE
  8
0
 10
-252.000046
 20
77.199997
 11
-253.500076
 21
78.005035
  0
LINE
  8
0
 10
-244.000000
 20
107.007492
 11
-244.000000
 21
99.992493
  0
LINE
  8
0
 10
-256.000000
 20
107.007507
 11
-256.000000
 21
99.992508
  0
LINE
  8
0
 10
-242.000000
 20
108.000000
 11
-241.000000
 21
108.000000
  0
LINE
  8
0
 10
-256.000092
 20
107.007614
 11
-250.000061
 21
110.450127
  0
LINE
  8
0
 10
-250.000000
 20
110.449997
 11
-243.999985
 21
107.007484
  0
LINE
  8
0
 10
-244.000061
 20
99.992630
 11
-250.000076
 21
96.550125
  0
LINE
  8
0
 10
-249.999985
 20
96.549988
 11
-256.000000
 21
99.992508
  0
LINE
  8
0
 10
-250.000000
 20
113.500000
 11
-250.000000
 21
93.500000
  0
LINE
  8
0
 10
-260.000000
 20
103.500000
 11
-240.000000
 21
103.500000
  0
ARC
  8
0
 10
-257.000000
 20
146.500000
 40
2.000004
 50
119.999931
 51
330.000061
  0
ARC
  8
0
 10
-257.000000
 20
73.500000
 40
2.000004
 50
29.999931
 51
240.000076
  0
CIRCLE
  8
0
 10
-250.000000
 20
103.500000
 40
5.000000
  0
CIRCLE
  8
0
 10
-275.000000
 20
124.000000
 40
2.000000
  0
CIRCLE
  8
0
 10
-275.000000
 20
96.000000
 40
2.000000
  0
CIRCLE
  8
0
 10
-264.000000
 20
98.000000
 40
2.500000
  0
CIRCLE
  8
0
 10
-264.000000
 20
76.000000
 40
2.500000
  0
CIRCLE
  8
0
 10
-275.000000
 20
124.000000
 40
1.300000
  0
CIRCLE
  8
0
 10
-275.000000
 20
96.000000
 40
1.300000
  0
CIRCLE
  8
0
 10
-264.000000
 20
98.000000
 40
1.700000
  0
CIRCLE
  8
0
 10
-264.000000
 20
76.000000
 40
1.700000
  0
CIRCLE
  8
0
 10
-250.000000
 20
103.500000
 40
4.200000
  0
CIRCLE
  8
0
 10
-264.000000
 20
146.500000
 40
4.000000
  0
CIRCLE
  8
0
 10
-264.000000
 20
146.500000
 40
3.250000
  0
CIRCLE
  8
0
 10
-275.000000
 20
106.000000
 40
4.000000
  0
CIRCLE
  8
0
 10
-275.000000
 20
106.000000
 40
3.250000
  0
CIRCLE
  8
0
 10
-252.000000
 20
79.000000
 40
4.000000
  0
CIRCLE
  8
0
 10
-252.000000
 20
79.000000
 40
3.250000
  0
CIRCLE
  8
0
 10
-250.000000
 20
103.500000
 40
6.000000
  0
POINT
  8
0
 10
-60.000000
 20
-180.000000
  0
POINT
  8
0
 10
193.000000
 20
-180.000000
  0
LINE
  8
0
 10
-151.000000
 20
-169.500015
 11
-151.000000
 21
-177.500000
  0
LINE
  8
0
 10
-145.500000
 20
-169.499985
 11
-145.500000
 21
-177.500000
  0
LINE
  8
0
 10
-141.500000
 20
-169.000000
 11
-141.500000
 21
-178.000000
  0
LINE
  8
0
 10
-150.500000
 20
-178.000000
 11
-146.000000
 21
-178.000000
  0
LINE
  8
0
 10
-150.500000
 20
-169.000000
 11
-146.000000
 21
-169.000000
  0
LINE
  8
0
 10
-141.000000
 20
-178.500000
 11
-115.999992
 21
-178.500000
  0
LINE
  8
0
 10
-141.000000
 20
-168.500000
 11
-115.999992
 21
-168.500000
  0
LINE
  8
0
 10
-150.500000
 20
-169.000000
 11
-150.500000
 21
-178.000000
  0
LINE
  8
0
 10
-146.000000
 20
-169.000000
 11
-146.000000
 21
-178.000000
  0
LINE
  8
0
 10
-145.000000
 20
-169.000000
 11
-145.000000
 21
-178.000000
  0
LINE
  8
0
 10
-150.499969
 20
-169.000031
 11
-150.999939
 21
-169.500031
  0
LINE
  8
0
 10
-150.999939
 20
-177.499985
 11
-150.499939
 21
-177.999985
  0
LINE
  8
0
 10
-145.999954
 20
-168.999969
 11
-145.499969
 21
-169.499969
  0
LINE
  8
0
 10
-145.499969
 20
-177.500000
 11
-145.999969
 21
-178.000015
  0
LINE
  8
0
 10
-144.999939
 20
-169.000046
 11
-145.499939
 21
-169.500031
  0
LINE
  8
0
 10
-145.499969
 20
-177.499985
 11
-144.999969
 21
-177.999985
  0
LINE
  8
0
 10
-145.000000
 20
-178.000000
 11
-141.500000
 21
-178.000000
  0
LINE
  8
0
 10
-145.000000
 20
-169.000000
 11
-141.500000
 21
-169.000000
  0
LINE
  8
0
 10
-141.500000
 20
-169.000000
 11
-115.999992
 21
-169.000000
  0
LINE
  8
0
 10
-141.500000
 20
-178.000000
 11
-115.999992
 21
-178.000000
  0
LINE
  8
0
 10
-141.000000
 20
-168.500000
 11
-141.000000
 21
-178.500000
  0
LINE
  8
0
 10
-140.999908
 20
-168.500061
 11
-141.499908
 21
-169.000046
  0
LINE
  8
0
 10
-141.000000
 20
-178.500000
 11
-141.499985
 21
-178.000000
  0
LINE
  8
0
 10
-102.999992
 20
-224.000000
 11
183.000000
 21
-224.000000
  0
LINE
  8
0
 10
-102.999992
 20
-135.999985
 11
183.000000
 21
-135.999985
  0
LINE
  8
0
 10
-112.999992
 20
-223.500000
 11
-112.999992
 21
-136.499985
  0
LINE
  8
0
 10
193.000000
 20
-223.500000
 11
193.000000
 21
-136.499985
  0
LINE
  8
0
 10
-112.999992
 20
-223.500000
 11
-102.999992
 21
-223.500000
  0
LINE
  8
0
 10
-112.999992
 20
-136.499985
 11
-102.999992
 21
-136.499985
  0
LINE
  8
0
 10
-102.999992
 20
-224.000000
 11
-102.999992
 21
-135.999985
  0
LINE
  8
0
 10
183.000000
 20
-224.000000
 11
183.000000
 21
-135.999985
  0
LINE
  8
0
 10
183.000000
 20
-223.500000
 11
193.000000
 21
-223.500000
  0
LINE
  8
0
 10
183.000000
 20
-136.499985
 11
193.000000
 21
-136.499985
  0
LINE
  8
0
 10
-120.765831
 20
-180.000000
 11
202.194122
 21
-180.000000
  0
LINE
  8
0
 10
-102.999992
 20
-152.250000
 11
183.000000
 21
-152.250000
  0
LINE
  8
0
 10
-102.999992
 20
-147.750000
 11
183.000000
 21
-147.750000
  0
LINE
  8
0
 10
-102.999992
 20
-212.250000
 11
183.000000
 21
-212.250000
  0
LINE
  8
0
 10
-102.999992
 20
-207.750000
 11
183.000000
 21
-207.750000
  0
LINE
  8
0
 10
-102.999992
 20
-186.000000
 11
183.000000
 21
-186.000000
  0
LINE
  8
0
 10
-102.999992
 20
-174.000000
 11
183.000000
 21
-174.000000
  0
LINE
  8
0
 10
-102.999992
 20
-159.000000
 11
183.000000
 21
-159.000000
  0
LINE
  8
0
 10
-102.999992
 20
-201.000000
 11
183.000000
 21
-201.000000
  0
LINE
  8
0
 10
-102.999992
 20
-223.000000
 11
183.000000
 21
-223.000000
  0
LINE
  8
0
 10
-102.999992
 20
-136.999985
 11
183.000000
 21
-136.999985
  0
LINE
  8
0
 10
-102.999992
 20
-203.000000
 11
183.000000
 21
-203.000000
  0
LINE
  8
0
 10
-102.999992
 20
-194.000000
 11
183.000000
 21
-194.000000
  0
LINE
  8
0
 10
-102.999992
 20
-173.000000
 11
183.000000
 21
-173.000000
  0
LINE
  8
0
 10
-102.999992
 20
-187.000000
 11
183.000000
 21
-187.000000
  0
LINE
  8
0
 10
-102.999992
 20
-160.000000
 11
183.000000
 21
-160.000000
  0
LINE
  8
0
 10
-115.999992
 20
-168.050003
 11
-115.999992
 21
-178.949997
  0
LINE
  8
0
 10
-115.186790
 20
-180.449997
 11
-113.813164
 21
-180.449997
  0
LINE
  8
0
 10
-115.186790
 20
-166.550003
 11
-113.813164
 21
-166.550003
  0
LINE
  8
0
 10
-115.186790
 20
-169.550003
 11
-113.813164
 21
-169.550003
  0
LINE
  8
0
 10
-115.186790
 20
-177.449997
 11
-113.813164
 21
-177.449997
  0
LINE
  8
0
 10
-154.125977
 20
-173.500000
 11
-105.211723
 21
-173.500000
  0
LINE
  8
0
 10
221.500000
 20
-169.000000
 11
221.500000
 21
-178.000000
  0
LINE
  8
0
 10
221.000000
 20
-178.500000
 11
196.000000
 21
-178.500000
  0
LINE
  8
0
 10
221.000000
 20
-168.500000
 11
196.000000
 21
-168.500000
  0
LINE
  8
0
 10
225.000000
 20
-178.000000
 11
221.500000
 21
-178.000000
  0
LINE
  8
0
 10
225.000000
 20
-169.000000
 11
221.500000
 21
-169.000000
  0
LINE
  8
0
 10
221.500000
 20
-169.000000
 11
196.000000
 21
-169.000000
  0
LINE
  8
0
 10
221.500000
 20
-178.000000
 11
196.000000
 21
-178.000000
  0
LINE
  8
0
 10
221.000000
 20
-168.500000
 11
221.000000
 21
-178.500000
  0
LINE
  8
0
 10
220.999939
 20
-168.500046
 11
221.499939
 21
-169.000046
  0
LINE
  8
0
 10
220.999908
 20
-178.499893
 11
221.499908
 21
-177.999893
  0
LINE
  8
0
 10
196.000000
 20
-168.050003
 11
196.000000
 21
-178.949997
  0
LINE
  8
0
 10
195.186829
 20
-180.449997
 11
193.813202
 21
-180.449997
  0
LINE
  8
0
 10
195.186829
 20
-166.550003
 11
193.813202
 21
-166.550003
  0
LINE
  8
0
 10
195.186829
 20
-169.550003
 11
193.813202
 21
-169.550003
  0
LINE
  8
0
 10
195.186829
 20
-177.449997
 11
193.813202
 21
-177.449997
  0
LINE
  8
0
 10
234.126007
 20
-173.500000
 11
185.211761
 21
-173.500000
  0
LINE
  8
0
 10
226.000000
 20
-169.000000
 11
226.000000
 21
-178.000000
  0
LINE
  8
0
 10
230.500000
 20
-169.000000
 11
226.000000
 21
-169.000000
  0
LINE
  8
0
 10
225.000000
 20
-169.000000
 11
225.000000
 21
-178.000000
  0
LINE
  8
0
 10
225.500000
 20
-169.499985
 11
225.500000
 21
-177.500000
  0
LINE
  8
0
 10
230.500000
 20
-178.000000
 11
226.000000
 21
-178.000000
  0
LINE
  8
0
 10
225.999878
 20
-168.999908
 11
225.499878
 21
-169.499908
  0
LINE
  8
0
 10
224.999939
 20
-169.000076
 11
225.499939
 21
-169.500061
  0
LINE
  8
0
 10
225.499847
 20
-177.499893
 11
224.999878
 21
-177.999878
  0
LINE
  8
0
 10
225.500000
 20
-177.500015
 11
226.000000
 21
-178.000000
  0
LINE
  8
0
 10
230.500000
 20
-169.000000
 11
230.500000
 21
-178.000000
  0
LINE
  8
0
 10
231.000000
 20
-169.500015
 11
231.000000
 21
-177.500000
  0
LINE
  8
0
 10
230.499908
 20
-169.000061
 11
230.999908
 21
-169.500076
  0
LINE
  8
0
 10
230.999969
 20
-177.499969
 11
230.499969
 21
-177.999985
  0
ARC
  8
0
 10
-105.999992
 20
-173.500000
 40
10.000001
 50
156.734039
 51
203.265930
  0
ARC
  8
0
 10
-114.209953
 20
-168.050003
 40
1.790039
 50
123.073578
 51
236.926422
  0
ARC
  8
0
 10
-114.209953
 20
-178.949997
 40
1.790039
 50
123.073578
 51
236.926208
  0
ARC
  8
0
 10
-114.790031
 20
-168.050003
 40
1.790039
 50
303.073578
 51
56.926418
  0
ARC
  8
0
 10
-122.999992
 20
-173.500000
 40
10.000001
 50
336.734039
 51
23.265856
  0
ARC
  8
0
 10
-114.790031
 20
-178.949997
 40
1.790043
 50
303.073792
 51
56.926418
  0
ARC
  8
0
 10
194.790039
 20
-178.949997
 40
1.790039
 50
123.073578
 51
236.926422
  0
ARC
  8
0
 10
203.000000
 20
-173.500000
 40
10.000001
 50
156.734039
 51
203.265961
  0
ARC
  8
0
 10
186.000000
 20
-173.500000
 40
10.000001
 50
336.734039
 51
23.265873
  0
ARC
  8
0
 10
194.209961
 20
-168.050003
 40
1.790039
 50
303.073578
 51
56.926418
  0
ARC
  8
0
 10
194.209961
 20
-178.949997
 40
1.790039
 50
303.073578
 51
56.926418
  0
ARC
  8
0
 10
194.790039
 20
-168.050003
 40
1.790039
 50
123.073578
 51
236.926422
  0
POINT
  8
0
 10
331.000000
 20
110.000015
  0
POINT
  8
0
 10
351.000000
 20
110.000015
  0
LINE
  8
0
 10
334.000000
 20
110.000015
 11
286.000000
 21
110.000015
  0
LINE
  8
0
 10
289.000000
 20
153.000015
 11
289.000000
 21
143.000015
  0
LINE
  8
0
 10
331.000000
 20
153.000000
 11
331.000000
 21
142.250015
  0
LINE
  8
0
 10
290.000000
 20
153.000015
 11
289.000000
 21
153.000015
  0
LINE
  8
0
 10
290.000000
 20
67.000015
 11
289.000000
 21
67.000015
  0
LINE
  8
0
 10
317.053772
 20
153.500015
 11
309.000000
 21
153.500015
  0
LINE
  8
0
 10
317.053772
 20
66.500015
 11
309.000000
 21
66.500015
  0
LINE
  8
0
 10
330.000000
 20
154.000015
 11
324.700012
 21
154.000015
  0
LINE
  8
0
 10
330.000000
 20
66.000015
 11
324.700012
 21
66.000015
  0
LINE
  8
0
 10
290.000000
 20
153.500015
 11
290.000000
 21
66.500015
  0
LINE
  8
0
 10
290.000000
 20
143.000015
 11
289.000000
 21
143.000015
  0
LINE
  8
0
 10
290.000000
 20
77.000015
 11
289.000000
 21
77.000015
  0
LINE
  8
0
 10
289.000000
 20
77.000015
 11
289.000000
 21
67.000015
  0
LINE
  8
0
 10
329.999725
 20
153.999725
 11
330.999725
 21
152.999710
  0
LINE
  8
0
 10
331.000031
 20
66.999969
 11
330.000000
 21
65.999939
  0
LINE
  8
0
 10
316.000031
 20
154.000000
 11
315.500000
 21
153.500000
  0
LINE
  8
0
 10
315.499939
 20
66.499962
 11
315.999939
 21
65.999962
  0
LINE
  8
0
 10
302.000000
 20
153.500015
 11
302.000000
 21
145.500015
  0
LINE
  8
0
 10
309.000000
 20
153.500015
 11
309.000000
 21
148.232071
  0
LINE
  8
0
 10
306.267944
 20
145.500015
 11
302.000000
 21
145.500015
  0
LINE
  8
0
 10
306.267944
 20
74.500015
 11
302.000000
 21
74.500015
  0
LINE
  8
0
 10
309.000000
 20
71.767960
 11
309.000000
 21
66.500015
  0
LINE
  8
0
 10
302.000000
 20
74.500015
 11
302.000000
 21
66.500015
  0
LINE
  8
0
 10
302.000000
 20
153.500015
 11
290.000000
 21
153.500015
  0
LINE
  8
0
 10
302.000000
 20
66.500015
 11
290.000000
 21
66.500015
  0
LINE
  8
0
 10
324.700012
 20
154.000015
 11
324.700012
 21
153.500015
  0
LINE
  8
0
 10
321.299988
 20
154.000015
 11
321.299988
 21
153.500015
  0
LINE
  8
0
 10
331.000000
 20
137.750015
 11
330.500000
 21
137.750015
  0
LINE
  8
0
 10
331.000000
 20
142.250015
 11
330.500000
 21
142.250015
  0
LINE
  8
0
 10
331.000000
 20
82.250015
 11
328.500000
 21
82.250015
  0
LINE
  8
0
 10
331.000000
 20
77.750015
 11
328.500000
 21
77.750015
  0
LINE
  8
0
 10
331.000000
 20
137.750015
 11
331.000000
 21
131.250015
  0
LINE
  8
0
 10
321.299988
 20
66.000015
 11
316.000000
 21
66.000015
  0
LINE
  8
0
 10
331.000000
 20
77.750015
 11
331.000000
 21
67.000015
  0
LINE
  8
0
 10
324.700012
 20
71.900009
 11
324.700012
 21
70.900009
  0
LINE
  8
0
 10
321.299988
 20
71.900009
 11
321.299988
 21
70.900009
  0
LINE
  8
0
 10
297.000000
 20
151.500015
 11
297.000000
 21
142.500015
  0
LINE
  8
0
 10
292.000000
 20
139.500015
 11
290.000000
 21
139.500015
  0
LINE
  8
0
 10
292.000000
 20
142.500015
 11
292.000000
 21
139.500015
  0
LINE
  8
0
 10
293.000000
 20
142.500015
 11
293.000000
 21
137.500015
  0
LINE
  8
0
 10
297.000000
 20
151.500015
 11
295.500000
 21
151.500015
  0
LINE
  8
0
 10
297.000000
 20
142.500015
 11
292.000000
 21
142.500015
  0
LINE
  8
0
 10
295.500000
 20
153.500015
 11
295.500000
 21
151.500015
  0
LINE
  8
0
 10
293.000000
 20
137.500015
 11
292.000000
 21
137.500015
  0
LINE
  8
0
 10
292.000000
 20
137.500015
 11
292.000000
 21
112.000015
  0
LINE
  8
0
 10
293.000000
 20
112.000015
 11
292.000000
 21
112.000015
  0
LINE
  8
0
 10
293.000000
 20
112.000015
 11
293.000000
 21
110.000015
  0
LINE
  8
0
 10
295.500000
 20
66.500015
 11
295.500000
 21
68.500015
  0
LINE
  8
0
 10
297.000000
 20
68.500015
 11
295.500000
 21
68.500015
  0
LINE
  8
0
 10
297.000000
 20
68.500015
 11
297.000000
 21
77.500015
  0
LINE
  8
0
 10
297.000000
 20
77.500015
 11
292.000000
 21
77.500015
  0
LINE
  8
0
 10
292.000000
 20
77.500015
 11
292.000000
 21
80.500015
  0
LINE
  8
0
 10
292.000000
 20
80.500015
 11
290.000000
 21
80.500015
  0
LINE
  8
0
 10
293.000000
 20
77.500015
 11
293.000000
 21
82.500015
  0
LINE
  8
0
 10
293.000000
 20
82.500015
 11
292.000000
 21
82.500015
  0
LINE
  8
0
 10
292.000000
 20
82.500015
 11
292.000000
 21
108.000015
  0
LINE
  8
0
 10
293.000000
 20
108.000015
 11
293.000000
 21
110.000015
  0
LINE
  8
0
 10
329.500000
 20
124.000015
 11
322.500000
 21
124.000015
  0
LINE
  8
0
 10
329.500000
 20
96.000015
 11
322.500000
 21
96.000015
  0
LINE
  8
0
 10
326.000000
 20
99.500015
 11
326.000000
 21
92.500015
  0
LINE
  8
0
 10
326.000000
 20
127.500015
 11
326.000000
 21
120.500015
  0
LINE
  8
0
 10
330.500000
 20
132.073074
 11
330.500000
 21
87.926956
  0
LINE
  8
0
 10
330.500000
 20
90.250015
 11
330.500000
 21
90.250015
  0
LINE
  8
0
 10
331.000000
 20
89.750015
 11
331.000000
 21
82.250015
  0
LINE
  8
0
 10
330.499878
 20
90.249908
 11
330.999878
 21
89.749908
  0
LINE
  8
0
 10
330.500000
 20
117.000015
 11
330.500000
 21
117.000015
  0
LINE
  8
0
 10
330.500000
 20
103.000015
 11
330.500000
 21
103.000015
  0
LINE
  8
0
 10
331.000000
 20
116.500000
 11
331.000000
 21
103.500015
  0
LINE
  8
0
 10
330.499939
 20
116.999916
 11
330.999939
 21
116.499908
  0
LINE
  8
0
 10
330.999969
 20
103.500008
 11
330.499969
 21
103.000031
  0
LINE
  8
0
 10
330.999939
 20
131.249985
 11
330.499908
 21
130.749985
  0
LINE
  8
0
 10
320.378174
 20
146.500015
 11
309.811127
 21
146.500015
  0
LINE
  8
0
 10
315.000000
 20
151.665283
 11
315.000000
 21
141.803955
  0
LINE
  8
0
 10
313.500000
 20
147.494995
 11
313.500000
 21
145.505035
  0
LINE
  8
0
 10
316.500000
 20
147.495010
 11
316.500000
 21
145.505035
  0
LINE
  8
0
 10
316.500183
 20
147.495316
 11
315.000183
 21
148.300339
  0
LINE
  8
0
 10
315.000000
 20
148.300049
 11
313.500031
 21
147.495056
  0
LINE
  8
0
 10
313.500244
 20
145.505356
 11
315.000214
 21
144.700348
  0
LINE
  8
0
 10
315.000061
 20
144.699997
 11
316.500092
 21
145.505020
  0
LINE
  8
0
 10
331.378174
 20
106.000015
 11
320.811127
 21
106.000015
  0
LINE
  8
0
 10
326.000000
 20
111.165283
 11
326.000000
 21
101.303955
  0
LINE
  8
0
 10
324.500000
 20
106.994995
 11
324.500000
 21
105.005035
  0
LINE
  8
0
 10
327.500000
 20
106.995010
 11
327.500000
 21
105.005035
  0
LINE
  8
0
 10
327.500122
 20
106.995193
 11
326.000122
 21
107.800217
  0
LINE
  8
0
 10
326.000000
 20
107.800041
 11
324.500000
 21
106.995026
  0
LINE
  8
0
 10
324.499969
 20
105.004951
 11
325.999969
 21
104.199913
  0
LINE
  8
0
 10
326.000061
 20
104.200050
 11
327.500061
 21
105.005066
  0
LINE
  8
0
 10
308.378174
 20
79.000015
 11
297.811127
 21
79.000015
  0
LINE
  8
0
 10
303.000000
 20
84.165283
 11
303.000000
 21
74.303955
  0
LINE
  8
0
 10
301.500000
 20
79.994995
 11
301.500000
 21
78.005035
  0
LINE
  8
0
 10
304.500000
 20
79.995010
 11
304.500000
 21
78.005035
  0
LINE
  8
0
 10
304.499969
 20
79.994942
 11
302.999969
 21
80.799980
  0
LINE
  8
0
 10
303.000031
 20
80.800041
 11
301.500061
 21
79.995049
  0
LINE
  8
0
 10
301.500031
 20
78.004990
 11
303.000000
 21
77.199959
  0
LINE
  8
0
 10
303.000000
 20
77.200012
 11
304.500061
 21
78.005051
  0
LINE
  8
0
 10
328.500000
 20
84.000015
 11
328.500000
 21
82.250015
  0
LINE
  8
0
 10
324.799988
 20
84.000015
 11
324.799988
 21
82.250015
  0
LINE
  8
0
 10
323.799988
 20
82.250015
 11
323.799988
 21
77.750015
  0
LINE
  8
0
 10
334.000000
 20
80.000015
 11
321.769409
 21
80.000015
  0
LINE
  8
0
 10
328.500000
 20
84.000015
 11
324.799988
 21
84.000015
  0
LINE
  8
0
 10
328.500000
 20
76.000015
 11
324.799988
 21
76.000015
  0
LINE
  8
0
 10
324.799988
 20
77.750015
 11
323.799988
 21
77.750015
  0
LINE
  8
0
 10
324.799988
 20
82.250015
 11
323.799988
 21
82.250015
  0
LINE
  8
0
 10
324.799988
 20
77.750015
 11
324.799988
 21
76.000015
  0
LINE
  8
0
 10
328.500000
 20
77.750015
 11
328.500000
 21
76.000015
  0
LINE
  8
0
 10
325.750000
 20
68.000015
 11
324.700012
 21
68.000015
  0
LINE
  8
0
 10
325.750000
 20
70.900009
 11
324.700012
 21
70.900009
  0
LINE
  8
0
 10
324.700012
 20
71.900009
 11
321.299988
 21
71.900009
  0
LINE
  8
0
 10
323.000000
 20
73.123123
 11
323.000000
 21
65.080994
  0
LINE
  8
0
 10
325.750000
 20
70.900009
 11
325.750000
 21
68.000015
  0
LINE
  8
0
 10
320.250000
 20
70.900009
 11
320.250000
 21
68.000015
  0
LINE
  8
0
 10
321.299988
 20
70.900009
 11
320.250000
 21
70.900009
  0
LINE
  8
0
 10
321.299988
 20
68.000015
 11
320.250000
 21
68.000015
  0
LINE
  8
0
 10
321.299988
 20
68.000015
 11
321.299988
 21
66.000015
  0
LINE
  8
0
 10
324.700012
 20
68.000015
 11
324.700012
 21
66.000015
  0
LINE
  8
0
 10
331.000000
 20
137.750015
 11
328.500000
 21
137.750015
  0
LINE
  8
0
 10
331.000000
 20
142.250015
 11
328.500000
 21
142.250015
  0
LINE
  8
0
 10
324.700012
 20
148.100021
 11
324.700012
 21
149.100021
  0
LINE
  8
0
 10
321.299988
 20
148.100021
 11
321.299988
 21
149.100021
  0
LINE
  8
0
 10
328.500000
 20
136.000015
 11
328.500000
 21
137.750015
  0
LINE
  8
0
 10
324.799988
 20
136.000015
 11
324.799988
 21
137.750015
  0
LINE
  8
0
 10
323.799988
 20
137.750015
 11
323.799988
 21
142.250015
  0
LINE
  8
0
 10
334.000000
 20
140.000015
 11
321.769409
 21
140.000015
  0
LINE
  8
0
 10
328.500000
 20
136.000015
 11
324.799988
 21
136.000015
  0
LINE
  8
0
 10
328.500000
 20
144.000015
 11
324.799988
 21
144.000015
  0
LINE
  8
0
 10
324.799988
 20
142.250015
 11
323.799988
 21
142.250015
  0
LINE
  8
0
 10
324.799988
 20
137.750015
 11
323.799988
 21
137.750015
  0
LINE
  8
0
 10
324.799988
 20
142.250015
 11
324.799988
 21
144.000015
  0
LINE
  8
0
 10
328.500000
 20
142.250015
 11
328.500000
 21
144.000015
  0
LINE
  8
0
 10
325.750000
 20
152.000015
 11
324.700012
 21
152.000015
  0
LINE
  8
0
 10
325.750000
 20
149.100021
 11
324.700012
 21
149.100021
  0
LINE
  8
0
 10
324.700012
 20
148.100021
 11
321.299988
 21
148.100021
  0
LINE
  8
0
 10
323.000000
 20
146.876907
 11
323.000000
 21
154.919037
  0
LINE
  8
0
 10
325.750000
 20
149.100021
 11
325.750000
 21
152.000015
  0
LINE
  8
0
 10
320.250000
 20
149.100021
 11
320.250000
 21
152.000015
  0
LINE
  8
0
 10
321.299988
 20
149.100021
 11
320.250000
 21
149.100021
  0
LINE
  8
0
 10
321.299988
 20
152.000015
 11
320.250000
 21
152.000015
  0
LINE
  8
0
 10
321.299988
 20
152.000015
 11
321.299988
 21
154.000015
  0
LINE
  8
0
 10
324.700012
 20
152.000015
 11
324.700012
 21
154.000015
  0
LINE
  8
0
 10
292.000000
 20
108.000015
 11
293.000000
 21
108.000015
  0
LINE
  8
0
 10
301.000000
 20
111.787750
 11
301.000000
 21
95.313416
  0
LINE
  8
0
 10
308.381805
 20
103.500015
 11
293.610107
 21
103.500015
  0
LINE
  8
0
 10
301.000031
 20
96.550049
 11
307.000031
 21
99.992546
  0
LINE
  8
0
 10
301.000061
 20
110.450043
 11
295.000031
 21
107.007523
  0
LINE
  8
0
 10
295.000061
 20
99.992615
 11
301.000061
 21
96.550125
  0
LINE
  8
0
 10
295.000000
 20
107.007507
 11
295.000000
 21
99.992508
  0
LINE
  8
0
 10
307.000000
 20
107.007523
 11
307.000000
 21
99.992523
  0
LINE
  8
0
 10
307.000092
 20
107.007629
 11
301.000061
 21
110.450150
  0
LINE
  8
0
 10
321.299988
 20
154.000015
 11
316.000000
 21
154.000015
  0
LINE
  8
0
 10
321.299988
 20
153.500015
 11
324.700012
 21
153.500015
  0
LINE
  8
0
 10
330.500000
 20
142.250015
 11
330.500000
 21
137.750015
  0
LINE
  8
0
 10
321.299988
 20
66.500015
 11
324.700012
 21
66.500015
  0
LINE
  8
0
 10
330.500000
 20
82.250015
 11
330.500000
 21
77.750015
  0
CIRCLE
  8
0
 10
326.000000
 20
106.000015
 40
4.000000
  0
CIRCLE
  8
0
 10
326.000000
 20
106.000015
 40
3.250000
  0
CIRCLE
  8
0
 10
303.000000
 20
79.000015
 40
4.000000
  0
CIRCLE
  8
0
 10
303.000000
 20
79.000015
 40
3.250000
  0
ARC
  8
0
 10
308.000000
 20
146.500015
 40
2.000004
 50
209.999924
 51
60.000069
  0
ARC
  8
0
 10
308.000000
 20
73.500015
 40
2.000004
 50
299.999939
 51
150.000076
  0
CIRCLE
  8
0
 10
326.000000
 20
124.000015
 40
2.000000
  0
CIRCLE
  8
0
 10
326.000000
 20
96.000015
 40
2.000000
  0
CIRCLE
  8
0
 10
326.000000
 20
124.000015
 40
1.300000
  0
CIRCLE
  8
0
 10
326.000000
 20
96.000015
 40
1.300000
  0
CIRCLE
  8
0
 10
315.000000
 20
146.500015
 40
4.000000
  0
CIRCLE
  8
0
 10
315.000000
 20
146.500015
 40
3.250000
  0
CIRCLE
  8
0
 10
301.000000
 20
103.500015
 40
6.000000
  0
CIRCLE
  8
0
 10
301.000000
 20
103.500015
 40
5.000000
  0
CIRCLE
  8
0
 10
301.000000
 20
103.500015
 40
4.200000
  0
POLYLINE
  8
0
 66
     1
  0
VERTEX
  8
0
 10
317.005432
 20
65.964027
  0
VERTEX
  8
0
 10
317.105682
 20
66.914688
  0
VERTEX
  8
0
 10
317.293182
 20
67.853241
  0
VERTEX
  8
0
 10
317.597321
 20
68.786972
  0
VERTEX
  8
0
 10
317.919312
 20
69.490501
  0
VERTEX
  8
0
 10
318.292175
 20
70.160072
  0
VERTEX
  8
0
 10
318.704620
 20
70.837448
  0
VERTEX
  8
0
 10
319.145386
 20
71.564377
  0
VERTEX
  8
0
 10
319.616669
 20
72.413895
  0
VERTEX
  8
0
 10
320.030029
 20
73.288193
  0
VERTEX
  8
0
 10
320.365295
 20
74.188438
  0
VERTEX
  8
0
 10
320.602386
 20
75.115814
  0
VERTEX
  8
0
 10
320.727661
 20
76.077812
  0
VERTEX
  8
0
 10
320.757202
 20
77.056747
  0
VERTEX
  8
0
 10
320.720703
 20
78.044144
  0
VERTEX
  8
0
 10
320.647919
 20
79.031509
  0
VERTEX
  8
0
 10
320.565369
 20
79.981056
  0
VERTEX
  8
0
 10
320.515442
 20
80.909309
  0
VERTEX
  8
0
 10
320.554504
 20
81.854820
  0
VERTEX
  8
0
 10
320.738983
 20
82.856125
  0
VERTEX
  8
0
 10
321.082092
 20
83.778412
  0
VERTEX
  8
0
 10
321.589935
 20
84.657074
  0
VERTEX
  8
0
 10
322.222168
 20
85.461609
  0
VERTEX
  8
0
 10
322.938477
 20
86.161514
  0
VERTEX
  8
0
 10
323.698517
 20
86.726288
  0
VERTEX
  8
0
 10
324.435089
 20
87.124489
  0
VERTEX
  8
0
 10
325.229309
 20
87.440979
  0
VERTEX
  8
0
 10
326.037689
 20
87.676750
  0
VERTEX
  8
0
 10
326.816803
 20
87.832794
  0
VERTEX
  8
0
 10
327.523132
 20
87.910110
  0
VERTEX
  8
0
 10
328.433899
 20
87.929070
  0
VERTEX
  8
0
 10
329.344513
 20
87.914925
  0
VERTEX
  8
0
 10
330.072876
 20
87.910110
  0
VERTEX
  8
0
 10
330.528351
 20
87.928444
  0
VERTEX
  8
0
 10
330.983521
 20
87.955627
  0
SEQEND
  0
POLYLINE
  8
0
 66
     1
  0
VERTEX
  8
0
 10
317.005432
 20
154.035995
  0
VERTEX
  8
0
 10
317.105682
 20
153.085342
  0
VERTEX
  8
0
 10
317.293182
 20
152.146790
  0
VERTEX
  8
0
 10
317.597321
 20
151.213058
  0
VERTEX
  8
0
 10
317.919312
 20
150.509521
  0
VERTEX
  8
0
 10
318.292175
 20
149.839951
  0
VERTEX
  8
0
 10
318.704620
 20
149.162582
  0
VERTEX
  8
0
 10
319.145386
 20
148.435654
  0
VERTEX
  8
0
 10
319.616669
 20
147.586136
  0
VERTEX
  8
0
 10
320.030029
 20
146.711838
  0
VERTEX
  8
0
 10
320.365295
 20
145.811584
  0
VERTEX
  8
0
 10
320.602386
 20
144.884216
  0
VERTEX
  8
0
 10
320.727661
 20
143.922211
  0
VERTEX
  8
0
 10
320.757202
 20
142.943283
  0
VERTEX
  8
0
 10
320.720703
 20
141.955887
  0
VERTEX
  8
0
 10
320.647919
 20
140.968521
  0
VERTEX
  8
0
 10
320.565369
 20
140.018967
  0
VERTEX
  8
0
 10
320.515442
 20
139.090714
  0
VERTEX
  8
0
 10
320.554504
 20
138.145218
  0
VERTEX
  8
0
 10
320.738983
 20
137.143906
  0
VERTEX
  8
0
 10
321.082092
 20
136.221619
  0
VERTEX
  8
0
 10
321.589935
 20
135.342957
  0
VERTEX
  8
0
 10
322.222168
 20
134.538422
  0
VERTEX
  8
0
 10
322.938477
 20
133.838516
  0
VERTEX
  8
0
 10
323.698517
 20
133.273743
  0
VERTEX
  8
0
 10
324.435089
 20
132.875534
  0
VERTEX
  8
0
 10
325.229309
 20
132.559052
  0
VERTEX
  8
0
 10
326.037689
 20
132.323273
  0
VERTEX
  8
0
 10
326.816803
 20
132.167236
  0
VERTEX
  8
0
 10
327.523132
 20
132.089920
  0
VERTEX
  8
0
 10
328.433899
 20
132.070969
  0
VERTEX
  8
0
 10
329.344513
 20
132.085098
  0
VERTEX
  8
0
 10
330.072876
 20
132.089920
  0
VERTEX
  8
0
 10
330.528351
 20
132.071579
  0
VERTEX
  8
0
 10
330.983521
 20
132.044403
  0
SEQEND
  0
TEXT
  8
0
 10
8.436817
 20
23.065125
 40
6.000000
  1
106+ST
 50
359.899994
 41
1.052632
 51
0.000000
  7
STANDARD
  0
LINE
  8
0
 10
-112.999992
 20
22.032639
 11
193.000000
 21
22.032639
  0
LINE
  8
0
 10
-112.999992
 20
22.032639
 11
-110.102219
 21
22.809095
  0
LINE
  8
0
 10
-112.999992
 20
22.032639
 11
-110.102219
 21
21.256182
  0
LINE
  8
0
 10
193.000000
 20
22.032639
 11
190.102219
 21
21.256182
  0
LINE
  8
0
 10
193.000000
 20
22.032639
 11
190.102219
 21
22.809095
  0
LINE
  8
0
 10
-112.999992
 20
66.500000
 11
-112.999992
 21
20.532639
  0
LINE
  8
0
 10
193.000000
 20
66.500000
 11
193.000000
 21
20.532639
  0
TEXT
  8
0
 10
33.395260
 20
206.011505
 40
6.000000
  1
ST
 50
359.899994
 41
1.052632
 51
0.000000
  7
STANDARD
  0
LINE
  8
0
 10
-60.000000
 20
204.999969
 11
140.000000
 21
204.999969
  0
LINE
  8
0
 10
-60.000000
 20
204.999969
 11
-57.102222
 21
205.776428
  0
LINE
  8
0
 10
-60.000000
 20
204.999969
 11
-57.102222
 21
204.223511
  0
LINE
  8
0
 10
140.000000
 20
204.999969
 11
137.102219
 21
204.223511
  0
LINE
  8
0
 10
140.000000
 20
204.999969
 11
137.102219
 21
205.776428
  0
LINE
  8
0
 10
-60.000000
 20
160.000000
 11
-60.000000
 21
206.499969
  0
LINE
  8
0
 10
140.000000
 20
160.000000
 11
140.000000
 21
206.499969
  0
TEXT
  8
0
 10
-50.233967
 20
46.032490
 40
6.000000
  1
ƒÓ4F8-4
 50
359.899994
 41
1.052632
 51
0.000000
  7
STANDARD
  0
LINE
  8
0
 10
-58.000000
 20
45.000000
 11
-14.485743
 21
45.000000
  0
LINE
  8
0
 10
-62.000000
 20
45.000000
 11
-58.000000
 21
45.000000
  0
LINE
  8
0
 10
-62.000000
 20
45.000000
 11
-64.897774
 21
44.223541
  0
LINE
  8
0
 10
-62.000000
 20
45.000000
 11
-64.897774
 21
45.776459
  0
LINE
  8
0
 10
-62.000000
 20
45.000000
 11
-68.000000
 21
45.000000
  0
LINE
  8
0
 10
-58.000000
 20
45.000000
 11
-55.102222
 21
45.776459
  0
LINE
  8
0
 10
-58.000000
 20
45.000000
 11
-55.102222
 21
44.223541
  0
LINE
  8
0
 10
-58.000000
 20
45.000000
 11
-52.000000
 21
45.000000
  0
LINE
  8
0
 10
-62.000000
 20
67.000000
 11
-62.000000
 21
43.500000
  0
LINE
  8
0
 10
-58.000000
 20
67.000000
 11
-58.000000
 21
43.500000
  0
ENDSEC
  0
EOF
