  0
SECTION
  2
HEADER
  0
ENDSEC
  0
SECTION
  2
TABLES
  0
TABLE
  2
LTYPE
 70
     4
  0
LTYPE
  2
CONTINUOUS
 70
    64
  3
Solid line
 72
    65
 73
     0
 40
0.000000
  0
LTYPE
  2
DASHED
 70
    64
  3
__ __ __ __ __ __ __ __ __ __ __ __ __ __ __
 72
    65
 73
     2
 40
3.500000
 49
2.000000
 49
-1.500000
  0
LTYPE
  2
CENTER
 70
    64
  3
____ _ ____ _ ____ _ ____ _ ____ _ ____ _ ____
 72
    65
 73
     4
 40
17.500000
 49
13.000000
 49
-1.500000
 49
1.500000
 49
-1.500000
  0
LTYPE
  2
PHANTOM
 70
    64
  3
_____ _ _ _____ _ _ _____ _ _ _____ _ _ ____  
 72
    65
 73
     6
 40
15.500000
 49
8.000000
 49
-1.500000
 49
1.500000
 49
-1.500000
 49
1.500000
 49
-1.500000
  0
LTYPE
  2
DASHED1
 70
    64
  3
__ __ __ __ __ __ __ __ __ __ __ __ __ __ __
 72
    65
 73
     2
 40
1.500000
 49
1.000000
 49
-0.500000
  0
LTYPE
  2
DASHED2
 70
    64
  3
__ __ __ __ __ __ __ __ __ __ __ __ __ __ __
 72
    65
 73
     2
 40
3.500000
 49
2.500000
 49
-1.000000
  0
LTYPE
  2
DASHED3
 70
    64
  3
__ __ __ __ __ __ __ __ __ __ __ __ __ __ __
 72
    65
 73
     2
 40
6.000000
 49
4.000000
 49
-2.000000
  0
LTYPE
  2
DASHED4
 70
    64
  3
__ __ __ __ __ __ __ __ __ __ __ __ __ __ __
 72
    65
 73
     2
 40
12.000000
 49
10.000000
 49
-2.000000
  0
LTYPE
  2
DASHED5
 70
    64
  3
__ __ __ __ __ __ __ __ __ __ __ __ __ __ __
 72
    65
 73
     2
 40
17.000000
 49
15.000000
 49
-2.000000
  0
LTYPE
  2
DASHED6
 70
    64
  3
__ __ __ __ __ __ __ __ __ __ __ __ __ __ __
 72
    65
 73
     2
 40
29.000000
 49
27.000000
 49
-2.000000
  0
LTYPE
  2
PHANTOM1
 70
    64
  3
_____ _ _ _____ _ _ _____ _ _ _____ _ _ ____  
 72
    65
 73
     6
 40
31.000000
 49
25.000000
 49
-1.500000
 49
1.000000
 49
-1.000000
 49
1.000000
 49
-1.500000
  0
LTYPE
  2
PHANTOM2
 70
    64
  3
_____ _ _ _____ _ _ _____ _ _ _____ _ _ ____  
 72
    65
 73
     6
 40
36.000000
 49
27.000000
 49
-1.500000
 49
2.500000
 49
-1.000000
 49
2.500000
 49
-1.500000
  0
LTYPE
  2
PHANTOM3
 70
    64
  3
_____ _ _ _____ _ _ _____ _ _ _____ _ _ ____  
 72
    65
 73
     6
 40
78.000000
 49
64.000000
 49
-2.000000
 49
4.000000
 49
-2.000000
 49
4.000000
 49
-2.000000
  0
LTYPE
  2
CENTER1
 70
    64
  3
____ _ ____ _ ____ _ ____ _ ____ _ ____ _ ____
 72
    65
 73
     4
 40
19.000000
 49
14.000000
 49
-1.000000
 49
3.000000
 49
-1.000000
  0
LTYPE
  2
CENTER2
 70
    64
  3
____ _ ____ _ ____ _ ____ _ ____ _ ____ _ ____
 72
    65
 73
     4
 40
28.500000
 49
25.000000
 49
-1.000000
 49
1.500000
 49
-1.000000
  0
LTYPE
  2
CENTER3
 70
    64
  3
____ _ ____ _ ____ _ ____ _ ____ _ ____ _ ____
 72
    65
 73
     4
 40
31.500000
 49
27.000000
 49
-1.000000
 49
2.500000
 49
-1.000000
  0
LTYPE
  2
CENTER4
 70
    64
  3
____ _ ____ _ ____ _ ____ _ ____ _ ____ _ ____
 72
    65
 73
     4
 40
50.000000
 49
45.000000
 49
-1.000000
 49
3.000000
 49
-1.000000
  0
LTYPE
  2
CENTER5
 70
    64
  3
____ _ ____ _ ____ _ ____ _ ____ _ ____ _ ____
 72
    65
 73
     4
 40
100.000000
 49
92.000000
 49
-2.000000
 49
4.000000
 49
-2.000000
  0
LTYPE
  2
SBK1
 70
    64
  3
______ _ _ _ ______ _ _ _ ______ _ _ _ _____  
 72
    65
 73
     8
 40
60.500000
 49
45.000000
 49
-2.000000
 49
2.500000
 49
-2.000000
 49
2.500000
 49
-2.000000
 49
2.500000
 49
-2.000000
  0
LTYPE
  2
SBK2
 70
    64
  3
______ _ _ _ ______ _ _ _ ______ _ _ _ _____  
 72
    65
 73
     8
 40
84.000000
 49
64.000000
 49
-2.000000
 49
4.000000
 49
-2.000000
 49
4.000000
 49
-2.000000
 49
4.000000
 49
-2.000000
  0
LTYPE
  2
STCH
 70
    64
  3
__ __ __ __ __ __ __ __ __ __ __ __ __ __ __
 72
    65
 73
     2
 40
3.000000
 49
1.000000
 49
-2.000000
  0
LTYPE
  2
MTCH
 70
    64
  3
_____ _ _ _____ _ _ _____ _ _ _____ _ _ ____  
 72
    65
 73
     6
 40
80.000000
 49
66.000000
 49
-2.000000
 49
4.000000
 49
-2.000000
 49
4.000000
 49
-2.000000
  0
ENDTAB
  0
TABLE
  2
LAYER
 70
     1
  0
LAYER
  2
0
 70
     0
 62
     7
  6
CONTINUOUS
  0
ENDTAB
  0
TABLE
  2
STYLE
 70
     1
  0
STYLE
  2
STANDARD
 70
     0
 40
0.000000
 41
1.000000
 50
0.000000
 71
     0
 42
0.200000
  3
txt
  4
BIGFONT
  0
ENDTAB
  0
TABLE
  2
VIEW
 70
     0
  0
ENDTAB
  0
ENDSEC
  0
SECTION
  2
BLOCKS
  0
ENDSEC
  0
SECTION
  2
ENTITIES
  0
LINE
  8
0
  6
CENTER
 62
     2
 10
54.599960
 20
101.999992
 11
45.399979
 21
101.999992
  0
LINE
  8
0
 10
-17.000008
 20
64.499992
 11
-17.000008
 21
115.499992
  0
LINE
  8
0
 10
57.000000
 20
64.499992
 11
57.000000
 21
115.499992
  0
LINE
  8
0
 10
-1.000031
 20
64.499992
 11
-1.000031
 21
115.499992
  0
LINE
  8
0
 10
-0.000015
 20
65.499992
 11
-0.000015
 21
114.499992
  0
LINE
  8
0
 10
56.000000
 20
65.499992
 11
56.000000
 21
114.499992
  0
LINE
  8
0
  6
CENTER
 62
     2
 10
48.816650
 20
110.000000
 11
42.183319
 21
110.000000
  0
LINE
  8
0
  6
CENTER
 62
     2
 10
45.499969
 20
106.733337
 11
45.499969
 21
113.200012
  0
LINE
  8
0
  6
CENTER
 62
     2
 10
49.999985
 20
97.399971
 11
49.999985
 21
106.599930
  0
LINE
  8
0
 10
-25.000000
 20
64.499992
 11
-25.000000
 21
115.499992
  0
LINE
  8
0
 10
66.000000
 20
64.499992
 11
66.000000
 21
115.499992
  0
LINE
  8
0
  6
CENTER
 62
     2
 10
-16.309788
 20
81.000000
 11
-25.736328
 21
81.000000
  0
LINE
  8
0
  6
CENTER
 62
     2
 10
-21.000011
 20
76.344322
 11
-21.000011
 21
85.772072
  0
LINE
  8
0
 10
58.000000
 20
64.499992
 11
58.000000
 21
115.499992
  0
LINE
  8
0
 10
-1.000008
 20
92.999992
 11
-17.000031
 21
92.999992
  0
LINE
  8
0
 62
     4
 10
-73.000000
 20
73.999962
 11
-63.000000
 21
73.999962
  0
LINE
  8
0
 62
     4
 10
-63.000000
 20
72.499962
 11
-57.000015
 21
72.499962
  0
LINE
  8
0
 62
     4
 10
-63.000000
 20
75.499969
 11
-52.222565
 21
75.499969
  0
LINE
  8
0
 62
     4
 10
-63.000000
 20
72.499962
 11
-63.000000
 21
75.499969
  0
LINE
  8
0
 62
     4
 10
-51.218735
 20
75.499969
 11
-30.000011
 21
75.499969
  0
LINE
  8
0
 62
     4
 10
-73.000000
 20
72.999969
 11
-63.000000
 21
72.999969
  0
LINE
  8
0
 62
     4
 10
-73.000000
 20
74.999962
 11
-63.000000
 21
74.999962
  0
LINE
  8
0
 62
     4
 10
-72.999985
 20
72.999969
 11
-72.999985
 21
74.999962
  0
LINE
  8
0
 62
     4
 10
-28.000000
 20
65.000000
 11
-46.250000
 21
65.000000
  0
LINE
  8
0
 62
     4
 10
-28.000000
 20
75.000000
 11
-46.250008
 21
75.000000
  0
LINE
  8
0
 62
     4
 10
-57.000015
 20
66.999969
 11
-57.000015
 21
72.999969
  0
LINE
  8
0
 62
     4
 10
-53.000008
 20
65.749969
 11
-53.000008
 21
66.999969
  0
LINE
  8
0
 62
     4
 10
-53.000008
 20
66.999992
 11
-57.000015
 21
66.999992
  0
LINE
  8
0
 62
     4
 10
-53.000008
 20
72.999992
 11
-57.000015
 21
72.999992
  0
LINE
  8
0
 62
     4
 10
-47.000015
 20
74.249992
 11
-53.000008
 21
74.249992
  0
LINE
  8
0
 62
     4
 10
-47.000015
 20
65.749992
 11
-53.000008
 21
65.749992
  0
LINE
  8
0
 62
     4
 10
-47.000008
 20
65.749969
 11
-47.000008
 21
74.249969
  0
LINE
  8
0
 62
     4
 10
-46.249969
 20
65.000015
 11
-46.999969
 21
65.750015
  0
LINE
  8
0
 62
     4
 10
-46.250069
 20
75.000061
 11
-47.000069
 21
74.250069
  0
LINE
  8
0
 62
     1
 10
-28.000000
 20
65.500008
 11
-46.749992
 21
65.500008
  0
LINE
  8
0
 62
     1
 10
-28.000000
 20
74.499992
 11
-46.750008
 21
74.499992
  0
LINE
  8
0
 62
     4
 10
-46.250008
 20
64.999977
 11
-46.250008
 21
74.999977
  0
LINE
  8
0
 62
     4
 10
-53.000008
 20
72.999969
 11
-53.000008
 21
74.249969
  0
LINE
  8
0
 62
     4
 10
-56.500015
 20
66.999969
 11
-56.500015
 21
72.999969
  0
LINE
  8
0
 62
     4
 10
68.999985
 20
75.000023
 11
87.250000
 21
75.000023
  0
LINE
  8
0
 62
     4
 10
68.999985
 20
65.000023
 11
87.250000
 21
65.000023
  0
LINE
  8
0
 62
     4
 10
98.000015
 20
73.000008
 11
98.000015
 21
67.000038
  0
LINE
  8
0
 62
     4
 10
94.000015
 20
74.250008
 11
94.000015
 21
73.000008
  0
LINE
  8
0
 62
     4
 10
94.000015
 20
73.000008
 11
98.000015
 21
73.000008
  0
LINE
  8
0
 62
     4
 10
94.000015
 20
67.000015
 11
98.000015
 21
67.000015
  0
LINE
  8
0
 62
     4
 10
88.000015
 20
65.750015
 11
94.000015
 21
65.750015
  0
LINE
  8
0
 62
     4
 10
88.000015
 20
74.250008
 11
94.000015
 21
74.250008
  0
LINE
  8
0
 62
     4
 10
88.000000
 20
74.250008
 11
88.000000
 21
65.750038
  0
LINE
  8
0
 62
     4
 10
87.250145
 20
75.000198
 11
88.000168
 21
74.250183
  0
LINE
  8
0
 62
     4
 10
87.250061
 20
64.999992
 11
88.000053
 21
65.749985
  0
LINE
  8
0
 62
     1
 10
68.999985
 20
74.500015
 11
87.749985
 21
74.500015
  0
LINE
  8
0
 62
     1
 10
68.999985
 20
65.500008
 11
87.749985
 21
65.500008
  0
LINE
  8
0
 62
     4
 10
87.250000
 20
75.000023
 11
87.250000
 21
65.000023
  0
LINE
  8
0
 62
     4
 10
94.000015
 20
67.000038
 11
94.000015
 21
65.750038
  0
LINE
  8
0
 10
56.999985
 20
71.000023
 11
56.999985
 21
69.000008
  0
LINE
  8
0
 62
     4
 10
57.499985
 20
68.500000
 11
58.000015
 21
68.500000
  0
LINE
  8
0
 62
     4
 10
57.499985
 20
71.500031
 11
57.499985
 21
68.500023
  0
LINE
  8
0
 62
     4
 10
57.499985
 20
71.500031
 11
58.000015
 21
71.500031
  0
LINE
  8
0
 62
     4
 10
57.499977
 20
71.500053
 11
56.999958
 21
71.000031
  0
LINE
  8
0
 62
     4
 10
56.999989
 20
68.999954
 11
57.499981
 21
68.499962
  0
LINE
  8
0
 62
     4
 10
97.500015
 20
73.000008
 11
97.500015
 21
67.000038
  0
LINE
  8
0
  6
CENTER
 62
     1
 10
101.615005
 20
70.000000
 11
53.400711
 21
70.000000
  0
LINE
  8
0
  6
CENTER
 62
     2
 10
27.999992
 20
66.380768
 11
27.999992
 21
73.529945
  0
LINE
  8
0
  6
CENTER
 62
     2
 10
31.792091
 20
70.000000
 11
24.347061
 21
70.000000
  0
LINE
  8
0
 10
66.000000
 20
115.499992
 11
-25.000000
 21
115.499992
  0
LINE
  8
0
 10
57.000000
 20
64.499992
 11
-1.000031
 21
64.499992
  0
LINE
  8
0
 10
56.000000
 20
114.499992
 11
-0.000015
 21
114.499992
  0
LINE
  8
0
 10
56.000000
 20
65.499992
 11
-0.000015
 21
65.499992
  0
LINE
  8
0
 10
-0.999995
 20
115.499969
 11
0.000005
 21
114.499985
  0
LINE
  8
0
 10
-1.000016
 20
64.500008
 11
-0.000017
 21
65.500000
  0
LINE
  8
0
 10
56.999962
 20
64.499962
 11
55.999958
 21
65.499962
  0
LINE
  8
0
 10
57.000004
 20
115.500000
 11
55.999996
 21
114.500008
  0
LINE
  8
0
 10
58.000000
 20
71.999992
 11
57.000000
 21
71.999992
  0
LINE
  8
0
 10
-1.000031
 20
71.999992
 11
-17.000008
 21
71.999992
  0
LINE
  8
0
 10
-1.000031
 20
71.000000
 11
-8.999741
 21
71.000000
  0
LINE
  8
0
 10
66.000000
 20
64.499992
 11
58.000000
 21
64.499992
  0
LINE
  8
0
 10
-17.000008
 20
64.499992
 11
-25.000000
 21
64.499992
  0
LINE
  8
0
  6
CENTER
 62
     2
 10
66.690231
 20
99.000008
 11
57.263672
 21
99.000008
  0
LINE
  8
0
  6
CENTER
 62
     2
 10
62.000000
 20
94.344330
 11
62.000000
 21
103.772064
  0
LINE
  8
0
  6
CENTER
 62
     2
 10
66.690231
 20
81.000000
 11
57.263672
 21
81.000000
  0
LINE
  8
0
  6
CENTER
 62
     2
 10
62.000000
 20
76.344322
 11
62.000000
 21
85.772072
  0
LINE
  8
0
  6
CENTER
 62
     2
 10
-16.309788
 20
99.000008
 11
-25.736328
 21
99.000008
  0
LINE
  8
0
  6
CENTER
 62
     2
 10
-21.000011
 20
94.344330
 11
-21.000011
 21
103.772064
  0
LINE
  8
0
 62
     4
 10
-73.000000
 20
76.999992
 11
-73.000000
 21
78.999985
  0
LINE
  8
0
 62
     1
 10
-51.328148
 20
74.249992
 11
-50.740723
 21
80.964279
  0
LINE
  8
0
 62
     1
 10
-52.331951
 20
74.249992
 11
-51.740662
 21
81.008430
  0
LINE
  8
0
 62
     4
 10
-73.000000
 20
78.000008
 11
-63.000000
 21
78.000008
  0
LINE
  8
0
 62
     4
 10
-63.000000
 20
76.499985
 11
-52.135056
 21
76.499985
  0
LINE
  8
0
 62
     4
 10
-63.000000
 20
79.499992
 11
-51.872589
 21
79.499992
  0
LINE
  8
0
 62
     4
 10
-63.000000
 20
76.499985
 11
-63.000000
 21
79.499992
  0
LINE
  8
0
 62
     4
 10
-51.131233
 20
76.499985
 11
-25.000000
 21
76.499985
  0
LINE
  8
0
 62
     4
 10
-50.868774
 20
79.499992
 11
-25.000000
 21
79.499992
  0
LINE
  8
0
 62
     4
 10
-73.000000
 20
76.999992
 11
-63.000000
 21
76.999992
  0
LINE
  8
0
 62
     4
 10
-73.000000
 20
78.999985
 11
-63.000000
 21
78.999985
  0
LINE
  8
0
  6
CENTER
 62
     1
 10
-4.932638
 20
70.000000
 11
-59.842606
 21
70.000000
  0
LINE
  8
0
  6
CENTER
 62
     2
 10
48.816650
 20
70.000000
 11
42.183319
 21
70.000000
  0
LINE
  8
0
  6
CENTER
 62
     2
 10
45.499969
 20
66.733337
 11
45.499969
 21
73.199989
  0
LINE
  8
0
  6
CENTER
 62
     2
 10
13.816643
 20
110.000000
 11
7.183319
 21
110.000000
  0
LINE
  8
0
  6
CENTER
 62
     2
 10
10.499969
 20
106.733337
 11
10.499969
 21
113.200012
  0
LINE
  8
0
  6
CENTER
 62
     2
 10
24.069572
 20
110.000000
 11
31.831474
 21
110.000000
  0
LINE
  8
0
  6
CENTER
 62
     2
 10
27.999992
 20
114.655746
 11
27.999992
 21
105.036690
  0
LINE
  8
0
 10
29.999985
 20
111.000000
 11
29.999985
 21
109.000008
  0
LINE
  8
0
 10
25.999985
 20
111.000000
 11
25.999985
 21
109.000008
  0
LINE
  8
0
 62
     4
 10
-8.999741
 20
71.000000
 11
-8.999741
 21
68.999985
  0
LINE
  8
0
 62
     4
 10
-9.499985
 20
68.500000
 11
-17.000008
 21
68.500000
  0
LINE
  8
0
 62
     4
 10
-9.499985
 20
71.500008
 11
-17.000008
 21
71.500008
  0
LINE
  8
0
 62
     4
 10
-9.499939
 20
68.499969
 11
-8.999949
 21
68.999962
  0
LINE
  8
0
 62
     4
 10
-9.000029
 20
71.000000
 11
-9.500021
 21
71.499992
  0
LINE
  8
0
 62
     4
 10
-9.499985
 20
68.500000
 11
-9.499985
 21
71.500008
  0
LINE
  8
0
  6
CENTER
 62
     2
 10
13.816643
 20
70.000000
 11
7.183319
 21
70.000000
  0
LINE
  8
0
  6
CENTER
 62
     2
 10
10.499969
 20
66.733337
 11
10.499969
 21
73.199989
  0
LINE
  8
0
 62
     4
 10
68.999985
 20
75.499969
 11
68.999985
 21
64.499969
  0
LINE
  8
0
 62
     4
 10
66.000000
 20
75.499969
 11
68.999985
 21
75.499969
  0
LINE
  8
0
 62
     4
 10
66.000000
 20
64.499969
 11
68.999985
 21
64.499969
  0
LINE
  8
0
 62
     4
 10
66.230896
 20
74.599243
 11
68.769104
 21
74.599243
  0
LINE
  8
0
 62
     4
 10
66.230896
 20
65.400742
 11
68.769104
 21
65.400742
  0
LINE
  8
0
 62
     4
 10
66.230896
 20
69.099236
 11
68.769104
 21
69.099236
  0
LINE
  8
0
 62
     4
 10
66.230896
 20
70.900772
 11
68.769104
 21
70.900772
  0
LINE
  8
0
 62
     4
 10
66.230865
 20
70.900772
 11
66.230865
 21
69.099236
  0
LINE
  8
0
 62
     4
 10
68.769104
 20
70.900772
 11
68.769104
 21
69.099236
  0
LINE
  8
0
 62
     4
 10
66.230865
 20
75.499969
 11
66.230865
 21
74.599243
  0
LINE
  8
0
 62
     4
 10
68.769104
 20
74.599243
 11
68.769104
 21
75.499969
  0
LINE
  8
0
 62
     4
 10
66.230865
 20
65.400742
 11
66.230865
 21
64.499969
  0
LINE
  8
0
 62
     4
 10
68.769104
 20
65.400742
 11
68.769104
 21
64.499969
  0
LINE
  8
0
 62
     4
 10
-28.000000
 20
64.500015
 11
-28.000000
 21
75.500031
  0
LINE
  8
0
 62
     4
 10
-25.000000
 20
64.500015
 11
-28.000000
 21
64.500015
  0
LINE
  8
0
 62
     4
 10
-25.000000
 20
75.500031
 11
-28.000000
 21
75.500031
  0
LINE
  8
0
 62
     4
 10
-25.230896
 20
65.400742
 11
-27.769104
 21
65.400742
  0
LINE
  8
0
 62
     4
 10
-25.230896
 20
74.599266
 11
-27.769104
 21
74.599266
  0
LINE
  8
0
 62
     4
 10
-25.230896
 20
70.900772
 11
-27.769104
 21
70.900772
  0
LINE
  8
0
 62
     4
 10
-25.230896
 20
69.099236
 11
-27.769104
 21
69.099236
  0
LINE
  8
0
 62
     4
 10
-25.230881
 20
69.099236
 11
-25.230881
 21
70.900772
  0
LINE
  8
0
 62
     4
 10
-27.769104
 20
69.099236
 11
-27.769104
 21
70.900772
  0
LINE
  8
0
 62
     4
 10
-25.230881
 20
64.500015
 11
-25.230881
 21
65.400742
  0
LINE
  8
0
 62
     4
 10
-27.769104
 20
65.400742
 11
-27.769104
 21
64.500015
  0
LINE
  8
0
 62
     4
 10
-25.230881
 20
74.599266
 11
-25.230881
 21
75.500031
  0
LINE
  8
0
 62
     4
 10
-27.769104
 20
74.599266
 11
-27.769104
 21
75.500031
  0
LINE
  8
0
 62
     4
 10
-30.000011
 20
75.499969
 11
-30.000011
 21
75.000000
  0
LINE
  8
0
 62
     4
 10
-28.500034
 20
76.000000
 11
-30.000034
 21
75.500000
  0
LINE
  8
0
 62
     4
 10
-28.500015
 20
75.999954
 11
-28.500015
 21
75.000000
  0
LINE
  8
0
 62
     4
 10
-28.500015
 20
75.999954
 11
-25.000000
 21
75.999954
  0
LINE
  8
0
  6
CENTER
 62
     2
 10
70.127640
 20
90.000000
 11
-29.610565
 21
90.000000
  0
LINE
  8
0
 10
-1.000031
 20
80.499992
 11
-17.000008
 21
80.499992
  0
LINE
  8
0
 10
-1.000031
 20
87.499985
 11
-17.000008
 21
87.499985
  0
LINE
  8
0
 10
-1.000031
 20
79.499992
 11
-17.000008
 21
79.499992
  0
LINE
  8
0
 10
58.000000
 20
93.000015
 11
57.000000
 21
93.000015
  0
LINE
  8
0
 10
58.000000
 20
87.500000
 11
57.000000
 21
87.500000
  0
LINE
  8
0
 10
58.000000
 20
80.500008
 11
57.000000
 21
80.500008
  0
LINE
  8
0
 10
58.000000
 20
79.500015
 11
57.000000
 21
79.500015
  0
LINE
  8
0
 10
-27.399994
 20
104.750000
 11
-27.399994
 21
110.249985
  0
LINE
  8
0
 10
-25.000000
 20
104.750000
 11
-25.000000
 21
110.249985
  0
LINE
  8
0
 10
-27.111069
 20
107.499985
 11
-25.288925
 21
107.499985
  0
LINE
  8
0
 10
-27.399994
 20
104.750000
 11
-25.000000
 21
104.750000
  0
LINE
  8
0
 10
-27.399994
 20
110.249985
 11
-25.000000
 21
110.249985
  0
LINE
  8
0
 10
-16.000011
 20
106.249985
 11
-16.000011
 21
108.749985
  0
LINE
  8
0
 10
-36.000000
 20
106.249985
 11
-36.000000
 21
108.749977
  0
LINE
  8
0
 10
-35.750000
 20
108.999985
 11
-27.399994
 21
108.999985
  0
LINE
  8
0
 10
-35.750000
 20
105.999985
 11
-27.399994
 21
105.999985
  0
LINE
  8
0
 62
     2
 10
-36.000000
 20
108.749985
 11
-27.399994
 21
108.749985
  0
LINE
  8
0
 62
     2
 10
-36.000000
 20
106.249985
 11
-27.399994
 21
106.249985
  0
LINE
  8
0
 10
-35.749958
 20
108.999969
 11
-35.999954
 21
108.749969
  0
LINE
  8
0
 10
-36.000008
 20
106.249977
 11
-35.750011
 21
105.999985
  0
LINE
  8
0
 10
-35.750000
 20
105.999985
 11
-35.750000
 21
108.999985
  0
LINE
  8
0
 10
-16.250011
 20
105.999985
 11
-16.250011
 21
108.999985
  0
LINE
  8
0
 10
-16.249985
 20
105.999969
 11
-15.999988
 21
106.249962
  0
LINE
  8
0
 10
-16.250019
 20
108.999977
 11
-16.000021
 21
108.749985
  0
LINE
  8
0
 10
-17.000008
 20
108.999985
 11
-16.250011
 21
108.999985
  0
LINE
  8
0
 62
     2
 10
-17.000008
 20
108.749985
 11
-16.000011
 21
108.749985
  0
LINE
  8
0
 62
     2
 10
-17.000008
 20
106.249985
 11
-16.000011
 21
106.249985
  0
LINE
  8
0
 10
-17.000008
 20
105.999985
 11
-16.250011
 21
105.999985
  0
LINE
  8
0
 10
68.399994
 20
104.750000
 11
68.399994
 21
110.249985
  0
LINE
  8
0
 10
66.000000
 20
104.750000
 11
66.000000
 21
110.249985
  0
LINE
  8
0
 10
68.111069
 20
107.499985
 11
66.288925
 21
107.499985
  0
LINE
  8
0
 10
68.399994
 20
104.750000
 11
66.000000
 21
104.750000
  0
LINE
  8
0
 10
68.399994
 20
110.249985
 11
66.000000
 21
110.249985
  0
LINE
  8
0
 10
57.000015
 20
106.249985
 11
57.000015
 21
108.749985
  0
LINE
  8
0
 10
77.000000
 20
106.249985
 11
77.000000
 21
108.749977
  0
LINE
  8
0
 10
76.750000
 20
108.999985
 11
68.399994
 21
108.999985
  0
LINE
  8
0
 10
76.750000
 20
105.999985
 11
68.399994
 21
105.999985
  0
LINE
  8
0
 62
     2
 10
77.000000
 20
108.749985
 11
68.399994
 21
108.749985
  0
LINE
  8
0
 62
     2
 10
77.000000
 20
106.249985
 11
68.399994
 21
106.249985
  0
LINE
  8
0
 10
76.749969
 20
108.999962
 11
76.999962
 21
108.749954
  0
LINE
  8
0
 10
76.999992
 20
106.249977
 11
76.750000
 21
105.999985
  0
LINE
  8
0
 10
76.750000
 20
105.999985
 11
76.750000
 21
108.999985
  0
LINE
  8
0
 10
57.250015
 20
105.999985
 11
57.250015
 21
108.999985
  0
LINE
  8
0
 10
57.249973
 20
105.999947
 11
56.999973
 21
106.249947
  0
LINE
  8
0
 10
57.249992
 20
108.999969
 11
57.000008
 21
108.749992
  0
LINE
  8
0
 10
58.000008
 20
108.999985
 11
57.250015
 21
108.999985
  0
LINE
  8
0
 62
     2
 10
58.000008
 20
108.749985
 11
57.000015
 21
108.749985
  0
LINE
  8
0
 62
     2
 10
58.000008
 20
106.249985
 11
57.000015
 21
106.249985
  0
LINE
  8
0
 10
58.000008
 20
105.999985
 11
57.250015
 21
105.999985
  0
LINE
  8
0
  6
PHANTOM
 62
     3
 10
36.749981
 20
120.499992
 11
36.749981
 21
32.276180
  0
LINE
  8
0
  6
PHANTOM
 62
     3
 10
-4.000031
 20
32.276180
 11
-4.000031
 21
140.500000
  0
LINE
  8
0
  6
PHANTOM
 62
     3
 10
19.249981
 20
32.276180
 11
19.249981
 21
130.500000
  0
LINE
  8
0
 62
     4
 10
-153.500015
 20
76.099953
 11
-153.500015
 21
72.099968
  0
LINE
  8
0
 62
     4
 10
-157.500015
 20
72.099968
 11
-152.500015
 21
72.099968
  0
LINE
  8
0
 62
     4
 10
-157.500015
 20
76.099953
 11
-152.500015
 21
76.099953
  0
LINE
  8
0
  6
CENTER
 62
     2
 10
-157.575378
 20
105.499977
 11
-150.289658
 21
105.499977
  0
LINE
  8
0
  6
CENTER
 62
     2
 10
-154.000015
 20
109.118599
 11
-154.000015
 21
101.880501
  0
LINE
  8
0
  6
CENTER
 62
     1
 10
-136.642838
 20
69.999985
 11
-153.309540
 21
69.999985
  0
LINE
  8
0
  6
CENTER
 62
     1
 10
-145.000015
 20
77.985672
 11
-145.000015
 21
62.176155
  0
LINE
  8
0
 62
     4
 10
-141.989609
 20
66.999977
 11
-148.010422
 21
66.999977
  0
LINE
  8
0
 62
     4
 10
-141.989609
 20
72.999977
 11
-148.010422
 21
72.999977
  0
LINE
  8
0
 62
     4
 10
-152.500015
 20
76.099953
 11
-152.500015
 21
72.099968
  0
LINE
  8
0
 10
-165.000015
 20
115.499977
 11
-139.500031
 21
115.499977
  0
LINE
  8
0
 10
-165.000015
 20
64.499977
 11
-139.500031
 21
64.499977
  0
LINE
  8
0
 10
-165.000015
 20
115.499977
 11
-165.000015
 21
64.499977
  0
LINE
  8
0
 10
-139.500031
 20
115.499977
 11
-139.500031
 21
107.803856
  0
LINE
  8
0
 10
-139.500031
 20
68.526207
 11
-139.500031
 21
64.499977
  0
LINE
  8
0
 62
     4
 10
-157.250015
 20
70.999985
 11
-157.000031
 21
70.999985
  0
LINE
  8
0
 62
     4
 10
-157.500015
 20
71.999977
 11
-157.000031
 21
71.999977
  0
LINE
  8
0
 62
     4
 10
-157.500015
 20
76.199982
 11
-157.500015
 21
71.999977
  0
LINE
  8
0
 62
     4
 10
-157.000031
 20
79.499977
 11
-157.000031
 21
76.199982
  0
LINE
  8
0
 62
     4
 10
-157.500015
 20
76.199982
 11
-157.000031
 21
76.199982
  0
LINE
  8
0
 62
     4
 10
-156.833054
 20
79.699974
 11
-153.500046
 21
79.699974
  0
LINE
  8
0
 62
     4
 10
-157.000031
 20
71.999977
 11
-157.000031
 21
70.999985
  0
LINE
  8
0
 62
     4
 10
-153.500046
 20
76.199982
 11
-152.300018
 21
76.199982
  0
LINE
  8
0
 62
     4
 10
-153.500046
 20
79.699974
 11
-153.500046
 21
76.199982
  0
LINE
  8
0
 62
     4
 10
-152.300018
 20
76.199982
 11
-152.300018
 21
71.999977
  0
LINE
  8
0
 62
     4
 10
-152.300018
 20
71.999977
 11
-151.827896
 21
71.999977
  0
LINE
  8
0
 10
-139.500031
 20
107.196205
 11
-139.500031
 21
71.473877
  0
LINE
  8
0
 10
-138.999985
 20
65.499931
 11
-139.499985
 21
64.999939
  0
LINE
  8
0
 10
-139.000015
 20
114.499977
 11
-139.000015
 21
65.499977
  0
LINE
  8
0
 10
-139.000076
 20
114.500000
 11
-139.500061
 21
114.999992
  0
LINE
  8
0
  6
CENTER
 62
     2
 10
-168.303452
 20
89.999985
 11
-135.284164
 21
89.999985
  0
LINE
  8
0
  6
CENTER
 62
     2
 10
-157.575378
 20
88.499985
 11
-150.289658
 21
88.499985
  0
LINE
  8
0
  6
CENTER
 62
     2
 10
-154.000015
 20
92.118607
 11
-154.000015
 21
84.880508
  0
LINE
  8
0
  6
CENTER
 62
     2
 10
-157.500015
 20
89.999985
 11
-165.500046
 21
89.999985
  0
LINE
  8
0
  6
CENTER
 62
     2
 10
-147.500046
 20
107.499985
 11
-138.362839
 21
107.499985
  0
LINE
  8
0
 10
-139.324463
 20
107.499893
 11
-140.912170
 21
104.749908
  0
LINE
  8
0
 10
-140.912323
 20
110.249962
 11
-139.324615
 21
107.499969
  0
LINE
  8
0
 10
-144.087738
 20
110.249969
 11
-140.912308
 21
110.249969
  0
LINE
  8
0
 10
-145.675339
 20
107.499901
 11
-144.087616
 21
110.249916
  0
LINE
  8
0
 10
-144.087708
 20
104.749985
 11
-145.675415
 21
107.499977
  0
LINE
  8
0
 10
-140.912308
 20
104.749985
 11
-144.087738
 21
104.749985
  0
LINE
  8
0
  6
CENTER
 62
     2
 10
-142.500015
 20
112.238297
 11
-142.500015
 21
102.524010
  0
LINE
  8
0
 62
     4
 10
-150.830872
 20
70.900612
 11
-148.695419
 21
74.599335
  0
LINE
  8
0
 62
     4
 10
-148.695450
 20
65.400681
 11
-150.830856
 21
69.099312
  0
LINE
  8
0
 62
     4
 10
-142.864685
 20
64.499931
 11
-147.135361
 21
64.499931
  0
LINE
  8
0
 62
     4
 10
-139.169189
 20
69.099152
 11
-141.304504
 21
65.400673
  0
LINE
  8
0
 62
     4
 10
-141.304443
 20
74.599297
 11
-139.169113
 21
70.900810
  0
LINE
  8
0
 62
     4
 10
-147.135468
 20
75.499954
 11
-142.864578
 21
75.499954
  0
LINE
  8
0
 10
-141.250061
 20
107.499931
 11
-141.875061
 21
108.582458
  0
LINE
  8
0
 10
-141.875015
 20
108.582520
 11
-143.125015
 21
108.582520
  0
LINE
  8
0
 10
-143.750122
 20
107.500076
 11
-143.125122
 21
108.582603
  0
LINE
  8
0
 10
-143.125015
 20
106.417412
 11
-143.750015
 21
107.499962
  0
LINE
  8
0
 10
-141.875015
 20
106.417450
 11
-143.125015
 21
106.417450
  0
LINE
  8
0
 10
-141.250092
 20
107.500031
 11
-141.875092
 21
106.417488
  0
LINE
  8
0
  6
CENTER
 62
     2
 10
204.363174
 20
90.000038
 11
171.098724
 21
90.000038
  0
LINE
  8
0
 62
     4
 10
189.499939
 20
76.100006
 11
189.499939
 21
72.100021
  0
LINE
  8
0
 62
     4
 10
193.499908
 20
72.100021
 11
188.499908
 21
72.100021
  0
LINE
  8
0
 62
     4
 10
193.499908
 20
76.100006
 11
188.499908
 21
76.100006
  0
LINE
  8
0
  6
CENTER
 62
     1
 10
172.642746
 20
70.000038
 11
189.309433
 21
70.000038
  0
LINE
  8
0
  6
CENTER
 62
     1
 10
180.999939
 20
77.985725
 11
180.999939
 21
62.176208
  0
LINE
  8
0
 62
     4
 10
177.989532
 20
67.000031
 11
184.010315
 21
67.000031
  0
LINE
  8
0
 62
     4
 10
177.989532
 20
73.000031
 11
184.010315
 21
73.000031
  0
LINE
  8
0
 62
     4
 10
188.499908
 20
76.100006
 11
188.499908
 21
72.100021
  0
LINE
  8
0
 10
200.999924
 20
115.500031
 11
175.499924
 21
115.500031
  0
LINE
  8
0
 10
175.499924
 20
115.500031
 11
175.499924
 21
107.803932
  0
LINE
  8
0
 10
200.999924
 20
64.500031
 11
175.499924
 21
64.500031
  0
LINE
  8
0
 10
175.499924
 20
68.526436
 11
175.499924
 21
64.500031
  0
LINE
  8
0
 62
     4
 10
193.249939
 20
71.000038
 11
192.999924
 21
71.000038
  0
LINE
  8
0
 62
     4
 10
193.499939
 20
72.000031
 11
192.999924
 21
72.000031
  0
LINE
  8
0
 62
     4
 10
193.499939
 20
76.200035
 11
193.499939
 21
72.000031
  0
LINE
  8
0
 62
     4
 10
192.999924
 20
79.500031
 11
192.999924
 21
76.200035
  0
LINE
  8
0
 62
     4
 10
193.499939
 20
76.200035
 11
192.999924
 21
76.200035
  0
LINE
  8
0
 62
     4
 10
192.832947
 20
79.700027
 11
189.499939
 21
79.700027
  0
LINE
  8
0
 62
     4
 10
192.999924
 20
72.000031
 11
192.999924
 21
71.000038
  0
LINE
  8
0
 62
     4
 10
189.499939
 20
76.200035
 11
188.299942
 21
76.200035
  0
LINE
  8
0
 62
     4
 10
189.499939
 20
79.700027
 11
189.499939
 21
76.200035
  0
LINE
  8
0
 62
     4
 10
188.299942
 20
76.200035
 11
188.299942
 21
72.000031
  0
LINE
  8
0
 62
     4
 10
188.299942
 20
72.000031
 11
187.827789
 21
72.000031
  0
LINE
  8
0
 10
175.499924
 20
107.196281
 11
175.499924
 21
71.473732
  0
LINE
  8
0
 10
175.000015
 20
65.500114
 11
175.500015
 21
65.000099
  0
LINE
  8
0
 10
174.999939
 20
114.500031
 11
174.999939
 21
65.500031
  0
LINE
  8
0
 10
174.999985
 20
114.500038
 11
175.499969
 21
115.000031
  0
LINE
  8
0
 62
     4
 10
192.749939
 20
77.950020
 11
192.749939
 21
76.100006
  0
LINE
  8
0
 62
     4
 10
189.749939
 20
77.950020
 11
189.749939
 21
76.100006
  0
LINE
  8
0
 10
200.999924
 20
115.500031
 11
200.999924
 21
64.500031
  0
LINE
  8
0
  6
CENTER
 62
     2
 10
173.499908
 20
107.500038
 11
184.499939
 21
107.500038
  0
LINE
  8
0
 10
181.675262
 20
107.500145
 11
180.087555
 21
104.750160
  0
LINE
  8
0
 10
180.087738
 20
110.250099
 11
181.675446
 21
107.500114
  0
LINE
  8
0
 10
176.912231
 20
110.250023
 11
180.087662
 21
110.250023
  0
LINE
  8
0
 10
175.324402
 20
107.500160
 11
176.912109
 21
110.250153
  0
LINE
  8
0
 10
176.912277
 20
104.750046
 11
175.324570
 21
107.500038
  0
LINE
  8
0
 10
180.087662
 20
104.750038
 11
176.912231
 21
104.750038
  0
LINE
  8
0
  6
CENTER
 62
     2
 10
178.499939
 20
112.238350
 11
178.499939
 21
102.524063
  0
LINE
  8
0
 62
     4
 10
175.169052
 20
70.900703
 11
177.304504
 21
74.599419
  0
LINE
  8
0
 62
     4
 10
177.304581
 20
65.400772
 11
175.169174
 21
69.099403
  0
LINE
  8
0
 62
     4
 10
183.135269
 20
64.499985
 11
178.864594
 21
64.499985
  0
LINE
  8
0
 62
     4
 10
186.830750
 20
69.099228
 11
184.695435
 21
65.400757
  0
LINE
  8
0
 62
     4
 10
184.695435
 20
74.599319
 11
186.830765
 21
70.900818
  0
LINE
  8
0
 62
     4
 10
178.864487
 20
75.500008
 11
183.135376
 21
75.500008
  0
LINE
  8
0
 10
179.750061
 20
107.500107
 11
179.125061
 21
108.582642
  0
LINE
  8
0
 10
179.124939
 20
108.582573
 11
177.874939
 21
108.582573
  0
LINE
  8
0
 10
177.249985
 20
107.499985
 11
177.875000
 21
108.582527
  0
LINE
  8
0
 10
177.875046
 20
106.417587
 11
177.250046
 21
107.500122
  0
LINE
  8
0
 10
179.124939
 20
106.417503
 11
177.874939
 21
106.417503
  0
LINE
  8
0
 10
179.749985
 20
107.500023
 11
179.124985
 21
106.417511
  0
LINE
  8
0
  6
PHANTOM
 62
     3
 10
-4.000031
 20
32.276180
 11
-2.000036
 21
32.276180
  0
LINE
  8
0
  6
PHANTOM
 62
     3
 10
-4.000031
 20
-43.723820
 11
-2.000036
 21
-43.723820
  0
LINE
  8
0
 10
-25.000006
 20
6.776165
 11
-25.000006
 21
-18.723820
  0
LINE
  8
0
 10
-17.000013
 20
6.776165
 11
-17.000013
 21
-18.723820
  0
LINE
  8
0
 10
65.999992
 20
6.776165
 11
65.999992
 21
-18.723820
  0
LINE
  8
0
 10
57.999992
 20
6.776165
 11
57.999992
 21
-18.723820
  0
LINE
  8
0
 10
-25.000006
 20
6.776165
 11
-17.000013
 21
6.776165
  0
LINE
  8
0
 10
-0.000021
 20
7.276180
 11
55.999992
 21
7.276180
  0
LINE
  8
0
 10
-1.000036
 20
6.276180
 11
-1.000036
 21
-8.223820
  0
LINE
  8
0
 10
56.999992
 20
6.276180
 11
56.999992
 21
-8.223820
  0
LINE
  8
0
 10
-1.000061
 20
6.276202
 11
-0.000049
 21
7.276214
  0
LINE
  8
0
 10
57.000065
 20
6.276211
 11
56.000057
 21
7.276224
  0
LINE
  8
0
 10
-1.000013
 20
-8.223820
 11
56.999992
 21
-8.223820
  0
LINE
  8
0
 10
-1.000013
 20
6.276180
 11
56.999992
 21
6.276180
  0
LINE
  8
0
 10
-17.000013
 20
-10.723820
 11
57.999992
 21
-10.723820
  0
LINE
  8
0
 10
-17.000013
 20
-3.723820
 11
-1.000013
 21
-3.723820
  0
LINE
  8
0
 10
56.999992
 20
-3.723820
 11
57.999992
 21
-3.723820
  0
LINE
  8
0
 62
     4
 10
-28.500021
 20
-7.223820
 11
-25.000006
 21
-7.223820
  0
LINE
  8
0
 62
     4
 10
-30.000017
 20
-7.723820
 11
-30.000017
 21
-10.723820
  0
LINE
  8
0
 62
     4
 10
-2.500023
 20
-7.723820
 11
-2.500023
 21
-10.723820
  0
LINE
  8
0
 62
     4
 10
-28.500021
 20
-6.223820
 11
-28.500021
 21
-11.223820
  0
LINE
  8
0
 62
     4
 10
-4.000027
 20
-7.223820
 11
-4.000027
 21
-10.723820
  0
LINE
  8
0
 62
     4
 10
-28.500025
 20
-7.223823
 11
-30.000021
 21
-7.723824
  0
LINE
  8
0
 62
     1
 10
-52.258774
 20
-12.137145
 11
-51.740685
 21
-6.215382
  0
LINE
  8
0
 62
     4
 10
-73.000008
 20
-9.223820
 11
-63.000008
 21
-9.223820
  0
LINE
  8
0
 62
     4
 10
-63.000008
 20
-10.723820
 11
-52.135063
 21
-10.723820
  0
LINE
  8
0
 62
     4
 10
-63.000008
 20
-7.723827
 11
-51.872597
 21
-7.723827
  0
LINE
  8
0
 62
     4
 10
-63.000008
 20
-10.723820
 11
-63.000008
 21
-7.723827
  0
LINE
  8
0
 62
     4
 10
-51.131241
 20
-10.723820
 11
-30.000017
 21
-10.723820
  0
LINE
  8
0
 62
     4
 10
-50.868782
 20
-7.723827
 11
-30.000017
 21
-7.723827
  0
LINE
  8
0
 62
     4
 10
-73.000008
 20
-10.223820
 11
-63.000008
 21
-10.223820
  0
LINE
  8
0
 62
     4
 10
-73.000008
 20
-8.223820
 11
-63.000008
 21
-8.223820
  0
LINE
  8
0
 62
     4
 10
-73.000008
 20
-10.223820
 11
-73.000008
 21
-8.223820
  0
LINE
  8
0
 62
     1
 10
-51.260155
 20
-12.196987
 11
-50.740696
 21
-6.259532
  0
LINE
  8
0
 62
     4
 10
-2.500023
 20
-7.723820
 11
-1.000036
 21
-7.723820
  0
LINE
  8
0
 62
     4
 10
-9.499990
 20
-0.223827
 11
-17.000013
 21
-0.223827
  0
LINE
  8
0
 62
     4
 10
-9.499990
 20
2.776196
 11
-17.000013
 21
2.776196
  0
LINE
  8
0
 62
     4
 10
-9.499962
 20
-0.223838
 11
-8.999972
 21
0.276152
  0
LINE
  8
0
 62
     4
 10
-9.000040
 20
2.276190
 11
-9.500038
 21
2.776182
  0
LINE
  8
0
 62
     4
 10
-9.499990
 20
-0.223820
 11
-9.499990
 21
2.776196
  0
LINE
  8
0
 62
     4
 10
-8.999746
 20
2.276180
 11
-8.999746
 21
0.276165
  0
LINE
  8
0
 62
     4
 10
-57.000031
 20
-2.473835
 11
-57.000031
 21
5.026165
  0
LINE
  8
0
 62
     4
 10
-47.000031
 20
5.526180
 11
-56.500031
 21
5.526180
  0
LINE
  8
0
 62
     4
 10
-47.000031
 20
-2.973820
 11
-56.500031
 21
-2.973820
  0
LINE
  8
0
 62
     4
 10
-28.000006
 20
-3.723820
 11
-46.250008
 21
-3.723820
  0
LINE
  8
0
 62
     4
 10
-28.000006
 20
6.276180
 11
-46.250015
 21
6.276180
  0
LINE
  8
0
 62
     4
 10
-47.000015
 20
-2.973827
 11
-47.000015
 21
5.526173
  0
LINE
  8
0
 62
     4
 10
-46.250046
 20
-3.723883
 11
-47.000046
 21
-2.973883
  0
LINE
  8
0
 62
     4
 10
-46.250072
 20
6.276244
 11
-47.000072
 21
5.526242
  0
LINE
  8
0
 62
     4
 10
-28.000006
 20
-3.223827
 11
-46.750000
 21
-3.223827
  0
LINE
  8
0
 62
     4
 10
-28.000006
 20
5.776180
 11
-46.750015
 21
5.776180
  0
LINE
  8
0
 62
     4
 10
-46.250015
 20
-3.723843
 11
-46.250015
 21
6.276150
  0
LINE
  8
0
 62
     4
 10
-53.000023
 20
-1.734234
 11
-53.000023
 21
4.286564
  0
LINE
  8
0
 62
     4
 10
-57.000031
 20
4.286572
 11
-53.000023
 21
4.286572
  0
LINE
  8
0
 62
     4
 10
-57.000031
 20
-1.734226
 11
-53.000023
 21
-1.734226
  0
LINE
  8
0
 62
     1
 10
-56.999950
 20
4.276194
 11
-52.999954
 21
-1.734196
  0
LINE
  8
0
 62
     1
 10
-56.999939
 20
-1.723879
 11
-52.999939
 21
4.286528
  0
LINE
  8
0
 62
     4
 10
-56.500008
 20
-2.973795
 11
-57.000004
 21
-2.473800
  0
LINE
  8
0
 62
     4
 10
-57.000076
 20
5.026211
 11
-56.500076
 21
5.526213
  0
LINE
  8
0
 62
     4
 10
-56.500031
 20
-2.973835
 11
-56.500031
 21
-1.734234
  0
LINE
  8
0
 62
     4
 10
-56.500031
 20
4.286564
 11
-56.500031
 21
5.526173
  0
LINE
  8
0
 10
-17.000013
 20
-6.023823
 11
-1.000013
 21
-6.023823
  0
LINE
  8
0
 62
     4
 10
-28.500021
 20
-6.223820
 11
-25.000006
 21
-6.223820
  0
LINE
  8
0
 10
56.999992
 20
-6.023823
 11
57.999992
 21
-6.023823
  0
LINE
  8
0
  6
CENTER
 62
     1
 10
-6.086185
 20
1.276180
 11
-60.700905
 21
1.276180
  0
LINE
  8
0
 10
-17.000013
 20
-3.223820
 11
-1.000036
 21
-3.223820
  0
LINE
  8
0
 10
-8.999746
 20
1.776180
 11
-1.000036
 21
1.776180
  0
LINE
  8
0
 10
56.999992
 20
-3.223820
 11
57.999992
 21
-3.223820
  0
LINE
  8
0
 62
     4
 10
16.499964
 20
-8.223820
 11
16.499964
 21
-10.723820
  0
LINE
  8
0
 62
     4
 10
14.999979
 20
-8.223820
 11
14.999979
 21
-10.723820
  0
LINE
  8
0
 62
     4
 10
40.999977
 20
-8.223820
 11
40.999977
 21
-10.723820
  0
LINE
  8
0
 62
     4
 10
42.499977
 20
-8.223820
 11
42.499977
 21
-10.723820
  0
LINE
  8
0
 62
     4
 10
-4.000021
 20
-7.223801
 11
-2.500021
 21
-7.723802
  0
LINE
  8
0
 62
     4
 10
-8.500036
 20
-6.223820
 11
-8.500036
 21
-7.223820
  0
LINE
  8
0
 62
     4
 10
-17.000013
 20
-6.223820
 11
-8.500036
 21
-6.223820
  0
LINE
  8
0
 62
     4
 10
-17.000013
 20
-7.223820
 11
-4.000027
 21
-7.223820
  0
LINE
  8
0
 62
     4
 10
-28.500021
 20
-11.223820
 11
-25.000006
 21
-11.223820
  0
LINE
  8
0
 62
     4
 10
-28.500034
 20
-11.223852
 11
-30.000031
 21
-10.723851
  0
LINE
  8
0
 10
57.999992
 20
6.776165
 11
65.999992
 21
6.776165
  0
LINE
  8
0
 62
     4
 10
57.500267
 20
-0.223827
 11
57.999992
 21
-0.223827
  0
LINE
  8
0
 62
     4
 10
57.500267
 20
2.776196
 11
57.999992
 21
2.776196
  0
LINE
  8
0
 62
     4
 10
57.500191
 20
-0.223852
 11
57.000202
 21
0.276131
  0
LINE
  8
0
 62
     4
 10
57.000259
 20
2.276213
 11
57.500278
 21
2.776224
  0
LINE
  8
0
 62
     4
 10
57.500267
 20
-0.223820
 11
57.500267
 21
2.776196
  0
LINE
  8
0
 10
56.999992
 20
2.276180
 11
56.999992
 21
0.276165
  0
LINE
  8
0
 62
     4
 10
98.000038
 20
-2.473835
 11
98.000038
 21
5.026165
  0
LINE
  8
0
 62
     4
 10
88.000038
 20
5.526180
 11
97.500023
 21
5.526180
  0
LINE
  8
0
 62
     4
 10
88.000008
 20
-2.973820
 11
97.500023
 21
-2.973820
  0
LINE
  8
0
 62
     4
 10
69.000008
 20
-3.723820
 11
87.249992
 21
-3.723820
  0
LINE
  8
0
 62
     4
 10
69.000008
 20
6.276180
 11
87.250023
 21
6.276180
  0
LINE
  8
0
 62
     4
 10
88.000008
 20
-2.973827
 11
88.000008
 21
5.526173
  0
LINE
  8
0
 62
     4
 10
87.249992
 20
-3.723816
 11
87.999977
 21
-2.973816
  0
LINE
  8
0
 62
     4
 10
87.250015
 20
6.276175
 11
88.000000
 21
5.526175
  0
LINE
  8
0
 62
     1
 10
69.000008
 20
-3.223827
 11
87.749977
 21
-3.223827
  0
LINE
  8
0
 62
     1
 10
69.000008
 20
5.776180
 11
87.750008
 21
5.776180
  0
LINE
  8
0
 62
     4
 10
87.249992
 20
-3.723843
 11
87.249992
 21
6.276150
  0
LINE
  8
0
 62
     4
 10
94.000008
 20
-1.734234
 11
94.000008
 21
4.286564
  0
LINE
  8
0
 62
     4
 10
98.000038
 20
4.286572
 11
94.000008
 21
4.286572
  0
LINE
  8
0
 62
     4
 10
98.000038
 20
-1.734226
 11
94.000008
 21
-1.734226
  0
LINE
  8
0
 62
     1
 10
97.999992
 20
4.276172
 11
93.999985
 21
-1.734226
  0
LINE
  8
0
 62
     1
 10
97.999939
 20
-1.723867
 11
93.999931
 21
4.286536
  0
LINE
  8
0
 62
     4
 10
97.500092
 20
-2.973884
 11
98.000084
 21
-2.473886
  0
LINE
  8
0
 62
     4
 10
98.000130
 20
5.026300
 11
97.500130
 21
5.526294
  0
LINE
  8
0
 62
     4
 10
97.500023
 20
-2.973835
 11
97.500023
 21
-1.734234
  0
LINE
  8
0
 62
     4
 10
97.500023
 20
4.286564
 11
97.500023
 21
5.526173
  0
LINE
  8
0
  6
CENTER
 62
     1
 10
53.842049
 20
1.276180
 11
101.700905
 21
1.276180
  0
LINE
  8
0
 10
-25.000006
 20
-18.723820
 11
65.999992
 21
-18.723820
  0
LINE
  8
0
 10
56.999992
 20
4.876171
 11
56.999992
 21
2.676174
  0
LINE
  8
0
 62
     4
 10
-27.999990
 20
-4.223820
 11
-27.999990
 21
6.776188
  0
LINE
  8
0
 62
     4
 10
-27.769064
 20
7.176167
 11
-25.230947
 21
7.176167
  0
LINE
  8
0
 62
     4
 10
-25.000025
 20
6.776176
 11
-25.230967
 21
7.176178
  0
LINE
  8
0
 62
     4
 10
-28.000036
 20
6.776211
 11
-27.769117
 21
7.176175
  0
LINE
  8
0
 62
     4
 10
-28.000008
 20
-4.223869
 11
-27.769087
 21
-4.623848
  0
LINE
  8
0
 62
     4
 10
-24.999990
 20
-4.223814
 11
-25.230934
 21
-4.623816
  0
LINE
  8
0
 62
     4
 10
-27.769064
 20
-4.623829
 11
-25.230947
 21
-4.623829
  0
LINE
  8
0
 62
     4
 10
-27.769064
 20
3.411633
 11
-25.230947
 21
3.411633
  0
LINE
  8
0
 62
     4
 10
-27.769064
 20
4.971691
 11
-25.230947
 21
4.971691
  0
LINE
  8
0
 62
     4
 10
-27.769064
 20
-2.419209
 11
-25.230947
 21
-2.419209
  0
LINE
  8
0
 62
     4
 10
-27.769064
 20
-0.859264
 11
-25.230947
 21
-0.859264
  0
LINE
  8
0
 62
     4
 10
-27.769064
 20
-4.554676
 11
-25.230947
 21
-4.554676
  0
LINE
  8
0
 62
     4
 10
-27.769064
 20
7.106998
 11
-25.230947
 21
7.106998
  0
LINE
  8
0
 62
     4
 10
-27.769064
 20
-2.419216
 11
-27.769064
 21
-0.859264
  0
LINE
  8
0
 62
     4
 10
-27.769064
 20
3.411633
 11
-27.769064
 21
4.971684
  0
LINE
  8
0
 62
     4
 10
-25.230947
 20
4.971691
 11
-25.230947
 21
3.411633
  0
LINE
  8
0
 62
     4
 10
-25.230947
 20
-0.859264
 11
-25.230947
 21
-2.419209
  0
LINE
  8
0
 62
     4
 10
-27.769064
 20
-4.623829
 11
-27.769064
 21
-4.554676
  0
LINE
  8
0
 62
     4
 10
-25.230947
 20
-4.554676
 11
-25.230947
 21
-4.623829
  0
LINE
  8
0
 62
     4
 10
-27.769064
 20
7.106998
 11
-27.769064
 21
7.176167
  0
LINE
  8
0
 62
     4
 10
-25.230947
 20
7.106998
 11
-25.230947
 21
7.176167
  0
LINE
  8
0
 62
     4
 10
68.999977
 20
6.776165
 11
68.999977
 21
-4.223850
  0
LINE
  8
0
 62
     4
 10
68.769051
 20
-4.623837
 11
66.230934
 21
-4.623837
  0
LINE
  8
0
 62
     4
 10
66.000031
 20
-4.223818
 11
66.230972
 21
-4.623821
  0
LINE
  8
0
 62
     4
 10
69.000031
 20
-4.223889
 11
68.769096
 21
-4.623872
  0
LINE
  8
0
 62
     4
 10
69.000069
 20
6.776260
 11
68.769142
 21
7.176252
  0
LINE
  8
0
 62
     4
 10
66.000023
 20
6.776159
 11
66.230965
 21
7.176158
  0
LINE
  8
0
 62
     4
 10
68.769051
 20
7.176167
 11
66.230934
 21
7.176167
  0
LINE
  8
0
 62
     4
 10
68.769051
 20
-0.859280
 11
66.230934
 21
-0.859280
  0
LINE
  8
0
 62
     4
 10
68.769051
 20
-2.419338
 11
66.230934
 21
-2.419338
  0
LINE
  8
0
 62
     4
 10
68.769051
 20
4.971569
 11
66.230934
 21
4.971569
  0
LINE
  8
0
 62
     4
 10
68.769051
 20
3.411617
 11
66.230934
 21
3.411617
  0
LINE
  8
0
 62
     4
 10
68.769051
 20
7.107021
 11
66.230934
 21
7.107021
  0
LINE
  8
0
 62
     4
 10
68.769051
 20
-4.554661
 11
66.230934
 21
-4.554661
  0
LINE
  8
0
 62
     4
 10
68.769051
 20
4.971569
 11
68.769051
 21
3.411617
  0
LINE
  8
0
 62
     4
 10
68.769051
 20
-0.859280
 11
68.769051
 21
-2.419331
  0
LINE
  8
0
 62
     4
 10
66.230934
 20
-2.419338
 11
66.230934
 21
-0.859280
  0
LINE
  8
0
 62
     4
 10
66.230934
 20
3.411617
 11
66.230934
 21
4.971569
  0
LINE
  8
0
 62
     4
 10
68.769051
 20
7.176167
 11
68.769051
 21
7.107021
  0
LINE
  8
0
 62
     4
 10
66.230934
 20
7.107021
 11
66.230934
 21
7.176167
  0
LINE
  8
0
 62
     4
 10
68.769051
 20
-4.554661
 11
68.769051
 21
-4.623837
  0
LINE
  8
0
 62
     4
 10
66.230934
 20
-4.554661
 11
66.230934
 21
-4.623837
  0
LINE
  8
0
 10
-8.999746
 20
0.776180
 11
-1.000036
 21
0.776180
  0
LINE
  8
0
 10
-16.000017
 20
2.776196
 11
-16.000017
 21
5.026180
  0
LINE
  8
0
 10
-16.250017
 20
2.776196
 11
-16.250017
 21
5.276180
  0
LINE
  8
0
 10
-16.250013
 20
5.276170
 11
-16.000019
 21
5.026175
  0
LINE
  8
0
 10
-17.000013
 20
5.276180
 11
-16.250017
 21
5.276180
  0
LINE
  8
0
 62
     2
 10
-17.000013
 20
5.026180
 11
-16.000017
 21
5.026180
  0
LINE
  8
0
 10
57.000008
 20
2.526180
 11
57.000008
 21
5.026180
  0
LINE
  8
0
 10
57.250008
 20
2.525934
 11
57.250008
 21
5.276180
  0
LINE
  8
0
 10
57.125118
 20
2.401035
 11
56.999989
 21
2.526168
  0
LINE
  8
0
 10
57.249996
 20
5.276181
 11
57.000004
 21
5.026186
  0
LINE
  8
0
 10
58.000000
 20
5.276180
 11
57.250008
 21
5.276180
  0
LINE
  8
0
 62
     2
 10
58.000000
 20
5.026180
 11
57.000008
 21
5.026180
  0
LINE
  8
0
 62
     2
 10
57.250252
 20
2.526180
 11
57.000008
 21
2.526180
  0
LINE
  8
0
  6
CENTER
 62
     2
 10
-21.000010
 20
-10.723820
 11
-21.000010
 21
-24.694252
  0
LINE
  8
0
  6
CENTER
 62
     2
 10
61.999992
 20
-10.723820
 11
61.999992
 21
-24.694252
  0
LINE
  8
0
  6
PHANTOM
 62
     3
 10
-2.000036
 20
32.276180
 11
-2.000036
 21
-43.723820
  0
LINE
  8
0
  6
PHANTOM
 62
     3
 10
36.749977
 20
32.276180
 11
36.749977
 21
-43.723820
  0
LINE
  8
0
  6
PHANTOM
 62
     3
 10
19.249979
 20
-43.723820
 11
19.249979
 21
32.276180
  0
LINE
  8
0
  6
CENTER
 62
     2
 10
51.316704
 20
-127.000061
 11
44.683357
 21
-127.000061
  0
LINE
  8
0
  6
CENTER
 62
     2
 10
48.000038
 20
-130.266724
 11
48.000038
 21
-123.800049
  0
LINE
  8
0
 10
-16.999969
 20
-79.500038
 11
-16.999969
 21
-130.500061
  0
LINE
  8
0
 10
57.000038
 20
-79.500038
 11
57.000038
 21
-86.000053
  0
LINE
  8
0
 10
-0.999992
 20
-79.500038
 11
-0.999992
 21
-86.000053
  0
LINE
  8
0
 10
-24.999962
 20
-79.500038
 11
-24.999962
 21
-130.500061
  0
LINE
  8
0
 10
66.000038
 20
-79.500038
 11
66.000038
 21
-130.500061
  0
LINE
  8
0
 10
58.000038
 20
-79.500038
 11
58.000038
 21
-130.500061
  0
LINE
  8
0
 62
     4
 10
-72.999962
 20
-89.000023
 11
-62.999962
 21
-89.000023
  0
LINE
  8
0
 62
     4
 10
-62.999962
 20
-87.500023
 11
-52.484993
 21
-87.500023
  0
LINE
  8
0
 62
     4
 10
-62.999962
 20
-90.500023
 11
-52.222527
 21
-90.500023
  0
LINE
  8
0
 62
     4
 10
-62.999962
 20
-87.500023
 11
-62.999962
 21
-90.500023
  0
LINE
  8
0
 62
     4
 10
-51.218697
 20
-90.500023
 11
-29.999973
 21
-90.500023
  0
LINE
  8
0
 62
     4
 10
-72.999962
 20
-88.000023
 11
-62.999962
 21
-88.000023
  0
LINE
  8
0
 62
     4
 10
-72.999962
 20
-90.000023
 11
-62.999962
 21
-90.000023
  0
LINE
  8
0
 62
     4
 10
-72.999947
 20
-88.000023
 11
-72.999947
 21
-90.000023
  0
LINE
  8
0
 62
     4
 10
-27.999962
 20
-80.000053
 11
-46.249962
 21
-80.000053
  0
LINE
  8
0
 62
     4
 10
-56.999977
 20
-82.000038
 11
-56.999977
 21
-87.500023
  0
LINE
  8
0
 62
     4
 10
-52.999962
 20
-80.750038
 11
-52.999962
 21
-82.000038
  0
LINE
  8
0
 62
     4
 10
-52.999969
 20
-82.000038
 11
-56.999977
 21
-82.000038
  0
LINE
  8
0
 62
     4
 10
-46.999977
 20
-80.750038
 11
-52.999969
 21
-80.750038
  0
LINE
  8
0
 62
     4
 10
-46.999962
 20
-80.750038
 11
-46.999962
 21
-87.500023
  0
LINE
  8
0
 62
     4
 10
-46.249912
 20
-80.000092
 11
-46.999928
 21
-80.750099
  0
LINE
  8
0
 62
     1
 10
-27.999962
 20
-80.500053
 11
-46.749954
 21
-80.500053
  0
LINE
  8
0
 62
     4
 10
-46.249969
 20
-80.000023
 11
-46.249969
 21
-87.500023
  0
LINE
  8
0
 62
     4
 10
-56.499977
 20
-82.000038
 11
-56.499977
 21
-87.500023
  0
LINE
  8
0
 62
     4
 10
69.000023
 20
-90.000084
 11
87.250038
 21
-90.000084
  0
LINE
  8
0
 62
     4
 10
69.000023
 20
-80.000069
 11
87.250038
 21
-80.000069
  0
LINE
  8
0
 62
     4
 10
98.000053
 20
-88.000084
 11
98.000053
 21
-82.000084
  0
LINE
  8
0
 62
     4
 10
94.000053
 20
-89.250084
 11
94.000053
 21
-88.000084
  0
LINE
  8
0
 62
     4
 10
94.000053
 20
-88.000084
 11
98.000053
 21
-88.000084
  0
LINE
  8
0
 62
     4
 10
94.000053
 20
-82.000084
 11
98.000053
 21
-82.000084
  0
LINE
  8
0
 62
     4
 10
88.000053
 20
-80.750084
 11
94.000053
 21
-80.750084
  0
LINE
  8
0
 62
     4
 10
88.000053
 20
-89.250084
 11
94.000053
 21
-89.250084
  0
LINE
  8
0
 62
     4
 10
88.000038
 20
-89.250084
 11
88.000038
 21
-80.750084
  0
LINE
  8
0
 62
     4
 10
87.250038
 20
-90.000084
 11
88.000031
 21
-89.250092
  0
LINE
  8
0
 62
     4
 10
87.250053
 20
-80.000076
 11
88.000038
 21
-80.750061
  0
LINE
  8
0
 62
     1
 10
69.000023
 20
-89.500084
 11
87.750023
 21
-89.500084
  0
LINE
  8
0
 62
     1
 10
69.000023
 20
-80.500084
 11
87.750023
 21
-80.500084
  0
LINE
  8
0
 62
     4
 10
87.250038
 20
-90.000084
 11
87.250038
 21
-80.000069
  0
LINE
  8
0
 62
     4
 10
94.000053
 20
-82.000084
 11
94.000053
 21
-80.750084
  0
LINE
  8
0
 62
     4
 10
57.500023
 20
-83.500053
 11
58.000053
 21
-83.500053
  0
LINE
  8
0
 62
     4
 10
57.500023
 20
-86.000053
 11
57.500023
 21
-83.500053
  0
LINE
  8
0
 62
     4
 10
56.999992
 20
-84.000023
 11
57.499981
 21
-83.500031
  0
LINE
  8
0
 62
     4
 10
97.500053
 20
-88.000084
 11
97.500053
 21
-82.000084
  0
LINE
  8
0
  6
CENTER
 62
     1
 10
101.615044
 20
-85.000069
 11
53.400749
 21
-85.000069
  0
LINE
  8
0
 10
66.000038
 20
-130.500061
 11
-24.999962
 21
-130.500061
  0
LINE
  8
0
 10
57.000038
 20
-79.500038
 11
-0.999992
 21
-79.500038
  0
LINE
  8
0
 10
58.000038
 20
-86.000053
 11
-16.999969
 21
-86.000053
  0
LINE
  8
0
 10
66.000038
 20
-79.500038
 11
58.000038
 21
-79.500038
  0
LINE
  8
0
 10
-16.999969
 20
-79.500038
 11
-24.999962
 21
-79.500038
  0
LINE
  8
0
  6
CENTER
 62
     2
 10
73.400734
 20
-105.000069
 11
-32.075451
 21
-105.000069
  0
LINE
  8
0
  6
CENTER
 62
     2
 10
65.094566
 20
-114.000069
 11
58.825600
 21
-114.000069
  0
LINE
  8
0
  6
CENTER
 62
     2
 10
62.000038
 20
-110.822472
 11
62.000038
 21
-117.019371
  0
LINE
  8
0
 62
     4
 10
-72.999962
 20
-92.000053
 11
-72.999962
 21
-94.000053
  0
LINE
  8
0
 62
     1
 10
-51.565731
 20
-86.534149
 11
-50.740692
 21
-95.964371
  0
LINE
  8
0
 62
     1
 10
-52.571850
 20
-86.507858
 11
-51.740654
 21
-96.008492
  0
LINE
  8
0
 62
     4
 10
-72.999962
 20
-93.000084
 11
-62.999962
 21
-93.000084
  0
LINE
  8
0
 62
     4
 10
-62.999962
 20
-91.500053
 11
-52.135017
 21
-91.500053
  0
LINE
  8
0
 62
     4
 10
-62.999962
 20
-94.500053
 11
-51.872551
 21
-94.500053
  0
LINE
  8
0
 62
     4
 10
-62.999962
 20
-91.500053
 11
-62.999962
 21
-94.500053
  0
LINE
  8
0
 62
     4
 10
-51.131195
 20
-91.500053
 11
-24.999962
 21
-91.500053
  0
LINE
  8
0
 62
     4
 10
-50.868736
 20
-94.500053
 11
-24.999962
 21
-94.500053
  0
LINE
  8
0
 62
     4
 10
-72.999962
 20
-92.000053
 11
-62.999962
 21
-92.000053
  0
LINE
  8
0
 62
     4
 10
-72.999962
 20
-94.000053
 11
-62.999962
 21
-94.000053
  0
LINE
  8
0
  6
CENTER
 62
     1
 10
-4.932600
 20
-85.000069
 11
-59.842567
 21
-85.000069
  0
LINE
  8
0
 62
     4
 10
-8.999702
 20
-86.000053
 11
-8.999702
 21
-84.000053
  0
LINE
  8
0
 62
     4
 10
-9.499947
 20
-83.500038
 11
-16.999969
 21
-83.500038
  0
LINE
  8
0
 62
     4
 10
-9.499884
 20
-83.500015
 11
-8.999900
 21
-84.000008
  0
LINE
  8
0
 62
     4
 10
-9.499947
 20
-83.500053
 11
-9.499947
 21
-86.000053
  0
LINE
  8
0
  6
CENTER
 62
     2
 10
-17.905449
 20
-114.000069
 11
-24.174400
 21
-114.000069
  0
LINE
  8
0
  6
CENTER
 62
     2
 10
-20.999977
 20
-110.822472
 11
-20.999977
 21
-117.019371
  0
LINE
  8
0
  6
CENTER
 62
     2
 10
-17.905449
 20
-96.000053
 11
-24.174400
 21
-96.000053
  0
LINE
  8
0
  6
CENTER
 62
     2
 10
-20.999977
 20
-92.822472
 11
-20.999977
 21
-99.019371
  0
LINE
  8
0
  6
CENTER
 62
     2
 10
65.094566
 20
-96.000053
 11
58.825600
 21
-96.000053
  0
LINE
  8
0
  6
CENTER
 62
     2
 10
62.000038
 20
-92.822472
 11
62.000038
 21
-99.019371
  0
LINE
  8
0
 62
     4
 10
-51.481163
 20
-87.500023
 11
-29.999973
 21
-87.500023
  0
LINE
  8
0
  6
CENTER
 62
     2
 10
55.000023
 20
-115.701805
 11
55.000023
 21
-122.354706
  0
LINE
  8
0
  6
CENTER
 62
     2
 10
-3.683298
 20
-98.000053
 11
-10.316620
 21
-98.000053
  0
LINE
  8
0
  6
CENTER
 62
     2
 10
-6.999969
 20
-108.183891
 11
-6.999969
 21
-101.684105
  0
LINE
  8
0
  6
CENTER
 62
     2
 10
-3.683298
 20
-127.000061
 11
-10.316620
 21
-127.000061
  0
LINE
  8
0
  6
CENTER
 62
     2
 10
-6.999969
 20
-130.266724
 11
-6.999969
 21
-123.800049
  0
LINE
  8
0
  6
CENTER
 62
     2
 10
51.316704
 20
-98.000053
 11
44.683357
 21
-98.000053
  0
LINE
  8
0
  6
CENTER
 62
     2
 10
48.000038
 20
-101.266716
 11
48.000038
 21
-94.800041
  0
LINE
  8
0
  6
CENTER
 62
     2
 10
58.435280
 20
-119.000061
 11
51.440086
 21
-119.000061
  0
LINE
  8
0
  6
CENTER
 62
     2
 10
48.000038
 20
-101.829338
 11
48.000038
 21
-107.995689
  0
LINE
  8
0
 10
47.000038
 20
-103.000053
 11
49.000008
 21
-103.000053
  0
LINE
  8
0
 10
47.000038
 20
-107.000053
 11
49.000008
 21
-107.000053
  0
LINE
  8
0
  6
CENTER
 62
     2
 10
-6.999969
 20
-101.117760
 11
-6.999969
 21
-94.800041
  0
LINE
  8
0
 10
-27.399956
 20
-125.250061
 11
-27.399956
 21
-119.750031
  0
LINE
  8
0
 10
-24.999962
 20
-125.250061
 11
-24.999962
 21
-119.750031
  0
LINE
  8
0
 10
-27.111031
 20
-122.500061
 11
-25.288887
 21
-122.500061
  0
LINE
  8
0
 10
-27.399956
 20
-125.250061
 11
-24.999962
 21
-125.250061
  0
LINE
  8
0
 10
-27.399956
 20
-119.750031
 11
-24.999962
 21
-119.750031
  0
LINE
  8
0
 10
68.400032
 20
-119.750061
 11
68.400032
 21
-125.250061
  0
LINE
  8
0
 10
66.000038
 20
-119.750061
 11
66.000038
 21
-125.250061
  0
LINE
  8
0
 10
68.111092
 20
-122.500061
 11
66.288963
 21
-122.500061
  0
LINE
  8
0
 10
68.400032
 20
-119.750061
 11
66.000038
 21
-119.750061
  0
LINE
  8
0
 10
68.400032
 20
-125.250061
 11
66.000038
 21
-125.250061
  0
LINE
  8
0
 62
     4
 10
-29.999977
 20
-87.500023
 11
-29.999977
 21
-90.500023
  0
LINE
  8
0
 62
     4
 10
-28.499966
 20
-87.000046
 11
-29.999966
 21
-87.500046
  0
LINE
  8
0
 62
     4
 10
-28.499977
 20
-87.000023
 11
-28.499977
 21
-91.000023
  0
LINE
  8
0
 62
     4
 10
-28.499977
 20
-87.000023
 11
-24.999962
 21
-87.000023
  0
LINE
  8
0
 62
     4
 10
-28.500025
 20
-91.000031
 11
-30.000021
 21
-90.500031
  0
LINE
  8
0
 62
     4
 10
-28.499977
 20
-91.000023
 11
-24.999962
 21
-91.000023
  0
LINE
  8
0
 62
     4
 10
-27.999962
 20
-87.000023
 11
-27.999962
 21
-79.500038
  0
LINE
  8
0
 62
     4
 10
-24.999962
 20
-79.500038
 11
-27.999962
 21
-79.500038
  0
LINE
  8
0
 62
     4
 10
-25.230858
 20
-80.400780
 11
-27.769066
 21
-80.400780
  0
LINE
  8
0
 62
     4
 10
-25.230858
 20
-84.099266
 11
-27.769066
 21
-84.099266
  0
LINE
  8
0
 62
     4
 10
-25.230858
 20
-85.900810
 11
-27.769066
 21
-85.900810
  0
LINE
  8
0
 62
     4
 10
-25.230843
 20
-85.900810
 11
-25.230843
 21
-84.099266
  0
LINE
  8
0
 62
     4
 10
-27.769066
 20
-85.900810
 11
-27.769066
 21
-84.099266
  0
LINE
  8
0
 62
     4
 10
-25.230843
 20
-80.400780
 11
-25.230843
 21
-79.500038
  0
LINE
  8
0
 62
     4
 10
-27.769066
 20
-80.400780
 11
-27.769066
 21
-79.500038
  0
LINE
  8
0
 62
     4
 10
69.000023
 20
-79.500084
 11
69.000023
 21
-90.500099
  0
LINE
  8
0
 62
     4
 10
66.000038
 20
-79.500084
 11
69.000023
 21
-79.500084
  0
LINE
  8
0
 62
     4
 10
66.000038
 20
-90.500099
 11
69.000023
 21
-90.500099
  0
LINE
  8
0
 62
     4
 10
66.230934
 20
-80.400810
 11
68.769142
 21
-80.400810
  0
LINE
  8
0
 62
     4
 10
66.230934
 20
-89.599327
 11
68.769142
 21
-89.599327
  0
LINE
  8
0
 62
     4
 10
66.230934
 20
-85.900841
 11
68.769142
 21
-85.900841
  0
LINE
  8
0
 62
     4
 10
66.230934
 20
-84.099297
 11
68.769142
 21
-84.099297
  0
LINE
  8
0
 62
     4
 10
66.230904
 20
-84.099297
 11
66.230904
 21
-85.900841
  0
LINE
  8
0
 62
     4
 10
68.769142
 20
-84.099297
 11
68.769142
 21
-85.900841
  0
LINE
  8
0
 62
     4
 10
66.230904
 20
-79.500084
 11
66.230904
 21
-80.400810
  0
LINE
  8
0
 62
     4
 10
68.769142
 20
-80.400810
 11
68.769142
 21
-79.500084
  0
LINE
  8
0
 62
     4
 10
66.230904
 20
-89.599327
 11
66.230904
 21
-90.500099
  0
LINE
  8
0
 62
     4
 10
68.769142
 20
-89.599327
 11
68.769142
 21
-90.500099
  0
LINE
  8
0
 10
-35.999962
 20
-123.750061
 11
-35.999962
 21
-121.250061
  0
LINE
  8
0
 10
-35.749962
 20
-121.000061
 11
-27.399956
 21
-121.000061
  0
LINE
  8
0
 10
-35.749962
 20
-124.000061
 11
-27.399956
 21
-124.000061
  0
LINE
  8
0
 62
     2
 10
-35.999962
 20
-121.250061
 11
-27.399956
 21
-121.250061
  0
LINE
  8
0
 62
     2
 10
-35.999962
 20
-123.750061
 11
-27.399956
 21
-123.750061
  0
LINE
  8
0
 10
-35.749958
 20
-121.000023
 11
-35.999966
 21
-121.250046
  0
LINE
  8
0
 10
-35.999928
 20
-123.750008
 11
-35.749931
 21
-124.000008
  0
LINE
  8
0
 10
-35.749962
 20
-124.000061
 11
-35.749962
 21
-121.000061
  0
LINE
  8
0
 10
77.000038
 20
-123.750061
 11
77.000038
 21
-121.250061
  0
LINE
  8
0
 10
76.750038
 20
-121.000061
 11
68.400032
 21
-121.000061
  0
LINE
  8
0
 10
76.750038
 20
-124.000061
 11
68.400032
 21
-124.000061
  0
LINE
  8
0
 62
     2
 10
77.000038
 20
-121.250061
 11
68.400032
 21
-121.250061
  0
LINE
  8
0
 62
     2
 10
77.000038
 20
-123.750061
 11
68.400032
 21
-123.750061
  0
LINE
  8
0
 10
76.750031
 20
-121.000046
 11
77.000046
 21
-121.250069
  0
LINE
  8
0
 10
76.999992
 20
-123.750015
 11
76.749992
 21
-124.000008
  0
LINE
  8
0
 10
76.750038
 20
-124.000061
 11
76.750038
 21
-121.000061
  0
LINE
  8
0
  6
PHANTOM
 62
     3
 10
-4.000031
 20
-132.500061
 11
-4.000031
 21
-43.723820
  0
LINE
  8
0
  6
PHANTOM
 62
     3
 10
19.249981
 20
-132.500061
 11
19.249981
 21
-43.723820
  0
LINE
  8
0
  6
PHANTOM
 62
     3
 10
36.749981
 20
-43.723820
 11
36.749981
 21
-132.500061
  0
LINE
  8
0
 10
-281.250000
 20
195.500000
 11
282.099976
 21
195.500000
  0
LINE
  8
0
 10
282.099976
 20
195.500000
 11
282.099976
 21
-195.000000
  0
LINE
  8
0
 10
-281.250000
 20
-195.000000
 11
282.099976
 21
-195.000000
  0
LINE
  8
0
 10
162.099976
 20
-175.000000
 11
162.099976
 21
-195.000000
  0
LINE
  8
0
 10
162.099976
 20
-175.000000
 11
282.099976
 21
-175.000000
  0
LINE
  8
0
 10
162.099976
 20
175.500000
 11
282.099976
 21
175.500000
  0
LINE
  8
0
 10
-281.250000
 20
175.500000
 11
-161.250000
 21
175.500000
  0
LINE
  8
0
 10
162.099976
 20
195.500000
 11
162.099976
 21
175.500000
  0
LINE
  8
0
 10
-161.250000
 20
195.500000
 11
-161.250000
 21
175.500000
  0
LINE
  8
0
 10
-271.250000
 20
-185.000000
 11
-71.250000
 21
-185.000000
  0
LINE
  8
0
 10
-271.250000
 20
-134.000000
 11
-271.250000
 21
-185.000000
  0
LINE
  8
0
 10
-231.250000
 20
-134.000000
 11
-231.250000
 21
-185.000000
  0
LINE
  8
0
 10
-271.250000
 20
-141.000000
 11
-235.001297
 21
-141.000000
  0
LINE
  8
0
 10
-271.250000
 20
-155.000000
 11
-71.250000
 21
-155.000000
  0
LINE
  8
0
 10
-271.250000
 20
-134.000000
 11
-71.250000
 21
-134.000000
  0
LINE
  8
0
 10
-231.250015
 20
-155.000015
 11
-235.001312
 21
-141.000015
  0
LINE
  8
0
 10
-211.250000
 20
-134.000000
 11
-211.250000
 21
-185.000000
  0
LINE
  8
0
 10
-191.250000
 20
-134.000000
 11
-191.250000
 21
-185.000000
  0
LINE
  8
0
 10
-171.250000
 20
-134.000000
 11
-171.250000
 21
-185.000000
  0
LINE
  8
0
 10
-151.250000
 20
-134.000000
 11
-151.250000
 21
-185.000000
  0
LINE
  8
0
 10
-131.250000
 20
-134.000000
 11
-131.250000
 21
-185.000000
  0
LINE
  8
0
 10
-111.250000
 20
-134.000000
 11
-111.250000
 21
-185.000000
  0
LINE
  8
0
 10
-271.250000
 20
-165.000000
 11
-71.250000
 21
-165.000000
  0
LINE
  8
0
 10
-91.250000
 20
-134.000000
 11
-91.250000
 21
-185.000000
  0
LINE
  8
0
 10
-71.250000
 20
-134.000000
 11
-71.250000
 21
-185.000000
  0
LINE
  8
0
 10
-271.250000
 20
-175.000000
 11
-71.250000
 21
-175.000000
  0
LINE
  8
0
 10
-281.250000
 20
195.500000
 11
-281.250000
 21
-195.000000
  0
CIRCLE
  8
0
 62
     2
 10
45.499969
 20
110.000000
 40
2.000000
  0
CIRCLE
  8
0
 10
49.999985
 20
101.999992
 40
2.600000
  0
CIRCLE
  8
0
 10
-21.000011
 20
81.000000
 40
1.699999
  0
CIRCLE
  8
0
 10
-21.000011
 20
81.000000
 40
3.250000
  0
CIRCLE
  8
0
 10
27.999992
 20
70.000000
 40
2.000000
  0
CIRCLE
  8
0
 10
62.000000
 20
99.000008
 40
1.699999
  0
CIRCLE
  8
0
 10
62.000000
 20
99.000008
 40
3.250000
  0
CIRCLE
  8
0
 10
62.000000
 20
81.000000
 40
1.699999
  0
CIRCLE
  8
0
 10
62.000000
 20
81.000000
 40
3.250000
  0
CIRCLE
  8
0
 10
-21.000011
 20
99.000008
 40
1.699999
  0
CIRCLE
  8
0
 10
-21.000011
 20
99.000008
 40
3.250000
  0
CIRCLE
  8
0
 62
     2
 10
45.499969
 20
70.000000
 40
2.000000
  0
CIRCLE
  8
0
 62
     2
 10
10.499969
 20
110.000000
 40
2.000000
  0
ARC
  8
0
 10
27.999992
 20
111.000000
 40
2.000000
 50
0.000000
 51
180.000000
  0
ARC
  8
0
 10
27.999992
 20
109.000008
 40
2.000000
 50
180.000000
 51
0.000000
  0
CIRCLE
  8
0
 62
     2
 10
10.499969
 20
70.000000
 40
2.000000
  0
CIRCLE
  8
0
 10
10.499969
 20
110.000000
 40
1.650000
  0
CIRCLE
  8
0
 10
45.499969
 20
110.000000
 40
1.650000
  0
CIRCLE
  8
0
 10
10.499969
 20
70.000000
 40
1.650000
  0
CIRCLE
  8
0
 10
45.499969
 20
70.000000
 40
1.650000
  0
ARC
  8
0
 62
     4
 10
-145.000015
 20
69.999985
 40
5.900004
 50
51.218117
 51
68.780548
  0
ARC
  8
0
 62
     4
 10
-145.000015
 20
69.999985
 40
5.900003
 50
171.219406
 51
188.780991
  0
ARC
  8
0
 62
     4
 10
-145.000015
 20
69.999985
 40
5.899993
 50
351.218109
 51
8.781887
  0
ARC
  8
0
 62
     4
 10
-145.000015
 20
69.999985
 40
5.899998
 50
291.218201
 51
308.781891
  0
CIRCLE
  8
0
 10
-154.000015
 20
105.499977
 40
2.100000
  0
CIRCLE
  8
0
 62
     4
 10
-145.000015
 20
69.999985
 40
5.499999
  0
CIRCLE
  8
0
 62
     2
 10
-142.500015
 20
107.499985
 40
1.250000
  0
CIRCLE
  8
0
 10
-142.500015
 20
107.499985
 40
1.500000
  0
CIRCLE
  8
0
 10
-154.000015
 20
88.499985
 40
2.100000
  0
CIRCLE
  8
0
 62
     4
 10
-155.250015
 20
77.949966
 40
1.499999
  0
CIRCLE
  8
0
 62
     2
 10
-154.000015
 20
105.499977
 40
2.500000
  0
ARC
  8
0
 62
     4
 10
-145.000015
 20
69.999985
 40
4.249995
 50
135.099060
 51
224.900726
  0
ARC
  8
0
 62
     4
 10
-145.000015
 20
69.999985
 40
4.250000
 50
0.000000
 51
44.900944
  0
ARC
  8
0
 62
     4
 10
-145.000015
 20
69.999985
 40
4.249995
 50
315.099060
 51
0.000000
  0
CIRCLE
  8
0
 62
     4
 10
-145.000015
 20
69.999985
 40
2.749999
  0
CIRCLE
  8
0
 62
     4
 10
-145.000015
 20
69.999985
 40
5.000000
  0
CIRCLE
  8
0
 62
     1
 10
-145.000015
 20
69.999985
 40
4.500000
  0
ARC
  8
0
 62
     4
 10
-145.000015
 20
69.999985
 40
3.750000
 50
126.869896
 51
233.130096
  0
ARC
  8
0
 62
     4
 10
-145.000015
 20
69.999985
 40
3.750000
 50
306.869904
 51
53.130104
  0
ARC
  8
0
 10
-155.000015
 20
77.999977
 40
2.499999
 50
335.834412
 51
204.165436
  0
ARC
  8
0
 10
-155.000015
 20
73.999969
 40
3.749999
 50
127.462639
 51
52.537365
  0
CIRCLE
  8
0
 62
     4
 10
-155.500031
 20
74.099960
 40
1.499999
  0
CIRCLE
  8
0
 62
     2
 10
-154.000015
 20
88.499985
 40
2.500000
  0
CIRCLE
  8
0
 10
-142.500015
 20
107.499985
 40
2.749999
  0
ARC
  8
0
 62
     4
 10
-145.000015
 20
69.999985
 40
5.900004
 50
231.219070
 51
248.781815
  0
ARC
  8
0
 62
     4
 10
-145.000015
 20
69.999985
 40
5.900001
 50
111.219292
 51
128.780441
  0
ARC
  8
0
 62
     4
 10
180.999939
 20
70.000038
 40
5.900004
 50
231.219070
 51
248.781815
  0
ARC
  8
0
 62
     4
 10
180.999939
 20
70.000038
 40
5.900001
 50
111.219292
 51
128.780441
  0
ARC
  8
0
 62
     4
 10
180.999939
 20
70.000038
 40
5.899993
 50
351.218109
 51
8.781887
  0
ARC
  8
0
 62
     4
 10
180.999939
 20
70.000038
 40
5.899998
 50
291.218201
 51
308.781891
  0
ARC
  8
0
 62
     4
 10
180.999939
 20
70.000038
 40
5.900003
 50
171.219406
 51
188.780991
  0
ARC
  8
0
 62
     4
 10
180.999939
 20
70.000038
 40
5.900004
 50
51.218117
 51
68.780548
  0
CIRCLE
  8
0
 10
178.499939
 20
107.500038
 40
1.500000
  0
CIRCLE
  8
0
 62
     2
 10
178.499939
 20
107.500038
 40
1.250000
  0
CIRCLE
  8
0
 62
     4
 10
180.999939
 20
70.000038
 40
5.499999
  0
ARC
  8
0
 62
     4
 10
191.249939
 20
77.950020
 40
1.500000
 50
0.000000
 51
180.000000
  0
ARC
  8
0
 62
     4
 10
180.999939
 20
70.000038
 40
4.249995
 50
315.099060
 51
44.900799
  0
ARC
  8
0
 62
     4
 10
180.999939
 20
70.000038
 40
4.249995
 50
135.099060
 51
180.000000
  0
ARC
  8
0
 62
     4
 10
180.999939
 20
70.000038
 40
4.250000
 50
180.000000
 51
224.900726
  0
CIRCLE
  8
0
 62
     4
 10
180.999939
 20
70.000038
 40
2.749999
  0
CIRCLE
  8
0
 62
     4
 10
180.999939
 20
70.000038
 40
5.000000
  0
CIRCLE
  8
0
 62
     1
 10
180.999939
 20
70.000038
 40
4.500000
  0
ARC
  8
0
 62
     4
 10
180.999939
 20
70.000038
 40
3.750000
 50
306.869904
 51
53.130104
  0
ARC
  8
0
 62
     4
 10
180.999939
 20
70.000038
 40
3.750000
 50
126.869896
 51
233.130096
  0
ARC
  8
0
 10
190.999939
 20
78.000031
 40
2.499999
 50
335.834412
 51
204.165436
  0
ARC
  8
0
 10
190.999939
 20
74.000023
 40
3.749999
 50
127.462639
 51
52.537292
  0
CIRCLE
  8
0
 10
178.499939
 20
107.500038
 40
2.749999
  0
CIRCLE
  8
0
 62
     2
 10
48.000038
 20
-127.000061
 40
2.000000
  0
CIRCLE
  8
0
 10
62.000038
 20
-114.000069
 40
1.699999
  0
CIRCLE
  8
0
 10
-20.999977
 20
-114.000069
 40
1.699999
  0
CIRCLE
  8
0
 10
-20.999977
 20
-96.000053
 40
1.699999
  0
CIRCLE
  8
0
 10
62.000038
 20
-96.000053
 40
1.699999
  0
CIRCLE
  8
0
 62
     2
 10
-6.999969
 20
-98.000053
 40
2.000000
  0
CIRCLE
  8
0
 62
     2
 10
-6.999969
 20
-127.000061
 40
2.000000
  0
CIRCLE
  8
0
 62
     2
 10
48.000038
 20
-98.000053
 40
2.000000
  0
CIRCLE
  8
0
 10
55.000023
 20
-119.000061
 40
2.000000
  0
CIRCLE
  8
0
 10
55.000023
 20
-119.000061
 40
1.250000
  0
CIRCLE
  8
0
 10
-6.999969
 20
-105.000069
 40
2.000000
  0
ARC
  8
0
 10
47.000038
 20
-105.000069
 40
2.000000
 50
90.000000
 51
270.000000
  0
ARC
  8
0
 10
49.000008
 20
-105.000069
 40
2.000000
 50
270.000000
 51
90.000000
  0
CIRCLE
  8
0
 10
-6.999969
 20
-98.000053
 40
1.650000
  0
CIRCLE
  8
0
 10
-6.999969
 20
-127.000061
 40
1.650000
  0
CIRCLE
  8
0
 10
48.000038
 20
-98.000053
 40
1.650000
  0
CIRCLE
  8
0
 10
48.000038
 20
-127.000061
 40
1.650000
  0
POLYLINE
  8
0
 62
     4
 66
     1
  0
VERTEX
  8
0
 10
-25.230881
 20
70.900772
  0
VERTEX
  8
0
 10
-25.059004
 20
71.817673
  0
VERTEX
  8
0
 10
-25.000000
 20
72.750008
  0
VERTEX
  8
0
 10
-25.059004
 20
73.682358
  0
VERTEX
  8
0
 10
-25.230881
 20
74.599266
  0
SEQEND
  0
POLYLINE
  8
0
 62
     4
 66
     1
  0
VERTEX
  8
0
 10
-27.769104
 20
70.900772
  0
VERTEX
  8
0
 10
-27.940994
 20
71.817673
  0
VERTEX
  8
0
 10
-28.000000
 20
72.750008
  0
VERTEX
  8
0
 10
-27.940994
 20
73.682358
  0
VERTEX
  8
0
 10
-27.769104
 20
74.599266
  0
SEQEND
  0
POLYLINE
  8
0
 66
     1
  0
VERTEX
  8
0
 10
-25.288925
 20
104.750000
  0
VERTEX
  8
0
 10
-25.076408
 20
105.422546
  0
VERTEX
  8
0
 10
-24.999985
 20
106.124992
  0
VERTEX
  8
0
 10
-25.076408
 20
106.827438
  0
VERTEX
  8
0
 10
-25.288925
 20
107.499985
  0
SEQEND
  0
POLYLINE
  8
0
 66
     1
  0
VERTEX
  8
0
 10
-25.288925
 20
107.499985
  0
VERTEX
  8
0
 10
-25.076408
 20
108.172539
  0
VERTEX
  8
0
 10
-24.999985
 20
108.874992
  0
VERTEX
  8
0
 10
-25.076408
 20
109.577438
  0
VERTEX
  8
0
 10
-25.288925
 20
110.249985
  0
SEQEND
  0
POLYLINE
  8
0
 66
     1
  0
VERTEX
  8
0
 10
-27.111069
 20
104.750000
  0
VERTEX
  8
0
 10
-27.323578
 20
105.422546
  0
VERTEX
  8
0
 10
-27.399994
 20
106.124992
  0
VERTEX
  8
0
 10
-27.323578
 20
106.827438
  0
VERTEX
  8
0
 10
-27.111069
 20
107.499985
  0
SEQEND
  0
POLYLINE
  8
0
 66
     1
  0
VERTEX
  8
0
 10
-27.111069
 20
107.499985
  0
VERTEX
  8
0
 10
-27.323578
 20
108.172539
  0
VERTEX
  8
0
 10
-27.399994
 20
108.874992
  0
VERTEX
  8
0
 10
-27.323578
 20
109.577438
  0
VERTEX
  8
0
 10
-27.111069
 20
110.249985
  0
SEQEND
  0
POLYLINE
  8
0
 66
     1
  0
VERTEX
  8
0
 10
68.111069
 20
104.750000
  0
VERTEX
  8
0
 10
68.323578
 20
105.422546
  0
VERTEX
  8
0
 10
68.399994
 20
106.124992
  0
VERTEX
  8
0
 10
68.323578
 20
106.827438
  0
VERTEX
  8
0
 10
68.111069
 20
107.499985
  0
SEQEND
  0
POLYLINE
  8
0
 66
     1
  0
VERTEX
  8
0
 10
68.111069
 20
107.499985
  0
VERTEX
  8
0
 10
68.323578
 20
108.172539
  0
VERTEX
  8
0
 10
68.399994
 20
108.874992
  0
VERTEX
  8
0
 10
68.323578
 20
109.577438
  0
VERTEX
  8
0
 10
68.111069
 20
110.249985
  0
SEQEND
  0
POLYLINE
  8
0
 66
     1
  0
VERTEX
  8
0
 10
66.288925
 20
107.499985
  0
VERTEX
  8
0
 10
66.076408
 20
108.172539
  0
VERTEX
  8
0
 10
65.999985
 20
108.874992
  0
VERTEX
  8
0
 10
66.076408
 20
109.577438
  0
VERTEX
  8
0
 10
66.288925
 20
110.249985
  0
SEQEND
  0
POLYLINE
  8
0
 66
     1
  0
VERTEX
  8
0
 10
66.288925
 20
104.750000
  0
VERTEX
  8
0
 10
66.076408
 20
105.422546
  0
VERTEX
  8
0
 10
65.999985
 20
106.124992
  0
VERTEX
  8
0
 10
66.076408
 20
106.827438
  0
VERTEX
  8
0
 10
66.288925
 20
107.499985
  0
SEQEND
  0
POLYLINE
  8
0
 62
     4
 66
     1
  0
VERTEX
  8
0
 10
66.230865
 20
74.599243
  0
VERTEX
  8
0
 10
66.058998
 20
73.682358
  0
VERTEX
  8
0
 10
66.000000
 20
72.750031
  0
VERTEX
  8
0
 10
66.058998
 20
71.817680
  0
VERTEX
  8
0
 10
66.230865
 20
70.900772
  0
SEQEND
  0
POLYLINE
  8
0
 62
     4
 66
     1
  0
VERTEX
  8
0
 10
68.769104
 20
74.599243
  0
VERTEX
  8
0
 10
68.940987
 20
73.682358
  0
VERTEX
  8
0
 10
68.999985
 20
72.750031
  0
VERTEX
  8
0
 10
68.940987
 20
71.817680
  0
VERTEX
  8
0
 10
68.769104
 20
70.900772
  0
SEQEND
  0
POLYLINE
  8
0
 62
     4
 66
     1
  0
VERTEX
  8
0
 10
66.230865
 20
69.099236
  0
VERTEX
  8
0
 10
66.058998
 20
68.182327
  0
VERTEX
  8
0
 10
66.000000
 20
67.249977
  0
VERTEX
  8
0
 10
66.058998
 20
66.317642
  0
VERTEX
  8
0
 10
66.230865
 20
65.400742
  0
SEQEND
  0
POLYLINE
  8
0
 62
     4
 66
     1
  0
VERTEX
  8
0
 10
68.769104
 20
69.099236
  0
VERTEX
  8
0
 10
68.940987
 20
68.182327
  0
VERTEX
  8
0
 10
68.999985
 20
67.249977
  0
VERTEX
  8
0
 10
68.940987
 20
66.317642
  0
VERTEX
  8
0
 10
68.769104
 20
65.400742
  0
SEQEND
  0
POLYLINE
  8
0
 62
     4
 66
     1
  0
VERTEX
  8
0
 10
-25.230881
 20
65.400742
  0
VERTEX
  8
0
 10
-25.059004
 20
66.317627
  0
VERTEX
  8
0
 10
-25.000000
 20
67.249954
  0
VERTEX
  8
0
 10
-25.059002
 20
68.182312
  0
VERTEX
  8
0
 10
-25.230881
 20
69.099236
  0
SEQEND
  0
POLYLINE
  8
0
 62
     4
 66
     1
  0
VERTEX
  8
0
 10
-27.769104
 20
65.400742
  0
VERTEX
  8
0
 10
-27.940992
 20
66.317627
  0
VERTEX
  8
0
 10
-28.000000
 20
67.249954
  0
VERTEX
  8
0
 10
-27.940996
 20
68.182320
  0
VERTEX
  8
0
 10
-27.769104
 20
69.099236
  0
SEQEND
  0
POLYLINE
  8
0
 62
     4
 66
     1
  0
VERTEX
  8
0
 10
-27.769064
 20
3.411633
  0
VERTEX
  8
0
 10
-27.896202
 20
2.706498
  0
VERTEX
  8
0
 10
-27.973755
 20
1.993343
  0
VERTEX
  8
0
 10
-27.999990
 20
1.276180
  0
VERTEX
  8
0
 10
-27.973755
 20
0.559023
  0
VERTEX
  8
0
 10
-27.896202
 20
-0.154126
  0
VERTEX
  8
0
 10
-27.769064
 20
-0.859257
  0
SEQEND
  0
POLYLINE
  8
0
 62
     4
 66
     1
  0
VERTEX
  8
0
 10
68.769051
 20
7.107021
  0
VERTEX
  8
0
 10
68.938728
 20
6.585375
  0
VERTEX
  8
0
 10
68.999977
 20
6.039318
  0
VERTEX
  8
0
 10
68.938728
 20
5.493237
  0
VERTEX
  8
0
 10
68.769051
 20
4.971569
  0
SEQEND
  0
POLYLINE
  8
0
 62
     4
 66
     1
  0
VERTEX
  8
0
 10
66.230934
 20
7.107021
  0
VERTEX
  8
0
 10
66.061249
 20
6.585377
  0
VERTEX
  8
0
 10
65.999992
 20
6.039318
  0
VERTEX
  8
0
 10
66.061249
 20
5.493237
  0
VERTEX
  8
0
 10
66.230934
 20
4.971569
  0
SEQEND
  0
POLYLINE
  8
0
 62
     4
 66
     1
  0
VERTEX
  8
0
 10
66.230934
 20
3.411617
  0
VERTEX
  8
0
 10
66.103790
 20
2.706489
  0
VERTEX
  8
0
 10
66.026230
 20
1.993341
  0
VERTEX
  8
0
 10
65.999992
 20
1.276180
  0
VERTEX
  8
0
 10
66.026230
 20
0.559012
  0
VERTEX
  8
0
 10
66.103790
 20
-0.154146
  0
VERTEX
  8
0
 10
66.230934
 20
-0.859280
  0
SEQEND
  0
POLYLINE
  8
0
 62
     4
 66
     1
  0
VERTEX
  8
0
 10
68.769051
 20
-2.419338
  0
VERTEX
  8
0
 10
68.938728
 20
-2.940985
  0
VERTEX
  8
0
 10
68.999977
 20
-3.487034
  0
VERTEX
  8
0
 10
68.938721
 20
-4.033051
  0
VERTEX
  8
0
 10
68.769051
 20
-4.554661
  0
SEQEND
  0
POLYLINE
  8
0
 62
     4
 66
     1
  0
VERTEX
  8
0
 10
68.769051
 20
-0.859280
  0
VERTEX
  8
0
 10
68.896187
 20
-0.154144
  0
VERTEX
  8
0
 10
68.973740
 20
0.559015
  0
VERTEX
  8
0
 10
68.999977
 20
1.276180
  0
VERTEX
  8
0
 10
68.973740
 20
1.993338
  0
VERTEX
  8
0
 10
68.896187
 20
2.706487
  0
VERTEX
  8
0
 10
68.769051
 20
3.411617
  0
SEQEND
  0
POLYLINE
  8
0
 62
     4
 66
     1
  0
VERTEX
  8
0
 10
66.230934
 20
-2.419338
  0
VERTEX
  8
0
 10
66.061249
 20
-2.940984
  0
VERTEX
  8
0
 10
65.999992
 20
-3.487034
  0
VERTEX
  8
0
 10
66.061249
 20
-4.033052
  0
VERTEX
  8
0
 10
66.230934
 20
-4.554661
  0
SEQEND
  0
POLYLINE
  8
0
 62
     4
 66
     1
  0
VERTEX
  8
0
 10
-27.769064
 20
-4.554676
  0
VERTEX
  8
0
 10
-27.938740
 20
-4.033024
  0
VERTEX
  8
0
 10
-27.999990
 20
-3.486958
  0
VERTEX
  8
0
 10
-27.938742
 20
-2.940876
  0
VERTEX
  8
0
 10
-27.769064
 20
-2.419209
  0
SEQEND
  0
POLYLINE
  8
0
 62
     4
 66
     1
  0
VERTEX
  8
0
 10
-25.230947
 20
-4.554676
  0
VERTEX
  8
0
 10
-25.061262
 20
-4.033025
  0
VERTEX
  8
0
 10
-25.000006
 20
-3.486958
  0
VERTEX
  8
0
 10
-25.061260
 20
-2.940876
  0
VERTEX
  8
0
 10
-25.230947
 20
-2.419209
  0
SEQEND
  0
POLYLINE
  8
0
 62
     4
 66
     1
  0
VERTEX
  8
0
 10
-25.230947
 20
-0.859264
  0
VERTEX
  8
0
 10
-25.103804
 20
-0.154134
  0
VERTEX
  8
0
 10
-25.026245
 20
0.559017
  0
VERTEX
  8
0
 10
-25.000006
 20
1.276180
  0
VERTEX
  8
0
 10
-25.026245
 20
1.993346
  0
VERTEX
  8
0
 10
-25.103804
 20
2.706501
  0
VERTEX
  8
0
 10
-25.230947
 20
3.411633
  0
SEQEND
  0
POLYLINE
  8
0
 62
     4
 66
     1
  0
VERTEX
  8
0
 10
-25.230947
 20
4.971691
  0
VERTEX
  8
0
 10
-25.061258
 20
5.493339
  0
VERTEX
  8
0
 10
-25.000006
 20
6.039394
  0
VERTEX
  8
0
 10
-25.061264
 20
6.585402
  0
VERTEX
  8
0
 10
-25.230947
 20
7.106998
  0
SEQEND
  0
POLYLINE
  8
0
 62
     4
 66
     1
  0
VERTEX
  8
0
 10
-27.769064
 20
4.971691
  0
VERTEX
  8
0
 10
-27.938744
 20
5.493340
  0
VERTEX
  8
0
 10
-27.999990
 20
6.039394
  0
VERTEX
  8
0
 10
-27.938736
 20
6.585401
  0
VERTEX
  8
0
 10
-27.769064
 20
7.106998
  0
SEQEND
  0
POLYLINE
  8
0
 66
     1
  0
VERTEX
  8
0
 10
68.111092
 20
-122.500061
  0
VERTEX
  8
0
 10
68.323608
 20
-123.172615
  0
VERTEX
  8
0
 10
68.400032
 20
-123.875061
  0
VERTEX
  8
0
 10
68.323608
 20
-124.577507
  0
VERTEX
  8
0
 10
68.111092
 20
-125.250061
  0
SEQEND
  0
POLYLINE
  8
0
 66
     1
  0
VERTEX
  8
0
 10
66.288963
 20
-119.750061
  0
VERTEX
  8
0
 10
66.076447
 20
-120.422615
  0
VERTEX
  8
0
 10
66.000023
 20
-121.125061
  0
VERTEX
  8
0
 10
66.076447
 20
-121.827507
  0
VERTEX
  8
0
 10
66.288963
 20
-122.500061
  0
SEQEND
  0
POLYLINE
  8
0
 66
     1
  0
VERTEX
  8
0
 10
66.288963
 20
-122.500061
  0
VERTEX
  8
0
 10
66.076447
 20
-123.172615
  0
VERTEX
  8
0
 10
66.000023
 20
-123.875061
  0
VERTEX
  8
0
 10
66.076447
 20
-124.577507
  0
VERTEX
  8
0
 10
66.288963
 20
-125.250061
  0
SEQEND
  0
POLYLINE
  8
0
 62
     4
 66
     1
  0
VERTEX
  8
0
 10
-25.038191
 20
-87.000450
  0
VERTEX
  8
0
 10
-25.114853
 20
-86.446724
  0
VERTEX
  8
0
 10
-25.230843
 20
-85.900810
  0
SEQEND
  0
POLYLINE
  8
0
 62
     4
 66
     1
  0
VERTEX
  8
0
 10
-27.961731
 20
-87.000450
  0
VERTEX
  8
0
 10
-27.885065
 20
-86.446724
  0
VERTEX
  8
0
 10
-27.769066
 20
-85.900810
  0
SEQEND
  0
POLYLINE
  8
0
 62
     4
 66
     1
  0
VERTEX
  8
0
 10
-25.230843
 20
-84.099266
  0
VERTEX
  8
0
 10
-25.058966
 20
-83.182365
  0
VERTEX
  8
0
 10
-24.999962
 20
-82.250038
  0
VERTEX
  8
0
 10
-25.058966
 20
-81.317688
  0
VERTEX
  8
0
 10
-25.230843
 20
-80.400780
  0
SEQEND
  0
POLYLINE
  8
0
 62
     4
 66
     1
  0
VERTEX
  8
0
 10
66.230904
 20
-80.400810
  0
VERTEX
  8
0
 10
66.059036
 20
-81.317696
  0
VERTEX
  8
0
 10
66.000038
 20
-82.250023
  0
VERTEX
  8
0
 10
66.059036
 20
-83.182381
  0
VERTEX
  8
0
 10
66.230904
 20
-84.099297
  0
SEQEND
  0
POLYLINE
  8
0
 62
     4
 66
     1
  0
VERTEX
  8
0
 10
-27.769066
 20
-84.099266
  0
VERTEX
  8
0
 10
-27.940956
 20
-83.182373
  0
VERTEX
  8
0
 10
-27.999962
 20
-82.250038
  0
VERTEX
  8
0
 10
-27.940956
 20
-81.317688
  0
VERTEX
  8
0
 10
-27.769066
 20
-80.400780
  0
SEQEND
  0
POLYLINE
  8
0
 62
     4
 66
     1
  0
VERTEX
  8
0
 10
66.230904
 20
-85.900841
  0
VERTEX
  8
0
 10
66.059036
 20
-86.817741
  0
VERTEX
  8
0
 10
66.000038
 20
-87.750069
  0
VERTEX
  8
0
 10
66.059036
 20
-88.682419
  0
VERTEX
  8
0
 10
66.230904
 20
-89.599327
  0
SEQEND
  0
POLYLINE
  8
0
 62
     4
 66
     1
  0
VERTEX
  8
0
 10
68.769142
 20
-85.900841
  0
VERTEX
  8
0
 10
68.941025
 20
-86.817734
  0
VERTEX
  8
0
 10
69.000023
 20
-87.750069
  0
VERTEX
  8
0
 10
68.941025
 20
-88.682419
  0
VERTEX
  8
0
 10
68.769142
 20
-89.599327
  0
SEQEND
  0
POLYLINE
  8
0
 62
     4
 66
     1
  0
VERTEX
  8
0
 10
68.769142
 20
-80.400810
  0
VERTEX
  8
0
 10
68.941025
 20
-81.317696
  0
VERTEX
  8
0
 10
69.000023
 20
-82.250023
  0
VERTEX
  8
0
 10
68.941025
 20
-83.182381
  0
VERTEX
  8
0
 10
68.769142
 20
-84.099297
  0
SEQEND
  0
POLYLINE
  8
0
 66
     1
  0
VERTEX
  8
0
 10
-27.111031
 20
-125.250061
  0
VERTEX
  8
0
 10
-27.323540
 20
-124.577507
  0
VERTEX
  8
0
 10
-27.399956
 20
-123.875061
  0
VERTEX
  8
0
 10
-27.323540
 20
-123.172615
  0
VERTEX
  8
0
 10
-27.111031
 20
-122.500061
  0
SEQEND
  0
POLYLINE
  8
0
 66
     1
  0
VERTEX
  8
0
 10
-27.111031
 20
-122.500061
  0
VERTEX
  8
0
 10
-27.323540
 20
-121.827507
  0
VERTEX
  8
0
 10
-27.399956
 20
-121.125061
  0
VERTEX
  8
0
 10
-27.323540
 20
-120.422600
  0
VERTEX
  8
0
 10
-27.111031
 20
-119.750031
  0
SEQEND
  0
POLYLINE
  8
0
 66
     1
  0
VERTEX
  8
0
 10
-25.288887
 20
-125.250061
  0
VERTEX
  8
0
 10
-25.076370
 20
-124.577507
  0
VERTEX
  8
0
 10
-24.999947
 20
-123.875061
  0
VERTEX
  8
0
 10
-25.076370
 20
-123.172615
  0
VERTEX
  8
0
 10
-25.288887
 20
-122.500061
  0
SEQEND
  0
POLYLINE
  8
0
 66
     1
  0
VERTEX
  8
0
 10
-25.288887
 20
-122.500061
  0
VERTEX
  8
0
 10
-25.076370
 20
-121.827507
  0
VERTEX
  8
0
 10
-24.999947
 20
-121.125061
  0
VERTEX
  8
0
 10
-25.076370
 20
-120.422600
  0
VERTEX
  8
0
 10
-25.288887
 20
-119.750031
  0
SEQEND
  0
POLYLINE
  8
0
 66
     1
  0
VERTEX
  8
0
 10
68.111092
 20
-119.750061
  0
VERTEX
  8
0
 10
68.323608
 20
-120.422615
  0
VERTEX
  8
0
 10
68.400032
 20
-121.125061
  0
VERTEX
  8
0
 10
68.323608
 20
-121.827507
  0
VERTEX
  8
0
 10
68.111092
 20
-122.500061
  0
SEQEND
  0
TEXT
  8
0
 10
196.250259
 20
180.830002
 40
6.300000
  1
Ver. 1.0
 50
0.000000
 41
1.052632
 51
0.000000
  7
STANDARD
  0
TEXT
  8
0
 10
167.564667
 20
-192.100006
 40
9.000000
  1
KOGANEI CORP.
 50
0.000000
 41
1.052632
 51
0.000000
  7
STANDARD
  0
TEXT
  8
0
 10
-265.999725
 20
180.830002
 40
6.300000
  1
GT SLIDE TABLE
 50
0.000000
 41
1.052632
 51
0.000000
  7
STANDARD
  0
TEXT
  8
0
 10
-225.549713
 20
145.830002
 40
6.300000
  1
(WITH SENSOR SWITCH)
 50
0.000000
 41
1.052632
 51
0.000000
  7
STANDARD
  0
TEXT
  8
0
 10
-270.049713
 20
155.830002
 40
6.300000
  1
MODEL:AGTC16*ST(15)
 50
0.000000
 41
1.052632
 51
0.000000
  7
STANDARD
  0
TEXT
  8
0
 10
-226.142654
 20
-147.550003
 40
4.500000
  1
15
 50
0.000000
 41
1.052632
 51
0.000000
  7
STANDARD
  0
TEXT
  8
0
 10
-206.142654
 20
-147.550003
 40
4.500000
  1
30
 50
0.000000
 41
1.052632
 51
0.000000
  7
STANDARD
  0
TEXT
  8
0
 10
-186.142654
 20
-147.550003
 40
4.500000
  1
45
 50
0.000000
 41
1.052632
 51
0.000000
  7
STANDARD
  0
TEXT
  8
0
 10
-166.142654
 20
-147.550003
 40
4.500000
  1
60
 50
0.000000
 41
1.052632
 51
0.000000
  7
STANDARD
  0
TEXT
  8
0
 10
-146.142654
 20
-147.550003
 40
4.500000
  1
75
 50
0.000000
 41
1.052632
 51
0.000000
  7
STANDARD
  0
TEXT
  8
0
 10
-126.142654
 20
-147.550003
 40
4.500000
  1
90
 50
0.000000
 41
1.052632
 51
0.000000
  7
STANDARD
  0
TEXT
  8
0
 10
-265.142670
 20
-140.550003
 40
4.500000
  1
STROKE
 50
0.000000
 41
1.052632
 51
0.000000
  7
STANDARD
  0
TEXT
  8
0
 10
-267.392670
 20
-146.324997
 40
4.500000
  1
STRETCH
 50
0.000000
 41
1.052632
 51
0.000000
  7
STANDARD
  0
TEXT
  8
0
 10
-267.392670
 20
-153.074997
 40
4.500000
  1
  PLACE
 50
0.000000
 41
1.052632
 51
0.000000
  7
STANDARD
  0
TEXT
  8
0
 10
-253.892654
 20
-163.050003
 40
4.500000
  1
A
 50
0.000000
 41
1.052632
 51
0.000000
  7
STANDARD
  0
TEXT
  8
0
 10
-253.892654
 20
-183.050003
 40
4.500000
  1
C
 50
0.000000
 41
1.052632
 51
0.000000
  7
STANDARD
  0
TEXT
  8
0
 10
-198.642654
 20
-132.050003
 40
4.500000
  1
STRETCH LIST
 50
0.000000
 41
1.052632
 51
0.000000
  7
STANDARD
  0
TEXT
  8
0
 10
-90.642654
 20
-134.050003
 40
4.500000
  1
(mm)
 50
0.000000
 41
1.052632
 51
0.000000
  7
STANDARD
  0
TEXT
  8
0
 10
-108.392654
 20
-147.550003
 40
4.500000
  1
105
 50
0.000000
 41
1.052632
 51
0.000000
  7
STANDARD
  0
TEXT
  8
0
 10
-88.392654
 20
-147.550003
 40
4.500000
  1
120
 50
0.000000
 41
1.052632
 51
0.000000
  7
STANDARD
  0
TEXT
  8
0
 10
-203.892654
 20
-183.050003
 40
4.500000
  1
0
 50
0.000000
 41
1.052632
 51
0.000000
  7
STANDARD
  0
TEXT
  8
0
 10
-188.392654
 20
-183.050003
 40
4.500000
  1
7.5
 50
0.000000
 41
1.052632
 51
0.000000
  7
STANDARD
  0
TEXT
  8
0
 10
-166.142654
 20
-183.050003
 40
4.500000
  1
15
 50
0.000000
 41
1.052632
 51
0.000000
  7
STANDARD
  0
TEXT
  8
0
 10
-150.642654
 20
-183.050003
 40
4.500000
  1
22.5
 50
0.000000
 41
1.052632
 51
0.000000
  7
STANDARD
  0
TEXT
  8
0
 10
-126.142654
 20
-183.050003
 40
4.500000
  1
30
 50
0.000000
 41
1.052632
 51
0.000000
  7
STANDARD
  0
TEXT
  8
0
 10
-110.642654
 20
-183.050003
 40
4.500000
  1
37.5
 50
0.000000
 41
1.052632
 51
0.000000
  7
STANDARD
  0
TEXT
  8
0
 10
-86.142654
 20
-183.050003
 40
4.500000
  1
45
 50
0.000000
 41
1.052632
 51
0.000000
  7
STANDARD
  0
TEXT
  8
0
 10
-223.892654
 20
-183.050003
 40
4.500000
  1
0
 50
0.000000
 41
1.052632
 51
0.000000
  7
STANDARD
  0
TEXT
  8
0
 10
-223.892654
 20
-163.050003
 40
4.500000
  1
0
 50
0.000000
 41
1.052632
 51
0.000000
  7
STANDARD
  0
TEXT
  8
0
 10
-88.392654
 20
-163.050003
 40
4.500000
  1
105
 50
0.000000
 41
1.052632
 51
0.000000
  7
STANDARD
  0
TEXT
  8
0
 10
-106.142654
 20
-163.050003
 40
4.500000
  1
90
 50
0.000000
 41
1.052632
 51
0.000000
  7
STANDARD
  0
TEXT
  8
0
 10
-126.142654
 20
-163.050003
 40
4.500000
  1
75
 50
0.000000
 41
1.052632
 51
0.000000
  7
STANDARD
  0
TEXT
  8
0
 10
-146.142654
 20
-163.050003
 40
4.500000
  1
60
 50
0.000000
 41
1.052632
 51
0.000000
  7
STANDARD
  0
TEXT
  8
0
 10
-166.142654
 20
-163.050003
 40
4.500000
  1
45
 50
0.000000
 41
1.052632
 51
0.000000
  7
STANDARD
  0
TEXT
  8
0
 10
-186.142654
 20
-163.050003
 40
4.500000
  1
30
 50
0.000000
 41
1.052632
 51
0.000000
  7
STANDARD
  0
TEXT
  8
0
 10
-206.142654
 20
-163.050003
 40
4.500000
  1
15
 50
0.000000
 41
1.052632
 51
0.000000
  7
STANDARD
  0
TEXT
  8
0
 10
-253.892654
 20
-173.050003
 40
4.500000
  1
B
 50
0.000000
 41
1.052632
 51
0.000000
  7
STANDARD
  0
TEXT
  8
0
 10
-223.892654
 20
-173.050003
 40
4.500000
  1
0
 50
0.000000
 41
1.052632
 51
0.000000
  7
STANDARD
  0
TEXT
  8
0
 10
-203.892654
 20
-173.050003
 40
4.500000
  1
0
 50
0.000000
 41
1.052632
 51
0.000000
  7
STANDARD
  0
TEXT
  8
0
 10
-188.392654
 20
-173.050003
 40
4.500000
  1
7.5
 50
0.000000
 41
1.052632
 51
0.000000
  7
STANDARD
  0
TEXT
  8
0
 10
-166.142654
 20
-173.050003
 40
4.500000
  1
15
 50
0.000000
 41
1.052632
 51
0.000000
  7
STANDARD
  0
TEXT
  8
0
 10
-150.642654
 20
-173.050003
 40
4.500000
  1
22.5
 50
0.000000
 41
1.052632
 51
0.000000
  7
STANDARD
  0
TEXT
  8
0
 10
-126.142654
 20
-173.050003
 40
4.500000
  1
30
 50
0.000000
 41
1.052632
 51
0.000000
  7
STANDARD
  0
TEXT
  8
0
 10
-110.642654
 20
-173.050003
 40
4.500000
  1
37.5
 50
0.000000
 41
1.052632
 51
0.000000
  7
STANDARD
  0
TEXT
  8
0
 10
-86.142654
 20
-173.050003
 40
4.500000
  1
45
 50
0.000000
 41
1.052632
 51
0.000000
  7
STANDARD
  0
TEXT
  8
0
 62
     3
 10
20.857126
 20
120.449989
 40
4.500000
  1
STRETCH LINE C
 50
0.000000
 41
1.052632
 51
0.000000
  7
STANDARD
  0
TEXT
  8
0
 62
     3
 10
-35.892887
 20
140.449997
 40
4.500000
  1
STRETCH LINE A
 50
0.000000
 41
1.052632
 51
0.000000
  7
STANDARD
  0
TEXT
  8
0
 62
     3
 10
0.357126
 20
130.449997
 40
4.500000
  1
STRETCH LINE B
 50
0.000000
 41
1.052632
 51
0.000000
  7
STANDARD
  0
ENDSEC
  0
EOF
