  0
SECTION
  2
HEADER
  0
ENDSEC
  0
SECTION
  2
TABLES
  0
TABLE
  2
LTYPE
 70
     4
  0
LTYPE
  2
CONTINUOUS
 70
    64
  3
Solid line
 72
    65
 73
     0
 40
0.000000
  0
LTYPE
  2
DASHED
 70
    64
  3
__ __ __ __ __ __ __ __ __ __ __ __ __ __ __
 72
    65
 73
     2
 40
3.500000
 49
2.000000
 49
-1.500000
  0
LTYPE
  2
CENTER
 70
    64
  3
____ _ ____ _ ____ _ ____ _ ____ _ ____ _ ____
 72
    65
 73
     4
 40
17.500000
 49
13.000000
 49
-1.500000
 49
1.500000
 49
-1.500000
  0
LTYPE
  2
PHANTOM
 70
    64
  3
_____ _ _ _____ _ _ _____ _ _ _____ _ _ ____  
 72
    65
 73
     6
 40
15.500000
 49
8.000000
 49
-1.500000
 49
1.500000
 49
-1.500000
 49
1.500000
 49
-1.500000
  0
LTYPE
  2
DASHED1
 70
    64
  3
__ __ __ __ __ __ __ __ __ __ __ __ __ __ __
 72
    65
 73
     2
 40
1.500000
 49
1.000000
 49
-0.500000
  0
LTYPE
  2
DASHED2
 70
    64
  3
__ __ __ __ __ __ __ __ __ __ __ __ __ __ __
 72
    65
 73
     2
 40
3.500000
 49
2.500000
 49
-1.000000
  0
LTYPE
  2
DASHED3
 70
    64
  3
__ __ __ __ __ __ __ __ __ __ __ __ __ __ __
 72
    65
 73
     2
 40
6.000000
 49
4.000000
 49
-2.000000
  0
LTYPE
  2
DASHED4
 70
    64
  3
__ __ __ __ __ __ __ __ __ __ __ __ __ __ __
 72
    65
 73
     2
 40
12.000000
 49
10.000000
 49
-2.000000
  0
LTYPE
  2
DASHED5
 70
    64
  3
__ __ __ __ __ __ __ __ __ __ __ __ __ __ __
 72
    65
 73
     2
 40
17.000000
 49
15.000000
 49
-2.000000
  0
LTYPE
  2
DASHED6
 70
    64
  3
__ __ __ __ __ __ __ __ __ __ __ __ __ __ __
 72
    65
 73
     2
 40
29.000000
 49
27.000000
 49
-2.000000
  0
LTYPE
  2
PHANTOM1
 70
    64
  3
_____ _ _ _____ _ _ _____ _ _ _____ _ _ ____  
 72
    65
 73
     6
 40
31.000000
 49
25.000000
 49
-1.500000
 49
1.000000
 49
-1.000000
 49
1.000000
 49
-1.500000
  0
LTYPE
  2
PHANTOM2
 70
    64
  3
_____ _ _ _____ _ _ _____ _ _ _____ _ _ ____  
 72
    65
 73
     6
 40
36.000000
 49
27.000000
 49
-1.500000
 49
2.500000
 49
-1.000000
 49
2.500000
 49
-1.500000
  0
LTYPE
  2
PHANTOM3
 70
    64
  3
_____ _ _ _____ _ _ _____ _ _ _____ _ _ ____  
 72
    65
 73
     6
 40
78.000000
 49
64.000000
 49
-2.000000
 49
4.000000
 49
-2.000000
 49
4.000000
 49
-2.000000
  0
LTYPE
  2
CENTER1
 70
    64
  3
____ _ ____ _ ____ _ ____ _ ____ _ ____ _ ____
 72
    65
 73
     4
 40
19.000000
 49
14.000000
 49
-1.000000
 49
3.000000
 49
-1.000000
  0
LTYPE
  2
CENTER2
 70
    64
  3
____ _ ____ _ ____ _ ____ _ ____ _ ____ _ ____
 72
    65
 73
     4
 40
28.500000
 49
25.000000
 49
-1.000000
 49
1.500000
 49
-1.000000
  0
LTYPE
  2
CENTER3
 70
    64
  3
____ _ ____ _ ____ _ ____ _ ____ _ ____ _ ____
 72
    65
 73
     4
 40
31.500000
 49
27.000000
 49
-1.000000
 49
2.500000
 49
-1.000000
  0
LTYPE
  2
CENTER4
 70
    64
  3
____ _ ____ _ ____ _ ____ _ ____ _ ____ _ ____
 72
    65
 73
     4
 40
50.000000
 49
45.000000
 49
-1.000000
 49
3.000000
 49
-1.000000
  0
LTYPE
  2
CENTER5
 70
    64
  3
____ _ ____ _ ____ _ ____ _ ____ _ ____ _ ____
 72
    65
 73
     4
 40
100.000000
 49
92.000000
 49
-2.000000
 49
4.000000
 49
-2.000000
  0
LTYPE
  2
SBK1
 70
    64
  3
______ _ _ _ ______ _ _ _ ______ _ _ _ _____  
 72
    65
 73
     8
 40
60.500000
 49
45.000000
 49
-2.000000
 49
2.500000
 49
-2.000000
 49
2.500000
 49
-2.000000
 49
2.500000
 49
-2.000000
  0
LTYPE
  2
SBK2
 70
    64
  3
______ _ _ _ ______ _ _ _ ______ _ _ _ _____  
 72
    65
 73
     8
 40
84.000000
 49
64.000000
 49
-2.000000
 49
4.000000
 49
-2.000000
 49
4.000000
 49
-2.000000
 49
4.000000
 49
-2.000000
  0
LTYPE
  2
STCH
 70
    64
  3
__ __ __ __ __ __ __ __ __ __ __ __ __ __ __
 72
    65
 73
     2
 40
3.000000
 49
1.000000
 49
-2.000000
  0
LTYPE
  2
MTCH
 70
    64
  3
_____ _ _ _____ _ _ _____ _ _ _____ _ _ ____  
 72
    65
 73
     6
 40
80.000000
 49
66.000000
 49
-2.000000
 49
4.000000
 49
-2.000000
 49
4.000000
 49
-2.000000
  0
ENDTAB
  0
TABLE
  2
LAYER
 70
     1
  0
LAYER
  2
0
 70
     0
 62
     7
  6
CONTINUOUS
  0
ENDTAB
  0
TABLE
  2
STYLE
 70
     1
  0
STYLE
  2
STANDARD
 70
     0
 40
0.000000
 41
1.000000
 50
0.000000
 71
     0
 42
0.200000
  3
txt
  4
BIGFONT
  0
ENDTAB
  0
TABLE
  2
VIEW
 70
     0
  0
ENDTAB
  0
ENDSEC
  0
SECTION
  2
BLOCKS
  0
ENDSEC
  0
SECTION
  2
ENTITIES
  0
LINE
  8
0
  6
CENTER
 62
     2
 10
60.115784
 20
108.999985
 11
50.069214
 21
108.999985
  0
LINE
  8
0
 10
-12.000008
 20
69.499992
 11
-12.000008
 21
120.499992
  0
LINE
  8
0
 10
62.000000
 20
69.499992
 11
62.000000
 21
120.499992
  0
LINE
  8
0
 10
63.000000
 20
101.999992
 11
62.000000
 21
101.999992
  0
LINE
  8
0
 10
3.999969
 20
69.499992
 11
3.999969
 21
120.499992
  0
LINE
  8
0
 10
4.999985
 20
70.499992
 11
4.999985
 21
119.499992
  0
LINE
  8
0
 10
61.000000
 20
70.499992
 11
61.000000
 21
119.499992
  0
LINE
  8
0
  6
CENTER
 62
     2
 10
53.816650
 20
115.000000
 11
47.183319
 21
115.000000
  0
LINE
  8
0
  6
CENTER
 62
     2
 10
50.499969
 20
111.733337
 11
50.499969
 21
118.200012
  0
LINE
  8
0
  6
CENTER
 62
     2
 10
54.999985
 20
104.234161
 11
54.999985
 21
113.333916
  0
LINE
  8
0
 10
-20.000000
 20
69.499992
 11
-20.000000
 21
120.499992
  0
LINE
  8
0
 10
71.000000
 20
69.499992
 11
71.000000
 21
120.499992
  0
LINE
  8
0
  6
CENTER
 62
     2
 10
-11.309788
 20
86.000000
 11
-20.736328
 21
86.000000
  0
LINE
  8
0
  6
CENTER
 62
     2
 10
-16.000011
 20
81.344322
 11
-16.000011
 21
90.772072
  0
LINE
  8
0
 10
63.000000
 20
69.499992
 11
63.000000
 21
120.499992
  0
LINE
  8
0
 10
3.999992
 20
101.999992
 11
-12.000031
 21
101.999992
  0
LINE
  8
0
 62
     4
 10
-68.000000
 20
78.999962
 11
-58.000000
 21
78.999962
  0
LINE
  8
0
 62
     4
 10
-58.000000
 20
77.499962
 11
-52.000015
 21
77.499962
  0
LINE
  8
0
 62
     4
 10
-58.000000
 20
80.499969
 11
-47.222565
 21
80.499969
  0
LINE
  8
0
 62
     4
 10
-58.000000
 20
77.499962
 11
-58.000000
 21
80.499969
  0
LINE
  8
0
 62
     4
 10
-46.218735
 20
80.499969
 11
-25.000011
 21
80.499969
  0
LINE
  8
0
 62
     4
 10
-68.000000
 20
77.999969
 11
-58.000000
 21
77.999969
  0
LINE
  8
0
 62
     4
 10
-68.000000
 20
79.999962
 11
-58.000000
 21
79.999962
  0
LINE
  8
0
 62
     4
 10
-67.999985
 20
77.999969
 11
-67.999985
 21
79.999962
  0
LINE
  8
0
 62
     4
 10
-23.000000
 20
70.000000
 11
-41.250000
 21
70.000000
  0
LINE
  8
0
 62
     4
 10
-23.000000
 20
80.000000
 11
-41.250008
 21
80.000000
  0
LINE
  8
0
 62
     4
 10
-52.000015
 20
71.999969
 11
-52.000015
 21
77.999969
  0
LINE
  8
0
 62
     4
 10
-48.000008
 20
70.749969
 11
-48.000008
 21
71.999969
  0
LINE
  8
0
 62
     4
 10
-48.000000
 20
71.999992
 11
-52.000015
 21
71.999992
  0
LINE
  8
0
 62
     4
 10
-48.000008
 20
77.999992
 11
-52.000015
 21
77.999992
  0
LINE
  8
0
 62
     4
 10
-42.000015
 20
79.249992
 11
-48.000008
 21
79.249992
  0
LINE
  8
0
 62
     4
 10
-42.000011
 20
70.749992
 11
-48.000000
 21
70.749992
  0
LINE
  8
0
 62
     4
 10
-42.000008
 20
70.749969
 11
-42.000008
 21
79.249969
  0
LINE
  8
0
 62
     4
 10
-41.249969
 20
70.000023
 11
-41.999969
 21
70.750023
  0
LINE
  8
0
 62
     4
 10
-41.250080
 20
80.000076
 11
-42.000084
 21
79.250076
  0
LINE
  8
0
 62
     1
 10
-23.000000
 20
70.500008
 11
-41.749992
 21
70.500008
  0
LINE
  8
0
 62
     1
 10
-23.000000
 20
79.499992
 11
-41.750008
 21
79.499992
  0
LINE
  8
0
 62
     4
 10
-41.250008
 20
69.999977
 11
-41.250008
 21
79.999977
  0
LINE
  8
0
 62
     4
 10
-48.000008
 20
77.999969
 11
-48.000008
 21
79.249969
  0
LINE
  8
0
 62
     4
 10
-51.500015
 20
71.999969
 11
-51.500015
 21
77.999969
  0
LINE
  8
0
 62
     4
 10
73.999985
 20
80.000023
 11
92.250000
 21
80.000023
  0
LINE
  8
0
 62
     4
 10
73.999985
 20
70.000023
 11
92.250000
 21
70.000023
  0
LINE
  8
0
 62
     4
 10
103.000015
 20
78.000008
 11
103.000015
 21
72.000038
  0
LINE
  8
0
 62
     4
 10
99.000015
 20
79.250008
 11
99.000015
 21
78.000008
  0
LINE
  8
0
 62
     4
 10
99.000015
 20
78.000008
 11
103.000015
 21
78.000008
  0
LINE
  8
0
 62
     4
 10
99.000015
 20
72.000015
 11
103.000015
 21
72.000015
  0
LINE
  8
0
 62
     4
 10
93.000015
 20
70.750015
 11
99.000015
 21
70.750015
  0
LINE
  8
0
 62
     4
 10
93.000015
 20
79.250008
 11
99.000015
 21
79.250008
  0
LINE
  8
0
 62
     4
 10
93.000000
 20
79.250008
 11
93.000000
 21
70.750038
  0
LINE
  8
0
 62
     4
 10
92.250145
 20
80.000153
 11
93.000160
 21
79.250137
  0
LINE
  8
0
 62
     4
 10
92.250061
 20
69.999969
 11
93.000053
 21
70.749962
  0
LINE
  8
0
 62
     1
 10
73.999985
 20
79.500015
 11
92.749985
 21
79.500015
  0
LINE
  8
0
 62
     1
 10
73.999985
 20
70.500008
 11
92.749985
 21
70.500008
  0
LINE
  8
0
 62
     4
 10
92.250000
 20
80.000023
 11
92.250000
 21
70.000023
  0
LINE
  8
0
 62
     4
 10
99.000015
 20
72.000038
 11
99.000015
 21
70.750038
  0
LINE
  8
0
 10
61.999985
 20
76.000023
 11
61.999985
 21
74.000008
  0
LINE
  8
0
 62
     4
 10
62.499985
 20
73.500000
 11
63.000015
 21
73.500000
  0
LINE
  8
0
 62
     4
 10
62.499985
 20
76.500031
 11
62.499985
 21
73.500023
  0
LINE
  8
0
 62
     4
 10
62.499985
 20
76.500031
 11
63.000015
 21
76.500031
  0
LINE
  8
0
 62
     4
 10
62.499950
 20
76.500076
 11
61.999924
 21
76.000053
  0
LINE
  8
0
 62
     4
 10
61.999966
 20
73.999939
 11
62.499958
 21
73.499954
  0
LINE
  8
0
 62
     4
 10
102.500015
 20
78.000008
 11
102.500015
 21
72.000038
  0
LINE
  8
0
  6
CENTER
 62
     1
 10
106.615005
 20
75.000000
 11
58.400711
 21
75.000000
  0
LINE
  8
0
  6
CENTER
 62
     2
 10
32.999992
 20
71.380768
 11
32.999992
 21
78.529945
  0
LINE
  8
0
  6
CENTER
 62
     2
 10
36.792091
 20
75.000000
 11
29.347061
 21
75.000000
  0
LINE
  8
0
 10
62.000000
 20
69.499992
 11
3.999969
 21
69.499992
  0
LINE
  8
0
 10
61.000000
 20
119.499992
 11
4.999985
 21
119.499992
  0
LINE
  8
0
 10
61.000000
 20
70.499992
 11
4.999985
 21
70.499992
  0
LINE
  8
0
 10
3.999974
 20
120.499985
 11
4.999970
 21
119.500000
  0
LINE
  8
0
 10
3.999978
 20
69.500000
 11
4.999977
 21
70.499992
  0
LINE
  8
0
 10
61.999928
 20
69.499962
 11
60.999924
 21
70.499962
  0
LINE
  8
0
 10
61.999996
 20
120.499985
 11
61.000000
 21
119.500000
  0
LINE
  8
0
 10
63.000000
 20
76.999992
 11
62.000000
 21
76.999992
  0
LINE
  8
0
 10
3.999969
 20
76.999992
 11
-12.000008
 21
76.999992
  0
LINE
  8
0
 10
3.999969
 20
76.000000
 11
-3.999739
 21
76.000000
  0
LINE
  8
0
 10
71.000000
 20
69.499992
 11
63.000000
 21
69.499992
  0
LINE
  8
0
 10
-12.000008
 20
69.499992
 11
-20.000000
 21
69.499992
  0
LINE
  8
0
  6
CENTER
 62
     2
 10
78.400696
 20
95.000000
 11
-27.075489
 21
95.000000
  0
LINE
  8
0
  6
CENTER
 62
     2
 10
71.690231
 20
104.000008
 11
62.263672
 21
104.000008
  0
LINE
  8
0
  6
CENTER
 62
     2
 10
67.000000
 20
99.344330
 11
67.000000
 21
108.772064
  0
LINE
  8
0
  6
CENTER
 62
     2
 10
71.690231
 20
86.000000
 11
62.263672
 21
86.000000
  0
LINE
  8
0
  6
CENTER
 62
     2
 10
67.000000
 20
81.344322
 11
67.000000
 21
90.772072
  0
LINE
  8
0
  6
CENTER
 62
     2
 10
-11.309788
 20
104.000008
 11
-20.736328
 21
104.000008
  0
LINE
  8
0
  6
CENTER
 62
     2
 10
-16.000011
 20
99.344330
 11
-16.000011
 21
108.772064
  0
LINE
  8
0
 62
     4
 10
-68.000000
 20
81.999992
 11
-68.000000
 21
83.999985
  0
LINE
  8
0
 62
     1
 10
-46.328133
 20
79.249985
 11
-45.740711
 21
85.964264
  0
LINE
  8
0
 62
     1
 10
-47.331974
 20
79.249992
 11
-46.740685
 21
86.008446
  0
LINE
  8
0
 62
     4
 10
-68.000000
 20
83.000008
 11
-58.000000
 21
83.000008
  0
LINE
  8
0
 62
     4
 10
-58.000000
 20
81.499985
 11
-47.135056
 21
81.499985
  0
LINE
  8
0
 62
     4
 10
-58.000000
 20
84.499992
 11
-46.872589
 21
84.499992
  0
LINE
  8
0
 62
     4
 10
-58.000000
 20
81.499985
 11
-58.000000
 21
84.499992
  0
LINE
  8
0
 62
     4
 10
-46.131233
 20
81.499985
 11
-20.000000
 21
81.499985
  0
LINE
  8
0
 62
     4
 10
-45.868767
 20
84.499992
 11
-20.000000
 21
84.499992
  0
LINE
  8
0
 62
     4
 10
-68.000000
 20
81.999992
 11
-58.000000
 21
81.999992
  0
LINE
  8
0
 62
     4
 10
-68.000000
 20
83.999985
 11
-58.000000
 21
83.999985
  0
LINE
  8
0
  6
CENTER
 62
     1
 10
0.067362
 20
75.000000
 11
-54.842606
 21
75.000000
  0
LINE
  8
0
  6
CENTER
 62
     2
 10
53.816650
 20
75.000000
 11
47.183319
 21
75.000000
  0
LINE
  8
0
  6
CENTER
 62
     2
 10
50.499969
 20
71.733337
 11
50.499969
 21
78.199989
  0
LINE
  8
0
  6
CENTER
 62
     2
 10
36.316643
 20
115.000000
 11
29.683319
 21
115.000000
  0
LINE
  8
0
  6
CENTER
 62
     2
 10
15.499969
 20
111.733337
 11
15.499969
 21
118.200012
  0
LINE
  8
0
  6
CENTER
 62
     2
 10
32.999992
 20
119.655746
 11
32.999992
 21
110.036690
  0
LINE
  8
0
 10
34.999985
 20
116.000000
 11
34.999985
 21
114.000008
  0
LINE
  8
0
 10
30.999985
 20
116.000000
 11
30.999985
 21
114.000008
  0
LINE
  8
0
 62
     4
 10
-3.999739
 20
76.000000
 11
-3.999739
 21
73.999985
  0
LINE
  8
0
 62
     4
 10
-4.499987
 20
73.500000
 11
-12.000008
 21
73.500000
  0
LINE
  8
0
 62
     4
 10
-4.499987
 20
76.500008
 11
-12.000008
 21
76.500008
  0
LINE
  8
0
 62
     4
 10
-4.499940
 20
73.499977
 11
-3.999949
 21
73.999969
  0
LINE
  8
0
 62
     4
 10
-4.000050
 20
75.999992
 11
-4.500040
 21
76.499985
  0
LINE
  8
0
 62
     4
 10
-4.499987
 20
73.500000
 11
-4.499987
 21
76.500008
  0
LINE
  8
0
  6
CENTER
 62
     2
 10
18.816643
 20
75.000000
 11
12.183319
 21
75.000000
  0
LINE
  8
0
  6
CENTER
 62
     2
 10
15.499969
 20
71.733337
 11
15.499969
 21
78.199989
  0
LINE
  8
0
 62
     4
 10
73.999985
 20
80.499969
 11
73.999985
 21
69.499969
  0
LINE
  8
0
 62
     4
 10
71.000000
 20
80.499969
 11
73.999985
 21
80.499969
  0
LINE
  8
0
 62
     4
 10
71.000000
 20
69.499969
 11
73.999985
 21
69.499969
  0
LINE
  8
0
 62
     4
 10
71.230896
 20
79.599243
 11
73.769104
 21
79.599243
  0
LINE
  8
0
 62
     4
 10
71.230896
 20
70.400742
 11
73.769104
 21
70.400742
  0
LINE
  8
0
 62
     4
 10
71.230896
 20
74.099236
 11
73.769104
 21
74.099236
  0
LINE
  8
0
 62
     4
 10
71.230896
 20
75.900772
 11
73.769104
 21
75.900772
  0
LINE
  8
0
 62
     4
 10
71.230865
 20
75.900772
 11
71.230865
 21
74.099236
  0
LINE
  8
0
 62
     4
 10
73.769104
 20
75.900772
 11
73.769104
 21
74.099236
  0
LINE
  8
0
 62
     4
 10
71.230865
 20
80.499969
 11
71.230865
 21
79.599243
  0
LINE
  8
0
 62
     4
 10
73.769104
 20
79.599243
 11
73.769104
 21
80.499969
  0
LINE
  8
0
 62
     4
 10
71.230865
 20
70.400742
 11
71.230865
 21
69.499969
  0
LINE
  8
0
 62
     4
 10
73.769104
 20
70.400742
 11
73.769104
 21
69.499969
  0
LINE
  8
0
 62
     4
 10
-23.000000
 20
69.500015
 11
-23.000000
 21
80.500031
  0
LINE
  8
0
 62
     4
 10
-20.000000
 20
69.500015
 11
-23.000000
 21
69.500015
  0
LINE
  8
0
 62
     4
 10
-20.000000
 20
80.500031
 11
-23.000000
 21
80.500031
  0
LINE
  8
0
 62
     4
 10
-20.230896
 20
70.400742
 11
-22.769104
 21
70.400742
  0
LINE
  8
0
 62
     4
 10
-20.230896
 20
79.599266
 11
-22.769104
 21
79.599266
  0
LINE
  8
0
 62
     4
 10
-20.230896
 20
75.900772
 11
-22.769104
 21
75.900772
  0
LINE
  8
0
 62
     4
 10
-20.230896
 20
74.099236
 11
-22.769104
 21
74.099236
  0
LINE
  8
0
 62
     4
 10
-20.230881
 20
74.099236
 11
-20.230881
 21
75.900772
  0
LINE
  8
0
 62
     4
 10
-22.769104
 20
74.099236
 11
-22.769104
 21
75.900772
  0
LINE
  8
0
 62
     4
 10
-20.230881
 20
69.500015
 11
-20.230881
 21
70.400742
  0
LINE
  8
0
 62
     4
 10
-22.769104
 20
70.400742
 11
-22.769104
 21
69.500015
  0
LINE
  8
0
 62
     4
 10
-20.230881
 20
79.599266
 11
-20.230881
 21
80.500031
  0
LINE
  8
0
 62
     4
 10
-22.769104
 20
79.599266
 11
-22.769104
 21
80.500031
  0
LINE
  8
0
 62
     4
 10
-23.500015
 20
80.999954
 11
-20.000000
 21
80.999954
  0
LINE
  8
0
 62
     4
 10
-23.500029
 20
80.999969
 11
-25.000029
 21
80.499969
  0
LINE
  8
0
 62
     4
 10
-25.000011
 20
80.499969
 11
-25.000011
 21
80.000000
  0
LINE
  8
0
 62
     4
 10
-23.500015
 20
80.999954
 11
-23.500015
 21
80.000000
  0
LINE
  8
0
 10
3.999969
 20
89.499992
 11
-12.000008
 21
89.499992
  0
LINE
  8
0
 10
3.999969
 20
96.499985
 11
-12.000008
 21
96.499985
  0
LINE
  8
0
 10
3.999969
 20
88.500000
 11
-12.000008
 21
88.500000
  0
LINE
  8
0
 10
63.000000
 20
96.499985
 11
62.000000
 21
96.499985
  0
LINE
  8
0
 10
63.000000
 20
89.499992
 11
62.000000
 21
89.499992
  0
LINE
  8
0
 10
63.000000
 20
88.500000
 11
62.000000
 21
88.500000
  0
LINE
  8
0
  6
CENTER
 62
     2
 10
18.816643
 20
115.000000
 11
12.183319
 21
115.000000
  0
LINE
  8
0
 10
-11.000011
 20
113.249992
 11
-11.000011
 21
115.749992
  0
LINE
  8
0
 10
-31.000000
 20
113.249992
 11
-31.000000
 21
115.749985
  0
LINE
  8
0
 10
-22.399994
 20
111.749992
 11
-22.399994
 21
117.250000
  0
LINE
  8
0
 10
-20.000000
 20
111.749992
 11
-20.000000
 21
117.250000
  0
LINE
  8
0
 10
-22.111069
 20
114.499992
 11
-20.288925
 21
114.499992
  0
LINE
  8
0
 10
-22.399994
 20
111.749992
 11
-20.000000
 21
111.749992
  0
LINE
  8
0
 10
-22.399994
 20
117.250000
 11
-20.000000
 21
117.250000
  0
LINE
  8
0
 10
-30.750000
 20
115.999992
 11
-22.399994
 21
115.999992
  0
LINE
  8
0
 10
-30.750002
 20
112.999992
 11
-22.399994
 21
112.999992
  0
LINE
  8
0
 62
     2
 10
-31.000000
 20
115.749992
 11
-22.399994
 21
115.749992
  0
LINE
  8
0
 62
     2
 10
-31.000000
 20
113.249992
 11
-22.399994
 21
113.249992
  0
LINE
  8
0
 10
-30.749985
 20
115.999969
 11
-30.999987
 21
115.749962
  0
LINE
  8
0
 10
-31.000011
 20
113.249985
 11
-30.750017
 21
112.999992
  0
LINE
  8
0
 10
-30.750000
 20
112.999992
 11
-30.750000
 21
115.999992
  0
LINE
  8
0
 10
-11.250011
 20
112.999992
 11
-11.250011
 21
115.999992
  0
LINE
  8
0
 10
-11.249996
 20
112.999977
 11
-10.999995
 21
113.249977
  0
LINE
  8
0
 10
-11.250008
 20
115.999985
 11
-11.000015
 21
115.749992
  0
LINE
  8
0
 10
-12.000008
 20
115.999992
 11
-11.250011
 21
115.999992
  0
LINE
  8
0
 62
     2
 10
-12.000008
 20
115.749992
 11
-11.000011
 21
115.749992
  0
LINE
  8
0
 62
     2
 10
-12.000008
 20
113.249992
 11
-11.000011
 21
113.249992
  0
LINE
  8
0
 10
-12.000008
 20
112.999992
 11
-11.250011
 21
112.999992
  0
LINE
  8
0
 10
62.000000
 20
115.599976
 11
62.000000
 21
113.399986
  0
LINE
  8
0
 10
71.000000
 20
117.249977
 11
71.000000
 21
111.749992
  0
LINE
  8
0
 10
62.000015
 20
113.249992
 11
62.000015
 21
115.749992
  0
LINE
  8
0
 10
82.000000
 20
113.249992
 11
82.000000
 21
115.749985
  0
LINE
  8
0
 10
73.399994
 20
111.749992
 11
73.399994
 21
117.250000
  0
LINE
  8
0
 10
71.000000
 20
111.749992
 11
71.000000
 21
117.250000
  0
LINE
  8
0
 10
73.111069
 20
114.499992
 11
71.288925
 21
114.499992
  0
LINE
  8
0
 10
73.399994
 20
111.749992
 11
71.000000
 21
111.749992
  0
LINE
  8
0
 10
73.399994
 20
117.250000
 11
71.000000
 21
117.250000
  0
LINE
  8
0
 10
81.750000
 20
115.999992
 11
73.399994
 21
115.999992
  0
LINE
  8
0
 10
81.750000
 20
112.999992
 11
73.399994
 21
112.999992
  0
LINE
  8
0
 62
     2
 10
82.000000
 20
115.749992
 11
73.399994
 21
115.749992
  0
LINE
  8
0
 62
     2
 10
82.000000
 20
113.249992
 11
73.399994
 21
113.249992
  0
LINE
  8
0
 10
81.749947
 20
115.999947
 11
81.999947
 21
115.749939
  0
LINE
  8
0
 10
81.999985
 20
113.249977
 11
81.749992
 21
112.999985
  0
LINE
  8
0
 10
81.750000
 20
112.999992
 11
81.750000
 21
115.999992
  0
LINE
  8
0
 10
62.250015
 20
112.999992
 11
62.250015
 21
115.999992
  0
LINE
  8
0
 10
62.249992
 20
112.999977
 11
62.000000
 21
113.249977
  0
LINE
  8
0
 10
62.250004
 20
116.000008
 11
62.000004
 21
115.750000
  0
LINE
  8
0
 10
63.000008
 20
115.999992
 11
62.250015
 21
115.999992
  0
LINE
  8
0
 62
     2
 10
63.000008
 20
115.749992
 11
62.000015
 21
115.749992
  0
LINE
  8
0
 62
     2
 10
63.000008
 20
113.249992
 11
62.000015
 21
113.249992
  0
LINE
  8
0
 10
63.000008
 20
112.999992
 11
62.250015
 21
112.999992
  0
LINE
  8
0
  6
PHANTOM
 62
     3
 10
41.749981
 20
125.500000
 11
41.749981
 21
36.276192
  0
LINE
  8
0
  6
PHANTOM
 62
     3
 10
0.999969
 20
36.276192
 11
0.999969
 21
145.500000
  0
LINE
  8
0
  6
PHANTOM
 62
     3
 10
24.249981
 20
36.276192
 11
24.249981
 21
135.500000
  0
LINE
  8
0
 10
-20.000000
 20
120.499985
 11
71.000000
 21
120.499985
  0
LINE
  8
0
 62
     4
 10
-144.000015
 20
81.099983
 11
-144.000015
 21
77.099998
  0
LINE
  8
0
 62
     4
 10
-148.000015
 20
77.099998
 11
-143.000015
 21
77.099998
  0
LINE
  8
0
 62
     4
 10
-148.000015
 20
81.099983
 11
-143.000015
 21
81.099983
  0
LINE
  8
0
  6
CENTER
 62
     2
 10
-145.575363
 20
99.000023
 11
-138.289642
 21
99.000023
  0
LINE
  8
0
  6
CENTER
 62
     2
 10
-142.000015
 20
102.618645
 11
-142.000015
 21
95.380554
  0
LINE
  8
0
  6
CENTER
 62
     2
 10
-138.000046
 20
114.500008
 11
-128.998444
 21
114.500008
  0
LINE
  8
0
  6
CENTER
 62
     1
 10
-127.642838
 20
75.000015
 11
-144.309540
 21
75.000015
  0
LINE
  8
0
  6
CENTER
 62
     1
 10
-136.000015
 20
82.985703
 11
-136.000015
 21
67.176186
  0
LINE
  8
0
 62
     4
 10
-132.989609
 20
72.000008
 11
-139.010422
 21
72.000008
  0
LINE
  8
0
 62
     4
 10
-132.989609
 20
78.000008
 11
-139.010422
 21
78.000008
  0
LINE
  8
0
 62
     4
 10
-143.000015
 20
81.099983
 11
-143.000015
 21
77.099998
  0
LINE
  8
0
 10
-150.000015
 20
120.500008
 11
-130.500031
 21
120.500008
  0
LINE
  8
0
 10
-150.000015
 20
69.500008
 11
-130.500031
 21
69.500008
  0
LINE
  8
0
 10
-150.000015
 20
120.500008
 11
-150.000015
 21
69.500008
  0
LINE
  8
0
 10
-130.500031
 20
120.500008
 11
-130.500031
 21
114.803879
  0
LINE
  8
0
 10
-130.500031
 20
73.526237
 11
-130.500031
 21
69.500008
  0
LINE
  8
0
 62
     4
 10
-147.750015
 20
76.000015
 11
-147.500015
 21
76.000015
  0
LINE
  8
0
 62
     4
 10
-148.000031
 20
77.000008
 11
-147.500015
 21
77.000008
  0
LINE
  8
0
 62
     4
 10
-148.000031
 20
81.200012
 11
-148.000031
 21
77.000008
  0
LINE
  8
0
 62
     4
 10
-147.500015
 20
84.500008
 11
-147.500015
 21
81.200012
  0
LINE
  8
0
 62
     4
 10
-148.000031
 20
81.200012
 11
-147.500015
 21
81.200012
  0
LINE
  8
0
 62
     4
 10
-147.333054
 20
84.700005
 11
-144.000015
 21
84.700005
  0
LINE
  8
0
 62
     4
 10
-147.500015
 20
77.000008
 11
-147.500015
 21
76.000015
  0
LINE
  8
0
 62
     4
 10
-144.000015
 20
81.200012
 11
-142.800034
 21
81.200012
  0
LINE
  8
0
 62
     4
 10
-144.000015
 20
84.700005
 11
-144.000015
 21
81.200012
  0
LINE
  8
0
 62
     4
 10
-142.800034
 20
81.200012
 11
-142.800034
 21
77.000008
  0
LINE
  8
0
 62
     4
 10
-142.800034
 20
77.000008
 11
-142.327881
 21
77.000008
  0
LINE
  8
0
  6
CENTER
 62
     2
 10
-145.575363
 20
111.000015
 11
-138.289642
 21
111.000015
  0
LINE
  8
0
  6
CENTER
 62
     2
 10
-142.000015
 20
114.618637
 11
-142.000015
 21
107.380539
  0
LINE
  8
0
 10
-130.500031
 20
114.196167
 11
-130.500031
 21
76.473907
  0
LINE
  8
0
 10
-130.000000
 20
70.499969
 11
-130.500000
 21
69.999977
  0
LINE
  8
0
 10
-130.000015
 20
119.500015
 11
-130.500031
 21
120.000023
  0
LINE
  8
0
 10
-130.000015
 20
119.500008
 11
-130.000015
 21
70.500008
  0
LINE
  8
0
  6
CENTER
 62
     2
 10
-154.542496
 20
95.000015
 11
-125.284164
 21
95.000015
  0
LINE
  8
0
 10
-130.324509
 20
114.499908
 11
-131.912216
 21
111.749916
  0
LINE
  8
0
 10
-131.912308
 20
117.249969
 11
-130.324600
 21
114.499977
  0
LINE
  8
0
 10
-135.087738
 20
117.249992
 11
-131.912308
 21
117.249992
  0
LINE
  8
0
 10
-136.675369
 20
114.499924
 11
-135.087646
 21
117.249916
  0
LINE
  8
0
 10
-135.087723
 20
111.749992
 11
-136.675430
 21
114.499977
  0
LINE
  8
0
 10
-131.912308
 20
111.750008
 11
-135.087738
 21
111.750008
  0
LINE
  8
0
  6
CENTER
 62
     2
 10
-133.500015
 20
119.238319
 11
-133.500015
 21
109.524033
  0
LINE
  8
0
 62
     4
 10
-141.830917
 20
75.900627
 11
-139.695450
 21
79.599358
  0
LINE
  8
0
 62
     4
 10
-139.695419
 20
70.400726
 11
-141.830841
 21
74.099365
  0
LINE
  8
0
 62
     4
 10
-133.864670
 20
69.499962
 11
-138.135361
 21
69.499962
  0
LINE
  8
0
 62
     4
 10
-130.169205
 20
74.099190
 11
-132.304520
 21
70.400711
  0
LINE
  8
0
 62
     4
 10
-132.304459
 20
79.599289
 11
-130.169144
 21
75.900810
  0
LINE
  8
0
 62
     4
 10
-138.135452
 20
80.499985
 11
-133.864578
 21
80.499985
  0
LINE
  8
0
 10
-132.250031
 20
114.499992
 11
-132.875031
 21
115.582527
  0
LINE
  8
0
 10
-132.875015
 20
115.582542
 11
-134.125015
 21
115.582542
  0
LINE
  8
0
 10
-134.750107
 20
114.500061
 11
-134.125107
 21
115.582588
  0
LINE
  8
0
 10
-134.125076
 20
113.417450
 11
-134.750076
 21
114.499985
  0
LINE
  8
0
 10
-132.875015
 20
113.417473
 11
-134.125015
 21
113.417473
  0
LINE
  8
0
 10
-132.250076
 20
114.500053
 11
-132.875076
 21
113.417519
  0
LINE
  8
0
 62
     4
 10
193.999939
 20
81.099968
 11
193.999939
 21
77.099983
  0
LINE
  8
0
 62
     4
 10
197.999939
 20
77.099983
 11
192.999939
 21
77.099983
  0
LINE
  8
0
 62
     4
 10
197.999939
 20
81.099968
 11
192.999939
 21
81.099968
  0
LINE
  8
0
  6
CENTER
 62
     2
 10
188.499969
 20
114.499992
 11
178.819519
 21
114.499992
  0
LINE
  8
0
  6
CENTER
 62
     1
 10
177.642776
 20
75.000000
 11
194.309464
 21
75.000000
  0
LINE
  8
0
  6
CENTER
 62
     1
 10
185.999954
 20
82.985687
 11
185.999954
 21
67.176170
  0
LINE
  8
0
 62
     4
 10
182.989548
 20
71.999992
 11
189.010361
 21
71.999992
  0
LINE
  8
0
 62
     4
 10
182.989548
 20
77.999992
 11
189.010361
 21
77.999992
  0
LINE
  8
0
 62
     4
 10
192.999939
 20
81.099968
 11
192.999939
 21
77.099983
  0
LINE
  8
0
 10
199.999954
 20
120.499992
 11
180.499954
 21
120.499992
  0
LINE
  8
0
 10
199.999954
 20
69.499992
 11
180.499954
 21
69.499992
  0
LINE
  8
0
 10
199.999954
 20
120.499992
 11
199.999954
 21
69.499992
  0
LINE
  8
0
 10
180.499954
 20
120.499992
 11
180.499954
 21
114.803864
  0
LINE
  8
0
 10
180.499954
 20
73.526352
 11
180.499954
 21
69.499992
  0
LINE
  8
0
 62
     4
 10
197.749939
 20
76.000000
 11
197.499954
 21
76.000000
  0
LINE
  8
0
 62
     4
 10
197.999939
 20
76.999992
 11
197.499954
 21
76.999992
  0
LINE
  8
0
 62
     4
 10
197.999939
 20
81.199997
 11
197.999939
 21
76.999992
  0
LINE
  8
0
 62
     4
 10
197.499954
 20
84.499992
 11
197.499954
 21
81.199997
  0
LINE
  8
0
 62
     4
 10
197.999939
 20
81.199997
 11
197.499954
 21
81.199997
  0
LINE
  8
0
 62
     4
 10
197.332977
 20
84.699989
 11
193.999954
 21
84.699989
  0
LINE
  8
0
 62
     4
 10
197.499954
 20
76.999992
 11
197.499954
 21
76.000000
  0
LINE
  8
0
 62
     4
 10
193.999954
 20
81.199997
 11
192.799942
 21
81.199997
  0
LINE
  8
0
 62
     4
 10
193.999954
 20
84.699989
 11
193.999954
 21
81.199997
  0
LINE
  8
0
 62
     4
 10
192.799957
 20
81.199997
 11
192.799957
 21
76.999992
  0
LINE
  8
0
 62
     4
 10
192.799942
 20
76.999992
 11
192.327805
 21
76.999992
  0
LINE
  8
0
 10
180.499954
 20
114.196152
 11
180.499954
 21
76.473740
  0
LINE
  8
0
 10
179.999893
 20
70.499985
 11
180.499893
 21
69.999992
  0
LINE
  8
0
 10
179.999954
 20
119.499992
 11
179.999954
 21
70.499992
  0
LINE
  8
0
 10
179.999985
 20
119.500000
 11
180.499969
 21
119.999977
  0
LINE
  8
0
  6
CENTER
 62
     2
 10
204.542404
 20
95.000000
 11
175.284088
 21
95.000000
  0
LINE
  8
0
 10
180.324570
 20
114.500023
 11
181.912292
 21
111.750023
  0
LINE
  8
0
 10
181.912247
 20
117.250038
 11
180.324539
 21
114.500046
  0
LINE
  8
0
 10
185.087646
 20
117.249977
 11
181.912231
 21
117.249977
  0
LINE
  8
0
 10
186.675354
 20
114.500000
 11
185.087662
 21
117.249992
  0
LINE
  8
0
 10
185.087662
 20
111.749992
 11
186.675400
 21
114.499992
  0
LINE
  8
0
 10
181.912231
 20
111.749992
 11
185.087646
 21
111.749992
  0
LINE
  8
0
  6
CENTER
 62
     2
 10
183.499954
 20
119.238304
 11
183.499954
 21
109.524017
  0
LINE
  8
0
 62
     4
 10
197.249954
 20
82.949982
 11
197.249954
 21
81.099968
  0
LINE
  8
0
 62
     4
 10
194.249939
 20
82.949982
 11
194.249939
 21
81.099968
  0
LINE
  8
0
 62
     4
 10
180.169067
 20
75.900681
 11
182.304535
 21
79.599419
  0
LINE
  8
0
 62
     4
 10
182.304642
 20
70.400749
 11
180.169235
 21
74.099388
  0
LINE
  8
0
 62
     4
 10
188.135284
 20
69.499947
 11
183.864609
 21
69.499947
  0
LINE
  8
0
 62
     4
 10
191.830765
 20
74.099236
 11
189.695450
 21
70.400764
  0
LINE
  8
0
 62
     4
 10
189.695389
 20
79.599266
 11
191.830719
 21
75.900772
  0
LINE
  8
0
 62
     4
 10
183.864502
 20
80.499969
 11
188.135391
 21
80.499969
  0
LINE
  8
0
 10
184.750031
 20
114.500046
 11
184.125031
 21
115.582581
  0
LINE
  8
0
 10
184.124954
 20
115.582527
 11
182.874954
 21
115.582527
  0
LINE
  8
0
 10
182.249985
 20
114.499954
 11
182.874985
 21
115.582489
  0
LINE
  8
0
 10
182.875046
 20
113.417526
 11
182.250046
 21
114.500061
  0
LINE
  8
0
 10
184.124954
 20
113.417458
 11
182.874954
 21
113.417458
  0
LINE
  8
0
 10
184.750000
 20
114.499954
 11
184.125000
 21
113.417419
  0
LINE
  8
0
 10
-20.000002
 20
10.776205
 11
-20.000002
 21
-8.723795
  0
LINE
  8
0
 10
-12.000010
 20
10.776205
 11
-12.000010
 21
-8.723795
  0
LINE
  8
0
 10
71.000000
 20
10.776205
 11
71.000000
 21
-8.723795
  0
LINE
  8
0
 10
63.000000
 20
10.776205
 11
63.000000
 21
-8.723795
  0
LINE
  8
0
 10
-20.000002
 20
10.776205
 11
-12.000010
 21
10.776205
  0
LINE
  8
0
 10
4.999983
 20
11.276190
 11
61.000000
 21
11.276190
  0
LINE
  8
0
 10
3.999968
 20
10.276205
 11
3.999968
 21
-3.723795
  0
LINE
  8
0
 10
62.000000
 20
10.276205
 11
62.000000
 21
-3.723795
  0
LINE
  8
0
 10
3.999970
 20
10.276212
 11
4.999966
 21
11.276207
  0
LINE
  8
0
 10
62.000072
 20
10.276257
 11
61.000076
 21
11.276260
  0
LINE
  8
0
 10
3.999990
 20
-3.723795
 11
62.000000
 21
-3.723795
  0
LINE
  8
0
 10
3.999990
 20
10.276205
 11
62.000000
 21
10.276205
  0
LINE
  8
0
 10
-12.000010
 20
-6.223795
 11
63.000000
 21
-6.223795
  0
LINE
  8
0
 10
-12.000010
 20
0.276197
 11
3.999968
 21
0.276197
  0
LINE
  8
0
 10
62.000000
 20
0.276197
 11
63.000000
 21
0.276197
  0
LINE
  8
0
 62
     4
 10
2.499981
 20
-3.223795
 11
2.499981
 21
-6.223795
  0
LINE
  8
0
 62
     4
 10
0.999977
 20
-2.723803
 11
0.999977
 21
-6.223795
  0
LINE
  8
0
 62
     1
 10
-47.258755
 20
-7.637109
 11
-46.740669
 21
-1.715348
  0
LINE
  8
0
 62
     4
 10
-68.000000
 20
-4.723795
 11
-58.000000
 21
-4.723795
  0
LINE
  8
0
 62
     4
 10
-58.000000
 20
-6.223795
 11
-47.135056
 21
-6.223795
  0
LINE
  8
0
 62
     4
 10
-58.000000
 20
-3.223803
 11
-46.872589
 21
-3.223803
  0
LINE
  8
0
 62
     4
 10
-58.000000
 20
-6.223795
 11
-58.000000
 21
-3.223803
  0
LINE
  8
0
 62
     4
 10
-46.131233
 20
-6.223795
 11
-25.000013
 21
-6.223795
  0
LINE
  8
0
 62
     4
 10
-45.868767
 20
-3.223803
 11
-25.000013
 21
-3.223803
  0
LINE
  8
0
 62
     4
 10
-68.000000
 20
-5.723795
 11
-58.000000
 21
-5.723795
  0
LINE
  8
0
 62
     4
 10
-68.000000
 20
-3.723795
 11
-58.000000
 21
-3.723795
  0
LINE
  8
0
 62
     4
 10
-68.000000
 20
-5.723795
 11
-68.000000
 21
-3.723795
  0
LINE
  8
0
 62
     1
 10
-46.260166
 20
-7.696973
 11
-45.740707
 21
-1.759510
  0
LINE
  8
0
 62
     4
 10
2.499981
 20
-3.223795
 11
3.999968
 21
-3.223795
  0
LINE
  8
0
 62
     4
 10
-4.499989
 20
3.776197
 11
-12.000010
 21
3.776197
  0
LINE
  8
0
 62
     4
 10
-4.499989
 20
6.776213
 11
-12.000010
 21
6.776213
  0
LINE
  8
0
 62
     4
 10
-4.499972
 20
3.776176
 11
-3.999983
 21
4.276165
  0
LINE
  8
0
 62
     4
 10
-4.000043
 20
6.276202
 11
-4.500041
 21
6.776194
  0
LINE
  8
0
 62
     4
 10
-4.499989
 20
3.776205
 11
-4.499989
 21
6.776213
  0
LINE
  8
0
 62
     4
 10
-3.999741
 20
6.276205
 11
-3.999741
 21
4.276190
  0
LINE
  8
0
 62
     4
 10
-52.000023
 20
1.526190
 11
-52.000023
 21
9.026190
  0
LINE
  8
0
 62
     4
 10
-42.000023
 20
9.526205
 11
-51.500023
 21
9.526205
  0
LINE
  8
0
 62
     4
 10
-42.000023
 20
1.026197
 11
-51.500023
 21
1.026197
  0
LINE
  8
0
 62
     4
 10
-23.000002
 20
0.276197
 11
-41.250000
 21
0.276197
  0
LINE
  8
0
 62
     4
 10
-23.000002
 20
10.276205
 11
-41.250008
 21
10.276205
  0
LINE
  8
0
 62
     4
 10
-42.000008
 20
1.026190
 11
-42.000008
 21
9.526190
  0
LINE
  8
0
 62
     4
 10
-41.250034
 20
0.276147
 11
-42.000034
 21
1.026144
  0
LINE
  8
0
 62
     4
 10
-41.250072
 20
10.276254
 11
-42.000072
 21
9.526253
  0
LINE
  8
0
 62
     1
 10
-23.000002
 20
0.776190
 11
-41.749992
 21
0.776190
  0
LINE
  8
0
 62
     1
 10
-23.000002
 20
9.776197
 11
-41.750008
 21
9.776197
  0
LINE
  8
0
 62
     4
 10
-41.250008
 20
0.276182
 11
-41.250008
 21
10.276175
  0
LINE
  8
0
 62
     4
 10
-48.000015
 20
2.265791
 11
-48.000015
 21
8.286589
  0
LINE
  8
0
 62
     4
 10
-52.000023
 20
8.286596
 11
-48.000015
 21
8.286596
  0
LINE
  8
0
 62
     4
 10
-52.000015
 20
2.265799
 11
-48.000015
 21
2.265799
  0
LINE
  8
0
 62
     1
 10
-51.999950
 20
8.276200
 11
-47.999962
 21
2.265820
  0
LINE
  8
0
 62
     1
 10
-51.999939
 20
2.276137
 11
-47.999943
 21
8.286537
  0
LINE
  8
0
 62
     4
 10
-51.500000
 20
1.026223
 11
-51.999992
 21
1.526216
  0
LINE
  8
0
 62
     4
 10
-52.000080
 20
9.026251
 11
-51.500088
 21
9.526246
  0
LINE
  8
0
 62
     4
 10
-51.500023
 20
1.026190
 11
-51.500023
 21
2.265783
  0
LINE
  8
0
 62
     4
 10
-51.500023
 20
8.286589
 11
-51.500023
 21
9.526190
  0
LINE
  8
0
 10
-12.000010
 20
-1.523798
 11
3.999968
 21
-1.523798
  0
LINE
  8
0
 62
     4
 10
-23.500017
 20
-1.723803
 11
-20.000002
 21
-1.723803
  0
LINE
  8
0
 10
62.000000
 20
-2.023798
 11
63.000000
 21
-2.023798
  0
LINE
  8
0
  6
CENTER
 62
     1
 10
-1.086182
 20
5.276197
 11
-55.700897
 21
5.276197
  0
LINE
  8
0
 10
-20.000002
 20
-8.723795
 11
71.000000
 21
-8.723795
  0
LINE
  8
0
 10
-12.000010
 20
0.776197
 11
3.999968
 21
0.776197
  0
LINE
  8
0
 10
-3.999741
 20
5.776205
 11
3.999968
 21
5.776205
  0
LINE
  8
0
 10
62.000000
 20
0.776197
 11
63.000000
 21
0.776197
  0
LINE
  8
0
 62
     4
 10
21.499968
 20
-3.723795
 11
21.499968
 21
-6.223795
  0
LINE
  8
0
 62
     4
 10
19.999983
 20
-3.723795
 11
19.999983
 21
-6.223795
  0
LINE
  8
0
 62
     4
 10
45.999985
 20
-3.723795
 11
45.999985
 21
-6.223795
  0
LINE
  8
0
 62
     4
 10
47.499985
 20
-3.723795
 11
47.499985
 21
-6.223795
  0
LINE
  8
0
 62
     4
 10
0.999977
 20
-2.723779
 11
2.499977
 21
-3.223780
  0
LINE
  8
0
 62
     4
 10
-3.500034
 20
-1.723803
 11
-3.500034
 21
-2.723803
  0
LINE
  8
0
 62
     4
 10
-12.000010
 20
-1.723803
 11
-3.500034
 21
-1.723803
  0
LINE
  8
0
 62
     4
 10
-12.000010
 20
-2.723803
 11
0.999977
 21
-2.723803
  0
LINE
  8
0
 10
63.000000
 20
10.776205
 11
71.000000
 21
10.776205
  0
LINE
  8
0
 62
     4
 10
62.500275
 20
3.776197
 11
63.000000
 21
3.776197
  0
LINE
  8
0
 62
     4
 10
62.500275
 20
6.776213
 11
63.000000
 21
6.776213
  0
LINE
  8
0
 62
     4
 10
62.500206
 20
3.776169
 11
62.000206
 21
4.276156
  0
LINE
  8
0
 62
     4
 10
62.000286
 20
6.276232
 11
62.500301
 21
6.776239
  0
LINE
  8
0
 62
     4
 10
62.500275
 20
3.776205
 11
62.500275
 21
6.776213
  0
LINE
  8
0
 10
62.000000
 20
6.276205
 11
62.000000
 21
4.276190
  0
LINE
  8
0
 62
     4
 10
103.000046
 20
1.526190
 11
103.000046
 21
9.026190
  0
LINE
  8
0
 62
     4
 10
93.000046
 20
9.526205
 11
102.500031
 21
9.526205
  0
LINE
  8
0
 62
     4
 10
93.000015
 20
1.026197
 11
102.500031
 21
1.026197
  0
LINE
  8
0
 62
     4
 10
74.000015
 20
0.276197
 11
92.250000
 21
0.276197
  0
LINE
  8
0
 62
     4
 10
74.000015
 20
10.276205
 11
92.250031
 21
10.276205
  0
LINE
  8
0
 62
     4
 10
93.000015
 20
1.026190
 11
93.000015
 21
9.526190
  0
LINE
  8
0
 62
     4
 10
92.249977
 20
0.276216
 11
92.999962
 21
1.026214
  0
LINE
  8
0
 62
     4
 10
92.250038
 20
10.276204
 11
93.000015
 21
9.526217
  0
LINE
  8
0
 62
     1
 10
74.000015
 20
0.776190
 11
92.749985
 21
0.776190
  0
LINE
  8
0
 62
     1
 10
74.000015
 20
9.776197
 11
92.750015
 21
9.776197
  0
LINE
  8
0
 62
     4
 10
92.250000
 20
0.276182
 11
92.250000
 21
10.276175
  0
LINE
  8
0
 62
     4
 10
99.000015
 20
2.265791
 11
99.000015
 21
8.286589
  0
LINE
  8
0
 62
     4
 10
103.000046
 20
8.286596
 11
99.000015
 21
8.286596
  0
LINE
  8
0
 62
     4
 10
103.000046
 20
2.265799
 11
99.000015
 21
2.265799
  0
LINE
  8
0
 62
     1
 10
102.999977
 20
8.276190
 11
98.999992
 21
2.265827
  0
LINE
  8
0
 62
     1
 10
102.999969
 20
2.276175
 11
98.999962
 21
8.286596
  0
LINE
  8
0
 62
     4
 10
102.500084
 20
1.026114
 11
103.000084
 21
1.526110
  0
LINE
  8
0
 62
     4
 10
103.000175
 20
9.026323
 11
102.500168
 21
9.526318
  0
LINE
  8
0
 62
     4
 10
102.500031
 20
1.026190
 11
102.500031
 21
2.265783
  0
LINE
  8
0
 62
     4
 10
102.500031
 20
8.286589
 11
102.500031
 21
9.526190
  0
LINE
  8
0
  6
CENTER
 62
     1
 10
58.842056
 20
5.276197
 11
106.700912
 21
5.276197
  0
LINE
  8
0
 10
61.999985
 20
8.876196
 11
61.999985
 21
6.676199
  0
LINE
  8
0
 62
     4
 10
-22.999987
 20
-0.223803
 11
-22.999987
 21
10.776228
  0
LINE
  8
0
 62
     4
 10
-22.769060
 20
11.176199
 11
-20.230944
 21
11.176199
  0
LINE
  8
0
 62
     4
 10
-20.000006
 20
10.776201
 11
-20.230947
 21
11.176205
  0
LINE
  8
0
 62
     4
 10
-23.000021
 20
10.776224
 11
-22.769091
 21
11.176208
  0
LINE
  8
0
 62
     4
 10
-23.000004
 20
-0.223848
 11
-22.769085
 21
-0.623827
  0
LINE
  8
0
 62
     4
 10
-19.999985
 20
-0.223797
 11
-20.230928
 21
-0.623798
  0
LINE
  8
0
 62
     4
 10
-22.769060
 20
-0.623812
 11
-20.230944
 21
-0.623812
  0
LINE
  8
0
 62
     4
 10
-22.769060
 20
7.411650
 11
-20.230944
 21
7.411650
  0
LINE
  8
0
 62
     4
 10
-22.769060
 20
8.971708
 11
-20.230944
 21
8.971708
  0
LINE
  8
0
 62
     4
 10
-22.769060
 20
1.580809
 11
-20.230944
 21
1.580809
  0
LINE
  8
0
 62
     4
 10
-22.769060
 20
3.140760
 11
-20.230944
 21
3.140760
  0
LINE
  8
0
 62
     4
 10
-22.769060
 20
-0.554659
 11
-20.230944
 21
-0.554659
  0
LINE
  8
0
 62
     4
 10
-22.769060
 20
11.107038
 11
-20.230944
 21
11.107038
  0
LINE
  8
0
 62
     4
 10
-22.769060
 20
1.580809
 11
-22.769060
 21
3.140760
  0
LINE
  8
0
 62
     4
 10
-22.769060
 20
7.411650
 11
-22.769060
 21
8.971708
  0
LINE
  8
0
 62
     4
 10
-20.230944
 20
8.971708
 11
-20.230944
 21
7.411650
  0
LINE
  8
0
 62
     4
 10
-20.230944
 20
3.140760
 11
-20.230944
 21
1.580809
  0
LINE
  8
0
 62
     4
 10
-22.769060
 20
-0.623812
 11
-22.769060
 21
-0.554659
  0
LINE
  8
0
 62
     4
 10
-20.230944
 20
-0.554659
 11
-20.230944
 21
-0.623812
  0
LINE
  8
0
 62
     4
 10
-22.769060
 20
11.107038
 11
-22.769060
 21
11.176199
  0
LINE
  8
0
 62
     4
 10
-20.230944
 20
11.107038
 11
-20.230944
 21
11.176199
  0
LINE
  8
0
 62
     4
 10
71.000000
 20
10.776228
 11
71.000000
 21
-0.223818
  0
LINE
  8
0
 62
     4
 10
73.999985
 20
10.776197
 11
73.999985
 21
-0.223833
  0
LINE
  8
0
 62
     4
 10
73.769058
 20
-0.623812
 11
71.230942
 21
-0.623812
  0
LINE
  8
0
 62
     4
 10
71.000076
 20
-0.223805
 11
71.231018
 21
-0.623808
  0
LINE
  8
0
 62
     4
 10
74.000069
 20
-0.223851
 11
73.769150
 21
-0.623814
  0
LINE
  8
0
 62
     4
 10
74.000053
 20
10.776289
 11
73.769135
 21
11.176268
  0
LINE
  8
0
 62
     4
 10
71.000015
 20
10.776160
 11
71.230957
 21
11.176167
  0
LINE
  8
0
 62
     4
 10
73.769058
 20
11.176199
 11
71.230942
 21
11.176199
  0
LINE
  8
0
 62
     4
 10
73.769058
 20
3.140745
 11
71.230942
 21
3.140745
  0
LINE
  8
0
 62
     4
 10
73.769058
 20
1.580687
 11
71.230942
 21
1.580687
  0
LINE
  8
0
 62
     4
 10
73.769058
 20
8.971586
 11
71.230942
 21
8.971586
  0
LINE
  8
0
 62
     4
 10
73.769058
 20
7.411634
 11
71.230942
 21
7.411634
  0
LINE
  8
0
 62
     4
 10
73.769058
 20
11.107038
 11
71.230942
 21
11.107038
  0
LINE
  8
0
 62
     4
 10
73.769058
 20
-0.554644
 11
71.230942
 21
-0.554644
  0
LINE
  8
0
 62
     4
 10
73.769058
 20
8.971586
 11
73.769058
 21
7.411634
  0
LINE
  8
0
 62
     4
 10
73.769058
 20
3.140745
 11
73.769058
 21
1.580687
  0
LINE
  8
0
 62
     4
 10
71.230942
 20
1.580687
 11
71.230942
 21
3.140745
  0
LINE
  8
0
 62
     4
 10
71.230942
 20
7.411634
 11
71.230942
 21
8.971586
  0
LINE
  8
0
 62
     4
 10
73.769058
 20
11.176199
 11
73.769058
 21
11.107038
  0
LINE
  8
0
 62
     4
 10
71.230942
 20
11.107038
 11
71.230942
 21
11.176199
  0
LINE
  8
0
 62
     4
 10
73.769058
 20
-0.554644
 11
73.769058
 21
-0.623812
  0
LINE
  8
0
 62
     4
 10
71.230942
 20
-0.554644
 11
71.230942
 21
-0.623812
  0
LINE
  8
0
 62
     4
 10
-23.500017
 20
-6.723803
 11
-20.000002
 21
-6.723803
  0
LINE
  8
0
 62
     4
 10
-23.500029
 20
-6.723825
 11
-25.000025
 21
-6.223826
  0
LINE
  8
0
 62
     4
 10
-25.000013
 20
-3.223803
 11
-25.000013
 21
-6.223795
  0
LINE
  8
0
 62
     4
 10
-23.500021
 20
-2.723802
 11
-25.000021
 21
-3.223803
  0
LINE
  8
0
 62
     4
 10
-23.500017
 20
-1.723803
 11
-23.500017
 21
-6.723803
  0
LINE
  8
0
 62
     4
 10
-23.500017
 20
-2.723803
 11
-20.000002
 21
-2.723803
  0
LINE
  8
0
 10
-3.999741
 20
4.776197
 11
3.999968
 21
4.776197
  0
LINE
  8
0
 10
-11.000013
 20
6.776213
 11
-11.000013
 21
9.026205
  0
LINE
  8
0
 10
-11.250013
 20
6.776213
 11
-11.250013
 21
9.276205
  0
LINE
  8
0
 10
-11.250007
 20
9.276203
 11
-11.000011
 21
9.026209
  0
LINE
  8
0
 10
-12.000010
 20
9.276205
 11
-11.250013
 21
9.276205
  0
LINE
  8
0
 62
     2
 10
-12.000010
 20
9.026205
 11
-11.000013
 21
9.026205
  0
LINE
  8
0
 10
62.250015
 20
6.525929
 11
62.250015
 21
9.276205
  0
LINE
  8
0
 10
62.125137
 20
6.401057
 11
62.000000
 21
6.526195
  0
LINE
  8
0
 10
62.249985
 20
9.276237
 11
61.999989
 21
9.026240
  0
LINE
  8
0
 10
63.000008
 20
9.276205
 11
62.250015
 21
9.276205
  0
LINE
  8
0
 62
     2
 10
63.000008
 20
9.026205
 11
62.000015
 21
9.026205
  0
LINE
  8
0
 62
     2
 10
62.250015
 20
6.526205
 11
62.000008
 21
6.526205
  0
LINE
  8
0
  6
CENTER
 62
     2
 10
-16.000006
 20
-2.723803
 11
-16.000006
 21
-12.174850
  0
LINE
  8
0
  6
CENTER
 62
     2
 10
67.000000
 20
-2.723803
 11
67.000000
 21
-12.174850
  0
LINE
  8
0
  6
PHANTOM
 62
     3
 10
2.999968
 20
36.276192
 11
2.999968
 21
-33.723793
  0
LINE
  8
0
  6
PHANTOM
 62
     3
 10
41.749985
 20
36.276192
 11
41.749985
 21
-33.723793
  0
LINE
  8
0
  6
PHANTOM
 62
     3
 10
24.249983
 20
-33.723793
 11
24.249983
 21
36.276192
  0
LINE
  8
0
  6
PHANTOM
 62
     3
 10
0.999969
 20
36.276192
 11
2.999968
 21
36.276192
  0
LINE
  8
0
  6
PHANTOM
 62
     3
 10
0.999969
 20
-33.723793
 11
2.999968
 21
-33.723793
  0
LINE
  8
0
 10
71.000023
 20
-115.500000
 11
-19.999975
 21
-115.500000
  0
LINE
  8
0
 62
     4
 10
-23.499990
 20
-71.999962
 11
-19.999975
 21
-71.999962
  0
LINE
  8
0
 62
     4
 10
-24.999987
 20
-72.499962
 11
-24.999987
 21
-75.499962
  0
LINE
  8
0
 62
     4
 10
-23.499990
 20
-71.999962
 11
-23.499990
 21
-75.999962
  0
LINE
  8
0
 62
     4
 10
-23.499975
 20
-72.000000
 11
-24.999975
 21
-72.500000
  0
LINE
  8
0
  6
CENTER
 62
     2
 10
56.316689
 20
-112.000000
 11
49.683342
 21
-112.000000
  0
LINE
  8
0
  6
CENTER
 62
     2
 10
53.000023
 20
-115.266663
 11
53.000023
 21
-108.799988
  0
LINE
  8
0
 62
     4
 10
-23.499990
 20
-75.999962
 11
-19.999975
 21
-75.999962
  0
LINE
  8
0
 62
     4
 10
-23.500025
 20
-75.999969
 11
-25.000025
 21
-75.499969
  0
LINE
  8
0
 10
-11.999983
 20
-64.499977
 11
-11.999983
 21
-115.500000
  0
LINE
  8
0
 10
62.000023
 20
-64.499977
 11
62.000023
 21
-70.999992
  0
LINE
  8
0
 10
3.999994
 20
-64.499977
 11
3.999994
 21
-70.999992
  0
LINE
  8
0
 10
-19.999975
 20
-64.499977
 11
-19.999975
 21
-115.500000
  0
LINE
  8
0
 10
71.000023
 20
-64.499977
 11
71.000023
 21
-115.500000
  0
LINE
  8
0
 10
63.000023
 20
-64.499977
 11
63.000023
 21
-115.500000
  0
LINE
  8
0
 62
     4
 10
-67.999977
 20
-73.999962
 11
-57.999977
 21
-73.999962
  0
LINE
  8
0
 62
     4
 10
-57.999977
 20
-72.499962
 11
-47.485008
 21
-72.499962
  0
LINE
  8
0
 62
     4
 10
-57.999977
 20
-75.499962
 11
-47.222542
 21
-75.499962
  0
LINE
  8
0
 62
     4
 10
-57.999977
 20
-72.499962
 11
-57.999977
 21
-75.499962
  0
LINE
  8
0
 62
     4
 10
-46.218712
 20
-75.499962
 11
-24.999987
 21
-75.499962
  0
LINE
  8
0
 62
     4
 10
-67.999977
 20
-72.999962
 11
-57.999977
 21
-72.999962
  0
LINE
  8
0
 62
     4
 10
-67.999977
 20
-74.999962
 11
-57.999977
 21
-74.999962
  0
LINE
  8
0
 62
     4
 10
-67.999962
 20
-72.999962
 11
-67.999962
 21
-74.999962
  0
LINE
  8
0
 62
     4
 10
-22.999975
 20
-64.999992
 11
-41.249977
 21
-64.999992
  0
LINE
  8
0
 62
     4
 10
-51.999992
 20
-66.999977
 11
-51.999992
 21
-72.499962
  0
LINE
  8
0
 62
     4
 10
-47.999985
 20
-65.749977
 11
-47.999985
 21
-66.999977
  0
LINE
  8
0
 62
     4
 10
-47.999977
 20
-66.999977
 11
-51.999992
 21
-66.999977
  0
LINE
  8
0
 62
     4
 10
-41.999985
 20
-65.749977
 11
-47.999977
 21
-65.749977
  0
LINE
  8
0
 62
     4
 10
-41.999985
 20
-65.749977
 11
-41.999985
 21
-72.499962
  0
LINE
  8
0
 62
     4
 10
-41.249916
 20
-65.000015
 11
-41.999935
 21
-65.750031
  0
LINE
  8
0
 62
     1
 10
-22.999975
 20
-65.499992
 11
-41.749969
 21
-65.499992
  0
LINE
  8
0
 62
     4
 10
-41.249985
 20
-64.999962
 11
-41.249985
 21
-72.499962
  0
LINE
  8
0
 62
     4
 10
-51.499992
 20
-66.999977
 11
-51.499992
 21
-72.499962
  0
LINE
  8
0
 62
     4
 10
74.000008
 20
-75.000023
 11
92.250023
 21
-75.000023
  0
LINE
  8
0
 62
     4
 10
74.000008
 20
-65.000008
 11
92.250023
 21
-65.000008
  0
LINE
  8
0
 62
     4
 10
103.000038
 20
-73.000023
 11
103.000038
 21
-67.000023
  0
LINE
  8
0
 62
     4
 10
99.000038
 20
-74.250023
 11
99.000038
 21
-73.000023
  0
LINE
  8
0
 62
     4
 10
99.000038
 20
-73.000023
 11
103.000038
 21
-73.000023
  0
LINE
  8
0
 62
     4
 10
99.000038
 20
-67.000023
 11
103.000038
 21
-67.000023
  0
LINE
  8
0
 62
     4
 10
93.000038
 20
-65.750023
 11
99.000038
 21
-65.750023
  0
LINE
  8
0
 62
     4
 10
93.000038
 20
-74.250023
 11
99.000038
 21
-74.250023
  0
LINE
  8
0
 62
     4
 10
93.000023
 20
-74.250023
 11
93.000023
 21
-65.750023
  0
LINE
  8
0
 62
     4
 10
92.250015
 20
-75.000000
 11
93.000008
 21
-74.250000
  0
LINE
  8
0
 62
     4
 10
92.250046
 20
-65.000053
 11
93.000031
 21
-65.750038
  0
LINE
  8
0
 62
     1
 10
74.000008
 20
-74.500023
 11
92.750008
 21
-74.500023
  0
LINE
  8
0
 62
     1
 10
74.000008
 20
-65.500023
 11
92.750008
 21
-65.500023
  0
LINE
  8
0
 62
     4
 10
92.250023
 20
-75.000023
 11
92.250023
 21
-65.000008
  0
LINE
  8
0
 62
     4
 10
99.000038
 20
-67.000023
 11
99.000038
 21
-65.750023
  0
LINE
  8
0
 62
     4
 10
62.500008
 20
-68.499992
 11
63.000038
 21
-68.499992
  0
LINE
  8
0
 62
     4
 10
62.500008
 20
-70.999992
 11
62.500008
 21
-68.499992
  0
LINE
  8
0
 62
     4
 10
61.999977
 20
-68.999931
 11
62.499966
 21
-68.499947
  0
LINE
  8
0
 62
     4
 10
102.500038
 20
-73.000023
 11
102.500038
 21
-67.000023
  0
LINE
  8
0
  6
CENTER
 62
     1
 10
106.615028
 20
-70.000008
 11
58.400734
 21
-70.000008
  0
LINE
  8
0
 10
62.000023
 20
-64.499977
 11
3.999994
 21
-64.499977
  0
LINE
  8
0
 10
63.000023
 20
-70.999992
 11
-11.999983
 21
-70.999992
  0
LINE
  8
0
 10
71.000023
 20
-64.499977
 11
63.000023
 21
-64.499977
  0
LINE
  8
0
 10
-11.999983
 20
-64.499977
 11
-19.999975
 21
-64.499977
  0
LINE
  8
0
  6
CENTER
 62
     2
 10
78.400719
 20
-90.000008
 11
-27.075464
 21
-90.000008
  0
LINE
  8
0
  6
CENTER
 62
     2
 10
70.094551
 20
-99.000008
 11
63.825584
 21
-99.000008
  0
LINE
  8
0
  6
CENTER
 62
     2
 10
67.000023
 20
-95.822411
 11
67.000023
 21
-102.019310
  0
LINE
  8
0
 62
     4
 10
-67.999977
 20
-76.999992
 11
-67.999977
 21
-78.999992
  0
LINE
  8
0
 62
     1
 10
-46.565742
 20
-71.534073
 11
-45.740704
 21
-80.964294
  0
LINE
  8
0
 62
     1
 10
-47.571850
 20
-71.507790
 11
-46.740658
 21
-81.008430
  0
LINE
  8
0
 62
     4
 10
-67.999977
 20
-78.000023
 11
-57.999977
 21
-78.000023
  0
LINE
  8
0
 62
     4
 10
-57.999977
 20
-76.499992
 11
-47.135033
 21
-76.499992
  0
LINE
  8
0
 62
     4
 10
-57.999977
 20
-79.499992
 11
-46.872566
 21
-79.499992
  0
LINE
  8
0
 62
     4
 10
-57.999977
 20
-76.499992
 11
-57.999977
 21
-79.499992
  0
LINE
  8
0
 62
     4
 10
-46.131210
 20
-76.499992
 11
-19.999975
 21
-76.499992
  0
LINE
  8
0
 62
     4
 10
-45.868744
 20
-79.499992
 11
-19.999975
 21
-79.499992
  0
LINE
  8
0
 62
     4
 10
-67.999977
 20
-76.999992
 11
-57.999977
 21
-76.999992
  0
LINE
  8
0
 62
     4
 10
-67.999977
 20
-78.999992
 11
-57.999977
 21
-78.999992
  0
LINE
  8
0
  6
CENTER
 62
     1
 10
0.067387
 20
-70.000008
 11
-54.842583
 21
-70.000008
  0
LINE
  8
0
 62
     4
 10
-3.999714
 20
-70.999992
 11
-3.999714
 21
-68.999992
  0
LINE
  8
0
 62
     4
 10
-4.499962
 20
-68.499977
 11
-11.999983
 21
-68.499977
  0
LINE
  8
0
 62
     4
 10
-4.499922
 20
-68.499962
 11
-3.999937
 21
-68.999962
  0
LINE
  8
0
 62
     4
 10
-4.499962
 20
-68.499992
 11
-4.499962
 21
-70.999992
  0
LINE
  8
0
  6
CENTER
 62
     2
 10
-12.905462
 20
-99.000008
 11
-19.174414
 21
-99.000008
  0
LINE
  8
0
  6
CENTER
 62
     2
 10
-15.999987
 20
-95.822411
 11
-15.999987
 21
-102.019310
  0
LINE
  8
0
  6
CENTER
 62
     2
 10
-12.905462
 20
-80.999992
 11
-19.174414
 21
-80.999992
  0
LINE
  8
0
  6
CENTER
 62
     2
 10
-15.999987
 20
-77.822411
 11
-15.999987
 21
-84.019310
  0
LINE
  8
0
  6
CENTER
 62
     2
 10
70.094551
 20
-80.999992
 11
63.825584
 21
-80.999992
  0
LINE
  8
0
  6
CENTER
 62
     2
 10
67.000023
 20
-77.822411
 11
67.000023
 21
-84.019310
  0
LINE
  8
0
 62
     4
 10
-46.481178
 20
-72.499962
 11
-24.999987
 21
-72.499962
  0
LINE
  8
0
  6
CENTER
 62
     2
 10
60.000008
 20
-100.701744
 11
60.000008
 21
-107.354652
  0
LINE
  8
0
  6
CENTER
 62
     2
 10
1.316689
 20
-82.999992
 11
-5.316635
 21
-82.999992
  0
LINE
  8
0
  6
CENTER
 62
     2
 10
-1.999985
 20
-93.183830
 11
-1.999985
 21
-86.684044
  0
LINE
  8
0
  6
CENTER
 62
     2
 10
1.316689
 20
-112.000000
 11
-5.316635
 21
-112.000000
  0
LINE
  8
0
  6
CENTER
 62
     2
 10
-1.999985
 20
-115.266663
 11
-1.999985
 21
-108.799988
  0
LINE
  8
0
  6
CENTER
 62
     2
 10
56.316689
 20
-82.999992
 11
49.683342
 21
-82.999992
  0
LINE
  8
0
  6
CENTER
 62
     2
 10
53.000023
 20
-86.266655
 11
53.000023
 21
-79.799980
  0
LINE
  8
0
  6
CENTER
 62
     2
 10
63.435265
 20
-103.999992
 11
56.440071
 21
-103.999992
  0
LINE
  8
0
  6
CENTER
 62
     2
 10
53.000023
 20
-86.829277
 11
53.000023
 21
-92.995628
  0
LINE
  8
0
 10
52.000023
 20
-87.999992
 11
53.999992
 21
-87.999992
  0
LINE
  8
0
 10
52.000023
 20
-91.999992
 11
53.999992
 21
-91.999992
  0
LINE
  8
0
  6
CENTER
 62
     2
 10
-1.999985
 20
-86.117699
 11
-1.999985
 21
-79.799980
  0
LINE
  8
0
 10
-22.399969
 20
-112.249969
 11
-22.399969
 21
-106.749962
  0
LINE
  8
0
 10
-19.999975
 20
-112.249969
 11
-19.999975
 21
-106.749962
  0
LINE
  8
0
 10
-22.111044
 20
-109.500000
 11
-20.288900
 21
-109.500000
  0
LINE
  8
0
 10
-22.399969
 20
-112.249969
 11
-19.999975
 21
-112.249969
  0
LINE
  8
0
 10
-22.399969
 20
-106.749962
 11
-19.999975
 21
-106.749962
  0
LINE
  8
0
 10
73.400017
 20
-106.749992
 11
73.400017
 21
-112.250000
  0
LINE
  8
0
 10
71.000023
 20
-106.749992
 11
71.000023
 21
-112.250000
  0
LINE
  8
0
 10
73.111076
 20
-109.500000
 11
71.288948
 21
-109.500000
  0
LINE
  8
0
 10
73.400017
 20
-106.749992
 11
71.000023
 21
-106.749992
  0
LINE
  8
0
 10
73.400017
 20
-112.250000
 11
71.000023
 21
-112.250000
  0
LINE
  8
0
 62
     4
 10
74.000008
 20
-64.500023
 11
74.000008
 21
-75.500038
  0
LINE
  8
0
 62
     4
 10
71.000023
 20
-64.500023
 11
71.000023
 21
-75.500038
  0
LINE
  8
0
 62
     4
 10
71.000023
 20
-64.500023
 11
74.000008
 21
-64.500023
  0
LINE
  8
0
 62
     4
 10
71.000023
 20
-75.500038
 11
74.000008
 21
-75.500038
  0
LINE
  8
0
 62
     4
 10
71.230919
 20
-65.400749
 11
73.769127
 21
-65.400749
  0
LINE
  8
0
 62
     4
 10
71.230919
 20
-74.599266
 11
73.769127
 21
-74.599266
  0
LINE
  8
0
 62
     4
 10
71.230919
 20
-70.900780
 11
73.769127
 21
-70.900780
  0
LINE
  8
0
 62
     4
 10
71.230919
 20
-69.099236
 11
73.769127
 21
-69.099236
  0
LINE
  8
0
 62
     4
 10
71.230888
 20
-69.099236
 11
71.230888
 21
-70.900780
  0
LINE
  8
0
 62
     4
 10
73.769127
 20
-69.099236
 11
73.769127
 21
-70.900780
  0
LINE
  8
0
 62
     4
 10
71.230888
 20
-64.500023
 11
71.230888
 21
-65.400749
  0
LINE
  8
0
 62
     4
 10
73.769127
 20
-65.400749
 11
73.769127
 21
-64.500023
  0
LINE
  8
0
 62
     4
 10
71.230888
 20
-74.599266
 11
71.230888
 21
-75.500038
  0
LINE
  8
0
 62
     4
 10
73.769127
 20
-74.599266
 11
73.769127
 21
-75.500038
  0
LINE
  8
0
 62
     4
 10
-22.999975
 20
-71.999962
 11
-22.999975
 21
-64.499977
  0
LINE
  8
0
 62
     4
 10
-19.999975
 20
-64.499977
 11
-22.999975
 21
-64.499977
  0
LINE
  8
0
 62
     4
 10
-20.230871
 20
-65.400719
 11
-22.769079
 21
-65.400719
  0
LINE
  8
0
 62
     4
 10
-20.230871
 20
-69.099205
 11
-22.769079
 21
-69.099205
  0
LINE
  8
0
 62
     4
 10
-20.230871
 20
-70.900749
 11
-22.769079
 21
-70.900749
  0
LINE
  8
0
 62
     4
 10
-20.230856
 20
-70.900749
 11
-20.230856
 21
-69.099205
  0
LINE
  8
0
 62
     4
 10
-22.769079
 20
-70.900749
 11
-22.769079
 21
-69.099205
  0
LINE
  8
0
 62
     4
 10
-20.230856
 20
-65.400719
 11
-20.230856
 21
-64.499977
  0
LINE
  8
0
 62
     4
 10
-22.769079
 20
-65.400719
 11
-22.769079
 21
-64.499977
  0
LINE
  8
0
 10
-30.999975
 20
-110.750000
 11
-30.999975
 21
-108.250000
  0
LINE
  8
0
 10
-30.749975
 20
-107.999992
 11
-22.399969
 21
-107.999992
  0
LINE
  8
0
 10
-30.749977
 20
-111.000000
 11
-22.399969
 21
-111.000000
  0
LINE
  8
0
 62
     2
 10
-30.999975
 20
-108.250000
 11
-22.399969
 21
-108.250000
  0
LINE
  8
0
 62
     2
 10
-30.999975
 20
-110.750000
 11
-22.399969
 21
-110.750000
  0
LINE
  8
0
 10
-30.750010
 20
-108.000000
 11
-31.000000
 21
-108.250000
  0
LINE
  8
0
 10
-30.999937
 20
-110.749992
 11
-30.749943
 21
-110.999992
  0
LINE
  8
0
 10
-30.749975
 20
-111.000000
 11
-30.749975
 21
-107.999992
  0
LINE
  8
0
 10
82.000023
 20
-110.750000
 11
82.000023
 21
-108.250000
  0
LINE
  8
0
 10
81.750023
 20
-107.999992
 11
73.400017
 21
-107.999992
  0
LINE
  8
0
 10
81.750023
 20
-111.000000
 11
73.400017
 21
-111.000000
  0
LINE
  8
0
 62
     2
 10
82.000023
 20
-108.250000
 11
73.400017
 21
-108.250000
  0
LINE
  8
0
 62
     2
 10
82.000023
 20
-110.750000
 11
73.400017
 21
-110.750000
  0
LINE
  8
0
 10
81.750023
 20
-108.000000
 11
82.000008
 21
-108.250000
  0
LINE
  8
0
 10
81.999962
 20
-110.749969
 11
81.749969
 21
-110.999962
  0
LINE
  8
0
 10
81.750023
 20
-111.000000
 11
81.750023
 21
-107.999992
  0
LINE
  8
0
  6
PHANTOM
 62
     3
 10
0.999969
 20
-117.500000
 11
0.999969
 21
-33.723793
  0
LINE
  8
0
  6
PHANTOM
 62
     3
 10
24.249979
 20
-117.500000
 11
24.249979
 21
-33.723793
  0
LINE
  8
0
  6
PHANTOM
 62
     3
 10
41.749977
 20
-33.723793
 11
41.749977
 21
-117.500000
  0
LINE
  8
0
 10
-281.250000
 20
195.500000
 11
282.099976
 21
195.500000
  0
LINE
  8
0
 10
-281.250000
 20
195.500000
 11
-281.250000
 21
-195.000000
  0
LINE
  8
0
 10
282.099976
 20
195.500000
 11
282.099976
 21
-195.000000
  0
LINE
  8
0
 10
-281.250000
 20
-195.000000
 11
282.099976
 21
-195.000000
  0
LINE
  8
0
 10
162.099976
 20
-175.000000
 11
162.099976
 21
-195.000000
  0
LINE
  8
0
 10
162.099976
 20
-175.000000
 11
282.099976
 21
-175.000000
  0
LINE
  8
0
 10
162.099976
 20
175.500000
 11
282.099976
 21
175.500000
  0
LINE
  8
0
 10
-281.250000
 20
175.500000
 11
-161.250000
 21
175.500000
  0
LINE
  8
0
 10
162.099976
 20
195.500000
 11
162.099976
 21
175.500000
  0
LINE
  8
0
 10
-161.250000
 20
195.500000
 11
-161.250000
 21
175.500000
  0
LINE
  8
0
 10
-271.250000
 20
-185.000000
 11
-71.250000
 21
-185.000000
  0
LINE
  8
0
 10
-271.250000
 20
-134.000000
 11
-271.250000
 21
-185.000000
  0
LINE
  8
0
 10
-231.250000
 20
-134.000000
 11
-231.250000
 21
-185.000000
  0
LINE
  8
0
 10
-271.250000
 20
-141.000000
 11
-235.001297
 21
-141.000000
  0
LINE
  8
0
 10
-271.250000
 20
-155.000000
 11
-71.250000
 21
-155.000000
  0
LINE
  8
0
 10
-271.250000
 20
-134.000000
 11
-71.250000
 21
-134.000000
  0
LINE
  8
0
 10
-231.250015
 20
-155.000015
 11
-235.001312
 21
-141.000015
  0
LINE
  8
0
 10
-211.250000
 20
-134.000000
 11
-211.250000
 21
-185.000000
  0
LINE
  8
0
 10
-191.250000
 20
-134.000000
 11
-191.250000
 21
-185.000000
  0
LINE
  8
0
 10
-171.250000
 20
-134.000000
 11
-171.250000
 21
-185.000000
  0
LINE
  8
0
 10
-151.250000
 20
-134.000000
 11
-151.250000
 21
-185.000000
  0
LINE
  8
0
 10
-131.250000
 20
-134.000000
 11
-131.250000
 21
-185.000000
  0
LINE
  8
0
 10
-111.250000
 20
-134.000000
 11
-111.250000
 21
-185.000000
  0
LINE
  8
0
 10
-271.250000
 20
-165.000000
 11
-71.250000
 21
-165.000000
  0
LINE
  8
0
 10
-91.250000
 20
-134.000000
 11
-91.250000
 21
-185.000000
  0
LINE
  8
0
 10
-71.250000
 20
-134.000000
 11
-71.250000
 21
-185.000000
  0
LINE
  8
0
 10
-271.250000
 20
-175.000000
 11
-71.250000
 21
-175.000000
  0
CIRCLE
  8
0
 62
     2
 10
50.499969
 20
115.000000
 40
2.000000
  0
CIRCLE
  8
0
 10
54.999985
 20
108.999985
 40
2.600000
  0
CIRCLE
  8
0
 10
-16.000011
 20
86.000000
 40
1.699999
  0
CIRCLE
  8
0
 10
-16.000011
 20
86.000000
 40
3.250000
  0
CIRCLE
  8
0
 10
32.999992
 20
75.000000
 40
2.000000
  0
CIRCLE
  8
0
 10
67.000000
 20
104.000008
 40
1.699999
  0
CIRCLE
  8
0
 10
67.000000
 20
104.000008
 40
3.250000
  0
CIRCLE
  8
0
 10
67.000000
 20
86.000000
 40
1.699999
  0
CIRCLE
  8
0
 10
67.000000
 20
86.000000
 40
3.250000
  0
CIRCLE
  8
0
 10
-16.000011
 20
104.000008
 40
1.699999
  0
CIRCLE
  8
0
 10
-16.000011
 20
104.000008
 40
3.250000
  0
CIRCLE
  8
0
 62
     2
 10
50.499969
 20
75.000000
 40
2.000000
  0
CIRCLE
  8
0
 62
     2
 10
15.499969
 20
115.000000
 40
2.000000
  0
ARC
  8
0
 10
32.999992
 20
116.000000
 40
2.000000
 50
0.000000
 51
180.000000
  0
ARC
  8
0
 10
32.999992
 20
114.000008
 40
2.000000
 50
180.000000
 51
0.000000
  0
CIRCLE
  8
0
 62
     2
 10
15.499969
 20
75.000000
 40
2.000000
  0
CIRCLE
  8
0
 10
15.499969
 20
115.000000
 40
1.650000
  0
CIRCLE
  8
0
 10
50.499969
 20
115.000000
 40
1.650000
  0
CIRCLE
  8
0
 10
15.499969
 20
75.000000
 40
1.650000
  0
CIRCLE
  8
0
 10
50.499969
 20
75.000000
 40
1.650000
  0
ARC
  8
0
 62
     4
 10
-136.000015
 20
75.000015
 40
5.899993
 50
351.218109
 51
8.781887
  0
ARC
  8
0
 62
     4
 10
-136.000015
 20
75.000015
 40
5.899998
 50
291.218201
 51
308.781891
  0
CIRCLE
  8
0
 62
     4
 10
-136.000015
 20
75.000015
 40
5.499999
  0
CIRCLE
  8
0
 10
-142.000015
 20
111.000015
 40
2.100000
  0
CIRCLE
  8
0
 10
-133.500015
 20
114.500008
 40
1.500000
  0
CIRCLE
  8
0
 62
     2
 10
-133.500015
 20
114.500008
 40
1.250000
  0
CIRCLE
  8
0
 10
-142.000015
 20
99.000023
 40
2.100000
  0
CIRCLE
  8
0
 62
     4
 10
-145.750015
 20
82.949997
 40
1.499999
  0
CIRCLE
  8
0
 62
     2
 10
-142.000015
 20
99.000023
 40
2.500000
  0
ARC
  8
0
 62
     4
 10
-136.000015
 20
75.000015
 40
4.249995
 50
135.099060
 51
224.900726
  0
ARC
  8
0
 62
     4
 10
-136.000015
 20
75.000015
 40
4.250000
 50
0.000000
 51
44.900944
  0
ARC
  8
0
 62
     4
 10
-136.000015
 20
75.000015
 40
4.249995
 50
315.099060
 51
0.000000
  0
CIRCLE
  8
0
 62
     4
 10
-136.000015
 20
75.000015
 40
2.749999
  0
CIRCLE
  8
0
 62
     4
 10
-136.000015
 20
75.000015
 40
5.000000
  0
CIRCLE
  8
0
 62
     1
 10
-136.000015
 20
75.000015
 40
4.500000
  0
ARC
  8
0
 62
     4
 10
-136.000015
 20
75.000015
 40
3.750000
 50
126.869896
 51
233.130096
  0
ARC
  8
0
 62
     4
 10
-136.000015
 20
75.000015
 40
3.750000
 50
306.869904
 51
53.130104
  0
ARC
  8
0
 10
-145.500031
 20
83.000008
 40
2.499999
 50
335.834412
 51
204.165436
  0
ARC
  8
0
 10
-145.500031
 20
79.000000
 40
3.749999
 50
127.462639
 51
52.537365
  0
CIRCLE
  8
0
 62
     4
 10
-146.000015
 20
79.099991
 40
1.499999
  0
CIRCLE
  8
0
 62
     2
 10
-142.000015
 20
111.000015
 40
2.500000
  0
CIRCLE
  8
0
 10
-133.500015
 20
114.500008
 40
2.749999
  0
ARC
  8
0
 62
     4
 10
-136.000015
 20
75.000015
 40
5.900004
 50
231.219070
 51
248.781815
  0
ARC
  8
0
 62
     4
 10
-136.000015
 20
75.000015
 40
5.900001
 50
111.219292
 51
128.780441
  0
ARC
  8
0
 62
     4
 10
-136.000015
 20
75.000015
 40
5.900004
 50
51.218117
 51
68.780548
  0
ARC
  8
0
 62
     4
 10
-136.000015
 20
75.000015
 40
5.900003
 50
171.219406
 51
188.780991
  0
ARC
  8
0
 62
     4
 10
185.999954
 20
75.000000
 40
5.900003
 50
171.219406
 51
188.780991
  0
ARC
  8
0
 62
     4
 10
185.999954
 20
75.000000
 40
5.899993
 50
351.218109
 51
8.781887
  0
ARC
  8
0
 62
     4
 10
185.999954
 20
75.000000
 40
5.899998
 50
291.218201
 51
308.781891
  0
CIRCLE
  8
0
 10
183.499954
 20
114.499992
 40
1.500000
  0
CIRCLE
  8
0
 62
     2
 10
183.499954
 20
114.499992
 40
1.250000
  0
CIRCLE
  8
0
 62
     4
 10
185.999954
 20
75.000000
 40
5.499999
  0
ARC
  8
0
 62
     4
 10
195.749939
 20
82.949982
 40
1.500000
 50
0.000000
 51
180.000000
  0
ARC
  8
0
 62
     4
 10
185.999954
 20
75.000000
 40
4.249995
 50
315.099060
 51
44.900799
  0
ARC
  8
0
 62
     4
 10
185.999954
 20
75.000000
 40
4.249995
 50
135.099060
 51
180.000000
  0
ARC
  8
0
 62
     4
 10
185.999954
 20
75.000000
 40
4.250000
 50
180.000000
 51
224.900726
  0
CIRCLE
  8
0
 62
     4
 10
185.999954
 20
75.000000
 40
2.749999
  0
CIRCLE
  8
0
 62
     4
 10
185.999954
 20
75.000000
 40
5.000000
  0
CIRCLE
  8
0
 62
     1
 10
185.999954
 20
75.000000
 40
4.500000
  0
ARC
  8
0
 62
     4
 10
185.999954
 20
75.000000
 40
3.750000
 50
306.869904
 51
53.130104
  0
ARC
  8
0
 62
     4
 10
185.999954
 20
75.000000
 40
3.750000
 50
126.869896
 51
233.130096
  0
ARC
  8
0
 10
195.499939
 20
82.999992
 40
2.499999
 50
335.834412
 51
204.165436
  0
ARC
  8
0
 10
195.499939
 20
78.999985
 40
3.749999
 50
127.462639
 51
52.537292
  0
CIRCLE
  8
0
 10
183.499954
 20
114.499992
 40
2.749999
  0
ARC
  8
0
 62
     4
 10
185.999954
 20
75.000000
 40
5.900004
 50
231.219070
 51
248.781815
  0
ARC
  8
0
 62
     4
 10
185.999954
 20
75.000000
 40
5.900001
 50
111.219292
 51
128.780441
  0
ARC
  8
0
 62
     4
 10
185.999954
 20
75.000000
 40
5.900004
 50
51.218117
 51
68.780548
  0
CIRCLE
  8
0
 62
     2
 10
53.000023
 20
-112.000000
 40
2.000000
  0
CIRCLE
  8
0
 10
67.000023
 20
-99.000008
 40
1.699999
  0
CIRCLE
  8
0
 10
-15.999987
 20
-99.000008
 40
1.699999
  0
CIRCLE
  8
0
 10
-15.999987
 20
-80.999992
 40
1.699999
  0
CIRCLE
  8
0
 10
67.000023
 20
-80.999992
 40
1.699999
  0
CIRCLE
  8
0
 62
     2
 10
-1.999985
 20
-82.999992
 40
2.000000
  0
CIRCLE
  8
0
 62
     2
 10
-1.999985
 20
-112.000000
 40
2.000000
  0
CIRCLE
  8
0
 62
     2
 10
53.000023
 20
-82.999992
 40
2.000000
  0
CIRCLE
  8
0
 10
60.000008
 20
-104.000008
 40
2.000000
  0
CIRCLE
  8
0
 10
60.000008
 20
-104.000008
 40
1.250000
  0
CIRCLE
  8
0
 10
-1.999985
 20
-90.000008
 40
2.000000
  0
ARC
  8
0
 10
52.000023
 20
-90.000008
 40
2.000000
 50
90.000000
 51
270.000000
  0
ARC
  8
0
 10
53.999992
 20
-90.000008
 40
2.000000
 50
270.000000
 51
90.000000
  0
CIRCLE
  8
0
 10
-1.999985
 20
-82.999992
 40
1.650000
  0
CIRCLE
  8
0
 10
-1.999985
 20
-112.000000
 40
1.650000
  0
CIRCLE
  8
0
 10
53.000023
 20
-82.999992
 40
1.650000
  0
CIRCLE
  8
0
 10
53.000023
 20
-112.000000
 40
1.650000
  0
POLYLINE
  8
0
 66
     1
  0
VERTEX
  8
0
 10
-22.111069
 20
111.749992
  0
VERTEX
  8
0
 10
-22.323578
 20
112.422539
  0
VERTEX
  8
0
 10
-22.399994
 20
113.124985
  0
VERTEX
  8
0
 10
-22.323578
 20
113.827438
  0
VERTEX
  8
0
 10
-22.111069
 20
114.499992
  0
SEQEND
  0
POLYLINE
  8
0
 66
     1
  0
VERTEX
  8
0
 10
-22.111069
 20
114.499992
  0
VERTEX
  8
0
 10
-22.323578
 20
115.172546
  0
VERTEX
  8
0
 10
-22.399994
 20
115.874985
  0
VERTEX
  8
0
 10
-22.323578
 20
116.577438
  0
VERTEX
  8
0
 10
-22.111069
 20
117.250000
  0
SEQEND
  0
POLYLINE
  8
0
 66
     1
  0
VERTEX
  8
0
 10
-20.288925
 20
111.749992
  0
VERTEX
  8
0
 10
-20.076408
 20
112.422539
  0
VERTEX
  8
0
 10
-19.999985
 20
113.124985
  0
VERTEX
  8
0
 10
-20.076408
 20
113.827438
  0
VERTEX
  8
0
 10
-20.288925
 20
114.499992
  0
SEQEND
  0
POLYLINE
  8
0
 66
     1
  0
VERTEX
  8
0
 10
-20.288925
 20
114.499992
  0
VERTEX
  8
0
 10
-20.076408
 20
115.172546
  0
VERTEX
  8
0
 10
-19.999985
 20
115.874985
  0
VERTEX
  8
0
 10
-20.076408
 20
116.577438
  0
VERTEX
  8
0
 10
-20.288925
 20
117.250000
  0
SEQEND
  0
POLYLINE
  8
0
 66
     1
  0
VERTEX
  8
0
 10
73.111069
 20
114.499992
  0
VERTEX
  8
0
 10
73.323578
 20
115.172546
  0
VERTEX
  8
0
 10
73.399994
 20
115.874985
  0
VERTEX
  8
0
 10
73.323578
 20
116.577438
  0
VERTEX
  8
0
 10
73.111069
 20
117.250000
  0
SEQEND
  0
POLYLINE
  8
0
 66
     1
  0
VERTEX
  8
0
 10
73.111069
 20
111.749992
  0
VERTEX
  8
0
 10
73.323578
 20
112.422539
  0
VERTEX
  8
0
 10
73.399994
 20
113.124985
  0
VERTEX
  8
0
 10
73.323578
 20
113.827438
  0
VERTEX
  8
0
 10
73.111069
 20
114.499992
  0
SEQEND
  0
POLYLINE
  8
0
 66
     1
  0
VERTEX
  8
0
 10
71.288925
 20
111.749992
  0
VERTEX
  8
0
 10
71.076408
 20
112.422539
  0
VERTEX
  8
0
 10
70.999985
 20
113.124985
  0
VERTEX
  8
0
 10
71.076408
 20
113.827438
  0
VERTEX
  8
0
 10
71.288925
 20
114.499992
  0
SEQEND
  0
POLYLINE
  8
0
 66
     1
  0
VERTEX
  8
0
 10
71.288925
 20
114.499992
  0
VERTEX
  8
0
 10
71.076408
 20
115.172546
  0
VERTEX
  8
0
 10
70.999985
 20
115.874985
  0
VERTEX
  8
0
 10
71.076408
 20
116.577438
  0
VERTEX
  8
0
 10
71.288925
 20
117.250000
  0
SEQEND
  0
POLYLINE
  8
0
 62
     4
 66
     1
  0
VERTEX
  8
0
 10
71.230865
 20
79.599243
  0
VERTEX
  8
0
 10
71.058998
 20
78.682358
  0
VERTEX
  8
0
 10
71.000000
 20
77.750031
  0
VERTEX
  8
0
 10
71.058998
 20
76.817680
  0
VERTEX
  8
0
 10
71.230865
 20
75.900772
  0
SEQEND
  0
POLYLINE
  8
0
 62
     4
 66
     1
  0
VERTEX
  8
0
 10
73.769104
 20
79.599243
  0
VERTEX
  8
0
 10
73.940987
 20
78.682358
  0
VERTEX
  8
0
 10
73.999985
 20
77.750031
  0
VERTEX
  8
0
 10
73.940987
 20
76.817680
  0
VERTEX
  8
0
 10
73.769104
 20
75.900772
  0
SEQEND
  0
POLYLINE
  8
0
 62
     4
 66
     1
  0
VERTEX
  8
0
 10
71.230865
 20
74.099236
  0
VERTEX
  8
0
 10
71.058998
 20
73.182327
  0
VERTEX
  8
0
 10
71.000000
 20
72.249977
  0
VERTEX
  8
0
 10
71.058998
 20
71.317642
  0
VERTEX
  8
0
 10
71.230865
 20
70.400742
  0
SEQEND
  0
POLYLINE
  8
0
 62
     4
 66
     1
  0
VERTEX
  8
0
 10
73.769104
 20
74.099236
  0
VERTEX
  8
0
 10
73.940987
 20
73.182327
  0
VERTEX
  8
0
 10
73.999985
 20
72.249977
  0
VERTEX
  8
0
 10
73.940987
 20
71.317642
  0
VERTEX
  8
0
 10
73.769104
 20
70.400742
  0
SEQEND
  0
POLYLINE
  8
0
 62
     4
 66
     1
  0
VERTEX
  8
0
 10
-20.230881
 20
70.400742
  0
VERTEX
  8
0
 10
-20.059004
 20
71.317627
  0
VERTEX
  8
0
 10
-20.000000
 20
72.249954
  0
VERTEX
  8
0
 10
-20.059002
 20
73.182312
  0
VERTEX
  8
0
 10
-20.230881
 20
74.099236
  0
SEQEND
  0
POLYLINE
  8
0
 62
     4
 66
     1
  0
VERTEX
  8
0
 10
-22.769104
 20
70.400742
  0
VERTEX
  8
0
 10
-22.940992
 20
71.317627
  0
VERTEX
  8
0
 10
-23.000000
 20
72.249954
  0
VERTEX
  8
0
 10
-22.940996
 20
73.182320
  0
VERTEX
  8
0
 10
-22.769104
 20
74.099236
  0
SEQEND
  0
POLYLINE
  8
0
 62
     4
 66
     1
  0
VERTEX
  8
0
 10
-20.230881
 20
75.900772
  0
VERTEX
  8
0
 10
-20.059004
 20
76.817673
  0
VERTEX
  8
0
 10
-20.000000
 20
77.750008
  0
VERTEX
  8
0
 10
-20.059004
 20
78.682358
  0
VERTEX
  8
0
 10
-20.230881
 20
79.599266
  0
SEQEND
  0
POLYLINE
  8
0
 62
     4
 66
     1
  0
VERTEX
  8
0
 10
-22.769104
 20
75.900772
  0
VERTEX
  8
0
 10
-22.940994
 20
76.817673
  0
VERTEX
  8
0
 10
-23.000000
 20
77.750008
  0
VERTEX
  8
0
 10
-22.940994
 20
78.682358
  0
VERTEX
  8
0
 10
-22.769104
 20
79.599266
  0
SEQEND
  0
POLYLINE
  8
0
 62
     4
 66
     1
  0
VERTEX
  8
0
 10
-22.769060
 20
7.411650
  0
VERTEX
  8
0
 10
-22.896198
 20
6.706516
  0
VERTEX
  8
0
 10
-22.973751
 20
5.993360
  0
VERTEX
  8
0
 10
-22.999987
 20
5.276197
  0
VERTEX
  8
0
 10
-22.973751
 20
4.559040
  0
VERTEX
  8
0
 10
-22.896198
 20
3.845891
  0
VERTEX
  8
0
 10
-22.769060
 20
3.140760
  0
SEQEND
  0
POLYLINE
  8
0
 62
     4
 66
     1
  0
VERTEX
  8
0
 10
73.769058
 20
11.107038
  0
VERTEX
  8
0
 10
73.938736
 20
10.585393
  0
VERTEX
  8
0
 10
73.999985
 20
10.039335
  0
VERTEX
  8
0
 10
73.938736
 20
9.493255
  0
VERTEX
  8
0
 10
73.769058
 20
8.971586
  0
SEQEND
  0
POLYLINE
  8
0
 62
     4
 66
     1
  0
VERTEX
  8
0
 10
71.230942
 20
11.107038
  0
VERTEX
  8
0
 10
71.061256
 20
10.585394
  0
VERTEX
  8
0
 10
71.000000
 20
10.039335
  0
VERTEX
  8
0
 10
71.061256
 20
9.493254
  0
VERTEX
  8
0
 10
71.230942
 20
8.971586
  0
SEQEND
  0
POLYLINE
  8
0
 62
     4
 66
     1
  0
VERTEX
  8
0
 10
71.230942
 20
7.411634
  0
VERTEX
  8
0
 10
71.103798
 20
6.706506
  0
VERTEX
  8
0
 10
71.026237
 20
5.993359
  0
VERTEX
  8
0
 10
71.000000
 20
5.276197
  0
VERTEX
  8
0
 10
71.026237
 20
4.559031
  0
VERTEX
  8
0
 10
71.103798
 20
3.845877
  0
VERTEX
  8
0
 10
71.230942
 20
3.140745
  0
SEQEND
  0
POLYLINE
  8
0
 62
     4
 66
     1
  0
VERTEX
  8
0
 10
73.769058
 20
1.580687
  0
VERTEX
  8
0
 10
73.938736
 20
1.059036
  0
VERTEX
  8
0
 10
73.999985
 20
0.512983
  0
VERTEX
  8
0
 10
73.938728
 20
-0.033034
  0
VERTEX
  8
0
 10
73.769058
 20
-0.554644
  0
SEQEND
  0
POLYLINE
  8
0
 62
     4
 66
     1
  0
VERTEX
  8
0
 10
73.769058
 20
3.140745
  0
VERTEX
  8
0
 10
73.896194
 20
3.845879
  0
VERTEX
  8
0
 10
73.973747
 20
4.559035
  0
VERTEX
  8
0
 10
73.999985
 20
5.276197
  0
VERTEX
  8
0
 10
73.973747
 20
5.993355
  0
VERTEX
  8
0
 10
73.896194
 20
6.706504
  0
VERTEX
  8
0
 10
73.769058
 20
7.411634
  0
SEQEND
  0
POLYLINE
  8
0
 62
     4
 66
     1
  0
VERTEX
  8
0
 10
71.230942
 20
1.580687
  0
VERTEX
  8
0
 10
71.061256
 20
1.059037
  0
VERTEX
  8
0
 10
71.000000
 20
0.512983
  0
VERTEX
  8
0
 10
71.061256
 20
-0.033035
  0
VERTEX
  8
0
 10
71.230942
 20
-0.554644
  0
SEQEND
  0
POLYLINE
  8
0
 62
     4
 66
     1
  0
VERTEX
  8
0
 10
-22.769060
 20
-0.554659
  0
VERTEX
  8
0
 10
-22.938736
 20
-0.033007
  0
VERTEX
  8
0
 10
-22.999987
 20
0.513060
  0
VERTEX
  8
0
 10
-22.938738
 20
1.059141
  0
VERTEX
  8
0
 10
-22.769060
 20
1.580809
  0
SEQEND
  0
POLYLINE
  8
0
 62
     4
 66
     1
  0
VERTEX
  8
0
 10
-20.230944
 20
-0.554659
  0
VERTEX
  8
0
 10
-20.061258
 20
-0.033007
  0
VERTEX
  8
0
 10
-20.000002
 20
0.513060
  0
VERTEX
  8
0
 10
-20.061256
 20
1.059141
  0
VERTEX
  8
0
 10
-20.230944
 20
1.580809
  0
SEQEND
  0
POLYLINE
  8
0
 62
     4
 66
     1
  0
VERTEX
  8
0
 10
-20.230944
 20
3.140760
  0
VERTEX
  8
0
 10
-20.103800
 20
3.845889
  0
VERTEX
  8
0
 10
-20.026241
 20
4.559036
  0
VERTEX
  8
0
 10
-20.000002
 20
5.276197
  0
VERTEX
  8
0
 10
-20.026241
 20
5.993363
  0
VERTEX
  8
0
 10
-20.103800
 20
6.706518
  0
VERTEX
  8
0
 10
-20.230944
 20
7.411650
  0
SEQEND
  0
POLYLINE
  8
0
 62
     4
 66
     1
  0
VERTEX
  8
0
 10
-20.230944
 20
8.971708
  0
VERTEX
  8
0
 10
-20.061255
 20
9.493358
  0
VERTEX
  8
0
 10
-20.000002
 20
10.039412
  0
VERTEX
  8
0
 10
-20.061260
 20
10.585430
  0
VERTEX
  8
0
 10
-20.230944
 20
11.107038
  0
SEQEND
  0
POLYLINE
  8
0
 62
     4
 66
     1
  0
VERTEX
  8
0
 10
-22.769060
 20
8.971708
  0
VERTEX
  8
0
 10
-22.938740
 20
9.493359
  0
VERTEX
  8
0
 10
-22.999987
 20
10.039412
  0
VERTEX
  8
0
 10
-22.938732
 20
10.585429
  0
VERTEX
  8
0
 10
-22.769060
 20
11.107038
  0
SEQEND
  0
POLYLINE
  8
0
 62
     4
 66
     1
  0
VERTEX
  8
0
 10
71.230888
 20
-70.900780
  0
VERTEX
  8
0
 10
71.059021
 20
-71.817680
  0
VERTEX
  8
0
 10
71.000023
 20
-72.750008
  0
VERTEX
  8
0
 10
71.059021
 20
-73.682358
  0
VERTEX
  8
0
 10
71.230888
 20
-74.599266
  0
SEQEND
  0
POLYLINE
  8
0
 62
     4
 66
     1
  0
VERTEX
  8
0
 10
73.769127
 20
-70.900780
  0
VERTEX
  8
0
 10
73.941010
 20
-71.817673
  0
VERTEX
  8
0
 10
74.000008
 20
-72.750008
  0
VERTEX
  8
0
 10
73.941010
 20
-73.682358
  0
VERTEX
  8
0
 10
73.769127
 20
-74.599266
  0
SEQEND
  0
POLYLINE
  8
0
 62
     4
 66
     1
  0
VERTEX
  8
0
 10
-20.038204
 20
-72.000389
  0
VERTEX
  8
0
 10
-20.114866
 20
-71.446663
  0
VERTEX
  8
0
 10
-20.230856
 20
-70.900749
  0
SEQEND
  0
POLYLINE
  8
0
 62
     4
 66
     1
  0
VERTEX
  8
0
 10
-20.230856
 20
-69.099205
  0
VERTEX
  8
0
 10
-20.058979
 20
-68.182304
  0
VERTEX
  8
0
 10
-19.999975
 20
-67.249977
  0
VERTEX
  8
0
 10
-20.058979
 20
-66.317627
  0
VERTEX
  8
0
 10
-20.230856
 20
-65.400719
  0
SEQEND
  0
POLYLINE
  8
0
 62
     4
 66
     1
  0
VERTEX
  8
0
 10
-22.769079
 20
-69.099205
  0
VERTEX
  8
0
 10
-22.940969
 20
-68.182312
  0
VERTEX
  8
0
 10
-22.999975
 20
-67.249977
  0
VERTEX
  8
0
 10
-22.940969
 20
-66.317627
  0
VERTEX
  8
0
 10
-22.769079
 20
-65.400719
  0
SEQEND
  0
POLYLINE
  8
0
 62
     4
 66
     1
  0
VERTEX
  8
0
 10
-22.961744
 20
-72.000389
  0
VERTEX
  8
0
 10
-22.885078
 20
-71.446663
  0
VERTEX
  8
0
 10
-22.769079
 20
-70.900749
  0
SEQEND
  0
POLYLINE
  8
0
 66
     1
  0
VERTEX
  8
0
 10
-22.111044
 20
-109.500000
  0
VERTEX
  8
0
 10
-22.323553
 20
-108.827446
  0
VERTEX
  8
0
 10
-22.399969
 20
-108.125000
  0
VERTEX
  8
0
 10
-22.323555
 20
-107.422539
  0
VERTEX
  8
0
 10
-22.111048
 20
-106.749962
  0
SEQEND
  0
POLYLINE
  8
0
 66
     1
  0
VERTEX
  8
0
 10
-20.288900
 20
-112.249969
  0
VERTEX
  8
0
 10
-20.076384
 20
-111.577431
  0
VERTEX
  8
0
 10
-19.999960
 20
-110.875000
  0
VERTEX
  8
0
 10
-20.076384
 20
-110.172554
  0
VERTEX
  8
0
 10
-20.288900
 20
-109.500000
  0
SEQEND
  0
POLYLINE
  8
0
 66
     1
  0
VERTEX
  8
0
 10
-22.111044
 20
-112.249969
  0
VERTEX
  8
0
 10
-22.323553
 20
-111.577431
  0
VERTEX
  8
0
 10
-22.399969
 20
-110.875000
  0
VERTEX
  8
0
 10
-22.323553
 20
-110.172554
  0
VERTEX
  8
0
 10
-22.111044
 20
-109.500000
  0
SEQEND
  0
POLYLINE
  8
0
 66
     1
  0
VERTEX
  8
0
 10
-20.288900
 20
-109.500000
  0
VERTEX
  8
0
 10
-20.076384
 20
-108.827446
  0
VERTEX
  8
0
 10
-19.999960
 20
-108.125000
  0
VERTEX
  8
0
 10
-20.076384
 20
-107.422531
  0
VERTEX
  8
0
 10
-20.288900
 20
-106.749962
  0
SEQEND
  0
POLYLINE
  8
0
 66
     1
  0
VERTEX
  8
0
 10
73.111076
 20
-109.500000
  0
VERTEX
  8
0
 10
73.323593
 20
-110.172554
  0
VERTEX
  8
0
 10
73.400017
 20
-110.875000
  0
VERTEX
  8
0
 10
73.323608
 20
-111.577446
  0
VERTEX
  8
0
 10
73.111107
 20
-112.250000
  0
SEQEND
  0
POLYLINE
  8
0
 66
     1
  0
VERTEX
  8
0
 10
71.288948
 20
-106.749992
  0
VERTEX
  8
0
 10
71.076431
 20
-107.422546
  0
VERTEX
  8
0
 10
71.000008
 20
-108.125000
  0
VERTEX
  8
0
 10
71.076431
 20
-108.827446
  0
VERTEX
  8
0
 10
71.288948
 20
-109.500000
  0
SEQEND
  0
POLYLINE
  8
0
 66
     1
  0
VERTEX
  8
0
 10
73.111076
 20
-106.749992
  0
VERTEX
  8
0
 10
73.323593
 20
-107.422546
  0
VERTEX
  8
0
 10
73.400017
 20
-108.125000
  0
VERTEX
  8
0
 10
73.323593
 20
-108.827446
  0
VERTEX
  8
0
 10
73.111076
 20
-109.500000
  0
SEQEND
  0
POLYLINE
  8
0
 66
     1
  0
VERTEX
  8
0
 10
71.288948
 20
-109.500000
  0
VERTEX
  8
0
 10
71.076431
 20
-110.172554
  0
VERTEX
  8
0
 10
71.000008
 20
-110.875000
  0
VERTEX
  8
0
 10
71.076431
 20
-111.577446
  0
VERTEX
  8
0
 10
71.288948
 20
-112.250000
  0
SEQEND
  0
POLYLINE
  8
0
 62
     4
 66
     1
  0
VERTEX
  8
0
 10
71.230888
 20
-65.400749
  0
VERTEX
  8
0
 10
71.059021
 20
-66.317635
  0
VERTEX
  8
0
 10
71.000023
 20
-67.249962
  0
VERTEX
  8
0
 10
71.059021
 20
-68.182320
  0
VERTEX
  8
0
 10
71.230888
 20
-69.099236
  0
SEQEND
  0
POLYLINE
  8
0
 62
     4
 66
     1
  0
VERTEX
  8
0
 10
73.769127
 20
-65.400749
  0
VERTEX
  8
0
 10
73.941010
 20
-66.317635
  0
VERTEX
  8
0
 10
74.000008
 20
-67.249962
  0
VERTEX
  8
0
 10
73.941010
 20
-68.182320
  0
VERTEX
  8
0
 10
73.769127
 20
-69.099236
  0
SEQEND
  0
TEXT
  8
0
 10
196.250259
 20
180.830002
 40
6.300000
  1
Ver. 1.0
 50
0.000000
 41
1.052632
 51
0.000000
  7
STANDARD
  0
TEXT
  8
0
 10
167.564667
 20
-192.100006
 40
9.000000
  1
KOGANEI CORP.
 50
0.000000
 41
1.052632
 51
0.000000
  7
STANDARD
  0
TEXT
  8
0
 10
-265.999725
 20
180.830002
 40
6.300000
  1
GT SLIDE TABLE
 50
0.000000
 41
1.052632
 51
0.000000
  7
STANDARD
  0
TEXT
  8
0
 10
-225.549713
 20
145.830002
 40
6.300000
  1
(WITH SENSOR SWITCH)
 50
0.000000
 41
1.052632
 51
0.000000
  7
STANDARD
  0
TEXT
  8
0
 10
-270.049713
 20
155.830002
 40
6.300000
  1
MODEL:AGTC10*ST(15)
 50
0.000000
 41
1.052632
 51
0.000000
  7
STANDARD
  0
TEXT
  8
0
 10
-226.142654
 20
-147.550003
 40
4.500000
  1
15
 50
0.000000
 41
1.052632
 51
0.000000
  7
STANDARD
  0
TEXT
  8
0
 10
-206.142654
 20
-147.550003
 40
4.500000
  1
30
 50
0.000000
 41
1.052632
 51
0.000000
  7
STANDARD
  0
TEXT
  8
0
 10
-186.142654
 20
-147.550003
 40
4.500000
  1
45
 50
0.000000
 41
1.052632
 51
0.000000
  7
STANDARD
  0
TEXT
  8
0
 10
-166.142654
 20
-147.550003
 40
4.500000
  1
60
 50
0.000000
 41
1.052632
 51
0.000000
  7
STANDARD
  0
TEXT
  8
0
 10
-146.142654
 20
-147.550003
 40
4.500000
  1
75
 50
0.000000
 41
1.052632
 51
0.000000
  7
STANDARD
  0
TEXT
  8
0
 10
-126.142654
 20
-147.550003
 40
4.500000
  1
90
 50
0.000000
 41
1.052632
 51
0.000000
  7
STANDARD
  0
TEXT
  8
0
 10
-265.142670
 20
-140.550003
 40
4.500000
  1
STROKE
 50
0.000000
 41
1.052632
 51
0.000000
  7
STANDARD
  0
TEXT
  8
0
 10
-267.392670
 20
-146.324997
 40
4.500000
  1
STRETCH
 50
0.000000
 41
1.052632
 51
0.000000
  7
STANDARD
  0
TEXT
  8
0
 10
-267.392670
 20
-153.074997
 40
4.500000
  1
  PLACE
 50
0.000000
 41
1.052632
 51
0.000000
  7
STANDARD
  0
TEXT
  8
0
 10
-253.892654
 20
-163.050003
 40
4.500000
  1
A
 50
0.000000
 41
1.052632
 51
0.000000
  7
STANDARD
  0
TEXT
  8
0
 10
-253.892654
 20
-183.050003
 40
4.500000
  1
C
 50
0.000000
 41
1.052632
 51
0.000000
  7
STANDARD
  0
TEXT
  8
0
 10
-198.642654
 20
-132.050003
 40
4.500000
  1
STRETCH LIST
 50
0.000000
 41
1.052632
 51
0.000000
  7
STANDARD
  0
TEXT
  8
0
 10
-90.642654
 20
-134.050003
 40
4.500000
  1
(mm)
 50
0.000000
 41
1.052632
 51
0.000000
  7
STANDARD
  0
TEXT
  8
0
 10
-108.392654
 20
-147.550003
 40
4.500000
  1
105
 50
0.000000
 41
1.052632
 51
0.000000
  7
STANDARD
  0
TEXT
  8
0
 10
-88.392654
 20
-147.550003
 40
4.500000
  1
120
 50
0.000000
 41
1.052632
 51
0.000000
  7
STANDARD
  0
TEXT
  8
0
 10
-203.892654
 20
-183.050003
 40
4.500000
  1
0
 50
0.000000
 41
1.052632
 51
0.000000
  7
STANDARD
  0
TEXT
  8
0
 10
-188.392654
 20
-183.050003
 40
4.500000
  1
7.5
 50
0.000000
 41
1.052632
 51
0.000000
  7
STANDARD
  0
TEXT
  8
0
 10
-166.142654
 20
-183.050003
 40
4.500000
  1
15
 50
0.000000
 41
1.052632
 51
0.000000
  7
STANDARD
  0
TEXT
  8
0
 10
-150.642654
 20
-183.050003
 40
4.500000
  1
22.5
 50
0.000000
 41
1.052632
 51
0.000000
  7
STANDARD
  0
TEXT
  8
0
 10
-126.142654
 20
-183.050003
 40
4.500000
  1
30
 50
0.000000
 41
1.052632
 51
0.000000
  7
STANDARD
  0
TEXT
  8
0
 10
-110.642654
 20
-183.050003
 40
4.500000
  1
37.5
 50
0.000000
 41
1.052632
 51
0.000000
  7
STANDARD
  0
TEXT
  8
0
 10
-86.142654
 20
-183.050003
 40
4.500000
  1
45
 50
0.000000
 41
1.052632
 51
0.000000
  7
STANDARD
  0
TEXT
  8
0
 10
-223.892654
 20
-183.050003
 40
4.500000
  1
0
 50
0.000000
 41
1.052632
 51
0.000000
  7
STANDARD
  0
TEXT
  8
0
 10
-223.892654
 20
-163.050003
 40
4.500000
  1
0
 50
0.000000
 41
1.052632
 51
0.000000
  7
STANDARD
  0
TEXT
  8
0
 10
-88.392654
 20
-163.050003
 40
4.500000
  1
105
 50
0.000000
 41
1.052632
 51
0.000000
  7
STANDARD
  0
TEXT
  8
0
 10
-106.142654
 20
-163.050003
 40
4.500000
  1
90
 50
0.000000
 41
1.052632
 51
0.000000
  7
STANDARD
  0
TEXT
  8
0
 10
-126.142654
 20
-163.050003
 40
4.500000
  1
75
 50
0.000000
 41
1.052632
 51
0.000000
  7
STANDARD
  0
TEXT
  8
0
 10
-146.142654
 20
-163.050003
 40
4.500000
  1
60
 50
0.000000
 41
1.052632
 51
0.000000
  7
STANDARD
  0
TEXT
  8
0
 10
-166.142654
 20
-163.050003
 40
4.500000
  1
45
 50
0.000000
 41
1.052632
 51
0.000000
  7
STANDARD
  0
TEXT
  8
0
 10
-186.142654
 20
-163.050003
 40
4.500000
  1
30
 50
0.000000
 41
1.052632
 51
0.000000
  7
STANDARD
  0
TEXT
  8
0
 10
-206.142654
 20
-163.050003
 40
4.500000
  1
15
 50
0.000000
 41
1.052632
 51
0.000000
  7
STANDARD
  0
TEXT
  8
0
 10
-253.892654
 20
-173.050003
 40
4.500000
  1
B
 50
0.000000
 41
1.052632
 51
0.000000
  7
STANDARD
  0
TEXT
  8
0
 10
-223.892654
 20
-173.050003
 40
4.500000
  1
0
 50
0.000000
 41
1.052632
 51
0.000000
  7
STANDARD
  0
TEXT
  8
0
 10
-203.892654
 20
-173.050003
 40
4.500000
  1
0
 50
0.000000
 41
1.052632
 51
0.000000
  7
STANDARD
  0
TEXT
  8
0
 10
-188.392654
 20
-173.050003
 40
4.500000
  1
7.5
 50
0.000000
 41
1.052632
 51
0.000000
  7
STANDARD
  0
TEXT
  8
0
 10
-166.142654
 20
-173.050003
 40
4.500000
  1
15
 50
0.000000
 41
1.052632
 51
0.000000
  7
STANDARD
  0
TEXT
  8
0
 10
-150.642654
 20
-173.050003
 40
4.500000
  1
22.5
 50
0.000000
 41
1.052632
 51
0.000000
  7
STANDARD
  0
TEXT
  8
0
 10
-126.142654
 20
-173.050003
 40
4.500000
  1
30
 50
0.000000
 41
1.052632
 51
0.000000
  7
STANDARD
  0
TEXT
  8
0
 10
-110.642654
 20
-173.050003
 40
4.500000
  1
37.5
 50
0.000000
 41
1.052632
 51
0.000000
  7
STANDARD
  0
TEXT
  8
0
 10
-86.142654
 20
-173.050003
 40
4.500000
  1
45
 50
0.000000
 41
1.052632
 51
0.000000
  7
STANDARD
  0
TEXT
  8
0
 62
     3
 10
29.857126
 20
125.449997
 40
4.500000
  1
STRETCH LINE C
 50
0.000000
 41
1.052632
 51
0.000000
  7
STANDARD
  0
TEXT
  8
0
 62
     3
 10
-30.892885
 20
145.449997
 40
4.500000
  1
STRETCH LINE A
 50
0.000000
 41
1.052632
 51
0.000000
  7
STANDARD
  0
TEXT
  8
0
 62
     3
 10
5.357126
 20
135.449997
 40
4.500000
  1
STRETCH LINE B
 50
0.000000
 41
1.052632
 51
0.000000
  7
STANDARD
  0
ENDSEC
  0
EOF
