  0
SECTION
  2
HEADER
  0
ENDSEC
  0
SECTION
  2
TABLES
  0
TABLE
  2
LTYPE
 70
     4
  0
LTYPE
  2
CONTINUOUS
 70
    64
  3
Solid line
 72
    65
 73
     0
 40
0.000000
  0
LTYPE
  2
DASHED
 70
    64
  3
__ __ __ __ __ __ __ __ __ __ __ __ __ __ __
 72
    65
 73
     2
 40
3.500000
 49
2.000000
 49
-1.500000
  0
LTYPE
  2
CENTER
 70
    64
  3
____ _ ____ _ ____ _ ____ _ ____ _ ____ _ ____
 72
    65
 73
     4
 40
17.500000
 49
13.000000
 49
-1.500000
 49
1.500000
 49
-1.500000
  0
LTYPE
  2
PHANTOM
 70
    64
  3
_____ _ _ _____ _ _ _____ _ _ _____ _ _ ____  
 72
    65
 73
     6
 40
15.500000
 49
8.000000
 49
-1.500000
 49
1.500000
 49
-1.500000
 49
1.500000
 49
-1.500000
  0
LTYPE
  2
DASHED1
 70
    64
  3
__ __ __ __ __ __ __ __ __ __ __ __ __ __ __
 72
    65
 73
     2
 40
1.500000
 49
1.000000
 49
-0.500000
  0
LTYPE
  2
DASHED2
 70
    64
  3
__ __ __ __ __ __ __ __ __ __ __ __ __ __ __
 72
    65
 73
     2
 40
3.500000
 49
2.500000
 49
-1.000000
  0
LTYPE
  2
DASHED3
 70
    64
  3
__ __ __ __ __ __ __ __ __ __ __ __ __ __ __
 72
    65
 73
     2
 40
6.000000
 49
4.000000
 49
-2.000000
  0
LTYPE
  2
DASHED4
 70
    64
  3
__ __ __ __ __ __ __ __ __ __ __ __ __ __ __
 72
    65
 73
     2
 40
12.000000
 49
10.000000
 49
-2.000000
  0
LTYPE
  2
DASHED5
 70
    64
  3
__ __ __ __ __ __ __ __ __ __ __ __ __ __ __
 72
    65
 73
     2
 40
17.000000
 49
15.000000
 49
-2.000000
  0
LTYPE
  2
DASHED6
 70
    64
  3
__ __ __ __ __ __ __ __ __ __ __ __ __ __ __
 72
    65
 73
     2
 40
29.000000
 49
27.000000
 49
-2.000000
  0
LTYPE
  2
PHANTOM1
 70
    64
  3
_____ _ _ _____ _ _ _____ _ _ _____ _ _ ____  
 72
    65
 73
     6
 40
31.000000
 49
25.000000
 49
-1.500000
 49
1.000000
 49
-1.000000
 49
1.000000
 49
-1.500000
  0
LTYPE
  2
PHANTOM2
 70
    64
  3
_____ _ _ _____ _ _ _____ _ _ _____ _ _ ____  
 72
    65
 73
     6
 40
36.000000
 49
27.000000
 49
-1.500000
 49
2.500000
 49
-1.000000
 49
2.500000
 49
-1.500000
  0
LTYPE
  2
PHANTOM3
 70
    64
  3
_____ _ _ _____ _ _ _____ _ _ _____ _ _ ____  
 72
    65
 73
     6
 40
78.000000
 49
64.000000
 49
-2.000000
 49
4.000000
 49
-2.000000
 49
4.000000
 49
-2.000000
  0
LTYPE
  2
CENTER1
 70
    64
  3
____ _ ____ _ ____ _ ____ _ ____ _ ____ _ ____
 72
    65
 73
     4
 40
19.000000
 49
14.000000
 49
-1.000000
 49
3.000000
 49
-1.000000
  0
LTYPE
  2
CENTER2
 70
    64
  3
____ _ ____ _ ____ _ ____ _ ____ _ ____ _ ____
 72
    65
 73
     4
 40
28.500000
 49
25.000000
 49
-1.000000
 49
1.500000
 49
-1.000000
  0
LTYPE
  2
CENTER3
 70
    64
  3
____ _ ____ _ ____ _ ____ _ ____ _ ____ _ ____
 72
    65
 73
     4
 40
31.500000
 49
27.000000
 49
-1.000000
 49
2.500000
 49
-1.000000
  0
LTYPE
  2
CENTER4
 70
    64
  3
____ _ ____ _ ____ _ ____ _ ____ _ ____ _ ____
 72
    65
 73
     4
 40
50.000000
 49
45.000000
 49
-1.000000
 49
3.000000
 49
-1.000000
  0
LTYPE
  2
CENTER5
 70
    64
  3
____ _ ____ _ ____ _ ____ _ ____ _ ____ _ ____
 72
    65
 73
     4
 40
100.000000
 49
92.000000
 49
-2.000000
 49
4.000000
 49
-2.000000
  0
LTYPE
  2
SBK1
 70
    64
  3
______ _ _ _ ______ _ _ _ ______ _ _ _ _____  
 72
    65
 73
     8
 40
60.500000
 49
45.000000
 49
-2.000000
 49
2.500000
 49
-2.000000
 49
2.500000
 49
-2.000000
 49
2.500000
 49
-2.000000
  0
LTYPE
  2
SBK2
 70
    64
  3
______ _ _ _ ______ _ _ _ ______ _ _ _ _____  
 72
    65
 73
     8
 40
84.000000
 49
64.000000
 49
-2.000000
 49
4.000000
 49
-2.000000
 49
4.000000
 49
-2.000000
 49
4.000000
 49
-2.000000
  0
LTYPE
  2
STCH
 70
    64
  3
__ __ __ __ __ __ __ __ __ __ __ __ __ __ __
 72
    65
 73
     2
 40
3.000000
 49
1.000000
 49
-2.000000
  0
LTYPE
  2
MTCH
 70
    64
  3
_____ _ _ _____ _ _ _____ _ _ _____ _ _ ____  
 72
    65
 73
     6
 40
80.000000
 49
66.000000
 49
-2.000000
 49
4.000000
 49
-2.000000
 49
4.000000
 49
-2.000000
  0
ENDTAB
  0
TABLE
  2
LAYER
 70
     1
  0
LAYER
  2
0
 70
     0
 62
     7
  6
CONTINUOUS
  0
ENDTAB
  0
TABLE
  2
STYLE
 70
     1
  0
STYLE
  2
STANDARD
 70
     0
 40
0.000000
 41
1.000000
 50
0.000000
 71
     0
 42
0.200000
  3
txt
  4
BIGFONT
  0
ENDTAB
  0
TABLE
  2
VIEW
 70
     0
  0
ENDTAB
  0
ENDSEC
  0
SECTION
  2
BLOCKS
  0
ENDSEC
  0
SECTION
  2
ENTITIES
  0
LINE
  8
0
  6
CENTER
 62
     2
 10
78.794144
 20
92.000000
 11
-23.842110
 21
92.000000
  0
LINE
  8
0
 10
63.999985
 20
50.000008
 11
63.999985
 21
134.000031
  0
LINE
  8
0
 10
5.999954
 20
50.000008
 11
5.999954
 21
134.000031
  0
LINE
  8
0
 10
6.999969
 20
51.000019
 11
6.999969
 21
133.000031
  0
LINE
  8
0
 10
62.999969
 20
51.000019
 11
6.999969
 21
51.000019
  0
LINE
  8
0
 10
62.999969
 20
50.999992
 11
62.999969
 21
133.000031
  0
LINE
  8
0
 10
62.999969
 20
133.000000
 11
6.999969
 21
133.000000
  0
LINE
  8
0
 10
63.999935
 20
49.999992
 11
62.999943
 21
50.999981
  0
LINE
  8
0
 10
64.000008
 20
134.000015
 11
63.000019
 21
133.000015
  0
LINE
  8
0
 10
6.999905
 20
132.999954
 11
5.999906
 21
133.999969
  0
LINE
  8
0
 10
5.999949
 20
49.999981
 11
6.999957
 21
50.999985
  0
LINE
  8
0
 10
64.999969
 20
50.000008
 11
64.999969
 21
134.000031
  0
LINE
  8
0
 10
63.999985
 20
134.000031
 11
5.999954
 21
134.000031
  0
LINE
  8
0
 10
63.999985
 20
50.000008
 11
5.999954
 21
50.000008
  0
LINE
  8
0
 62
     4
 10
-58.000031
 20
123.999992
 11
-48.000031
 21
123.999992
  0
LINE
  8
0
 62
     4
 10
-48.000031
 20
122.500008
 11
-23.000000
 21
122.500008
  0
LINE
  8
0
 62
     4
 10
-48.000031
 20
122.499977
 11
-48.000031
 21
124.999977
  0
LINE
  8
0
 62
     4
 10
-58.000031
 20
123.000008
 11
-48.000031
 21
123.000008
  0
LINE
  8
0
 62
     4
 10
-58.000031
 20
125.000008
 11
-50.000015
 21
125.000008
  0
LINE
  8
0
 62
     4
 10
-58.000031
 20
122.999985
 11
-58.000031
 21
124.999977
  0
LINE
  8
0
 62
     1
 10
-37.258766
 20
57.186703
 11
-36.740681
 21
63.108448
  0
LINE
  8
0
 62
     4
 10
-58.000023
 20
60.100002
 11
-48.000015
 21
60.100002
  0
LINE
  8
0
 62
     4
 10
-48.000015
 20
58.599987
 11
-37.135078
 21
58.599987
  0
LINE
  8
0
 62
     4
 10
-48.000015
 20
61.600018
 11
-36.872604
 21
61.600018
  0
LINE
  8
0
 62
     4
 10
-48.000015
 20
58.599987
 11
-48.000015
 21
61.599991
  0
LINE
  8
0
 62
     4
 10
-36.131248
 20
58.599987
 11
-23.999992
 21
58.599987
  0
LINE
  8
0
 62
     4
 10
-35.868790
 20
61.600018
 11
-23.000015
 21
61.600018
  0
LINE
  8
0
 62
     4
 10
-58.000023
 20
59.099991
 11
-48.000015
 21
59.099991
  0
LINE
  8
0
 62
     4
 10
-58.000023
 20
61.100014
 11
-48.000015
 21
61.100014
  0
LINE
  8
0
 62
     4
 10
-58.000015
 20
59.099991
 11
-58.000015
 21
61.100014
  0
LINE
  8
0
 62
     1
 10
-36.260170
 20
57.126850
 11
-35.740711
 21
63.064304
  0
LINE
  8
0
 10
5.999954
 20
58.000011
 11
-9.000023
 21
58.000011
  0
LINE
  8
0
 10
5.999954
 20
57.000027
 11
-9.000023
 21
57.000027
  0
LINE
  8
0
 10
64.999969
 20
77.000031
 11
63.999985
 21
77.000031
  0
LINE
  8
0
 10
64.999969
 20
107.000031
 11
63.999985
 21
107.000031
  0
LINE
  8
0
 10
74.999969
 20
50.000008
 11
74.999969
 21
134.000031
  0
LINE
  8
0
 10
74.999969
 20
50.000008
 11
64.999969
 21
50.000008
  0
LINE
  8
0
 10
74.999969
 20
134.000031
 11
64.999969
 21
134.000031
  0
LINE
  8
0
  6
CENTER
 62
     2
 10
69.999954
 20
61.152054
 11
69.999954
 21
74.532990
  0
LINE
  8
0
  6
CENTER
 62
     2
 10
76.253647
 20
68.500015
 11
63.777451
 21
68.500015
  0
LINE
  8
0
  6
CENTER
 62
     2
 10
69.999969
 20
109.152069
 11
69.999969
 21
121.533005
  0
LINE
  8
0
  6
CENTER
 62
     2
 10
76.253647
 20
115.500008
 11
63.777451
 21
115.500008
  0
LINE
  8
0
  6
CENTER
 62
     2
 10
-21.253677
 20
115.500008
 11
-8.777496
 21
115.500008
  0
LINE
  8
0
 10
-10.000008
 20
50.000008
 11
-10.000008
 21
134.000031
  0
LINE
  8
0
  6
CENTER
 62
     2
 10
-15.000000
 20
109.152069
 11
-15.000000
 21
121.533005
  0
LINE
  8
0
 10
-20.000000
 20
50.000008
 11
-20.000000
 21
134.000031
  0
LINE
  8
0
 10
-20.000000
 20
50.000008
 11
-10.000008
 21
50.000008
  0
LINE
  8
0
 10
-20.000000
 20
134.000031
 11
-10.000008
 21
134.000031
  0
LINE
  8
0
  6
CENTER
 62
     2
 10
-15.000000
 20
62.152054
 11
-15.000000
 21
74.533012
  0
LINE
  8
0
  6
CENTER
 62
     2
 10
-21.253677
 20
68.500015
 11
-8.777496
 21
68.500015
  0
LINE
  8
0
 10
5.999954
 20
127.000023
 11
-1.999748
 21
127.000023
  0
LINE
  8
0
 10
5.999954
 20
126.000015
 11
-10.000008
 21
126.000015
  0
LINE
  8
0
 10
5.999954
 20
107.000031
 11
-10.000031
 21
107.000031
  0
LINE
  8
0
 10
5.999954
 20
77.000031
 11
-10.000053
 21
77.000031
  0
LINE
  8
0
  6
CENTER
 62
     2
 10
58.000000
 20
86.686562
 11
58.000000
 21
97.231857
  0
LINE
  8
0
  6
CENTER
 62
     2
 10
56.697128
 20
127.000000
 11
48.337250
 21
127.000000
  0
LINE
  8
0
  6
CENTER
 62
     2
 10
52.499939
 20
122.673698
 11
52.499939
 21
131.241058
  0
LINE
  8
0
  6
CENTER
 62
     2
 10
52.499939
 20
52.173672
 11
52.499939
 21
60.741024
  0
LINE
  8
0
 10
-23.999992
 20
60.000008
 11
-23.999992
 21
52.000004
  0
LINE
  8
0
 10
-23.642738
 20
55.999992
 11
-20.357269
 21
55.999992
  0
LINE
  8
0
 10
-24.000000
 20
52.000004
 11
-20.000000
 21
52.000004
  0
LINE
  8
0
 10
-24.000000
 20
60.000008
 11
-20.000000
 21
60.000008
  0
LINE
  8
0
 10
-20.000000
 20
60.000008
 11
-20.000000
 21
52.000004
  0
LINE
  8
0
 10
88.599953
 20
58.499992
 11
78.999985
 21
58.499992
  0
LINE
  8
0
 10
88.599953
 20
53.499992
 11
78.999985
 21
53.499992
  0
LINE
  8
0
 10
88.999954
 20
53.899994
 11
88.999954
 21
58.099987
  0
LINE
  8
0
 10
64.999969
 20
53.499992
 11
64.399956
 21
53.499992
  0
LINE
  8
0
 10
64.999969
 20
58.499992
 11
64.399956
 21
58.499992
  0
LINE
  8
0
  6
CENTER
 62
     2
 10
56.697128
 20
57.000004
 11
48.337250
 21
57.000004
  0
LINE
  8
0
  6
CENTER
 62
     2
 10
34.999954
 20
53.138939
 11
34.999954
 21
60.792828
  0
LINE
  8
0
 62
     4
 10
77.999969
 20
133.000000
 11
94.249969
 21
133.000000
  0
LINE
  8
0
 62
     4
 10
77.999969
 20
123.000008
 11
94.249969
 21
123.000008
  0
LINE
  8
0
 62
     4
 10
104.999985
 20
131.000015
 11
104.999985
 21
125.000031
  0
LINE
  8
0
 62
     4
 10
100.999985
 20
132.250015
 11
100.999985
 21
131.000015
  0
LINE
  8
0
 62
     4
 10
100.999985
 20
131.000015
 11
104.999985
 21
131.000015
  0
LINE
  8
0
 62
     4
 10
100.999985
 20
125.000008
 11
104.999985
 21
125.000008
  0
LINE
  8
0
 62
     4
 10
94.999985
 20
123.750008
 11
100.999985
 21
123.750008
  0
LINE
  8
0
 62
     4
 10
94.999985
 20
132.250015
 11
100.999985
 21
132.250015
  0
LINE
  8
0
 62
     4
 10
94.999969
 20
132.250015
 11
94.999969
 21
123.750031
  0
LINE
  8
0
 62
     4
 10
94.250076
 20
133.000153
 11
95.000076
 21
132.250137
  0
LINE
  8
0
 62
     4
 10
94.250069
 20
123.000000
 11
95.000053
 21
123.749985
  0
LINE
  8
0
 62
     1
 10
77.999969
 20
132.500000
 11
94.749969
 21
132.500000
  0
LINE
  8
0
 62
     1
 10
77.999969
 20
123.500015
 11
94.749969
 21
123.500015
  0
LINE
  8
0
 62
     4
 10
94.249969
 20
133.000000
 11
94.249969
 21
123.000008
  0
LINE
  8
0
 62
     4
 10
100.999985
 20
125.000031
 11
100.999985
 21
123.750031
  0
LINE
  8
0
  6
CENTER
 62
     1
 10
61.928116
 20
128.000000
 11
107.980942
 21
128.000000
  0
LINE
  8
0
 10
63.999954
 20
129.000000
 11
63.999954
 21
127.000000
  0
LINE
  8
0
 62
     4
 10
64.499954
 20
126.499992
 11
64.999985
 21
126.499992
  0
LINE
  8
0
 62
     4
 10
64.499954
 20
129.500000
 11
64.499954
 21
126.499992
  0
LINE
  8
0
 62
     4
 10
64.499954
 20
129.500000
 11
64.999985
 21
129.500000
  0
LINE
  8
0
 62
     4
 10
64.499962
 20
129.500046
 11
63.999954
 21
129.000031
  0
LINE
  8
0
 62
     4
 10
63.999924
 20
126.999939
 11
64.499924
 21
126.499939
  0
LINE
  8
0
 62
     4
 10
-2.500008
 20
126.499992
 11
-10.000008
 21
126.499992
  0
LINE
  8
0
 62
     4
 10
-2.500008
 20
129.500000
 11
-10.000008
 21
129.500000
  0
LINE
  8
0
 62
     4
 10
-2.499923
 20
126.499969
 11
-1.999929
 21
126.999962
  0
LINE
  8
0
 62
     4
 10
-2.000021
 20
128.999969
 11
-2.500032
 21
129.499969
  0
LINE
  8
0
 62
     4
 10
-2.500008
 20
126.499992
 11
-2.500008
 21
129.500000
  0
LINE
  8
0
 62
     4
 10
-1.999748
 20
129.000000
 11
-1.999748
 21
127.000000
  0
LINE
  8
0
 62
     4
 10
-23.000000
 20
122.999985
 11
-39.250000
 21
122.999985
  0
LINE
  8
0
 62
     4
 10
-23.000008
 20
132.999985
 11
-39.250015
 21
132.999985
  0
LINE
  8
0
 62
     4
 10
-50.000015
 20
124.999977
 11
-50.000015
 21
130.999969
  0
LINE
  8
0
 62
     4
 10
-46.000008
 20
123.749977
 11
-46.000008
 21
124.999977
  0
LINE
  8
0
 62
     4
 10
-46.000008
 20
124.999977
 11
-50.000015
 21
124.999977
  0
LINE
  8
0
 62
     4
 10
-46.000008
 20
131.000015
 11
-50.000015
 21
131.000015
  0
LINE
  8
0
 62
     4
 10
-40.000015
 20
132.250015
 11
-46.000008
 21
132.250015
  0
LINE
  8
0
 62
     4
 10
-40.000015
 20
123.749977
 11
-46.000008
 21
123.749977
  0
LINE
  8
0
 62
     4
 10
-40.000008
 20
123.749977
 11
-40.000008
 21
132.249969
  0
LINE
  8
0
 62
     4
 10
-39.249985
 20
123.000038
 11
-39.999985
 21
123.750046
  0
LINE
  8
0
 62
     4
 10
-39.250069
 20
133.000076
 11
-40.000076
 21
132.250061
  0
LINE
  8
0
 62
     1
 10
-23.000000
 20
123.500015
 11
-39.749992
 21
123.500015
  0
LINE
  8
0
 62
     1
 10
-23.000008
 20
132.500000
 11
-39.750008
 21
132.500000
  0
LINE
  8
0
 62
     4
 10
-39.250015
 20
122.999985
 11
-39.250015
 21
132.999985
  0
LINE
  8
0
 62
     4
 10
-46.000008
 20
130.999969
 11
-46.000008
 21
132.249969
  0
LINE
  8
0
  6
CENTER
 62
     1
 10
0.238060
 20
128.000000
 11
-52.980972
 21
128.000000
  0
LINE
  8
0
 62
     4
 10
-49.500015
 20
124.999977
 11
-49.500015
 21
130.999969
  0
LINE
  8
0
 62
     4
 10
104.499985
 20
131.000015
 11
104.499985
 21
125.000031
  0
LINE
  8
0
 10
33.000000
 20
128.000000
 11
33.000000
 21
126.000015
  0
LINE
  8
0
 10
36.999985
 20
128.000000
 11
36.999985
 21
126.000015
  0
LINE
  8
0
 62
     4
 10
77.999969
 20
133.500000
 11
77.999969
 21
122.499977
  0
LINE
  8
0
 62
     4
 10
74.999969
 20
133.500000
 11
77.999969
 21
133.500000
  0
LINE
  8
0
 62
     4
 10
74.999969
 20
122.499977
 11
77.999969
 21
122.499977
  0
LINE
  8
0
 62
     4
 10
75.230850
 20
132.599274
 11
77.769058
 21
132.599274
  0
LINE
  8
0
 62
     4
 10
75.230850
 20
123.400734
 11
77.769058
 21
123.400734
  0
LINE
  8
0
 62
     4
 10
75.230850
 20
127.099236
 11
77.769058
 21
127.099236
  0
LINE
  8
0
 62
     4
 10
75.230850
 20
128.900757
 11
77.769058
 21
128.900757
  0
LINE
  8
0
 62
     4
 10
75.230835
 20
128.900757
 11
75.230835
 21
127.099236
  0
LINE
  8
0
 62
     4
 10
77.769058
 20
128.900757
 11
77.769058
 21
127.099236
  0
LINE
  8
0
 62
     4
 10
75.230835
 20
133.500000
 11
75.230835
 21
132.599274
  0
LINE
  8
0
 62
     4
 10
77.769058
 20
132.599274
 11
77.769058
 21
133.500000
  0
LINE
  8
0
 62
     4
 10
75.230835
 20
123.400734
 11
75.230835
 21
122.499977
  0
LINE
  8
0
 62
     4
 10
77.769058
 20
123.400734
 11
77.769058
 21
122.499977
  0
LINE
  8
0
 62
     4
 10
-23.000008
 20
122.500008
 11
-23.000008
 21
133.500015
  0
LINE
  8
0
 62
     4
 10
-20.000008
 20
122.500008
 11
-23.000008
 21
122.500008
  0
LINE
  8
0
 62
     4
 10
-20.000000
 20
133.500015
 11
-23.000000
 21
133.500015
  0
LINE
  8
0
 62
     4
 10
-20.230896
 20
123.400734
 11
-22.769112
 21
123.400734
  0
LINE
  8
0
 62
     4
 10
-20.230896
 20
132.599274
 11
-22.769112
 21
132.599274
  0
LINE
  8
0
 62
     4
 10
-20.230896
 20
128.900757
 11
-22.769112
 21
128.900757
  0
LINE
  8
0
 62
     4
 10
-20.230896
 20
127.099236
 11
-22.769112
 21
127.099236
  0
LINE
  8
0
 62
     4
 10
-20.230888
 20
127.099236
 11
-20.230888
 21
128.900757
  0
LINE
  8
0
 62
     4
 10
-22.769112
 20
127.099236
 11
-22.769112
 21
128.900757
  0
LINE
  8
0
 62
     4
 10
-20.230888
 20
122.500008
 11
-20.230888
 21
123.400734
  0
LINE
  8
0
 62
     4
 10
-22.769112
 20
123.400734
 11
-22.769112
 21
122.500008
  0
LINE
  8
0
 62
     4
 10
-20.230888
 20
132.599274
 11
-20.230888
 21
133.500015
  0
LINE
  8
0
 62
     4
 10
-22.769112
 20
132.599274
 11
-22.769112
 21
133.500015
  0
LINE
  8
0
 62
     4
 10
-21.500031
 20
62.099998
 11
-20.000000
 21
62.099998
  0
LINE
  8
0
 62
     4
 10
-21.500031
 20
62.099998
 11
-21.500031
 21
60.000008
  0
LINE
  8
0
 62
     4
 10
-21.500029
 20
62.100006
 11
-23.000029
 21
61.600006
  0
LINE
  8
0
 62
     4
 10
-23.000015
 20
61.599991
 11
-23.000015
 21
60.000008
  0
LINE
  8
0
 10
5.999954
 20
112.499985
 11
-10.000008
 21
112.499985
  0
LINE
  8
0
 10
5.999954
 20
119.500000
 11
-10.000008
 21
119.500000
  0
LINE
  8
0
 10
5.999954
 20
64.500000
 11
-10.000008
 21
64.500000
  0
LINE
  8
0
 10
5.999954
 20
71.500023
 11
-10.000008
 21
71.500023
  0
LINE
  8
0
 10
5.999954
 20
63.999996
 11
-10.000008
 21
63.999996
  0
LINE
  8
0
 10
5.999954
 20
120.000008
 11
-10.000008
 21
120.000008
  0
LINE
  8
0
 10
64.999969
 20
71.500000
 11
63.999985
 21
71.500000
  0
LINE
  8
0
 10
64.999969
 20
112.500000
 11
63.999985
 21
112.500000
  0
LINE
  8
0
 10
64.999969
 20
64.500000
 11
63.999985
 21
64.500000
  0
LINE
  8
0
 10
64.999969
 20
119.500000
 11
63.999985
 21
119.500000
  0
LINE
  8
0
 10
64.999969
 20
63.999996
 11
63.999985
 21
63.999996
  0
LINE
  8
0
 10
64.999969
 20
120.000008
 11
63.999985
 21
120.000008
  0
LINE
  8
0
  6
CENTER
 62
     2
 10
34.999939
 20
122.673698
 11
34.999939
 21
131.241058
  0
LINE
  8
0
  6
CENTER
 62
     2
 10
39.197128
 20
127.000000
 11
30.837250
 21
127.000000
  0
LINE
  8
0
  6
CENTER
 62
     2
 10
39.197128
 20
57.000004
 11
30.837250
 21
57.000004
  0
LINE
  8
0
  6
CENTER
 62
     2
 10
17.499939
 20
52.173672
 11
17.499939
 21
61.741035
  0
LINE
  8
0
  6
CENTER
 62
     2
 10
21.697128
 20
57.000004
 11
13.337250
 21
57.000004
  0
LINE
  8
0
  6
CENTER
 62
     2
 10
17.499939
 20
122.673698
 11
17.499939
 21
131.241058
  0
LINE
  8
0
  6
CENTER
 62
     2
 10
21.697128
 20
127.000000
 11
13.337250
 21
127.000000
  0
LINE
  8
0
 10
78.999985
 20
52.000004
 11
74.999969
 21
52.000004
  0
LINE
  8
0
 10
78.999985
 20
52.000004
 11
78.999985
 21
60.000008
  0
LINE
  8
0
 10
78.642700
 20
55.999992
 11
75.357224
 21
55.999992
  0
LINE
  8
0
 10
78.999985
 20
60.000008
 11
74.999969
 21
60.000008
  0
LINE
  8
0
 10
74.999969
 20
52.000004
 11
74.999969
 21
60.000008
  0
LINE
  8
0
 10
63.999954
 20
53.999996
 11
63.999954
 21
58.000011
  0
LINE
  8
0
 62
     2
 10
88.999954
 20
58.099991
 11
78.999985
 21
58.099991
  0
LINE
  8
0
 62
     2
 10
88.999954
 20
53.899994
 11
78.999985
 21
53.899994
  0
LINE
  8
0
 62
     2
 10
64.999969
 20
58.099991
 11
63.999954
 21
58.099991
  0
LINE
  8
0
 62
     2
 10
64.999969
 20
53.899994
 11
63.999954
 21
53.899994
  0
LINE
  8
0
 10
88.599976
 20
53.499969
 11
88.999985
 21
53.899967
  0
LINE
  8
0
 10
88.599991
 20
58.500046
 11
88.999992
 21
58.100040
  0
LINE
  8
0
 10
88.599953
 20
53.499992
 11
88.599953
 21
58.499992
  0
LINE
  8
0
 10
64.399956
 20
53.499992
 11
64.399956
 21
58.499992
  0
LINE
  8
0
 10
63.999966
 20
58.099964
 11
64.399971
 21
58.499969
  0
LINE
  8
0
 10
63.999969
 20
53.900005
 11
64.399979
 21
53.500004
  0
LINE
  8
0
 10
-33.599983
 20
58.499992
 11
-24.000015
 21
58.499992
  0
LINE
  8
0
 10
-33.599983
 20
53.499992
 11
-24.000015
 21
53.499992
  0
LINE
  8
0
 10
-8.999985
 20
53.899994
 11
-8.999985
 21
58.099991
  0
LINE
  8
0
 10
-33.999985
 20
53.899994
 11
-33.999985
 21
58.099987
  0
LINE
  8
0
 10
-10.000000
 20
53.499992
 11
-9.399986
 21
53.499992
  0
LINE
  8
0
 10
-10.000000
 20
58.499992
 11
-9.399986
 21
58.499992
  0
LINE
  8
0
 62
     2
 10
-33.999985
 20
58.099991
 11
-24.000015
 21
58.099991
  0
LINE
  8
0
 62
     2
 10
-33.999985
 20
53.899994
 11
-24.000015
 21
53.899994
  0
LINE
  8
0
 62
     2
 10
-10.000000
 20
58.099991
 11
-8.999985
 21
58.099991
  0
LINE
  8
0
 62
     2
 10
-10.000000
 20
53.899994
 11
-8.999985
 21
53.899994
  0
LINE
  8
0
 10
-33.599991
 20
53.499981
 11
-33.999992
 21
53.899986
  0
LINE
  8
0
 10
-33.600002
 20
58.499989
 11
-34.000004
 21
58.099983
  0
LINE
  8
0
 10
-33.599983
 20
53.499992
 11
-33.599983
 21
58.499992
  0
LINE
  8
0
 10
-9.399986
 20
53.499992
 11
-9.399986
 21
58.499992
  0
LINE
  8
0
 10
-8.999982
 20
58.099998
 11
-9.399985
 21
58.500000
  0
LINE
  8
0
 10
-8.999993
 20
53.899990
 11
-9.399995
 21
53.499989
  0
LINE
  8
0
  6
PHANTOM
 62
     3
 10
2.999954
 20
31.276199
 11
2.999954
 21
159.000031
  0
LINE
  8
0
  6
PHANTOM
 62
     3
 10
26.249939
 20
31.276199
 11
26.249939
 21
149.000031
  0
LINE
  8
0
  6
PHANTOM
 62
     3
 10
43.749939
 20
31.276199
 11
43.749939
 21
139.000031
  0
LINE
  8
0
 10
-150.000000
 20
133.999985
 11
-114.500000
 21
133.999985
  0
LINE
  8
0
 10
-150.000000
 20
50.000000
 11
-114.500000
 21
50.000000
  0
LINE
  8
0
 10
-114.000000
 20
133.000000
 11
-114.000000
 21
51.000111
  0
LINE
  8
0
 10
-114.500031
 20
133.500092
 11
-113.999969
 21
133.000031
  0
LINE
  8
0
 10
-114.500046
 20
50.500122
 11
-114.000084
 21
51.000084
  0
LINE
  8
0
  6
CENTER
 62
     2
 10
-155.685730
 20
91.999992
 11
-111.694397
 21
91.999992
  0
LINE
  8
0
  6
CENTER
 62
     2
 10
-131.500000
 20
64.575729
 11
-131.500000
 21
55.513126
  0
LINE
  8
0
  6
CENTER
 62
     2
 10
-136.559601
 20
60.000000
 11
-126.621887
 21
60.000000
  0
LINE
  8
0
 62
     4
 10
-134.000000
 20
57.999981
 11
-133.500000
 21
57.999981
  0
LINE
  8
0
 62
     4
 10
-134.000000
 20
62.199986
 11
-134.000000
 21
57.999981
  0
LINE
  8
0
 62
     4
 10
-133.500000
 20
57.999981
 11
-133.500000
 21
57.116825
  0
LINE
  8
0
 62
     4
 10
-134.000000
 20
62.199986
 11
-128.800003
 21
62.199986
  0
LINE
  8
0
 62
     4
 10
-128.800003
 20
57.999981
 11
-128.627731
 21
57.999981
  0
LINE
  8
0
 62
     4
 10
-130.000000
 20
62.099991
 11
-130.000000
 21
58.099976
  0
LINE
  8
0
 62
     4
 10
-134.000000
 20
58.099976
 11
-129.000000
 21
58.099976
  0
LINE
  8
0
 62
     4
 10
-134.000000
 20
62.099991
 11
-129.000000
 21
62.099991
  0
LINE
  8
0
  6
CENTER
 62
     2
 10
-131.500000
 20
119.190468
 11
-131.500000
 21
128.486862
  0
LINE
  8
0
  6
CENTER
 62
     2
 10
-136.559601
 20
123.999985
 11
-127.310547
 21
123.999985
  0
LINE
  8
0
 62
     4
 10
-134.000000
 20
126.000008
 11
-133.500000
 21
126.000008
  0
LINE
  8
0
 62
     4
 10
-134.000000
 20
121.800003
 11
-134.000000
 21
126.000008
  0
LINE
  8
0
 62
     4
 10
-133.500000
 20
126.000008
 11
-133.500000
 21
126.883133
  0
LINE
  8
0
 62
     4
 10
-134.000000
 20
121.800003
 11
-128.800003
 21
121.800003
  0
LINE
  8
0
 62
     4
 10
-130.000000
 20
121.900024
 11
-130.000000
 21
125.900009
  0
LINE
  8
0
 62
     4
 10
-134.000000
 20
125.899986
 11
-128.800003
 21
125.899986
  0
LINE
  8
0
 62
     4
 10
-134.000000
 20
121.899994
 11
-129.000000
 21
121.899994
  0
LINE
  8
0
  6
CENTER
 62
     2
 10
-133.575348
 20
96.999992
 11
-126.289627
 21
96.999992
  0
LINE
  8
0
  6
CENTER
 62
     2
 10
-130.000000
 20
100.618614
 11
-130.000000
 21
93.380531
  0
LINE
  8
0
  6
CENTER
 62
     2
 10
-133.575348
 20
74.499992
 11
-126.289627
 21
74.499992
  0
LINE
  8
0
  6
CENTER
 62
     2
 10
-130.000000
 20
78.118614
 11
-130.000000
 21
70.880531
  0
LINE
  8
0
 10
-150.000000
 20
133.999985
 11
-150.000000
 21
50.000000
  0
LINE
  8
0
  6
CENTER
 62
     2
 10
-126.752686
 20
55.999985
 11
-114.466049
 21
55.999985
  0
LINE
  8
0
  6
CENTER
 62
     2
 10
-120.499985
 20
49.628067
 11
-120.499985
 21
62.342911
  0
LINE
  8
0
 10
-125.118782
 20
55.999989
 11
-122.809372
 21
60.000008
  0
LINE
  8
0
 10
-122.809425
 20
51.999966
 11
-125.118828
 21
55.999966
  0
LINE
  8
0
 10
-118.190598
 20
51.999996
 11
-122.809387
 21
51.999996
  0
LINE
  8
0
 10
-115.881203
 20
55.999996
 11
-118.190605
 21
51.999992
  0
LINE
  8
0
 10
-118.190590
 20
59.999981
 11
-115.881195
 21
55.999989
  0
LINE
  8
0
 10
-122.809387
 20
60.000000
 11
-118.190598
 21
60.000000
  0
LINE
  8
0
 10
-121.943336
 20
55.999969
 11
-121.221649
 21
57.249977
  0
LINE
  8
0
 10
-121.221733
 20
54.749996
 11
-121.943428
 21
56.000000
  0
LINE
  8
0
 10
-119.778290
 20
54.749985
 11
-121.221680
 21
54.749985
  0
LINE
  8
0
 10
-119.056633
 20
55.999989
 11
-119.778320
 21
54.749981
  0
LINE
  8
0
 10
-119.778313
 20
57.249992
 11
-119.056618
 21
55.999981
  0
LINE
  8
0
 10
-121.221680
 20
57.249985
 11
-119.778290
 21
57.249985
  0
LINE
  8
0
  6
CENTER
 62
     1
 10
-112.142792
 20
128.000000
 11
-128.809509
 21
128.000000
  0
LINE
  8
0
  6
CENTER
 62
     1
 10
-120.499985
 20
135.985687
 11
-120.499985
 21
120.176186
  0
LINE
  8
0
 62
     4
 10
-117.489578
 20
125.000000
 11
-123.510391
 21
125.000000
  0
LINE
  8
0
 62
     4
 10
-117.489578
 20
131.000000
 11
-123.510391
 21
131.000000
  0
LINE
  8
0
 62
     4
 10
-128.800003
 20
121.800003
 11
-128.800003
 21
125.912018
  0
LINE
  8
0
 62
     4
 10
-129.000000
 20
121.900024
 11
-129.000000
 21
125.900009
  0
LINE
  8
0
 62
     4
 10
-128.800003
 20
62.199986
 11
-128.800003
 21
57.999981
  0
LINE
  8
0
 62
     4
 10
-129.000000
 20
62.099991
 11
-129.000000
 21
58.099976
  0
LINE
  8
0
 10
-114.500000
 20
133.999985
 11
-114.500000
 21
50.000000
  0
LINE
  8
0
 62
     4
 10
-126.330841
 20
128.900635
 11
-124.195374
 21
132.599380
  0
LINE
  8
0
 62
     4
 10
-124.195427
 20
123.400719
 11
-126.330833
 21
127.099358
  0
LINE
  8
0
 62
     4
 10
-118.364655
 20
122.499947
 11
-122.635330
 21
122.499947
  0
LINE
  8
0
 62
     4
 10
-114.669167
 20
127.099190
 11
-116.804482
 21
123.400711
  0
LINE
  8
0
 62
     4
 10
-116.804451
 20
132.599319
 11
-114.669121
 21
128.900818
  0
LINE
  8
0
 62
     4
 10
-122.635437
 20
133.499954
 11
-118.364548
 21
133.499954
  0
LINE
  8
0
 10
211.999939
 20
134.000000
 11
176.499985
 21
134.000000
  0
LINE
  8
0
 10
211.999939
 20
50.000008
 11
176.499985
 21
50.000008
  0
LINE
  8
0
 10
176.499969
 20
133.500092
 11
175.999924
 21
133.000046
  0
LINE
  8
0
 10
176.499939
 20
50.499855
 11
175.999847
 21
50.999947
  0
LINE
  8
0
  6
CENTER
 62
     2
 10
217.685669
 20
92.000000
 11
170.138779
 21
92.000000
  0
LINE
  8
0
 10
212.000000
 20
134.000031
 11
212.000000
 21
50.000008
  0
LINE
  8
0
  6
CENTER
 62
     2
 10
188.752640
 20
55.999992
 11
176.466049
 21
55.999992
  0
LINE
  8
0
  6
CENTER
 62
     2
 10
182.500015
 20
49.628075
 11
182.500015
 21
62.342918
  0
LINE
  8
0
 10
187.118759
 20
56.000023
 11
184.809357
 21
60.000042
  0
LINE
  8
0
 10
184.809174
 20
52.000141
 11
187.118591
 21
56.000168
  0
LINE
  8
0
 10
180.190567
 20
52.000004
 11
184.809341
 21
52.000004
  0
LINE
  8
0
 10
177.881088
 20
55.999989
 11
180.190506
 21
51.999996
  0
LINE
  8
0
 10
180.190567
 20
60.000061
 11
177.881149
 21
56.000015
  0
LINE
  8
0
 10
184.809341
 20
60.000008
 11
180.190567
 21
60.000008
  0
LINE
  8
0
 10
183.943436
 20
56.000046
 11
183.221756
 21
57.250050
  0
LINE
  8
0
 10
183.221771
 20
54.749977
 11
183.943451
 21
55.999962
  0
LINE
  8
0
 10
181.778275
 20
54.749992
 11
183.221634
 21
54.749992
  0
LINE
  8
0
 10
181.056793
 20
56.000160
 11
181.778488
 21
54.750168
  0
LINE
  8
0
 10
181.778488
 20
57.249912
 11
181.056778
 21
55.999893
  0
LINE
  8
0
 10
183.221634
 20
57.249992
 11
181.778275
 21
57.249992
  0
LINE
  8
0
  6
CENTER
 62
     1
 10
190.857132
 20
128.000000
 11
174.190414
 21
128.000000
  0
LINE
  8
0
  6
CENTER
 62
     1
 10
182.500015
 20
135.985687
 11
182.500015
 21
120.176193
  0
LINE
  8
0
 62
     4
 10
185.510330
 20
125.000008
 11
179.489517
 21
125.000008
  0
LINE
  8
0
 62
     4
 10
185.510330
 20
131.000015
 11
179.489517
 21
131.000015
  0
LINE
  8
0
 10
175.999954
 20
133.000061
 11
175.999954
 21
51.000019
  0
LINE
  8
0
 10
176.499985
 20
134.000031
 11
176.499985
 21
50.000008
  0
LINE
  8
0
 62
     4
 10
176.669128
 20
128.900711
 11
178.804581
 21
132.599426
  0
LINE
  8
0
 62
     4
 10
178.804703
 20
123.400795
 11
176.669296
 21
127.099442
  0
LINE
  8
0
 62
     4
 10
184.635361
 20
122.499954
 11
180.364670
 21
122.499954
  0
LINE
  8
0
 62
     4
 10
188.330795
 20
127.099197
 11
186.195480
 21
123.400726
  0
LINE
  8
0
 62
     4
 10
186.195496
 20
132.599243
 11
188.330811
 21
128.900757
  0
LINE
  8
0
 62
     4
 10
180.364578
 20
133.499969
 11
184.635452
 21
133.499969
  0
LINE
  8
0
 10
-20.000015
 20
20.776199
 11
-20.000015
 21
-14.723785
  0
LINE
  8
0
 10
-10.000031
 20
20.776199
 11
-10.000031
 21
-14.723785
  0
LINE
  8
0
 10
74.999969
 20
20.776169
 11
74.999969
 21
-14.723785
  0
LINE
  8
0
 10
64.999969
 20
20.776169
 11
64.999969
 21
-14.723785
  0
LINE
  8
0
 10
-20.000015
 20
20.776199
 11
-10.000031
 21
20.776199
  0
LINE
  8
0
 10
64.999985
 20
20.776169
 11
74.999985
 21
20.776169
  0
LINE
  8
0
 10
6.999969
 20
21.276199
 11
63.000000
 21
21.276199
  0
LINE
  8
0
 10
5.999954
 20
20.276199
 11
5.999954
 21
4.776215
  0
LINE
  8
0
 10
63.999985
 20
20.276199
 11
63.999985
 21
4.776215
  0
LINE
  8
0
 10
5.999931
 20
20.276205
 11
6.999948
 21
21.276222
  0
LINE
  8
0
 10
64.000038
 20
20.276304
 11
63.000042
 21
21.276308
  0
LINE
  8
0
 10
5.999954
 20
4.776215
 11
63.999985
 21
4.776215
  0
LINE
  8
0
 10
5.999954
 20
20.276199
 11
63.999985
 21
20.276199
  0
LINE
  8
0
 10
-10.000031
 20
1.776207
 11
64.999985
 21
1.776207
  0
LINE
  8
0
 62
     4
 10
-21.500038
 20
5.276207
 11
-20.000015
 21
5.276207
  0
LINE
  8
0
 62
     4
 10
-23.000031
 20
4.776207
 11
-23.000031
 21
1.776207
  0
LINE
  8
0
 62
     4
 10
4.499962
 20
4.776207
 11
4.499962
 21
1.776207
  0
LINE
  8
0
 62
     4
 10
-21.500046
 20
6.276207
 11
-21.500046
 21
1.276207
  0
LINE
  8
0
 62
     4
 10
2.999977
 20
5.276207
 11
2.999977
 21
1.776207
  0
LINE
  8
0
 62
     4
 10
-21.500027
 20
5.276216
 11
-23.000019
 21
4.776218
  0
LINE
  8
0
 62
     1
 10
-37.258759
 20
0.362904
 11
-36.740669
 21
6.284666
  0
LINE
  8
0
 62
     4
 10
-58.000023
 20
3.276215
 11
-48.000015
 21
3.276215
  0
LINE
  8
0
 62
     4
 10
-48.000015
 20
1.776207
 11
-37.135078
 21
1.776207
  0
LINE
  8
0
 62
     4
 10
-48.000015
 20
4.776207
 11
-36.872604
 21
4.776207
  0
LINE
  8
0
 62
     4
 10
-48.000015
 20
1.776207
 11
-48.000015
 21
4.776207
  0
LINE
  8
0
 62
     4
 10
-36.131248
 20
1.776207
 11
-23.000031
 21
1.776207
  0
LINE
  8
0
 62
     4
 10
-35.868790
 20
4.776207
 11
-23.000031
 21
4.776207
  0
LINE
  8
0
 62
     4
 10
-58.000023
 20
2.276215
 11
-48.000015
 21
2.276215
  0
LINE
  8
0
 62
     4
 10
-58.000023
 20
4.276215
 11
-48.000015
 21
4.276215
  0
LINE
  8
0
 62
     4
 10
-58.000015
 20
2.276215
 11
-58.000015
 21
4.276215
  0
LINE
  8
0
 62
     1
 10
-36.260174
 20
0.303060
 11
-35.740715
 21
6.240509
  0
LINE
  8
0
 10
-20.000015
 20
-14.723785
 11
74.999985
 21
-14.723785
  0
LINE
  8
0
 10
-10.000031
 20
9.276207
 11
5.999954
 21
9.276207
  0
LINE
  8
0
 10
63.999985
 20
9.276207
 11
64.999969
 21
9.276207
  0
LINE
  8
0
 10
-9.000023
 20
15.276199
 11
5.999954
 21
15.276199
  0
LINE
  8
0
 10
-24.000015
 20
18.776199
 11
-24.000015
 21
10.776215
  0
LINE
  8
0
 10
-23.642754
 20
10.157410
 11
-20.357285
 21
10.157410
  0
LINE
  8
0
 10
-23.642754
 20
19.395004
 11
-20.357285
 21
19.395004
  0
LINE
  8
0
 10
-24.000015
 20
18.776192
 11
-23.642746
 21
19.395000
  0
LINE
  8
0
 10
-20.357264
 20
10.157398
 11
-19.999994
 21
10.776207
  0
LINE
  8
0
 10
-24.000013
 20
10.776201
 11
-23.642748
 21
10.157399
  0
LINE
  8
0
 10
-20.357307
 20
19.394999
 11
-20.000044
 21
18.776199
  0
LINE
  8
0
 10
-23.642754
 20
17.085602
 11
-20.357285
 21
17.085602
  0
LINE
  8
0
 10
-23.642754
 20
12.466812
 11
-20.357285
 21
12.466812
  0
LINE
  8
0
 10
63.999954
 20
12.776215
 11
63.999954
 21
16.776215
  0
LINE
  8
0
 62
     4
 10
-50.000046
 20
11.026199
 11
-50.000046
 21
18.526184
  0
LINE
  8
0
 62
     4
 10
-40.000038
 20
19.026199
 11
-49.500046
 21
19.026199
  0
LINE
  8
0
 62
     4
 10
-40.000038
 20
10.526215
 11
-49.500038
 21
10.526215
  0
LINE
  8
0
 62
     4
 10
-23.000015
 20
9.776207
 11
-39.250015
 21
9.776207
  0
LINE
  8
0
 62
     4
 10
-23.000015
 20
19.776215
 11
-39.250023
 21
19.776215
  0
LINE
  8
0
 62
     4
 10
-40.000023
 20
10.526207
 11
-40.000023
 21
19.026199
  0
LINE
  8
0
 62
     4
 10
-39.250057
 20
9.776157
 11
-40.000050
 21
10.526151
  0
LINE
  8
0
 62
     4
 10
-39.250080
 20
19.776243
 11
-40.000080
 21
19.026245
  0
LINE
  8
0
 62
     1
 10
-23.711342
 20
10.276207
 11
-39.750008
 21
10.276207
  0
LINE
  8
0
 62
     1
 10
-23.711342
 20
19.276215
 11
-39.750023
 21
19.276215
  0
LINE
  8
0
 62
     4
 10
-39.250031
 20
9.776192
 11
-39.250031
 21
19.776184
  0
LINE
  8
0
 62
     4
 10
-46.000031
 20
11.765800
 11
-46.000031
 21
17.786591
  0
LINE
  8
0
 62
     4
 10
-50.000038
 20
17.786591
 11
-46.000031
 21
17.786591
  0
LINE
  8
0
 62
     4
 10
-50.000038
 20
11.765808
 11
-46.000031
 21
11.765808
  0
LINE
  8
0
 62
     1
 10
-49.999969
 20
17.776192
 11
-45.999985
 21
11.765815
  0
LINE
  8
0
 62
     1
 10
-49.999950
 20
11.776147
 11
-45.999950
 21
17.786549
  0
LINE
  8
0
  6
CENTER
 62
     1
 10
-6.988022
 20
14.776215
 11
-52.607056
 21
14.776215
  0
LINE
  8
0
 62
     4
 10
-49.500004
 20
10.526230
 11
-49.999996
 21
11.026227
  0
LINE
  8
0
 62
     4
 10
-50.000103
 20
18.526260
 11
-49.500107
 21
19.026257
  0
LINE
  8
0
 62
     4
 10
-49.500031
 20
10.526207
 11
-49.500031
 21
11.765800
  0
LINE
  8
0
 62
     4
 10
-49.500031
 20
17.786591
 11
-49.500031
 21
19.026199
  0
LINE
  8
0
 62
     4
 10
104.999985
 20
18.526215
 11
104.999985
 21
11.026215
  0
LINE
  8
0
 62
     4
 10
94.999985
 20
10.526215
 11
104.499985
 21
10.526215
  0
LINE
  8
0
 62
     4
 10
94.999985
 20
19.026199
 11
104.499985
 21
19.026199
  0
LINE
  8
0
 62
     4
 10
77.999969
 20
19.776215
 11
94.249969
 21
19.776215
  0
LINE
  8
0
 62
     4
 10
77.999969
 20
9.776207
 11
94.249969
 21
9.776207
  0
LINE
  8
0
 62
     4
 10
94.999969
 20
19.026215
 11
94.999969
 21
10.526215
  0
LINE
  8
0
 62
     4
 10
94.250046
 20
19.776323
 11
95.000053
 21
19.026316
  0
LINE
  8
0
 62
     4
 10
94.250153
 20
9.776112
 11
95.000153
 21
10.526109
  0
LINE
  8
0
 62
     1
 10
78.711288
 20
19.276215
 11
94.749969
 21
19.276215
  0
LINE
  8
0
 62
     1
 10
78.711288
 20
10.276215
 11
94.749969
 21
10.276215
  0
LINE
  8
0
 62
     4
 10
94.249969
 20
19.776215
 11
94.249969
 21
9.776230
  0
LINE
  8
0
 62
     4
 10
100.999985
 20
17.786591
 11
100.999985
 21
11.765816
  0
LINE
  8
0
 62
     4
 10
104.999985
 20
11.765816
 11
100.999985
 21
11.765816
  0
LINE
  8
0
 62
     4
 10
104.999985
 20
17.786591
 11
100.999985
 21
17.786591
  0
LINE
  8
0
 62
     1
 10
104.999916
 20
11.776163
 11
100.999916
 21
17.786566
  0
LINE
  8
0
 62
     1
 10
104.999870
 20
17.776285
 11
100.999870
 21
11.765887
  0
LINE
  8
0
  6
CENTER
 62
     1
 10
61.964401
 20
14.776215
 11
107.392960
 21
14.776215
  0
LINE
  8
0
 62
     4
 10
104.499931
 20
19.026157
 11
104.999924
 21
18.526155
  0
LINE
  8
0
 62
     4
 10
105.000099
 20
11.026061
 11
104.500114
 21
10.526073
  0
LINE
  8
0
 62
     4
 10
104.499985
 20
19.026215
 11
104.499985
 21
17.786621
  0
LINE
  8
0
 62
     4
 10
104.499985
 20
11.765816
 11
104.499985
 21
10.526215
  0
LINE
  8
0
 10
-10.000031
 20
6.476212
 11
5.999954
 21
6.476212
  0
LINE
  8
0
 62
     4
 10
-21.500038
 20
6.276207
 11
-20.000015
 21
6.276207
  0
LINE
  8
0
 10
63.999985
 20
6.476212
 11
64.999985
 21
6.476212
  0
LINE
  8
0
 62
     4
 10
-21.500038
 20
1.276207
 11
-20.000015
 21
1.276207
  0
LINE
  8
0
 62
     4
 10
-1.500046
 20
6.276207
 11
-1.500046
 21
5.276207
  0
LINE
  8
0
 62
     4
 10
-10.000031
 20
5.276207
 11
2.999977
 21
5.276207
  0
LINE
  8
0
 62
     4
 10
-10.000031
 20
6.276207
 11
-1.500046
 21
6.276207
  0
LINE
  8
0
 62
     4
 10
-23.000036
 20
1.776192
 11
-21.500048
 21
1.276190
  0
LINE
  8
0
 62
     4
 10
4.499965
 20
4.776225
 11
2.999955
 21
5.276220
  0
LINE
  8
0
 62
     4
 10
-23.000000
 20
9.276215
 11
-23.000000
 21
10.157410
  0
LINE
  8
0
 62
     4
 10
-22.769073
 20
20.676208
 11
-20.230957
 21
20.676208
  0
LINE
  8
0
 62
     4
 10
-20.000034
 20
20.276222
 11
-20.230976
 21
20.676224
  0
LINE
  8
0
 62
     4
 10
-23.000036
 20
20.276264
 11
-22.769117
 21
20.676228
  0
LINE
  8
0
 62
     4
 10
-23.000021
 20
9.276175
 11
-22.769100
 21
8.876197
  0
LINE
  8
0
 62
     4
 10
-19.999994
 20
9.276199
 11
-20.230938
 21
8.876198
  0
LINE
  8
0
 62
     4
 10
-22.769073
 20
8.876205
 11
-20.230957
 21
8.876205
  0
LINE
  8
0
 62
     4
 10
-22.769073
 20
8.945358
 11
-20.230957
 21
8.945358
  0
LINE
  8
0
 62
     4
 10
-22.769073
 20
20.607056
 11
-20.230957
 21
20.607056
  0
LINE
  8
0
 62
     4
 10
-22.769073
 20
8.876205
 11
-22.769073
 21
8.945358
  0
LINE
  8
0
 62
     4
 10
-20.230957
 20
8.945358
 11
-20.230957
 21
8.876205
  0
LINE
  8
0
 62
     4
 10
-22.769073
 20
20.607056
 11
-22.769073
 21
20.676208
  0
LINE
  8
0
 62
     4
 10
-20.230957
 20
20.607056
 11
-20.230957
 21
20.676208
  0
LINE
  8
0
 62
     4
 10
-23.000000
 20
19.395004
 11
-23.000000
 21
20.276245
  0
LINE
  8
0
 10
78.999954
 20
10.776222
 11
78.999954
 21
18.776199
  0
LINE
  8
0
 10
78.642700
 20
19.395004
 11
75.357224
 21
19.395004
  0
LINE
  8
0
 10
78.642700
 20
10.157417
 11
75.357224
 21
10.157417
  0
LINE
  8
0
 10
79.000038
 20
10.776191
 11
78.642761
 21
10.157369
  0
LINE
  8
0
 10
75.357231
 20
19.394983
 11
74.999962
 21
18.776169
  0
LINE
  8
0
 10
78.999985
 20
18.776205
 11
78.642700
 21
19.395029
  0
LINE
  8
0
 10
75.357231
 20
10.157442
 11
74.999962
 21
10.776250
  0
LINE
  8
0
 10
78.642700
 20
12.466812
 11
75.357224
 21
12.466812
  0
LINE
  8
0
 10
78.642700
 20
17.085602
 11
75.357224
 21
17.085602
  0
LINE
  8
0
 62
     4
 10
77.999939
 20
20.276215
 11
77.999939
 21
19.395020
  0
LINE
  8
0
 62
     4
 10
77.769028
 20
8.876213
 11
75.230911
 21
8.876213
  0
LINE
  8
0
 62
     4
 10
74.999954
 20
9.276220
 11
75.230896
 21
8.876219
  0
LINE
  8
0
 62
     4
 10
78.000015
 20
9.276186
 11
77.769081
 21
8.876202
  0
LINE
  8
0
 62
     4
 10
77.999947
 20
20.276237
 11
77.769012
 21
20.676229
  0
LINE
  8
0
 62
     4
 10
75.000076
 20
20.276167
 11
75.231018
 21
20.676172
  0
LINE
  8
0
 62
     4
 10
77.769028
 20
20.676208
 11
75.230911
 21
20.676208
  0
LINE
  8
0
 62
     4
 10
77.769028
 20
20.607056
 11
75.230911
 21
20.607056
  0
LINE
  8
0
 62
     4
 10
77.769028
 20
8.945374
 11
75.230911
 21
8.945374
  0
LINE
  8
0
 62
     4
 10
77.769028
 20
20.676224
 11
77.769028
 21
20.607056
  0
LINE
  8
0
 62
     4
 10
75.230911
 20
20.607056
 11
75.230911
 21
20.676224
  0
LINE
  8
0
 62
     4
 10
77.769028
 20
8.945374
 11
77.769028
 21
8.876205
  0
LINE
  8
0
 62
     4
 10
75.230911
 20
8.945374
 11
75.230911
 21
8.876205
  0
LINE
  8
0
 62
     4
 10
77.999939
 20
10.157410
 11
77.999939
 21
9.276184
  0
LINE
  8
0
 10
-9.000023
 20
13.276199
 11
5.999954
 21
13.276199
  0
LINE
  8
0
 10
88.599953
 20
17.276215
 11
78.999985
 21
17.276215
  0
LINE
  8
0
 10
88.599953
 20
12.276215
 11
78.999985
 21
12.276215
  0
LINE
  8
0
 10
88.999954
 20
12.676214
 11
88.999954
 21
16.876209
  0
LINE
  8
0
 62
     2
 10
88.999954
 20
16.876215
 11
78.999985
 21
16.876215
  0
LINE
  8
0
 62
     2
 10
88.999954
 20
12.676214
 11
78.999985
 21
12.676214
  0
LINE
  8
0
 10
88.599968
 20
12.276192
 11
88.999969
 21
12.676194
  0
LINE
  8
0
 10
88.599983
 20
17.276243
 11
88.999992
 21
16.876240
  0
LINE
  8
0
 10
88.599953
 20
12.276215
 11
88.599953
 21
17.276215
  0
LINE
  8
0
 10
63.999977
 20
16.876192
 11
64.399979
 21
17.276194
  0
LINE
  8
0
 10
64.999969
 20
17.276215
 11
64.399956
 21
17.276215
  0
LINE
  8
0
 62
     2
 10
64.999969
 20
16.876215
 11
63.999954
 21
16.876215
  0
LINE
  8
0
 10
64.399956
 20
12.276215
 11
64.399956
 21
17.276215
  0
LINE
  8
0
 62
     2
 10
64.999969
 20
12.676214
 11
63.999954
 21
12.676214
  0
LINE
  8
0
 10
64.999969
 20
12.276215
 11
64.399956
 21
12.276215
  0
LINE
  8
0
 10
63.999973
 20
12.676235
 11
64.399979
 21
12.276234
  0
LINE
  8
0
 10
-33.599998
 20
17.276215
 11
-24.000031
 21
17.276215
  0
LINE
  8
0
 10
-33.599998
 20
12.276215
 11
-24.000031
 21
12.276215
  0
LINE
  8
0
 10
-34.000000
 20
12.676214
 11
-34.000000
 21
16.876209
  0
LINE
  8
0
 62
     2
 10
-34.000000
 20
16.876215
 11
-24.000031
 21
16.876215
  0
LINE
  8
0
 62
     2
 10
-34.000000
 20
12.676214
 11
-24.000031
 21
12.676214
  0
LINE
  8
0
 10
-33.600014
 20
12.276208
 11
-34.000015
 21
12.676208
  0
LINE
  8
0
 10
-33.600010
 20
17.276224
 11
-34.000011
 21
16.876221
  0
LINE
  8
0
 10
-33.599998
 20
12.276215
 11
-33.599998
 21
17.276215
  0
LINE
  8
0
 10
-9.000003
 20
16.876217
 11
-9.400006
 21
17.276218
  0
LINE
  8
0
 10
-10.000015
 20
17.276215
 11
-9.400002
 21
17.276215
  0
LINE
  8
0
 62
     2
 10
-10.000015
 20
16.876215
 11
-9.000000
 21
16.876215
  0
LINE
  8
0
 10
-9.400002
 20
12.276215
 11
-9.400002
 21
17.276215
  0
LINE
  8
0
 10
-9.000000
 20
12.676214
 11
-9.000000
 21
16.876215
  0
LINE
  8
0
 10
-9.000010
 20
12.676216
 11
-9.400012
 21
12.276217
  0
LINE
  8
0
 10
-10.000015
 20
12.276215
 11
-9.400002
 21
12.276215
  0
LINE
  8
0
 62
     2
 10
-10.000015
 20
12.676214
 11
-9.000000
 21
12.676214
  0
LINE
  8
0
  6
CENTER
 62
     2
 10
-15.000023
 20
-5.215794
 11
-15.000023
 21
-21.511381
  0
LINE
  8
0
  6
CENTER
 62
     2
 10
69.999969
 20
-5.215794
 11
69.999969
 21
-21.511381
  0
LINE
  8
0
  6
PHANTOM
 62
     3
 10
26.249939
 20
-34.723785
 11
26.249939
 21
31.276199
  0
LINE
  8
0
  6
PHANTOM
 62
     3
 10
4.999954
 20
31.276199
 11
4.999954
 21
-34.723785
  0
LINE
  8
0
  6
PHANTOM
 62
     3
 10
2.999954
 20
31.276199
 11
4.999954
 21
31.276199
  0
LINE
  8
0
  6
PHANTOM
 62
     3
 10
2.999954
 20
-34.723785
 11
4.999954
 21
-34.723785
  0
LINE
  8
0
  6
PHANTOM
 62
     3
 10
26.249939
 20
-34.723785
 11
38.749939
 21
-34.723785
  0
LINE
  8
0
  6
PHANTOM
 62
     3
 10
43.749939
 20
-34.723785
 11
43.749939
 21
31.276199
  0
LINE
  8
0
 10
64.999969
 20
-55.999939
 11
-10.000084
 21
-55.999939
  0
LINE
  8
0
 10
64.999939
 20
-125.999939
 11
-10.000084
 21
-125.999939
  0
LINE
  8
0
 10
64.999939
 20
-132.999908
 11
64.999939
 21
-48.999954
  0
LINE
  8
0
 10
-10.000084
 20
-132.999908
 11
-10.000084
 21
-48.999954
  0
LINE
  8
0
  6
CENTER
 62
     2
 10
77.620560
 20
-90.999939
 11
-23.137962
 21
-90.999939
  0
LINE
  8
0
 10
74.999969
 20
-48.999954
 11
74.999969
 21
-132.999908
  0
LINE
  8
0
 10
74.999985
 20
-132.999908
 11
64.999939
 21
-132.999908
  0
LINE
  8
0
 10
74.999985
 20
-48.999954
 11
64.999939
 21
-48.999954
  0
LINE
  8
0
 10
-10.000084
 20
-48.999954
 11
-20.000015
 21
-48.999954
  0
LINE
  8
0
 10
-10.000084
 20
-132.999908
 11
-20.000015
 21
-132.999908
  0
LINE
  8
0
 62
     1
 10
-37.258785
 20
-119.986656
 11
-36.740696
 21
-125.908440
  0
LINE
  8
0
 62
     4
 10
-58.000031
 20
-122.899933
 11
-48.000031
 21
-122.899933
  0
LINE
  8
0
 62
     4
 10
-48.000031
 20
-121.399963
 11
-37.135086
 21
-121.399963
  0
LINE
  8
0
 62
     4
 10
-48.000031
 20
-124.399902
 11
-36.872620
 21
-124.399902
  0
LINE
  8
0
 62
     4
 10
-48.000031
 20
-121.399963
 11
-48.000031
 21
-124.399933
  0
LINE
  8
0
 62
     4
 10
-36.131256
 20
-121.399933
 11
-20.000015
 21
-121.399933
  0
LINE
  8
0
 62
     4
 10
-35.868797
 20
-124.399963
 11
-20.000015
 21
-124.399963
  0
LINE
  8
0
 62
     4
 10
-58.000031
 20
-121.899963
 11
-48.000031
 21
-121.899963
  0
LINE
  8
0
 62
     4
 10
-58.000031
 20
-123.899963
 11
-48.000031
 21
-123.899963
  0
LINE
  8
0
 62
     4
 10
-58.000031
 20
-121.899963
 11
-58.000031
 21
-123.899963
  0
LINE
  8
0
 62
     1
 10
-36.260124
 20
-119.926788
 11
-35.740658
 21
-125.864288
  0
LINE
  8
0
 62
     1
 10
-37.258713
 20
-56.186642
 11
-36.740627
 21
-62.108391
  0
LINE
  8
0
 62
     4
 10
-58.000023
 20
-59.099915
 11
-48.000015
 21
-59.099915
  0
LINE
  8
0
 62
     4
 10
-48.000015
 20
-57.599945
 11
-37.135078
 21
-57.599945
  0
LINE
  8
0
 62
     4
 10
-48.000015
 20
-60.599945
 11
-36.872604
 21
-60.599945
  0
LINE
  8
0
 62
     4
 10
-48.000015
 20
-57.599945
 11
-48.000015
 21
-60.599945
  0
LINE
  8
0
 62
     4
 10
-36.131248
 20
-57.599945
 11
-23.000031
 21
-57.599945
  0
LINE
  8
0
 62
     4
 10
-35.868790
 20
-60.599945
 11
-23.000031
 21
-60.599945
  0
LINE
  8
0
 62
     4
 10
-58.000023
 20
-58.099945
 11
-48.000015
 21
-58.099945
  0
LINE
  8
0
 62
     4
 10
-58.000023
 20
-60.099976
 11
-48.000015
 21
-60.099976
  0
LINE
  8
0
 62
     4
 10
-58.000015
 20
-58.099945
 11
-58.000015
 21
-60.099976
  0
LINE
  8
0
 62
     1
 10
-36.260120
 20
-56.126820
 11
-35.740658
 21
-62.064262
  0
LINE
  8
0
 10
-20.000015
 20
-48.999954
 11
-20.000015
 21
-132.999908
  0
LINE
  8
0
  6
CENTER
 62
     2
 10
69.999969
 20
-63.953125
 11
69.999969
 21
-71.187317
  0
LINE
  8
0
  6
CENTER
 62
     2
 10
73.738464
 20
-67.500000
 11
66.205811
 21
-67.500000
  0
LINE
  8
0
  6
CENTER
 62
     2
 10
-15.000038
 20
-63.953125
 11
-15.000038
 21
-71.187286
  0
LINE
  8
0
  6
CENTER
 62
     2
 10
-11.261551
 20
-67.499939
 11
-18.794205
 21
-67.499939
  0
LINE
  8
0
  6
CENTER
 62
     2
 10
-15.000038
 20
-110.953094
 11
-15.000038
 21
-118.187256
  0
LINE
  8
0
  6
CENTER
 62
     2
 10
-11.261551
 20
-114.499969
 11
-18.794205
 21
-114.499969
  0
LINE
  8
0
  6
CENTER
 62
     2
 10
69.999985
 20
-110.953156
 11
69.999985
 21
-118.187317
  0
LINE
  8
0
  6
CENTER
 62
     2
 10
73.738495
 20
-114.500000
 11
66.205841
 21
-114.500000
  0
LINE
  8
0
  6
CENTER
 62
     2
 10
54.999939
 20
-69.826263
 11
54.999939
 21
-62.258911
  0
LINE
  8
0
 10
-24.000015
 20
-49.999939
 11
-24.000015
 21
-57.599945
  0
LINE
  8
0
 10
-23.642754
 20
-53.999939
 11
-20.357285
 21
-53.999939
  0
LINE
  8
0
 10
-24.000015
 20
-49.999939
 11
-20.000015
 21
-49.999939
  0
LINE
  8
0
 10
-20.000015
 20
-51.999939
 11
-20.000015
 21
-59.999939
  0
LINE
  8
0
 10
78.999985
 20
-57.999939
 11
78.999985
 21
-49.999939
  0
LINE
  8
0
 10
63.999954
 20
-55.999939
 11
63.999954
 21
-53.999939
  0
LINE
  8
0
 10
78.642700
 20
-53.999939
 11
75.357224
 21
-53.999939
  0
LINE
  8
0
 10
78.999985
 20
-49.999939
 11
74.999969
 21
-49.999939
  0
LINE
  8
0
 10
78.999985
 20
-57.999939
 11
74.999969
 21
-57.999939
  0
LINE
  8
0
 10
74.999969
 20
-57.999939
 11
74.999969
 21
-49.999939
  0
LINE
  8
0
 10
64.999939
 20
-100.999939
 11
-10.000084
 21
-100.999939
  0
LINE
  8
0
 10
64.999939
 20
-80.999939
 11
-10.000084
 21
-80.999939
  0
LINE
  8
0
 10
64.999939
 20
-81.499969
 11
-10.000084
 21
-81.499969
  0
LINE
  8
0
 10
64.999939
 20
-100.499939
 11
-10.000084
 21
-100.499939
  0
LINE
  8
0
 10
64.999939
 20
-70.999939
 11
-10.000084
 21
-70.999939
  0
LINE
  8
0
 10
64.999939
 20
-110.999939
 11
-10.000084
 21
-110.999939
  0
LINE
  8
0
 10
64.999939
 20
-111.499969
 11
-10.000084
 21
-111.499969
  0
LINE
  8
0
 10
64.999939
 20
-70.499939
 11
-10.000084
 21
-70.499939
  0
LINE
  8
0
  6
CENTER
 62
     2
 10
59.197098
 20
-65.999939
 11
50.837219
 21
-65.999939
  0
LINE
  8
0
  6
CENTER
 62
     2
 10
-0.000084
 20
-69.826263
 11
-0.000084
 21
-62.258942
  0
LINE
  8
0
  6
CENTER
 62
     2
 10
59.197098
 20
-115.999939
 11
50.837219
 21
-115.999939
  0
LINE
  8
0
  6
CENTER
 62
     2
 10
-0.000084
 20
-119.826263
 11
-0.000084
 21
-112.258911
  0
LINE
  8
0
  6
CENTER
 62
     2
 10
54.999939
 20
-119.826263
 11
54.999939
 21
-112.258911
  0
LINE
  8
0
 62
     4
 10
-23.000015
 20
-131.999939
 11
-39.250015
 21
-131.999939
  0
LINE
  8
0
 62
     4
 10
-50.000031
 20
-129.999939
 11
-50.000031
 21
-123.999939
  0
LINE
  8
0
 62
     4
 10
-46.000023
 20
-131.249939
 11
-46.000023
 21
-129.999939
  0
LINE
  8
0
 62
     4
 10
-46.000023
 20
-129.999908
 11
-50.000031
 21
-129.999908
  0
LINE
  8
0
 62
     4
 10
-40.000031
 20
-131.249908
 11
-46.000023
 21
-131.249908
  0
LINE
  8
0
 62
     4
 10
-40.000023
 20
-131.249939
 11
-40.000023
 21
-124.399902
  0
LINE
  8
0
 62
     4
 10
-39.250092
 20
-132.000046
 11
-40.000107
 21
-131.250031
  0
LINE
  8
0
 62
     1
 10
-23.000015
 20
-131.499939
 11
-39.750008
 21
-131.499939
  0
LINE
  8
0
 62
     4
 10
-39.250031
 20
-131.999939
 11
-39.250031
 21
-124.399902
  0
LINE
  8
0
  6
CENTER
 62
     1
 10
0.140984
 20
-126.999939
 11
-52.980988
 21
-126.999939
  0
LINE
  8
0
 62
     4
 10
-2.500053
 20
-128.499908
 11
-10.000084
 21
-128.499908
  0
LINE
  8
0
 62
     4
 10
-2.500027
 20
-128.499924
 11
-2.000035
 21
-127.999939
  0
LINE
  8
0
 62
     4
 10
-2.500053
 20
-128.499908
 11
-2.500053
 21
-125.999939
  0
LINE
  8
0
 62
     4
 10
-1.999794
 20
-126.000214
 11
-1.999794
 21
-127.999939
  0
LINE
  8
0
 62
     4
 10
77.999969
 20
-121.999908
 11
94.249969
 21
-121.999908
  0
LINE
  8
0
 62
     4
 10
77.999969
 20
-131.999908
 11
94.249969
 21
-131.999908
  0
LINE
  8
0
 62
     4
 10
104.999985
 20
-123.999908
 11
104.999985
 21
-129.999908
  0
LINE
  8
0
 62
     4
 10
100.999985
 20
-122.749908
 11
100.999985
 21
-123.999908
  0
LINE
  8
0
 62
     4
 10
100.999985
 20
-123.999908
 11
104.999985
 21
-123.999908
  0
LINE
  8
0
 62
     4
 10
100.999985
 20
-129.999908
 11
104.999985
 21
-129.999908
  0
LINE
  8
0
 62
     4
 10
94.999985
 20
-131.249908
 11
100.999985
 21
-131.249908
  0
LINE
  8
0
 62
     4
 10
94.999985
 20
-122.749908
 11
100.999985
 21
-122.749908
  0
LINE
  8
0
 62
     4
 10
94.999969
 20
-122.749908
 11
94.999969
 21
-131.249908
  0
LINE
  8
0
 62
     4
 10
94.249985
 20
-121.999916
 11
94.999992
 21
-122.749916
  0
LINE
  8
0
 62
     4
 10
94.250130
 20
-132.000137
 11
95.000137
 21
-131.250137
  0
LINE
  8
0
 62
     1
 10
77.999969
 20
-122.499908
 11
94.749969
 21
-122.499908
  0
LINE
  8
0
 62
     1
 10
77.999969
 20
-131.499908
 11
94.749969
 21
-131.499908
  0
LINE
  8
0
 62
     4
 10
94.249969
 20
-121.999908
 11
94.249969
 21
-131.999908
  0
LINE
  8
0
 62
     4
 10
100.999985
 20
-129.999908
 11
100.999985
 21
-131.249908
  0
LINE
  8
0
  6
CENTER
 62
     1
 10
61.696564
 20
-126.999939
 11
107.980942
 21
-126.999939
  0
LINE
  8
0
 62
     4
 10
64.499939
 20
-129.499969
 11
64.999939
 21
-129.499969
  0
LINE
  8
0
 62
     4
 10
63.999931
 20
-128.999939
 11
64.499969
 21
-129.499969
  0
LINE
  8
0
 62
     4
 10
64.499939
 20
-125.999939
 11
64.499939
 21
-129.499969
  0
LINE
  8
0
 10
63.999680
 20
-128.999939
 11
63.999680
 21
-127.999939
  0
LINE
  8
0
 10
63.999954
 20
-132.999939
 11
5.999954
 21
-132.999939
  0
LINE
  8
0
 10
63.999954
 20
-48.999954
 11
5.999954
 21
-48.999954
  0
LINE
  8
0
 10
63.999954
 20
-132.999908
 11
63.999954
 21
-125.999939
  0
LINE
  8
0
 10
5.999954
 20
-132.999908
 11
5.999954
 21
-125.999939
  0
LINE
  8
0
 10
5.999954
 20
-55.999939
 11
5.999954
 21
-48.999954
  0
LINE
  8
0
 10
63.999954
 20
-55.999939
 11
63.999954
 21
-48.999954
  0
LINE
  8
0
 62
     4
 10
104.499985
 20
-123.999908
 11
104.499985
 21
-129.999908
  0
LINE
  8
0
 62
     4
 10
-49.500031
 20
-129.999939
 11
-49.500031
 21
-123.999939
  0
LINE
  8
0
  6
CENTER
 62
     2
 10
27.499939
 20
-120.501831
 11
27.499939
 21
-111.100922
  0
LINE
  8
0
 10
25.499954
 20
-114.999939
 11
25.499954
 21
-116.999939
  0
LINE
  8
0
 10
29.499939
 20
-114.999939
 11
29.499939
 21
-116.999939
  0
LINE
  8
0
  6
CENTER
 62
     2
 10
61.999939
 20
-87.645020
 11
61.999939
 21
-94.426727
  0
LINE
  8
0
 62
     4
 10
-21.500038
 20
-57.099945
 11
-20.000015
 21
-57.099945
  0
LINE
  8
0
 62
     4
 10
-21.500038
 20
-57.099945
 11
-21.500038
 21
-61.099945
  0
LINE
  8
0
 62
     4
 10
-21.500034
 20
-57.099960
 11
-23.000040
 21
-57.599964
  0
LINE
  8
0
 62
     4
 10
-23.000031
 20
-57.599945
 11
-23.000031
 21
-60.599945
  0
LINE
  8
0
 62
     4
 10
-23.000050
 20
-60.599976
 11
-21.500044
 21
-61.099983
  0
LINE
  8
0
 62
     4
 10
-21.500038
 20
-61.099945
 11
-20.000015
 21
-61.099945
  0
LINE
  8
0
 62
     4
 10
-23.000008
 20
-132.499908
 11
-23.000008
 21
-124.399963
  0
LINE
  8
0
 62
     4
 10
-20.000015
 20
-132.499908
 11
-23.000015
 21
-132.499908
  0
LINE
  8
0
 62
     4
 10
-20.230911
 20
-131.599182
 11
-22.769119
 21
-131.599182
  0
LINE
  8
0
 62
     4
 10
-20.230911
 20
-126.099152
 11
-22.769119
 21
-126.099152
  0
LINE
  8
0
 62
     4
 10
-20.230911
 20
-127.900696
 11
-22.769119
 21
-127.900696
  0
LINE
  8
0
 62
     4
 10
-20.230904
 20
-127.900696
 11
-20.230904
 21
-126.099152
  0
LINE
  8
0
 62
     4
 10
-22.769127
 20
-127.900696
 11
-22.769127
 21
-126.099152
  0
LINE
  8
0
 62
     4
 10
-20.230904
 20
-132.499908
 11
-20.230904
 21
-131.599182
  0
LINE
  8
0
 62
     4
 10
-22.769127
 20
-131.599182
 11
-22.769127
 21
-132.499908
  0
LINE
  8
0
 62
     4
 10
77.999969
 20
-121.499939
 11
77.999969
 21
-132.499939
  0
LINE
  8
0
 62
     4
 10
74.999969
 20
-121.499939
 11
77.999969
 21
-121.499939
  0
LINE
  8
0
 62
     4
 10
74.999969
 20
-132.499939
 11
77.999969
 21
-132.499939
  0
LINE
  8
0
 62
     4
 10
75.230850
 20
-122.400665
 11
77.769058
 21
-122.400665
  0
LINE
  8
0
 62
     4
 10
75.230850
 20
-131.599152
 11
77.769058
 21
-131.599152
  0
LINE
  8
0
 62
     4
 10
75.230850
 20
-127.900696
 11
77.769058
 21
-127.900696
  0
LINE
  8
0
 62
     4
 10
75.230850
 20
-126.099121
 11
77.769058
 21
-126.099121
  0
LINE
  8
0
 62
     4
 10
75.230835
 20
-126.099152
 11
75.230835
 21
-127.900696
  0
LINE
  8
0
 62
     4
 10
77.769058
 20
-126.099152
 11
77.769058
 21
-127.900696
  0
LINE
  8
0
 62
     4
 10
75.230835
 20
-121.499939
 11
75.230835
 21
-122.400665
  0
LINE
  8
0
 62
     4
 10
77.769058
 20
-122.400665
 11
77.769058
 21
-121.499939
  0
LINE
  8
0
 62
     4
 10
75.230835
 20
-131.599182
 11
75.230835
 21
-132.499939
  0
LINE
  8
0
 62
     4
 10
77.769058
 20
-131.599182
 11
77.769058
 21
-132.499939
  0
LINE
  8
0
  6
CENTER
 62
     2
 10
31.697098
 20
-115.999939
 11
23.337219
 21
-115.999939
  0
LINE
  8
0
  6
CENTER
 62
     2
 10
31.697098
 20
-65.999939
 11
23.337219
 21
-65.999939
  0
LINE
  8
0
  6
CENTER
 62
     2
 10
4.197105
 20
-65.999939
 11
-4.162781
 21
-65.999939
  0
LINE
  8
0
  6
CENTER
 62
     2
 10
27.499939
 20
-70.381592
 11
27.499939
 21
-61.993103
  0
LINE
  8
0
  6
CENTER
 62
     2
 10
4.197105
 20
-115.999939
 11
-4.162781
 21
-115.999939
  0
LINE
  8
0
 10
-33.599998
 20
-51.499939
 11
-24.000031
 21
-51.499939
  0
LINE
  8
0
 10
-33.599998
 20
-56.499939
 11
-24.000031
 21
-56.499939
  0
LINE
  8
0
 10
-34.000000
 20
-56.099937
 11
-34.000000
 21
-51.899940
  0
LINE
  8
0
 62
     2
 10
-34.000000
 20
-51.899940
 11
-24.000031
 21
-51.899940
  0
LINE
  8
0
 62
     2
 10
-34.000000
 20
-56.099937
 11
-24.000031
 21
-56.099937
  0
LINE
  8
0
 10
-33.600033
 20
-56.499977
 11
-34.000034
 21
-56.099979
  0
LINE
  8
0
 10
-33.600014
 20
-51.499947
 11
-34.000015
 21
-51.899952
  0
LINE
  8
0
 10
-33.599998
 20
-56.499939
 11
-33.599998
 21
-51.499939
  0
LINE
  8
0
 62
     2
 10
-10.000015
 20
-51.899940
 11
-9.000000
 21
-51.899940
  0
LINE
  8
0
 10
-10.000015
 20
-51.499939
 11
-9.400002
 21
-51.499939
  0
LINE
  8
0
 10
-9.400002
 20
-55.999939
 11
-9.400002
 21
-51.499939
  0
LINE
  8
0
 10
-9.000026
 20
-51.899967
 11
-9.400029
 21
-51.499966
  0
LINE
  8
0
 10
-9.000000
 20
-55.999939
 11
-9.000000
 21
-51.899940
  0
LINE
  8
0
 10
88.599953
 20
-51.499939
 11
78.999985
 21
-51.499939
  0
LINE
  8
0
 10
88.599953
 20
-56.499939
 11
78.999985
 21
-56.499939
  0
LINE
  8
0
 10
88.999954
 20
-56.099937
 11
88.999954
 21
-51.899940
  0
LINE
  8
0
 62
     2
 10
88.999954
 20
-51.899940
 11
78.999985
 21
-51.899940
  0
LINE
  8
0
 62
     2
 10
88.999954
 20
-56.099937
 11
78.999985
 21
-56.099937
  0
LINE
  8
0
 10
88.600006
 20
-56.500015
 11
89.000008
 21
-56.100014
  0
LINE
  8
0
 10
88.599998
 20
-51.499924
 11
88.999992
 21
-51.899929
  0
LINE
  8
0
 10
88.599953
 20
-56.499939
 11
88.599953
 21
-51.499939
  0
LINE
  8
0
 62
     2
 10
64.999969
 20
-51.899940
 11
63.999954
 21
-51.899940
  0
LINE
  8
0
 10
64.000008
 20
-51.899963
 11
64.400009
 21
-51.499962
  0
LINE
  8
0
 10
64.399956
 20
-55.999939
 11
64.399956
 21
-51.499939
  0
LINE
  8
0
 10
64.999969
 20
-51.499939
 11
64.399956
 21
-51.499939
  0
LINE
  8
0
  6
PHANTOM
 62
     3
 10
43.749939
 20
-134.999939
 11
43.749939
 21
-34.723785
  0
LINE
  8
0
  6
PHANTOM
 62
     3
 10
2.999954
 20
-134.999939
 11
2.999954
 21
-34.723785
  0
LINE
  8
0
  6
PHANTOM
 62
     3
 10
38.749939
 20
-134.999939
 11
38.749939
 21
-34.723785
  0
LINE
  8
0
 10
-281.250000
 20
195.500000
 11
282.099976
 21
195.500000
  0
LINE
  8
0
 10
-281.250000
 20
195.500000
 11
-281.250000
 21
-195.000000
  0
LINE
  8
0
 10
282.099976
 20
195.500000
 11
282.099976
 21
-195.000000
  0
LINE
  8
0
 10
-281.250000
 20
-195.000000
 11
282.099976
 21
-195.000000
  0
LINE
  8
0
 10
162.099976
 20
-175.000000
 11
162.099976
 21
-195.000000
  0
LINE
  8
0
 10
162.099976
 20
-175.000000
 11
282.099976
 21
-175.000000
  0
LINE
  8
0
 10
162.099976
 20
175.500000
 11
282.099976
 21
175.500000
  0
LINE
  8
0
 10
-281.250000
 20
175.500000
 11
-161.250000
 21
175.500000
  0
LINE
  8
0
 10
162.099976
 20
195.500000
 11
162.099976
 21
175.500000
  0
LINE
  8
0
 10
-161.250000
 20
195.500000
 11
-161.250000
 21
175.500000
  0
LINE
  8
0
 10
-61.250000
 20
-185.000000
 11
138.750000
 21
-185.000000
  0
LINE
  8
0
 10
-61.250000
 20
-165.000000
 11
-61.250000
 21
-185.000000
  0
LINE
  8
0
 10
-21.250000
 20
-165.000000
 11
-21.250000
 21
-185.000000
  0
LINE
  8
0
 10
-271.250000
 20
-141.000000
 11
-235.001297
 21
-141.000000
  0
LINE
  8
0
 10
-271.250000
 20
-155.000000
 11
-71.250000
 21
-155.000000
  0
LINE
  8
0
 10
-271.250000
 20
-134.000000
 11
-71.250000
 21
-134.000000
  0
LINE
  8
0
 10
-231.250015
 20
-155.000015
 11
-235.001312
 21
-141.000015
  0
LINE
  8
0
 10
-1.250000
 20
-165.000000
 11
-1.250000
 21
-185.000000
  0
LINE
  8
0
 10
18.750000
 20
-165.000000
 11
18.750000
 21
-185.000000
  0
LINE
  8
0
 10
38.750000
 20
-165.000000
 11
38.750000
 21
-185.000000
  0
LINE
  8
0
 10
58.750000
 20
-165.000000
 11
58.750000
 21
-185.000000
  0
LINE
  8
0
 10
78.750000
 20
-165.000000
 11
78.750000
 21
-185.000000
  0
LINE
  8
0
 10
98.750000
 20
-165.000000
 11
98.750000
 21
-185.000000
  0
LINE
  8
0
 10
-61.250000
 20
-165.000000
 11
138.750000
 21
-165.000000
  0
LINE
  8
0
 10
118.750000
 20
-165.000000
 11
118.750000
 21
-185.000000
  0
LINE
  8
0
 10
138.750000
 20
-165.000000
 11
138.750000
 21
-185.000000
  0
LINE
  8
0
 10
-61.250000
 20
-175.000000
 11
138.750000
 21
-175.000000
  0
LINE
  8
0
 10
-271.250000
 20
-185.000000
 11
-71.250000
 21
-185.000000
  0
LINE
  8
0
 10
-271.250000
 20
-134.000000
 11
-271.250000
 21
-185.000000
  0
LINE
  8
0
 10
-231.250000
 20
-134.000000
 11
-231.250000
 21
-185.000000
  0
LINE
  8
0
 10
-211.250000
 20
-134.000000
 11
-211.250000
 21
-185.000000
  0
LINE
  8
0
 10
-191.250000
 20
-134.000000
 11
-191.250000
 21
-185.000000
  0
LINE
  8
0
 10
-171.250000
 20
-134.000000
 11
-171.250000
 21
-185.000000
  0
LINE
  8
0
 10
-151.250000
 20
-134.000000
 11
-151.250000
 21
-185.000000
  0
LINE
  8
0
 10
-131.250000
 20
-134.000000
 11
-131.250000
 21
-185.000000
  0
LINE
  8
0
 10
-111.250000
 20
-134.000000
 11
-111.250000
 21
-185.000000
  0
LINE
  8
0
 10
-271.250000
 20
-165.000000
 11
-71.250000
 21
-165.000000
  0
LINE
  8
0
 10
-91.250000
 20
-134.000000
 11
-91.250000
 21
-185.000000
  0
LINE
  8
0
 10
-71.250000
 20
-134.000000
 11
-71.250000
 21
-185.000000
  0
LINE
  8
0
 10
-271.250000
 20
-175.000000
 11
-71.250000
 21
-175.000000
  0
CIRCLE
  8
0
 10
69.999969
 20
68.500015
 40
2.249999
  0
CIRCLE
  8
0
 10
69.999969
 20
68.500015
 40
3.999999
  0
CIRCLE
  8
0
 10
69.999969
 20
115.500008
 40
2.249999
  0
CIRCLE
  8
0
 10
69.999969
 20
115.500008
 40
3.999999
  0
CIRCLE
  8
0
 10
-15.000000
 20
68.500015
 40
2.249999
  0
CIRCLE
  8
0
 10
-15.000000
 20
68.500015
 40
3.999999
  0
CIRCLE
  8
0
 10
-15.000000
 20
115.500008
 40
3.999999
  0
CIRCLE
  8
0
 10
-15.000000
 20
115.500008
 40
2.249999
  0
CIRCLE
  8
0
 10
58.000000
 20
92.000000
 40
3.499999
  0
CIRCLE
  8
0
 62
     2
 10
17.499939
 20
127.000000
 40
2.500000
  0
CIRCLE
  8
0
 62
     2
 10
52.499939
 20
57.000004
 40
2.500000
  0
CIRCLE
  8
0
 62
     2
 10
52.499939
 20
127.000000
 40
2.500000
  0
CIRCLE
  8
0
 62
     2
 10
17.499939
 20
57.000004
 40
2.500000
  0
CIRCLE
  8
0
 10
35.000000
 20
57.000004
 40
2.000000
  0
ARC
  8
0
 10
35.000000
 20
128.000000
 40
2.000000
 50
0.000000
 51
180.000000
  0
ARC
  8
0
 10
35.000000
 20
126.000015
 40
2.000000
 50
180.000000
 51
0.000000
  0
CIRCLE
  8
0
 10
17.499939
 20
127.000000
 40
2.100000
  0
CIRCLE
  8
0
 10
52.499939
 20
127.000000
 40
2.100000
  0
CIRCLE
  8
0
 10
17.499939
 20
57.000004
 40
2.100000
  0
CIRCLE
  8
0
 10
52.499939
 20
57.000004
 40
2.100000
  0
ARC
  8
0
 62
     4
 10
-120.499985
 20
128.000000
 40
5.900000
 50
291.218262
 51
308.781830
  0
ARC
  8
0
 62
     4
 10
-120.499985
 20
128.000000
 40
5.900001
 50
351.218140
 51
8.781876
  0
CIRCLE
  8
0
 10
-130.000000
 20
96.999992
 40
2.100000
  0
CIRCLE
  8
0
 62
     4
 10
-120.499985
 20
128.000000
 40
5.500000
  0
CIRCLE
  8
0
 10
-120.499985
 20
55.999985
 40
2.500000
  0
CIRCLE
  8
0
 62
     2
 10
-120.499985
 20
55.999985
 40
2.100000
  0
CIRCLE
  8
0
 10
-130.000000
 20
74.499992
 40
2.100000
  0
CIRCLE
  8
0
 62
     4
 10
-132.000000
 20
60.099968
 40
1.500000
  0
CIRCLE
  8
0
 62
     4
 10
-132.000000
 20
123.899994
 40
1.500000
  0
CIRCLE
  8
0
 62
     2
 10
-130.000000
 20
96.999992
 40
2.500000
  0
CIRCLE
  8
0
 62
     2
 10
-130.000000
 20
74.499992
 40
2.500000
  0
CIRCLE
  8
0
 10
-120.499985
 20
55.999985
 40
3.999999
  0
CIRCLE
  8
0
 10
-120.499985
 20
55.999985
 40
1.443376
  0
ARC
  8
0
 62
     4
 10
-120.499985
 20
128.000000
 40
4.250000
 50
135.099136
 51
224.900864
  0
ARC
  8
0
 62
     4
 10
-120.499985
 20
128.000000
 40
4.250000
 50
0.000000
 51
44.900871
  0
ARC
  8
0
 62
     4
 10
-120.499985
 20
128.000000
 40
4.250000
 50
315.099121
 51
0.000000
  0
CIRCLE
  8
0
 62
     4
 10
-120.499985
 20
128.000000
 40
2.749999
  0
CIRCLE
  8
0
 62
     4
 10
-120.499985
 20
128.000000
 40
5.000000
  0
CIRCLE
  8
0
 62
     1
 10
-120.499985
 20
128.000000
 40
4.500000
  0
ARC
  8
0
 62
     4
 10
-120.499985
 20
128.000000
 40
3.750000
 50
126.869896
 51
233.130096
  0
ARC
  8
0
 62
     4
 10
-120.499985
 20
128.000000
 40
3.750000
 50
306.869904
 51
53.130104
  0
CIRCLE
  8
0
 10
-131.500000
 20
123.999985
 40
3.499999
  0
CIRCLE
  8
0
 10
-131.500000
 20
60.000000
 40
3.499999
  0
ARC
  8
0
 62
     4
 10
-120.499985
 20
128.000000
 40
5.899999
 50
231.219131
 51
248.781815
  0
ARC
  8
0
 62
     4
 10
-120.499985
 20
128.000000
 40
5.899996
 50
111.219383
 51
128.780502
  0
ARC
  8
0
 62
     4
 10
-120.499985
 20
128.000000
 40
5.899998
 50
51.218071
 51
68.780617
  0
ARC
  8
0
 62
     4
 10
-120.499985
 20
128.000000
 40
5.899995
 50
171.219467
 51
188.780975
  0
ARC
  8
0
 62
     4
 10
182.500015
 20
128.000000
 40
5.900002
 50
171.219482
 51
188.780991
  0
ARC
  8
0
 62
     4
 10
182.500015
 20
128.000000
 40
5.899993
 50
351.218109
 51
8.781887
  0
ARC
  8
0
 62
     4
 10
182.500015
 20
128.000000
 40
5.899998
 50
291.218201
 51
308.781891
  0
CIRCLE
  8
0
 62
     2
 10
182.500015
 20
55.999992
 40
2.100000
  0
CIRCLE
  8
0
 10
182.500015
 20
55.999992
 40
2.500000
  0
CIRCLE
  8
0
 62
     4
 10
182.500015
 20
128.000000
 40
5.500000
  0
CIRCLE
  8
0
 10
182.500015
 20
55.999992
 40
3.999999
  0
CIRCLE
  8
0
 10
182.500015
 20
55.999992
 40
1.443376
  0
ARC
  8
0
 62
     4
 10
182.500015
 20
128.000000
 40
4.249995
 50
135.099060
 51
224.900803
  0
ARC
  8
0
 62
     4
 10
182.500015
 20
128.000000
 40
4.250000
 50
0.000000
 51
44.900944
  0
ARC
  8
0
 62
     4
 10
182.500015
 20
128.000000
 40
4.249995
 50
315.099060
 51
0.000000
  0
CIRCLE
  8
0
 62
     4
 10
182.500015
 20
128.000000
 40
2.749999
  0
CIRCLE
  8
0
 62
     4
 10
182.500015
 20
128.000000
 40
5.000000
  0
CIRCLE
  8
0
 62
     1
 10
182.500015
 20
128.000000
 40
4.500000
  0
ARC
  8
0
 62
     4
 10
182.500015
 20
128.000000
 40
3.750000
 50
126.869896
 51
233.130096
  0
ARC
  8
0
 62
     4
 10
182.500015
 20
128.000000
 40
3.750000
 50
306.869904
 51
53.130104
  0
ARC
  8
0
 62
     4
 10
182.500015
 20
128.000000
 40
5.899994
 50
231.219177
 51
248.781815
  0
ARC
  8
0
 62
     4
 10
182.500015
 20
128.000000
 40
5.899993
 50
111.219315
 51
128.780441
  0
ARC
  8
0
 62
     4
 10
182.500015
 20
128.000000
 40
5.899998
 50
51.218071
 51
68.780548
  0
CIRCLE
  8
0
 10
69.999969
 20
-67.500000
 40
2.249999
  0
CIRCLE
  8
0
 10
-15.000038
 20
-67.499939
 40
2.249999
  0
CIRCLE
  8
0
 10
-15.000038
 20
-114.499969
 40
2.249999
  0
CIRCLE
  8
0
 10
69.999985
 20
-114.500000
 40
2.249999
  0
CIRCLE
  8
0
 62
     2
 10
54.999939
 20
-65.999939
 40
2.500000
  0
CIRCLE
  8
0
 62
     2
 10
-0.000084
 20
-65.999939
 40
2.500000
  0
CIRCLE
  8
0
 62
     2
 10
-0.000084
 20
-115.999939
 40
2.500000
  0
CIRCLE
  8
0
 62
     2
 10
54.999939
 20
-115.999939
 40
2.500000
  0
CIRCLE
  8
0
 10
27.499939
 20
-65.999939
 40
2.000000
  0
ARC
  8
0
 10
27.499939
 20
-114.999939
 40
2.000000
 50
0.000000
 51
180.000000
  0
ARC
  8
0
 10
27.499939
 20
-116.999939
 40
2.000000
 50
180.000000
 51
0.000000
  0
CIRCLE
  8
0
 10
61.999939
 20
-90.999939
 40
1.250000
  0
CIRCLE
  8
0
 10
61.999939
 20
-90.999939
 40
2.249999
  0
CIRCLE
  8
0
 10
-0.000084
 20
-65.999939
 40
2.100000
  0
CIRCLE
  8
0
 10
54.999939
 20
-65.999939
 40
2.100000
  0
CIRCLE
  8
0
 10
-0.000084
 20
-115.999939
 40
2.100000
  0
CIRCLE
  8
0
 10
54.999939
 20
-115.999939
 40
2.100000
  0
POLYLINE
  8
0
 62
     4
 66
     1
  0
VERTEX
  8
0
 10
-20.230888
 20
123.400734
  0
VERTEX
  8
0
 10
-20.059008
 20
124.317619
  0
VERTEX
  8
0
 10
-20.000000
 20
125.249947
  0
VERTEX
  8
0
 10
-20.059006
 20
126.182312
  0
VERTEX
  8
0
 10
-20.230888
 20
127.099236
  0
SEQEND
  0
POLYLINE
  8
0
 62
     4
 66
     1
  0
VERTEX
  8
0
 10
-22.769112
 20
123.400734
  0
VERTEX
  8
0
 10
-22.941000
 20
124.317619
  0
VERTEX
  8
0
 10
-23.000008
 20
125.249947
  0
VERTEX
  8
0
 10
-22.941004
 20
126.182312
  0
VERTEX
  8
0
 10
-22.769112
 20
127.099236
  0
SEQEND
  0
POLYLINE
  8
0
 66
     1
  0
VERTEX
  8
0
 10
78.642700
 20
52.000004
  0
VERTEX
  8
0
 10
78.836594
 20
52.650600
  0
VERTEX
  8
0
 10
78.957985
 20
53.320477
  0
VERTEX
  8
0
 10
78.999985
 20
53.999996
  0
VERTEX
  8
0
 10
78.957985
 20
54.679516
  0
VERTEX
  8
0
 10
78.836594
 20
55.349396
  0
VERTEX
  8
0
 10
78.642700
 20
55.999992
  0
SEQEND
  0
POLYLINE
  8
0
 62
     4
 66
     1
  0
VERTEX
  8
0
 10
-22.769112
 20
128.900757
  0
VERTEX
  8
0
 10
-22.941002
 20
129.817657
  0
VERTEX
  8
0
 10
-23.000008
 20
130.750000
  0
VERTEX
  8
0
 10
-22.940998
 20
131.682358
  0
VERTEX
  8
0
 10
-22.769104
 20
132.599274
  0
SEQEND
  0
POLYLINE
  8
0
 62
     4
 66
     1
  0
VERTEX
  8
0
 10
-20.230888
 20
128.900757
  0
VERTEX
  8
0
 10
-20.059008
 20
129.817657
  0
VERTEX
  8
0
 10
-20.000000
 20
130.750000
  0
VERTEX
  8
0
 10
-20.059004
 20
131.682358
  0
VERTEX
  8
0
 10
-20.230881
 20
132.599274
  0
SEQEND
  0
POLYLINE
  8
0
 66
     1
  0
VERTEX
  8
0
 10
75.357224
 20
52.000004
  0
VERTEX
  8
0
 10
75.163338
 20
52.650600
  0
VERTEX
  8
0
 10
75.041962
 20
53.320477
  0
VERTEX
  8
0
 10
74.999969
 20
53.999996
  0
VERTEX
  8
0
 10
75.041962
 20
54.679516
  0
VERTEX
  8
0
 10
75.163338
 20
55.349396
  0
VERTEX
  8
0
 10
75.357224
 20
55.999992
  0
SEQEND
  0
POLYLINE
  8
0
 66
     1
  0
VERTEX
  8
0
 10
78.642700
 20
55.999992
  0
VERTEX
  8
0
 10
78.836594
 20
56.650593
  0
VERTEX
  8
0
 10
78.957985
 20
57.320484
  0
VERTEX
  8
0
 10
78.999985
 20
58.000011
  0
VERTEX
  8
0
 10
78.957985
 20
58.679531
  0
VERTEX
  8
0
 10
78.836594
 20
59.349411
  0
VERTEX
  8
0
 10
78.642700
 20
60.000008
  0
SEQEND
  0
POLYLINE
  8
0
 66
     1
  0
VERTEX
  8
0
 10
75.357224
 20
55.999992
  0
VERTEX
  8
0
 10
75.163338
 20
56.650597
  0
VERTEX
  8
0
 10
75.041962
 20
57.320484
  0
VERTEX
  8
0
 10
74.999969
 20
58.000011
  0
VERTEX
  8
0
 10
75.041962
 20
58.679531
  0
VERTEX
  8
0
 10
75.163338
 20
59.349411
  0
VERTEX
  8
0
 10
75.357224
 20
60.000008
  0
SEQEND
  0
POLYLINE
  8
0
 66
     1
  0
VERTEX
  8
0
 10
-23.642738
 20
60.000008
  0
VERTEX
  8
0
 10
-23.836624
 20
59.349411
  0
VERTEX
  8
0
 10
-23.958002
 20
58.679535
  0
VERTEX
  8
0
 10
-23.999992
 20
58.000011
  0
VERTEX
  8
0
 10
-23.958002
 20
57.320480
  0
VERTEX
  8
0
 10
-23.836624
 20
56.650593
  0
VERTEX
  8
0
 10
-23.642738
 20
55.999992
  0
SEQEND
  0
POLYLINE
  8
0
 66
     1
  0
VERTEX
  8
0
 10
-23.642738
 20
55.999992
  0
VERTEX
  8
0
 10
-23.836624
 20
55.349396
  0
VERTEX
  8
0
 10
-23.958002
 20
54.679516
  0
VERTEX
  8
0
 10
-23.999992
 20
53.999996
  0
VERTEX
  8
0
 10
-23.958002
 20
53.320477
  0
VERTEX
  8
0
 10
-23.836624
 20
52.650600
  0
VERTEX
  8
0
 10
-23.642738
 20
52.000004
  0
SEQEND
  0
POLYLINE
  8
0
 66
     1
  0
VERTEX
  8
0
 10
-20.357262
 20
60.000008
  0
VERTEX
  8
0
 10
-20.163374
 20
59.349411
  0
VERTEX
  8
0
 10
-20.041992
 20
58.679535
  0
VERTEX
  8
0
 10
-20.000000
 20
58.000011
  0
VERTEX
  8
0
 10
-20.041992
 20
57.320480
  0
VERTEX
  8
0
 10
-20.163374
 20
56.650593
  0
VERTEX
  8
0
 10
-20.357262
 20
55.999992
  0
SEQEND
  0
POLYLINE
  8
0
 66
     1
  0
VERTEX
  8
0
 10
-20.357262
 20
55.999992
  0
VERTEX
  8
0
 10
-20.163374
 20
55.349396
  0
VERTEX
  8
0
 10
-20.041992
 20
54.679516
  0
VERTEX
  8
0
 10
-20.000000
 20
53.999996
  0
VERTEX
  8
0
 10
-20.041992
 20
53.320477
  0
VERTEX
  8
0
 10
-20.163374
 20
52.650600
  0
VERTEX
  8
0
 10
-20.357262
 20
52.000004
  0
SEQEND
  0
POLYLINE
  8
0
 62
     4
 66
     1
  0
VERTEX
  8
0
 10
75.230835
 20
132.599274
  0
VERTEX
  8
0
 10
75.058968
 20
131.682388
  0
VERTEX
  8
0
 10
74.999969
 20
130.750061
  0
VERTEX
  8
0
 10
75.058968
 20
129.817688
  0
VERTEX
  8
0
 10
75.230835
 20
128.900757
  0
SEQEND
  0
POLYLINE
  8
0
 62
     4
 66
     1
  0
VERTEX
  8
0
 10
77.769058
 20
132.599274
  0
VERTEX
  8
0
 10
77.940956
 20
131.682388
  0
VERTEX
  8
0
 10
77.999969
 20
130.750061
  0
VERTEX
  8
0
 10
77.940956
 20
129.817688
  0
VERTEX
  8
0
 10
77.769058
 20
128.900757
  0
SEQEND
  0
POLYLINE
  8
0
 62
     4
 66
     1
  0
VERTEX
  8
0
 10
75.230835
 20
127.099236
  0
VERTEX
  8
0
 10
75.058968
 20
126.182335
  0
VERTEX
  8
0
 10
74.999969
 20
125.249992
  0
VERTEX
  8
0
 10
75.058968
 20
124.317642
  0
VERTEX
  8
0
 10
75.230835
 20
123.400734
  0
SEQEND
  0
POLYLINE
  8
0
 62
     4
 66
     1
  0
VERTEX
  8
0
 10
77.769058
 20
127.099236
  0
VERTEX
  8
0
 10
77.940956
 20
126.182335
  0
VERTEX
  8
0
 10
77.999969
 20
125.249992
  0
VERTEX
  8
0
 10
77.940956
 20
124.317642
  0
VERTEX
  8
0
 10
77.769058
 20
123.400734
  0
SEQEND
  0
POLYLINE
  8
0
 62
     4
 66
     1
  0
VERTEX
  8
0
 10
77.769028
 20
20.607056
  0
VERTEX
  8
0
 10
77.938698
 20
20.025682
  0
VERTEX
  8
0
 10
77.999939
 20
19.539352
  0
VERTEX
  8
0
 10
77.998856
 20
19.467533
  0
VERTEX
  8
0
 10
77.995590
 20
19.395781
  0
SEQEND
  0
POLYLINE
  8
0
 62
     4
 66
     1
  0
VERTEX
  8
0
 10
75.079720
 20
10.637253
  0
VERTEX
  8
0
 10
75.020630
 20
10.357221
  0
VERTEX
  8
0
 10
74.999969
 20
10.013000
  0
VERTEX
  8
0
 10
75.061226
 20
9.466982
  0
VERTEX
  8
0
 10
75.230911
 20
8.945374
  0
SEQEND
  0
POLYLINE
  8
0
 62
     4
 66
     1
  0
VERTEX
  8
0
 10
-22.995602
 20
19.395100
  0
VERTEX
  8
0
 10
-22.998892
 20
19.407431
  0
VERTEX
  8
0
 10
-23.000000
 20
19.539429
  0
VERTEX
  8
0
 10
-22.938745
 20
20.085445
  0
VERTEX
  8
0
 10
-22.769073
 20
20.607056
  0
SEQEND
  0
POLYLINE
  8
0
 66
     1
  0
VERTEX
  8
0
 10
75.357224
 20
17.085602
  0
VERTEX
  8
0
 10
75.099091
 20
17.639170
  0
VERTEX
  8
0
 10
74.999969
 20
18.240311
  0
VERTEX
  8
0
 10
75.099091
 20
18.841444
  0
VERTEX
  8
0
 10
75.357224
 20
19.395004
  0
SEQEND
  0
POLYLINE
  8
0
 62
     4
 66
     1
  0
VERTEX
  8
0
 10
75.230911
 20
20.607056
  0
VERTEX
  8
0
 10
75.061226
 20
20.056261
  0
VERTEX
  8
0
 10
74.999969
 20
19.539352
  0
VERTEX
  8
0
 10
75.020477
 20
19.224806
  0
VERTEX
  8
0
 10
75.079720
 20
18.915066
  0
SEQEND
  0
POLYLINE
  8
0
 62
     4
 66
     1
  0
VERTEX
  8
0
 10
-20.079767
 20
18.915167
  0
VERTEX
  8
0
 10
-20.020676
 20
19.195204
  0
VERTEX
  8
0
 10
-20.000015
 20
19.539429
  0
VERTEX
  8
0
 10
-20.061274
 20
20.085447
  0
VERTEX
  8
0
 10
-20.230957
 20
20.607056
  0
SEQEND
  0
POLYLINE
  8
0
 62
     4
 66
     1
  0
VERTEX
  8
0
 10
-20.230957
 20
8.945358
  0
VERTEX
  8
0
 10
-20.061272
 20
9.496161
  0
VERTEX
  8
0
 10
-20.000015
 20
10.013077
  0
VERTEX
  8
0
 10
-20.020525
 20
10.327619
  0
VERTEX
  8
0
 10
-20.079769
 20
10.637353
  0
SEQEND
  0
POLYLINE
  8
0
 62
     4
 66
     1
  0
VERTEX
  8
0
 10
77.995575
 20
10.157328
  0
VERTEX
  8
0
 10
77.998863
 20
10.144999
  0
VERTEX
  8
0
 10
77.999969
 20
10.013000
  0
VERTEX
  8
0
 10
77.938705
 20
9.466983
  0
VERTEX
  8
0
 10
77.769028
 20
8.945374
  0
SEQEND
  0
POLYLINE
  8
0
 66
     1
  0
VERTEX
  8
0
 10
78.642700
 20
10.157417
  0
VERTEX
  8
0
 10
78.900833
 20
10.710985
  0
VERTEX
  8
0
 10
78.999954
 20
11.312126
  0
VERTEX
  8
0
 10
78.900833
 20
11.913255
  0
VERTEX
  8
0
 10
78.642700
 20
12.466812
  0
SEQEND
  0
POLYLINE
  8
0
 66
     1
  0
VERTEX
  8
0
 10
78.642700
 20
12.466812
  0
VERTEX
  8
0
 10
78.837654
 20
13.222363
  0
VERTEX
  8
0
 10
78.958496
 20
13.995012
  0
VERTEX
  8
0
 10
78.999954
 20
14.776215
  0
VERTEX
  8
0
 10
78.958496
 20
15.557412
  0
VERTEX
  8
0
 10
78.837654
 20
16.330055
  0
VERTEX
  8
0
 10
78.642700
 20
17.085602
  0
SEQEND
  0
POLYLINE
  8
0
 66
     1
  0
VERTEX
  8
0
 10
75.357224
 20
10.157417
  0
VERTEX
  8
0
 10
75.099091
 20
10.710985
  0
VERTEX
  8
0
 10
74.999969
 20
11.312126
  0
VERTEX
  8
0
 10
75.099091
 20
11.913255
  0
VERTEX
  8
0
 10
75.357224
 20
12.466812
  0
SEQEND
  0
POLYLINE
  8
0
 66
     1
  0
VERTEX
  8
0
 10
75.357224
 20
12.466812
  0
VERTEX
  8
0
 10
75.162270
 20
13.222363
  0
VERTEX
  8
0
 10
75.041428
 20
13.995013
  0
VERTEX
  8
0
 10
74.999969
 20
14.776215
  0
VERTEX
  8
0
 10
75.041428
 20
15.557411
  0
VERTEX
  8
0
 10
75.162270
 20
16.330053
  0
VERTEX
  8
0
 10
75.357224
 20
17.085602
  0
SEQEND
  0
POLYLINE
  8
0
 66
     1
  0
VERTEX
  8
0
 10
78.642700
 20
17.085602
  0
VERTEX
  8
0
 10
78.900833
 20
17.639168
  0
VERTEX
  8
0
 10
78.999954
 20
18.240311
  0
VERTEX
  8
0
 10
78.900833
 20
18.841444
  0
VERTEX
  8
0
 10
78.642700
 20
19.395004
  0
SEQEND
  0
POLYLINE
  8
0
 66
     1
  0
VERTEX
  8
0
 10
-20.357285
 20
12.466812
  0
VERTEX
  8
0
 10
-20.099146
 20
11.913248
  0
VERTEX
  8
0
 10
-20.000015
 20
11.312111
  0
VERTEX
  8
0
 10
-20.099146
 20
10.710974
  0
VERTEX
  8
0
 10
-20.357285
 20
10.157410
  0
SEQEND
  0
POLYLINE
  8
0
 66
     1
  0
VERTEX
  8
0
 10
-23.642746
 20
19.395004
  0
VERTEX
  8
0
 10
-23.900885
 20
18.841436
  0
VERTEX
  8
0
 10
-24.000015
 20
18.240295
  0
VERTEX
  8
0
 10
-23.900885
 20
17.639162
  0
VERTEX
  8
0
 10
-23.642746
 20
17.085602
  0
SEQEND
  0
POLYLINE
  8
0
 66
     1
  0
VERTEX
  8
0
 10
-23.642746
 20
17.085602
  0
VERTEX
  8
0
 10
-23.837702
 20
16.330053
  0
VERTEX
  8
0
 10
-23.958555
 20
15.557410
  0
VERTEX
  8
0
 10
-24.000015
 20
14.776215
  0
VERTEX
  8
0
 10
-23.958555
 20
13.995014
  0
VERTEX
  8
0
 10
-23.837702
 20
13.222363
  0
VERTEX
  8
0
 10
-23.642746
 20
12.466812
  0
SEQEND
  0
POLYLINE
  8
0
 66
     1
  0
VERTEX
  8
0
 10
-23.642746
 20
12.466812
  0
VERTEX
  8
0
 10
-23.900885
 20
11.913248
  0
VERTEX
  8
0
 10
-24.000015
 20
11.312111
  0
VERTEX
  8
0
 10
-23.900885
 20
10.710974
  0
VERTEX
  8
0
 10
-23.642746
 20
10.157410
  0
SEQEND
  0
POLYLINE
  8
0
 66
     1
  0
VERTEX
  8
0
 10
-20.357285
 20
19.395004
  0
VERTEX
  8
0
 10
-20.099146
 20
18.841436
  0
VERTEX
  8
0
 10
-20.000015
 20
18.240295
  0
VERTEX
  8
0
 10
-20.099146
 20
17.639162
  0
VERTEX
  8
0
 10
-20.357285
 20
17.085602
  0
SEQEND
  0
POLYLINE
  8
0
 66
     1
  0
VERTEX
  8
0
 10
-20.357285
 20
17.085602
  0
VERTEX
  8
0
 10
-20.162329
 20
16.330053
  0
VERTEX
  8
0
 10
-20.041475
 20
15.557410
  0
VERTEX
  8
0
 10
-20.000015
 20
14.776215
  0
VERTEX
  8
0
 10
-20.041475
 20
13.995014
  0
VERTEX
  8
0
 10
-20.162329
 20
13.222363
  0
VERTEX
  8
0
 10
-20.357285
 20
12.466812
  0
SEQEND
  0
POLYLINE
  8
0
 62
     4
 66
     1
  0
VERTEX
  8
0
 10
-22.769073
 20
8.945358
  0
VERTEX
  8
0
 10
-22.938749
 20
9.526737
  0
VERTEX
  8
0
 10
-23.000000
 20
10.013077
  0
VERTEX
  8
0
 10
-22.998913
 20
10.084895
  0
VERTEX
  8
0
 10
-22.995647
 20
10.156648
  0
SEQEND
  0
POLYLINE
  8
0
 62
     4
 66
     1
  0
VERTEX
  8
0
 10
-20.230904
 20
-126.099152
  0
VERTEX
  8
0
 10
-20.068661
 20
-125.255539
  0
VERTEX
  8
0
 10
-20.001549
 20
-124.399239
  0
SEQEND
  0
POLYLINE
  8
0
 62
     4
 66
     1
  0
VERTEX
  8
0
 10
-22.769119
 20
-131.599182
  0
VERTEX
  8
0
 10
-22.941004
 20
-130.682297
  0
VERTEX
  8
0
 10
-23.000008
 20
-129.749969
  0
VERTEX
  8
0
 10
-22.941011
 20
-128.817612
  0
VERTEX
  8
0
 10
-22.769127
 20
-127.900696
  0
SEQEND
  0
POLYLINE
  8
0
 62
     4
 66
     1
  0
VERTEX
  8
0
 10
-22.769127
 20
-126.099152
  0
VERTEX
  8
0
 10
-22.931372
 20
-125.255539
  0
VERTEX
  8
0
 10
-22.998474
 20
-124.399239
  0
SEQEND
  0
POLYLINE
  8
0
 62
     4
 66
     1
  0
VERTEX
  8
0
 10
75.230835
 20
-122.400665
  0
VERTEX
  8
0
 10
75.058968
 20
-123.317551
  0
VERTEX
  8
0
 10
74.999969
 20
-124.249878
  0
VERTEX
  8
0
 10
75.058968
 20
-125.182220
  0
VERTEX
  8
0
 10
75.230835
 20
-126.099121
  0
SEQEND
  0
POLYLINE
  8
0
 62
     4
 66
     1
  0
VERTEX
  8
0
 10
75.230835
 20
-127.900696
  0
VERTEX
  8
0
 10
75.058968
 20
-128.817581
  0
VERTEX
  8
0
 10
74.999969
 20
-129.749908
  0
VERTEX
  8
0
 10
75.058968
 20
-130.682251
  0
VERTEX
  8
0
 10
75.230835
 20
-131.599152
  0
SEQEND
  0
POLYLINE
  8
0
 62
     4
 66
     1
  0
VERTEX
  8
0
 10
77.769058
 20
-127.900696
  0
VERTEX
  8
0
 10
77.940956
 20
-128.817581
  0
VERTEX
  8
0
 10
77.999969
 20
-129.749908
  0
VERTEX
  8
0
 10
77.940956
 20
-130.682251
  0
VERTEX
  8
0
 10
77.769058
 20
-131.599152
  0
SEQEND
  0
POLYLINE
  8
0
 62
     4
 66
     1
  0
VERTEX
  8
0
 10
77.769058
 20
-122.400665
  0
VERTEX
  8
0
 10
77.940956
 20
-123.317551
  0
VERTEX
  8
0
 10
77.999969
 20
-124.249878
  0
VERTEX
  8
0
 10
77.940956
 20
-125.182220
  0
VERTEX
  8
0
 10
77.769058
 20
-126.099121
  0
SEQEND
  0
POLYLINE
  8
0
 66
     1
  0
VERTEX
  8
0
 10
-23.642746
 20
-49.999939
  0
VERTEX
  8
0
 10
-23.836636
 20
-50.650536
  0
VERTEX
  8
0
 10
-23.958021
 20
-51.320415
  0
VERTEX
  8
0
 10
-24.000015
 20
-51.999939
  0
VERTEX
  8
0
 10
-23.958021
 20
-52.679462
  0
VERTEX
  8
0
 10
-23.836636
 20
-53.349342
  0
VERTEX
  8
0
 10
-23.642746
 20
-53.999939
  0
SEQEND
  0
POLYLINE
  8
0
 66
     1
  0
VERTEX
  8
0
 10
-23.642746
 20
-53.999939
  0
VERTEX
  8
0
 10
-23.836636
 20
-54.665981
  0
VERTEX
  8
0
 10
-23.958021
 20
-55.351307
  0
VERTEX
  8
0
 10
-24.000015
 20
-55.999939
  0
VERTEX
  8
0
 10
-23.941027
 20
-56.808060
  0
VERTEX
  8
0
 10
-23.770756
 20
-57.600658
  0
SEQEND
  0
POLYLINE
  8
0
 66
     1
  0
VERTEX
  8
0
 10
-20.357285
 20
-49.999939
  0
VERTEX
  8
0
 10
-20.163395
 20
-50.650536
  0
VERTEX
  8
0
 10
-20.042009
 20
-51.320415
  0
VERTEX
  8
0
 10
-20.000015
 20
-51.999939
  0
VERTEX
  8
0
 10
-20.042009
 20
-52.679462
  0
VERTEX
  8
0
 10
-20.163395
 20
-53.349342
  0
VERTEX
  8
0
 10
-20.357285
 20
-53.999939
  0
SEQEND
  0
POLYLINE
  8
0
 66
     1
  0
VERTEX
  8
0
 10
-20.357285
 20
-53.999939
  0
VERTEX
  8
0
 10
-20.163395
 20
-54.685043
  0
VERTEX
  8
0
 10
-20.042009
 20
-55.389431
  0
VERTEX
  8
0
 10
-20.000015
 20
-55.999939
  0
VERTEX
  8
0
 10
-20.027754
 20
-56.552521
  0
VERTEX
  8
0
 10
-20.109015
 20
-57.099903
  0
SEQEND
  0
POLYLINE
  8
0
 66
     1
  0
VERTEX
  8
0
 10
78.642700
 20
-57.999939
  0
VERTEX
  8
0
 10
78.836594
 20
-57.349342
  0
VERTEX
  8
0
 10
78.957985
 20
-56.679462
  0
VERTEX
  8
0
 10
78.999985
 20
-55.999939
  0
VERTEX
  8
0
 10
78.957985
 20
-55.320415
  0
VERTEX
  8
0
 10
78.836594
 20
-54.650536
  0
VERTEX
  8
0
 10
78.642700
 20
-53.999939
  0
SEQEND
  0
POLYLINE
  8
0
 66
     1
  0
VERTEX
  8
0
 10
78.642700
 20
-53.999939
  0
VERTEX
  8
0
 10
78.836594
 20
-53.349342
  0
VERTEX
  8
0
 10
78.957985
 20
-52.679459
  0
VERTEX
  8
0
 10
78.999985
 20
-51.999939
  0
VERTEX
  8
0
 10
78.957985
 20
-51.320419
  0
VERTEX
  8
0
 10
78.836594
 20
-50.650536
  0
VERTEX
  8
0
 10
78.642700
 20
-49.999939
  0
SEQEND
  0
POLYLINE
  8
0
 66
     1
  0
VERTEX
  8
0
 10
75.357224
 20
-57.999939
  0
VERTEX
  8
0
 10
75.163338
 20
-57.349342
  0
VERTEX
  8
0
 10
75.041962
 20
-56.679462
  0
VERTEX
  8
0
 10
74.999969
 20
-55.999939
  0
VERTEX
  8
0
 10
75.041962
 20
-55.320415
  0
VERTEX
  8
0
 10
75.163338
 20
-54.650536
  0
VERTEX
  8
0
 10
75.357224
 20
-53.999939
  0
SEQEND
  0
POLYLINE
  8
0
 66
     1
  0
VERTEX
  8
0
 10
75.357224
 20
-53.999939
  0
VERTEX
  8
0
 10
75.163338
 20
-53.349342
  0
VERTEX
  8
0
 10
75.041962
 20
-52.679459
  0
VERTEX
  8
0
 10
74.999969
 20
-51.999939
  0
VERTEX
  8
0
 10
75.041962
 20
-51.320419
  0
VERTEX
  8
0
 10
75.163338
 20
-50.650536
  0
VERTEX
  8
0
 10
75.357224
 20
-49.999939
  0
SEQEND
  0
POLYLINE
  8
0
 62
     4
 66
     1
  0
VERTEX
  8
0
 10
-20.230896
 20
-131.599182
  0
VERTEX
  8
0
 10
-20.059019
 20
-130.682297
  0
VERTEX
  8
0
 10
-20.000015
 20
-129.749969
  0
VERTEX
  8
0
 10
-20.059021
 20
-128.817612
  0
VERTEX
  8
0
 10
-20.230904
 20
-127.900696
  0
SEQEND
  0
TEXT
  8
0
 10
196.250259
 20
180.830002
 40
6.300000
  1
Ver. 1.0
 50
0.000000
 41
1.052632
 51
0.000000
  7
STANDARD
  0
TEXT
  8
0
 10
167.564667
 20
-192.100006
 40
9.000000
  1
KOGANEI CORP.
 50
0.000000
 41
1.052632
 51
0.000000
  7
STANDARD
  0
TEXT
  8
0
 10
-265.999725
 20
180.830002
 40
6.300000
  1
GT SLIDE TABLE
 50
0.000000
 41
1.052632
 51
0.000000
  7
STANDARD
  0
TEXT
  8
0
 10
-225.549713
 20
145.830002
 40
6.300000
  1
(WITH SENSOR SWITCH)
 50
0.000000
 41
1.052632
 51
0.000000
  7
STANDARD
  0
TEXT
  8
0
 10
-270.049713
 20
155.830002
 40
6.300000
  1
MODEL:AGTB25*ST(15)
 50
0.000000
 41
1.052632
 51
0.000000
  7
STANDARD
  0
TEXT
  8
0
 10
-226.142654
 20
-147.550003
 40
4.500000
  1
15
 50
0.000000
 41
1.052632
 51
0.000000
  7
STANDARD
  0
TEXT
  8
0
 10
-206.142654
 20
-147.550003
 40
4.500000
  1
30
 50
0.000000
 41
1.052632
 51
0.000000
  7
STANDARD
  0
TEXT
  8
0
 10
-186.142654
 20
-147.550003
 40
4.500000
  1
45
 50
0.000000
 41
1.052632
 51
0.000000
  7
STANDARD
  0
TEXT
  8
0
 10
-166.142654
 20
-147.550003
 40
4.500000
  1
60
 50
0.000000
 41
1.052632
 51
0.000000
  7
STANDARD
  0
TEXT
  8
0
 10
-146.142654
 20
-147.550003
 40
4.500000
  1
75
 50
0.000000
 41
1.052632
 51
0.000000
  7
STANDARD
  0
TEXT
  8
0
 10
-126.142654
 20
-147.550003
 40
4.500000
  1
90
 50
0.000000
 41
1.052632
 51
0.000000
  7
STANDARD
  0
TEXT
  8
0
 10
-265.142670
 20
-140.550003
 40
4.500000
  1
STROKE
 50
0.000000
 41
1.052632
 51
0.000000
  7
STANDARD
  0
TEXT
  8
0
 10
-267.392670
 20
-146.324997
 40
4.500000
  1
STRETCH
 50
0.000000
 41
1.052632
 51
0.000000
  7
STANDARD
  0
TEXT
  8
0
 10
-267.392670
 20
-153.074997
 40
4.500000
  1
  PLACE
 50
0.000000
 41
1.052632
 51
0.000000
  7
STANDARD
  0
TEXT
  8
0
 10
-253.892654
 20
-163.050003
 40
4.500000
  1
A
 50
0.000000
 41
1.052632
 51
0.000000
  7
STANDARD
  0
TEXT
  8
0
 10
-48.392658
 20
-183.050003
 40
4.500000
  1
D,E
 50
0.000000
 41
1.052632
 51
0.000000
  7
STANDARD
  0
TEXT
  8
0
 10
6.857346
 20
-163.050003
 40
4.500000
  1
DIMENSION LIST
 50
0.000000
 41
1.052632
 51
0.000000
  7
STANDARD
  0
TEXT
  8
0
 10
119.357346
 20
-165.050003
 40
4.500000
  1
(mm)
 50
0.000000
 41
1.052632
 51
0.000000
  7
STANDARD
  0
TEXT
  8
0
 10
-108.392654
 20
-147.550003
 40
4.500000
  1
105
 50
0.000000
 41
1.052632
 51
0.000000
  7
STANDARD
  0
TEXT
  8
0
 10
-88.392654
 20
-147.550003
 40
4.500000
  1
120
 50
0.000000
 41
1.052632
 51
0.000000
  7
STANDARD
  0
TEXT
  8
0
 10
3.857344
 20
-183.050003
 40
4.500000
  1
35
 50
0.000000
 41
1.052632
 51
0.000000
  7
STANDARD
  0
TEXT
  8
0
 10
23.857344
 20
-183.050003
 40
4.500000
  1
50
 50
0.000000
 41
1.052632
 51
0.000000
  7
STANDARD
  0
TEXT
  8
0
 10
43.857342
 20
-183.050003
 40
4.500000
  1
65
 50
0.000000
 41
1.052632
 51
0.000000
  7
STANDARD
  0
TEXT
  8
0
 10
63.857342
 20
-183.050003
 40
4.500000
  1
80
 50
0.000000
 41
1.052632
 51
0.000000
  7
STANDARD
  0
TEXT
  8
0
 10
83.857346
 20
-183.050003
 40
4.500000
  1
95
 50
0.000000
 41
1.052632
 51
0.000000
  7
STANDARD
  0
TEXT
  8
0
 10
101.607346
 20
-183.050003
 40
4.500000
  1
110
 50
0.000000
 41
1.052632
 51
0.000000
  7
STANDARD
  0
TEXT
  8
0
 10
121.607346
 20
-183.050003
 40
4.500000
  1
125
 50
0.000000
 41
1.052632
 51
0.000000
  7
STANDARD
  0
TEXT
  8
0
 10
-20.642656
 20
-183.050003
 40
4.500000
  1
27.5
 50
0.000000
 41
1.052632
 51
0.000000
  7
STANDARD
  0
TEXT
  8
0
 10
-223.892654
 20
-163.050003
 40
4.500000
  1
0
 50
0.000000
 41
1.052632
 51
0.000000
  7
STANDARD
  0
TEXT
  8
0
 10
-88.392654
 20
-163.050003
 40
4.500000
  1
105
 50
0.000000
 41
1.052632
 51
0.000000
  7
STANDARD
  0
TEXT
  8
0
 10
-106.142654
 20
-163.050003
 40
4.500000
  1
90
 50
0.000000
 41
1.052632
 51
0.000000
  7
STANDARD
  0
TEXT
  8
0
 10
-126.142654
 20
-163.050003
 40
4.500000
  1
75
 50
0.000000
 41
1.052632
 51
0.000000
  7
STANDARD
  0
TEXT
  8
0
 10
-146.142654
 20
-163.050003
 40
4.500000
  1
60
 50
0.000000
 41
1.052632
 51
0.000000
  7
STANDARD
  0
TEXT
  8
0
 10
-166.142654
 20
-163.050003
 40
4.500000
  1
45
 50
0.000000
 41
1.052632
 51
0.000000
  7
STANDARD
  0
TEXT
  8
0
 10
-186.142654
 20
-163.050003
 40
4.500000
  1
30
 50
0.000000
 41
1.052632
 51
0.000000
  7
STANDARD
  0
TEXT
  8
0
 10
-206.142654
 20
-163.050003
 40
4.500000
  1
15
 50
0.000000
 41
1.052632
 51
0.000000
  7
STANDARD
  0
TEXT
  8
0
 10
-55.142658
 20
-173.050003
 40
4.500000
  1
STROKE
 50
0.000000
 41
1.052632
 51
0.000000
  7
STANDARD
  0
TEXT
  8
0
 10
-16.142656
 20
-173.050003
 40
4.500000
  1
15
 50
0.000000
 41
1.052632
 51
0.000000
  7
STANDARD
  0
TEXT
  8
0
 10
3.857344
 20
-173.050003
 40
4.500000
  1
30
 50
0.000000
 41
1.052632
 51
0.000000
  7
STANDARD
  0
TEXT
  8
0
 10
23.857344
 20
-173.050003
 40
4.500000
  1
45
 50
0.000000
 41
1.052632
 51
0.000000
  7
STANDARD
  0
TEXT
  8
0
 10
43.857342
 20
-173.050003
 40
4.500000
  1
60
 50
0.000000
 41
1.052632
 51
0.000000
  7
STANDARD
  0
TEXT
  8
0
 10
63.857342
 20
-173.050003
 40
4.500000
  1
75
 50
0.000000
 41
1.052632
 51
0.000000
  7
STANDARD
  0
TEXT
  8
0
 10
83.857346
 20
-173.050003
 40
4.500000
  1
90
 50
0.000000
 41
1.052632
 51
0.000000
  7
STANDARD
  0
TEXT
  8
0
 10
101.607346
 20
-173.050003
 40
4.500000
  1
105
 50
0.000000
 41
1.052632
 51
0.000000
  7
STANDARD
  0
TEXT
  8
0
 10
121.607346
 20
-173.050003
 40
4.500000
  1
120
 50
0.000000
 41
1.052632
 51
0.000000
  7
STANDARD
  0
TEXT
  8
0
 10
-253.892654
 20
-183.050003
 40
4.500000
  1
C
 50
0.000000
 41
1.052632
 51
0.000000
  7
STANDARD
  0
TEXT
  8
0
 10
-203.892654
 20
-183.050003
 40
4.500000
  1
0
 50
0.000000
 41
1.052632
 51
0.000000
  7
STANDARD
  0
TEXT
  8
0
 10
-188.392654
 20
-183.050003
 40
4.500000
  1
7.5
 50
0.000000
 41
1.052632
 51
0.000000
  7
STANDARD
  0
TEXT
  8
0
 10
-166.142654
 20
-183.050003
 40
4.500000
  1
15
 50
0.000000
 41
1.052632
 51
0.000000
  7
STANDARD
  0
TEXT
  8
0
 10
-150.642654
 20
-183.050003
 40
4.500000
  1
22.5
 50
0.000000
 41
1.052632
 51
0.000000
  7
STANDARD
  0
TEXT
  8
0
 10
-126.142654
 20
-183.050003
 40
4.500000
  1
30
 50
0.000000
 41
1.052632
 51
0.000000
  7
STANDARD
  0
TEXT
  8
0
 10
-110.642654
 20
-183.050003
 40
4.500000
  1
37.5
 50
0.000000
 41
1.052632
 51
0.000000
  7
STANDARD
  0
TEXT
  8
0
 10
-86.142654
 20
-183.050003
 40
4.500000
  1
45
 50
0.000000
 41
1.052632
 51
0.000000
  7
STANDARD
  0
TEXT
  8
0
 10
-223.892654
 20
-183.050003
 40
4.500000
  1
0
 50
0.000000
 41
1.052632
 51
0.000000
  7
STANDARD
  0
TEXT
  8
0
 10
-253.892654
 20
-173.050003
 40
4.500000
  1
B
 50
0.000000
 41
1.052632
 51
0.000000
  7
STANDARD
  0
TEXT
  8
0
 10
-223.892654
 20
-173.050003
 40
4.500000
  1
0
 50
0.000000
 41
1.052632
 51
0.000000
  7
STANDARD
  0
TEXT
  8
0
 10
-203.892654
 20
-173.050003
 40
4.500000
  1
0
 50
0.000000
 41
1.052632
 51
0.000000
  7
STANDARD
  0
TEXT
  8
0
 10
-188.392654
 20
-173.050003
 40
4.500000
  1
7.5
 50
0.000000
 41
1.052632
 51
0.000000
  7
STANDARD
  0
TEXT
  8
0
 10
-166.142654
 20
-173.050003
 40
4.500000
  1
15
 50
0.000000
 41
1.052632
 51
0.000000
  7
STANDARD
  0
TEXT
  8
0
 10
-150.642654
 20
-173.050003
 40
4.500000
  1
22.5
 50
0.000000
 41
1.052632
 51
0.000000
  7
STANDARD
  0
TEXT
  8
0
 10
-126.142654
 20
-173.050003
 40
4.500000
  1
30
 50
0.000000
 41
1.052632
 51
0.000000
  7
STANDARD
  0
TEXT
  8
0
 10
-110.642654
 20
-173.050003
 40
4.500000
  1
37.5
 50
0.000000
 41
1.052632
 51
0.000000
  7
STANDARD
  0
TEXT
  8
0
 10
-86.142654
 20
-173.050003
 40
4.500000
  1
45
 50
0.000000
 41
1.052632
 51
0.000000
  7
STANDARD
  0
TEXT
  8
0
 10
-198.642654
 20
-132.050003
 40
4.500000
  1
STRETCH LIST
 50
0.000000
 41
1.052632
 51
0.000000
  7
STANDARD
  0
TEXT
  8
0
 10
-90.642654
 20
-134.050003
 40
4.500000
  1
(mm)
 50
0.000000
 41
1.052632
 51
0.000000
  7
STANDARD
  0
TEXT
  8
0
 62
     3
 10
29.857084
 20
138.950027
 40
4.500000
  1
STRETCH LINE C
 50
0.000000
 41
1.052632
 51
0.000000
  7
STANDARD
  0
TEXT
  8
0
 62
     3
 10
-28.892900
 20
158.950027
 40
4.500000
  1
STRETCH LINE A
 50
0.000000
 41
1.052632
 51
0.000000
  7
STANDARD
  0
TEXT
  8
0
 62
     3
 10
7.357084
 20
148.950027
 40
4.500000
  1
STRETCH LINE B
 50
0.000000
 41
1.052632
 51
0.000000
  7
STANDARD
  0
TEXT
  8
0
 62
     2
 10
-13.407049
 20
-140.999939
 40
3.200000
  1
20
 50
0.000000
 41
1.052632
 51
0.000000
  7
STANDARD
  0
LINE
  8
0
 62
     2
 10
-20.000015
 20
-141.999939
 11
-0.000084
 21
-141.999939
  0
LINE
  8
0
 62
     2
 10
-20.000015
 20
-141.999939
 11
-17.102238
 21
-141.223480
  0
LINE
  8
0
 62
     2
 10
-20.000015
 20
-141.999939
 11
-17.102238
 21
-142.776398
  0
LINE
  8
0
 62
     2
 10
-0.000084
 20
-141.999939
 11
-2.897861
 21
-142.776398
  0
LINE
  8
0
 62
     2
 10
-0.000084
 20
-141.999939
 11
-2.897861
 21
-141.223480
  0
LINE
  8
0
 62
     2
 10
-20.000015
 20
-132.999908
 11
-20.000015
 21
-143.499939
  0
LINE
  8
0
 62
     2
 10
-0.000084
 20
-119.826263
 11
-0.000084
 21
-143.499939
  0
TEXT
  8
0
 62
     2
 10
11.942927
 20
-140.999939
 40
3.200000
  1
D
 50
0.000000
 41
1.052632
 51
0.000000
  7
STANDARD
  0
LINE
  8
0
 62
     2
 10
-0.000084
 20
-141.999939
 11
27.499939
 21
-141.999939
  0
LINE
  8
0
 62
     2
 10
-0.000084
 20
-141.999939
 11
2.897694
 21
-141.223480
  0
LINE
  8
0
 62
     2
 10
-0.000084
 20
-141.999939
 11
2.897694
 21
-142.776398
  0
LINE
  8
0
 62
     2
 10
27.499939
 20
-141.999939
 11
24.602161
 21
-142.776398
  0
LINE
  8
0
 62
     2
 10
27.499939
 20
-141.999939
 11
24.602161
 21
-141.223480
  0
LINE
  8
0
 62
     2
 10
-0.000084
 20
-119.826263
 11
-0.000084
 21
-143.499939
  0
LINE
  8
0
 62
     2
 10
27.499939
 20
-120.501831
 11
27.499939
 21
-143.499939
  0
TEXT
  8
0
 62
     2
 10
39.442940
 20
-140.999939
 40
3.200000
  1
E
 50
0.000000
 41
1.052632
 51
0.000000
  7
STANDARD
  0
LINE
  8
0
 62
     2
 10
27.499939
 20
-141.999939
 11
54.999939
 21
-141.999939
  0
LINE
  8
0
 62
     2
 10
27.499939
 20
-141.999939
 11
30.397717
 21
-141.223480
  0
LINE
  8
0
 62
     2
 10
27.499939
 20
-141.999939
 11
30.397717
 21
-142.776398
  0
LINE
  8
0
 62
     2
 10
54.999939
 20
-141.999939
 11
52.102161
 21
-142.776398
  0
LINE
  8
0
 62
     2
 10
54.999939
 20
-141.999939
 11
52.102161
 21
-141.223480
  0
LINE
  8
0
 62
     2
 10
27.499939
 20
-120.501831
 11
27.499939
 21
-143.499939
  0
LINE
  8
0
 62
     2
 10
54.999939
 20
-119.826263
 11
54.999939
 21
-143.499939
  0
TEXT
  8
0
 62
     2
 10
61.592953
 20
-140.999939
 40
3.200000
  1
20
 50
0.000000
 41
1.052632
 51
0.000000
  7
STANDARD
  0
LINE
  8
0
 62
     2
 10
54.999939
 20
-141.999939
 11
74.999969
 21
-141.999939
  0
LINE
  8
0
 62
     2
 10
54.999939
 20
-141.999939
 11
57.897717
 21
-141.223480
  0
LINE
  8
0
 62
     2
 10
54.999939
 20
-141.999939
 11
57.897717
 21
-142.776398
  0
LINE
  8
0
 62
     2
 10
74.999969
 20
-141.999939
 11
72.102196
 21
-142.776398
  0
LINE
  8
0
 62
     2
 10
74.999969
 20
-141.999939
 11
72.102196
 21
-141.223480
  0
LINE
  8
0
 62
     2
 10
54.999939
 20
-119.826263
 11
54.999939
 21
-143.499939
  0
LINE
  8
0
 62
     2
 10
74.999969
 20
-132.999908
 11
74.999969
 21
-143.499939
  0
ENDSEC
  0
EOF
