  0
SECTION
  2
HEADER
  0
ENDSEC
  0
SECTION
  2
TABLES
  0
TABLE
  2
LTYPE
 70
     4
  0
LTYPE
  2
CONTINUOUS
 70
    64
  3
Solid line
 72
    65
 73
     0
 40
0.000000
  0
LTYPE
  2
DASHED
 70
    64
  3
__ __ __ __ __ __ __ __ __ __ __ __ __ __ __
 72
    65
 73
     2
 40
3.500000
 49
2.000000
 49
-1.500000
  0
LTYPE
  2
CENTER
 70
    64
  3
____ _ ____ _ ____ _ ____ _ ____ _ ____ _ ____
 72
    65
 73
     4
 40
17.500000
 49
13.000000
 49
-1.500000
 49
1.500000
 49
-1.500000
  0
LTYPE
  2
PHANTOM
 70
    64
  3
_____ _ _ _____ _ _ _____ _ _ _____ _ _ ____  
 72
    65
 73
     6
 40
15.500000
 49
8.000000
 49
-1.500000
 49
1.500000
 49
-1.500000
 49
1.500000
 49
-1.500000
  0
LTYPE
  2
DASHED1
 70
    64
  3
__ __ __ __ __ __ __ __ __ __ __ __ __ __ __
 72
    65
 73
     2
 40
1.500000
 49
1.000000
 49
-0.500000
  0
LTYPE
  2
DASHED2
 70
    64
  3
__ __ __ __ __ __ __ __ __ __ __ __ __ __ __
 72
    65
 73
     2
 40
3.500000
 49
2.500000
 49
-1.000000
  0
LTYPE
  2
DASHED3
 70
    64
  3
__ __ __ __ __ __ __ __ __ __ __ __ __ __ __
 72
    65
 73
     2
 40
6.000000
 49
4.000000
 49
-2.000000
  0
LTYPE
  2
DASHED4
 70
    64
  3
__ __ __ __ __ __ __ __ __ __ __ __ __ __ __
 72
    65
 73
     2
 40
12.000000
 49
10.000000
 49
-2.000000
  0
LTYPE
  2
DASHED5
 70
    64
  3
__ __ __ __ __ __ __ __ __ __ __ __ __ __ __
 72
    65
 73
     2
 40
17.000000
 49
15.000000
 49
-2.000000
  0
LTYPE
  2
DASHED6
 70
    64
  3
__ __ __ __ __ __ __ __ __ __ __ __ __ __ __
 72
    65
 73
     2
 40
29.000000
 49
27.000000
 49
-2.000000
  0
LTYPE
  2
PHANTOM1
 70
    64
  3
_____ _ _ _____ _ _ _____ _ _ _____ _ _ ____  
 72
    65
 73
     6
 40
31.000000
 49
25.000000
 49
-1.500000
 49
1.000000
 49
-1.000000
 49
1.000000
 49
-1.500000
  0
LTYPE
  2
PHANTOM2
 70
    64
  3
_____ _ _ _____ _ _ _____ _ _ _____ _ _ ____  
 72
    65
 73
     6
 40
36.000000
 49
27.000000
 49
-1.500000
 49
2.500000
 49
-1.000000
 49
2.500000
 49
-1.500000
  0
LTYPE
  2
PHANTOM3
 70
    64
  3
_____ _ _ _____ _ _ _____ _ _ _____ _ _ ____  
 72
    65
 73
     6
 40
78.000000
 49
64.000000
 49
-2.000000
 49
4.000000
 49
-2.000000
 49
4.000000
 49
-2.000000
  0
LTYPE
  2
CENTER1
 70
    64
  3
____ _ ____ _ ____ _ ____ _ ____ _ ____ _ ____
 72
    65
 73
     4
 40
19.000000
 49
14.000000
 49
-1.000000
 49
3.000000
 49
-1.000000
  0
LTYPE
  2
CENTER2
 70
    64
  3
____ _ ____ _ ____ _ ____ _ ____ _ ____ _ ____
 72
    65
 73
     4
 40
28.500000
 49
25.000000
 49
-1.000000
 49
1.500000
 49
-1.000000
  0
LTYPE
  2
CENTER3
 70
    64
  3
____ _ ____ _ ____ _ ____ _ ____ _ ____ _ ____
 72
    65
 73
     4
 40
31.500000
 49
27.000000
 49
-1.000000
 49
2.500000
 49
-1.000000
  0
LTYPE
  2
CENTER4
 70
    64
  3
____ _ ____ _ ____ _ ____ _ ____ _ ____ _ ____
 72
    65
 73
     4
 40
50.000000
 49
45.000000
 49
-1.000000
 49
3.000000
 49
-1.000000
  0
LTYPE
  2
CENTER5
 70
    64
  3
____ _ ____ _ ____ _ ____ _ ____ _ ____ _ ____
 72
    65
 73
     4
 40
100.000000
 49
92.000000
 49
-2.000000
 49
4.000000
 49
-2.000000
  0
LTYPE
  2
SBK1
 70
    64
  3
______ _ _ _ ______ _ _ _ ______ _ _ _ _____  
 72
    65
 73
     8
 40
60.500000
 49
45.000000
 49
-2.000000
 49
2.500000
 49
-2.000000
 49
2.500000
 49
-2.000000
 49
2.500000
 49
-2.000000
  0
LTYPE
  2
SBK2
 70
    64
  3
______ _ _ _ ______ _ _ _ ______ _ _ _ _____  
 72
    65
 73
     8
 40
84.000000
 49
64.000000
 49
-2.000000
 49
4.000000
 49
-2.000000
 49
4.000000
 49
-2.000000
 49
4.000000
 49
-2.000000
  0
LTYPE
  2
STCH
 70
    64
  3
__ __ __ __ __ __ __ __ __ __ __ __ __ __ __
 72
    65
 73
     2
 40
3.000000
 49
1.000000
 49
-2.000000
  0
LTYPE
  2
MTCH
 70
    64
  3
_____ _ _ _____ _ _ _____ _ _ _____ _ _ ____  
 72
    65
 73
     6
 40
80.000000
 49
66.000000
 49
-2.000000
 49
4.000000
 49
-2.000000
 49
4.000000
 49
-2.000000
  0
ENDTAB
  0
TABLE
  2
LAYER
 70
     1
  0
LAYER
  2
0
 70
     0
 62
     7
  6
CONTINUOUS
  0
ENDTAB
  0
TABLE
  2
STYLE
 70
     1
  0
STYLE
  2
STANDARD
 70
     0
 40
0.000000
 41
1.000000
 50
0.000000
 71
     0
 42
0.200000
  3
txt
  4
BIGFONT
  0
ENDTAB
  0
TABLE
  2
VIEW
 70
     0
  0
ENDTAB
  0
ENDSEC
  0
SECTION
  2
BLOCKS
  0
ENDSEC
  0
SECTION
  2
ENTITIES
  0
LINE
  8
0
  6
CENTER
 62
     2
 10
78.794144
 20
90.000000
 11
-23.842106
 21
90.000000
  0
LINE
  8
0
 10
63.999985
 20
51.999992
 11
63.999985
 21
127.999992
  0
LINE
  8
0
 10
5.999954
 20
51.999992
 11
5.999954
 21
127.999992
  0
LINE
  8
0
 10
6.999969
 20
52.999985
 11
6.999969
 21
126.999992
  0
LINE
  8
0
 10
62.999969
 20
53.000008
 11
6.999969
 21
53.000008
  0
LINE
  8
0
 10
62.999985
 20
52.999985
 11
62.999985
 21
126.999992
  0
LINE
  8
0
 10
62.999969
 20
126.999992
 11
6.999969
 21
126.999992
  0
LINE
  8
0
 10
63.999905
 20
51.999958
 11
62.999897
 21
52.999966
  0
LINE
  8
0
 10
64.000015
 20
128.000015
 11
63.000027
 21
127.000023
  0
LINE
  8
0
 10
6.999939
 20
126.999939
 11
5.999942
 21
127.999931
  0
LINE
  8
0
 10
5.999975
 20
51.999989
 11
6.999964
 21
52.999981
  0
LINE
  8
0
  6
CENTER
 62
     2
 10
55.816620
 20
121.999992
 11
49.183304
 21
121.999992
  0
LINE
  8
0
  6
CENTER
 62
     2
 10
55.816620
 20
57.999985
 11
49.183304
 21
57.999985
  0
LINE
  8
0
  6
CENTER
 62
     2
 10
52.499954
 20
54.733322
 11
52.499954
 21
61.199997
  0
LINE
  8
0
  6
CENTER
 62
     2
 10
52.499954
 20
118.733345
 11
52.499954
 21
125.200005
  0
LINE
  8
0
  6
CENTER
 62
     2
 10
56.999969
 20
86.199997
 11
56.999969
 21
93.899994
  0
LINE
  8
0
 10
64.999985
 20
51.999992
 11
64.999985
 21
127.999992
  0
LINE
  8
0
 10
63.999985
 20
128.000000
 11
5.999977
 21
128.000000
  0
LINE
  8
0
 10
63.999985
 20
51.999992
 11
5.999977
 21
51.999992
  0
LINE
  8
0
 10
77.400009
 20
61.499985
 11
75.000000
 21
61.499985
  0
LINE
  8
0
 10
77.087402
 20
57.999985
 11
75.312607
 21
57.999985
  0
LINE
  8
0
 10
77.400040
 20
61.499985
 11
77.400040
 21
54.499969
  0
LINE
  8
0
 10
77.400009
 20
54.499992
 11
75.000000
 21
54.499992
  0
LINE
  8
0
 62
     4
 10
-58.000031
 20
117.999992
 11
-48.000023
 21
117.999992
  0
LINE
  8
0
 62
     4
 10
-48.000023
 20
116.500008
 11
-22.999996
 21
116.500008
  0
LINE
  8
0
 62
     4
 10
-48.000031
 20
116.500008
 11
-48.000031
 21
118.999977
  0
LINE
  8
0
 62
     4
 10
-58.000031
 20
116.999992
 11
-48.000023
 21
116.999992
  0
LINE
  8
0
 62
     4
 10
-58.000031
 20
119.000008
 11
-50.000015
 21
119.000008
  0
LINE
  8
0
 62
     4
 10
-58.000023
 20
116.999992
 11
-58.000023
 21
119.000008
  0
LINE
  8
0
 62
     1
 10
-37.258766
 20
59.086674
 11
-36.740681
 21
65.008446
  0
LINE
  8
0
 62
     4
 10
-58.000023
 20
61.999992
 11
-48.000015
 21
61.999992
  0
LINE
  8
0
 62
     4
 10
-48.000015
 20
60.499985
 11
-37.135071
 21
60.499985
  0
LINE
  8
0
 62
     4
 10
-48.000015
 20
63.499992
 11
-36.872604
 21
63.499992
  0
LINE
  8
0
 62
     4
 10
-48.000015
 20
60.499985
 11
-48.000015
 21
63.499977
  0
LINE
  8
0
 62
     4
 10
-36.131248
 20
60.499985
 11
-23.000011
 21
60.499985
  0
LINE
  8
0
 62
     4
 10
-35.868782
 20
63.499992
 11
-23.000011
 21
63.499992
  0
LINE
  8
0
 62
     4
 10
-58.000023
 20
60.999992
 11
-48.000015
 21
60.999992
  0
LINE
  8
0
 62
     4
 10
-58.000023
 20
63.000008
 11
-48.000015
 21
63.000008
  0
LINE
  8
0
 62
     4
 10
-58.000015
 20
60.999992
 11
-58.000015
 21
62.999985
  0
LINE
  8
0
 62
     1
 10
-36.260181
 20
59.026814
 11
-35.740723
 21
64.964264
  0
LINE
  8
0
 10
5.999954
 20
60.000023
 11
-10.000000
 21
60.000023
  0
LINE
  8
0
 10
64.999985
 20
121.000023
 11
63.999985
 21
121.000023
  0
LINE
  8
0
 10
5.999954
 20
59.000008
 11
-9.000004
 21
59.000008
  0
LINE
  8
0
 10
64.999985
 20
79.000008
 11
63.999985
 21
79.000008
  0
LINE
  8
0
 10
64.999985
 20
101.000015
 11
63.999985
 21
101.000015
  0
LINE
  8
0
 10
74.999985
 20
51.999992
 11
74.999985
 21
127.999992
  0
LINE
  8
0
 10
74.999985
 20
51.999992
 11
64.999985
 21
51.999992
  0
LINE
  8
0
 10
74.999985
 20
128.000000
 11
64.999985
 21
128.000000
  0
LINE
  8
0
  6
CENTER
 62
     2
 10
69.999985
 20
60.652031
 11
69.999985
 21
73.032990
  0
LINE
  8
0
  6
CENTER
 62
     2
 10
76.253647
 20
67.999985
 11
63.777451
 21
67.999985
  0
LINE
  8
0
  6
CENTER
 62
     2
 10
69.999985
 20
105.652054
 11
69.999985
 21
118.033012
  0
LINE
  8
0
  6
CENTER
 62
     2
 10
76.253647
 20
111.999992
 11
63.777451
 21
111.999992
  0
LINE
  8
0
  6
CENTER
 62
     2
 10
-21.253674
 20
111.999992
 11
-8.777489
 21
111.999992
  0
LINE
  8
0
 10
-10.000000
 20
51.999992
 11
-10.000000
 21
127.999992
  0
LINE
  8
0
  6
CENTER
 62
     2
 10
-15.000000
 20
105.652054
 11
-15.000000
 21
118.033012
  0
LINE
  8
0
 10
-20.000000
 20
51.999992
 11
-20.000000
 21
128.000000
  0
LINE
  8
0
 10
-20.000000
 20
51.999992
 11
-10.000000
 21
51.999992
  0
LINE
  8
0
 10
-20.000000
 20
128.000000
 11
-10.000000
 21
128.000000
  0
LINE
  8
0
  6
CENTER
 62
     2
 10
-15.000000
 20
61.652023
 11
-15.000000
 21
74.033005
  0
LINE
  8
0
  6
CENTER
 62
     2
 10
-21.253674
 20
67.999985
 11
-8.777489
 21
67.999985
  0
LINE
  8
0
 10
5.999954
 20
121.000023
 11
-1.999729
 21
121.000023
  0
LINE
  8
0
 10
5.999954
 20
120.000023
 11
-10.000000
 21
120.000023
  0
LINE
  8
0
 10
5.999954
 20
101.000015
 11
-10.000046
 21
101.000015
  0
LINE
  8
0
 10
5.999954
 20
79.000008
 11
-10.000046
 21
79.000008
  0
LINE
  8
0
 62
     4
 10
64.999985
 20
121.000023
 11
64.000000
 21
121.000023
  0
LINE
  8
0
 62
     4
 10
77.999985
 20
126.999992
 11
94.249985
 21
126.999992
  0
LINE
  8
0
 62
     4
 10
77.999985
 20
116.999992
 11
94.249985
 21
116.999992
  0
LINE
  8
0
 62
     4
 10
105.000000
 20
125.000008
 11
105.000000
 21
119.000008
  0
LINE
  8
0
 62
     4
 10
101.000000
 20
126.250008
 11
101.000000
 21
125.000008
  0
LINE
  8
0
 62
     4
 10
101.000000
 20
125.000008
 11
105.000000
 21
125.000008
  0
LINE
  8
0
 62
     4
 10
101.000000
 20
119.000008
 11
105.000000
 21
119.000008
  0
LINE
  8
0
 62
     4
 10
95.000000
 20
117.750008
 11
101.000000
 21
117.750008
  0
LINE
  8
0
 62
     4
 10
95.000000
 20
126.250008
 11
101.000000
 21
126.250008
  0
LINE
  8
0
 62
     4
 10
94.999985
 20
126.250008
 11
94.999985
 21
117.750008
  0
LINE
  8
0
 62
     4
 10
94.250122
 20
127.000191
 11
95.000114
 21
126.250198
  0
LINE
  8
0
 62
     4
 10
94.250038
 20
116.999962
 11
95.000053
 21
117.749977
  0
LINE
  8
0
 62
     1
 10
77.999985
 20
126.500008
 11
94.749969
 21
126.500008
  0
LINE
  8
0
 62
     1
 10
77.999985
 20
117.500008
 11
94.750000
 21
117.500008
  0
LINE
  8
0
 62
     4
 10
94.249985
 20
127.000008
 11
94.249985
 21
117.000008
  0
LINE
  8
0
 62
     4
 10
101.000000
 20
119.000008
 11
101.000000
 21
117.750008
  0
LINE
  8
0
 10
63.999985
 20
123.000008
 11
63.999985
 21
120.999992
  0
LINE
  8
0
 62
     4
 10
64.499969
 20
120.499992
 11
65.000000
 21
120.499992
  0
LINE
  8
0
 62
     4
 10
64.499969
 20
123.499992
 11
64.499969
 21
120.499992
  0
LINE
  8
0
 62
     4
 10
64.499969
 20
123.499977
 11
65.000000
 21
123.499977
  0
LINE
  8
0
 62
     4
 10
64.499977
 20
123.500038
 11
63.999989
 21
123.000046
  0
LINE
  8
0
 62
     4
 10
63.999947
 20
120.999931
 11
64.499954
 21
120.499931
  0
LINE
  8
0
 62
     4
 10
104.500000
 20
125.000008
 11
104.500000
 21
119.000008
  0
LINE
  8
0
 62
     4
 10
-2.499977
 20
120.499992
 11
-10.000000
 21
120.499992
  0
LINE
  8
0
 62
     4
 10
-2.499977
 20
123.499977
 11
-10.000000
 21
123.499977
  0
LINE
  8
0
 62
     4
 10
-2.499923
 20
120.499977
 11
-1.999934
 21
120.999969
  0
LINE
  8
0
 62
     4
 10
-2.000029
 20
122.999939
 11
-2.500019
 21
123.499931
  0
LINE
  8
0
 62
     4
 10
-2.499977
 20
120.499992
 11
-2.499977
 21
123.499992
  0
LINE
  8
0
 62
     4
 10
-1.999729
 20
123.000008
 11
-1.999729
 21
120.999977
  0
LINE
  8
0
 62
     4
 10
-22.999992
 20
116.999992
 11
-39.249992
 21
116.999992
  0
LINE
  8
0
 62
     4
 10
-22.999996
 20
126.999977
 11
-39.250000
 21
126.999977
  0
LINE
  8
0
 62
     4
 10
-50.000015
 20
118.999977
 11
-50.000015
 21
124.999977
  0
LINE
  8
0
 62
     4
 10
-46.000000
 20
117.749977
 11
-46.000000
 21
118.999977
  0
LINE
  8
0
 62
     4
 10
-46.000000
 20
118.999977
 11
-50.000015
 21
118.999977
  0
LINE
  8
0
 62
     4
 10
-46.000000
 20
125.000008
 11
-50.000015
 21
125.000008
  0
LINE
  8
0
 62
     4
 10
-40.000015
 20
126.250008
 11
-46.000000
 21
126.250008
  0
LINE
  8
0
 62
     4
 10
-40.000015
 20
117.749977
 11
-46.000000
 21
117.749977
  0
LINE
  8
0
 62
     4
 10
-40.000000
 20
117.749977
 11
-40.000000
 21
126.249977
  0
LINE
  8
0
 62
     4
 10
-39.249966
 20
117.000046
 11
-39.999966
 21
117.750046
  0
LINE
  8
0
 62
     4
 10
-39.250046
 20
127.000076
 11
-40.000046
 21
126.250069
  0
LINE
  8
0
 62
     1
 10
-22.999992
 20
117.500008
 11
-39.749985
 21
117.500008
  0
LINE
  8
0
 62
     1
 10
-22.999996
 20
126.500008
 11
-39.750000
 21
126.500008
  0
LINE
  8
0
 62
     4
 10
-39.250000
 20
116.999977
 11
-39.250000
 21
126.999977
  0
LINE
  8
0
 62
     4
 10
-46.000000
 20
124.999977
 11
-46.000000
 21
126.249977
  0
LINE
  8
0
 62
     4
 10
-49.500008
 20
118.999977
 11
-49.500008
 21
124.999977
  0
LINE
  8
0
  6
CENTER
 62
     1
 10
-0.357185
 20
121.999977
 11
-53.466446
 21
121.999977
  0
LINE
  8
0
 10
32.999969
 20
122.999992
 11
32.999969
 21
120.999992
  0
LINE
  8
0
 10
36.999969
 20
122.999992
 11
36.999969
 21
120.999992
  0
LINE
  8
0
 62
     4
 10
-23.000000
 20
116.499977
 11
-23.000000
 21
127.500008
  0
LINE
  8
0
 62
     4
 10
-20.000000
 20
116.499977
 11
-23.000000
 21
116.499977
  0
LINE
  8
0
 62
     4
 10
-20.000000
 20
127.500008
 11
-23.000000
 21
127.500008
  0
LINE
  8
0
 62
     4
 10
-20.230896
 20
117.400703
 11
-22.769104
 21
117.400703
  0
LINE
  8
0
 62
     4
 10
-20.230896
 20
126.599236
 11
-22.769104
 21
126.599236
  0
LINE
  8
0
 62
     4
 10
-20.230896
 20
122.900734
 11
-22.769104
 21
122.900734
  0
LINE
  8
0
 62
     4
 10
-20.230896
 20
121.099205
 11
-22.769104
 21
121.099205
  0
LINE
  8
0
 62
     4
 10
-20.230881
 20
121.099205
 11
-20.230881
 21
122.900734
  0
LINE
  8
0
 62
     4
 10
-22.769104
 20
121.099205
 11
-22.769104
 21
122.900734
  0
LINE
  8
0
 62
     4
 10
-20.230881
 20
116.499977
 11
-20.230881
 21
117.400703
  0
LINE
  8
0
 62
     4
 10
-22.769104
 20
117.400703
 11
-22.769104
 21
116.499977
  0
LINE
  8
0
 62
     4
 10
-20.230881
 20
126.599236
 11
-20.230881
 21
127.500008
  0
LINE
  8
0
 62
     4
 10
-22.769104
 20
126.599236
 11
-22.769104
 21
127.500008
  0
LINE
  8
0
 62
     4
 10
77.999969
 20
127.499977
 11
77.999969
 21
116.499962
  0
LINE
  8
0
 10
74.999985
 20
127.499977
 11
74.999985
 21
116.499962
  0
LINE
  8
0
 62
     4
 10
74.999985
 20
127.499977
 11
77.999969
 21
127.499977
  0
LINE
  8
0
 62
     4
 10
74.999985
 20
116.499962
 11
77.999969
 21
116.499962
  0
LINE
  8
0
 62
     4
 10
75.230865
 20
126.599251
 11
77.769073
 21
126.599251
  0
LINE
  8
0
 62
     4
 10
75.230865
 20
117.400734
 11
77.769073
 21
117.400734
  0
LINE
  8
0
 62
     4
 10
75.230865
 20
121.099220
 11
77.769073
 21
121.099220
  0
LINE
  8
0
 62
     4
 10
75.230865
 20
122.900764
 11
77.769073
 21
122.900764
  0
LINE
  8
0
 62
     4
 10
75.230850
 20
122.900764
 11
75.230850
 21
121.099220
  0
LINE
  8
0
 62
     4
 10
77.769073
 20
122.900764
 11
77.769073
 21
121.099220
  0
LINE
  8
0
 62
     4
 10
75.230850
 20
127.499977
 11
75.230850
 21
126.599251
  0
LINE
  8
0
 62
     4
 10
77.769073
 20
126.599251
 11
77.769073
 21
127.499977
  0
LINE
  8
0
 62
     4
 10
75.230850
 20
117.400734
 11
75.230850
 21
116.499962
  0
LINE
  8
0
 62
     4
 10
77.769073
 20
117.400734
 11
77.769073
 21
116.499962
  0
LINE
  8
0
 62
     4
 10
-21.500015
 20
63.999985
 11
-20.000000
 21
63.999985
  0
LINE
  8
0
 62
     4
 10
-21.500015
 20
63.999985
 11
-21.500015
 21
61.499985
  0
LINE
  8
0
 62
     4
 10
-21.500019
 20
64.000008
 11
-23.000019
 21
63.500008
  0
LINE
  8
0
 62
     4
 10
-23.000011
 20
63.499992
 11
-23.000011
 21
60.499985
  0
LINE
  8
0
 62
     4
 10
-22.400032
 20
60.299992
 11
-23.000029
 21
60.499992
  0
LINE
  8
0
 10
5.999954
 20
106.500008
 11
-10.000000
 21
106.500008
  0
LINE
  8
0
 10
5.999954
 20
113.499992
 11
-10.000000
 21
113.499992
  0
LINE
  8
0
 10
5.999954
 20
66.500008
 11
-10.000000
 21
66.500008
  0
LINE
  8
0
 10
5.999954
 20
73.499992
 11
-10.000000
 21
73.499992
  0
LINE
  8
0
 10
5.999954
 20
65.999992
 11
-10.000000
 21
65.999992
  0
LINE
  8
0
 10
5.999954
 20
114.000008
 11
-10.000000
 21
114.000008
  0
LINE
  8
0
 10
64.999985
 20
73.499992
 11
63.999985
 21
73.499992
  0
LINE
  8
0
 10
64.999985
 20
106.500008
 11
63.999985
 21
106.500008
  0
LINE
  8
0
 10
64.999985
 20
66.500008
 11
63.999985
 21
66.500008
  0
LINE
  8
0
 10
64.999985
 20
113.499992
 11
63.999985
 21
113.499992
  0
LINE
  8
0
 10
64.999985
 20
65.999992
 11
63.999985
 21
65.999992
  0
LINE
  8
0
 10
64.999985
 20
114.000008
 11
63.999985
 21
114.000008
  0
LINE
  8
0
  6
CENTER
 62
     2
 10
34.999954
 20
54.733322
 11
34.999954
 21
61.199997
  0
LINE
  8
0
  6
CENTER
 62
     2
 10
17.499954
 20
118.733345
 11
17.499954
 21
125.200020
  0
LINE
  8
0
  6
CENTER
 62
     2
 10
38.316628
 20
57.999985
 11
31.683304
 21
57.999985
  0
LINE
  8
0
  6
CENTER
 62
     2
 10
20.816628
 20
121.999992
 11
14.183304
 21
121.999992
  0
LINE
  8
0
 62
     4
 10
64.999985
 20
122.999962
 11
64.000000
 21
122.999962
  0
LINE
  8
0
  6
CENTER
 62
     1
 10
62.234711
 20
121.999992
 11
107.980957
 21
121.999992
  0
LINE
  8
0
  6
CENTER
 62
     2
 10
17.499954
 20
54.733322
 11
17.499954
 21
61.199997
  0
LINE
  8
0
  6
CENTER
 62
     2
 10
20.816628
 20
57.999985
 11
14.183304
 21
57.999985
  0
LINE
  8
0
  6
CENTER
 62
     2
 10
37.999962
 20
121.999977
 11
31.999962
 21
121.999977
  0
LINE
  8
0
  6
CENTER
 62
     2
 10
34.999977
 20
117.499977
 11
34.999977
 21
126.499977
  0
LINE
  8
0
 10
-22.400021
 20
61.499985
 11
-20.000008
 21
61.499985
  0
LINE
  8
0
 10
-22.087402
 20
57.999985
 11
-20.312614
 21
57.999985
  0
LINE
  8
0
 10
-22.400024
 20
61.499985
 11
-22.400024
 21
54.499969
  0
LINE
  8
0
 10
-22.400021
 20
54.499992
 11
-20.000008
 21
54.499992
  0
LINE
  8
0
 10
-9.349993
 20
55.999985
 11
-9.349993
 21
59.999985
  0
LINE
  8
0
 10
-29.000000
 20
59.649986
 11
-29.000000
 21
56.349987
  0
LINE
  8
0
 10
-8.999992
 20
56.349983
 11
-8.999992
 21
59.649986
  0
LINE
  8
0
 10
-8.999993
 20
56.349983
 11
-9.349992
 21
55.999985
  0
LINE
  8
0
 10
-9.349983
 20
59.999989
 11
-8.999983
 21
59.649986
  0
LINE
  8
0
 10
-28.650000
 20
59.999985
 11
-28.650000
 21
55.999985
  0
LINE
  8
0
 10
-28.650003
 20
59.999985
 11
-22.400009
 21
59.999985
  0
LINE
  8
0
 62
     2
 10
-29.000000
 20
56.349995
 11
-22.400009
 21
56.349995
  0
LINE
  8
0
 62
     2
 10
-29.000000
 20
59.649998
 11
-22.400009
 21
59.649998
  0
LINE
  8
0
 10
-10.000008
 20
59.999985
 11
-9.349993
 21
59.999985
  0
LINE
  8
0
 10
-28.650000
 20
55.999985
 11
-22.400009
 21
55.999985
  0
LINE
  8
0
 10
-10.000008
 20
55.999985
 11
-9.349993
 21
55.999985
  0
LINE
  8
0
 62
     2
 10
-10.000008
 20
56.349995
 11
-8.999992
 21
56.349995
  0
LINE
  8
0
 62
     2
 10
-10.000008
 20
59.649998
 11
-8.999992
 21
59.649998
  0
LINE
  8
0
 10
-28.649996
 20
55.999973
 11
-28.999994
 21
56.349972
  0
LINE
  8
0
 10
-28.999983
 20
59.649979
 11
-28.649986
 21
59.999977
  0
LINE
  8
0
 10
83.649986
 20
59.999985
 11
83.649986
 21
55.999985
  0
LINE
  8
0
 10
83.649986
 20
59.999985
 11
77.399994
 21
59.999985
  0
LINE
  8
0
 62
     2
 10
83.999985
 20
56.349995
 11
77.399994
 21
56.349995
  0
LINE
  8
0
 62
     2
 10
83.999985
 20
59.649998
 11
77.399994
 21
59.649998
  0
LINE
  8
0
 10
64.999992
 20
59.999985
 11
64.349976
 21
59.999985
  0
LINE
  8
0
 10
83.649986
 20
55.999985
 11
77.399994
 21
55.999985
  0
LINE
  8
0
 10
64.999992
 20
55.999985
 11
64.349976
 21
55.999985
  0
LINE
  8
0
 62
     2
 10
64.999992
 20
56.349995
 11
63.999977
 21
56.349995
  0
LINE
  8
0
 62
     2
 10
64.999992
 20
59.649998
 11
63.999977
 21
59.649998
  0
LINE
  8
0
 10
83.649971
 20
55.999985
 11
83.999977
 21
56.349987
  0
LINE
  8
0
 10
83.999939
 20
59.649963
 11
83.649948
 21
59.999958
  0
LINE
  8
0
 10
83.999985
 20
59.649986
 11
83.999985
 21
56.349987
  0
LINE
  8
0
 10
64.349976
 20
55.999985
 11
64.349976
 21
59.999985
  0
LINE
  8
0
 10
64.349998
 20
59.999985
 11
64.000000
 21
59.649990
  0
LINE
  8
0
 10
63.999973
 20
56.349968
 11
64.349976
 21
55.999962
  0
LINE
  8
0
  6
PHANTOM
 62
     3
 10
2.999954
 20
31.061905
 11
2.999954
 21
153.000000
  0
LINE
  8
0
  6
PHANTOM
 62
     3
 10
26.249966
 20
31.061905
 11
26.249966
 21
143.000000
  0
LINE
  8
0
  6
PHANTOM
 62
     3
 10
43.749966
 20
31.061905
 11
43.749966
 21
133.000000
  0
LINE
  8
0
 10
-150.000015
 20
127.999992
 11
-124.500031
 21
127.999992
  0
LINE
  8
0
 10
-150.000015
 20
51.999992
 11
-124.500031
 21
51.999992
  0
LINE
  8
0
 10
-124.500008
 20
127.500000
 11
-124.000015
 21
127.000008
  0
LINE
  8
0
 10
-124.500114
 20
52.500076
 11
-124.000114
 21
53.000076
  0
LINE
  8
0
  6
CENTER
 62
     2
 10
-153.095306
 20
90.000000
 11
-121.194427
 21
90.000000
  0
LINE
  8
0
  6
CENTER
 62
     2
 10
-140.500031
 20
66.575706
 11
-140.500031
 21
57.513145
  0
LINE
  8
0
  6
CENTER
 62
     2
 10
-145.559616
 20
61.999992
 11
-136.310577
 21
61.999992
  0
LINE
  8
0
 62
     4
 10
-143.000031
 20
60.000000
 11
-142.500015
 21
60.000000
  0
LINE
  8
0
 62
     4
 10
-143.000031
 20
64.199982
 11
-143.000031
 21
59.999977
  0
LINE
  8
0
 62
     4
 10
-142.500015
 20
59.999977
 11
-142.500015
 21
59.116844
  0
LINE
  8
0
 62
     4
 10
-143.000031
 20
64.199982
 11
-137.800003
 21
64.199982
  0
LINE
  8
0
 62
     4
 10
-137.800003
 20
60.000000
 11
-137.627747
 21
60.000000
  0
LINE
  8
0
 62
     4
 10
-139.000000
 20
64.099968
 11
-139.000000
 21
60.099991
  0
LINE
  8
0
 62
     4
 10
-143.000031
 20
60.099991
 11
-138.000031
 21
60.099991
  0
LINE
  8
0
 62
     4
 10
-143.000031
 20
64.099991
 11
-138.000031
 21
64.099991
  0
LINE
  8
0
  6
CENTER
 62
     2
 10
-140.500031
 20
113.190483
 11
-140.500031
 21
122.486839
  0
LINE
  8
0
  6
CENTER
 62
     2
 10
-145.559616
 20
117.999992
 11
-136.310577
 21
117.999992
  0
LINE
  8
0
 62
     4
 10
-143.000031
 20
120.000008
 11
-142.500015
 21
120.000008
  0
LINE
  8
0
 62
     4
 10
-143.000031
 20
115.799995
 11
-143.000031
 21
120.000008
  0
LINE
  8
0
 62
     4
 10
-142.500015
 20
120.000008
 11
-142.500015
 21
120.883141
  0
LINE
  8
0
 62
     4
 10
-143.000031
 20
115.799995
 11
-137.800003
 21
115.799995
  0
LINE
  8
0
 62
     4
 10
-137.800003
 20
120.000008
 11
-137.627747
 21
120.000008
  0
LINE
  8
0
 62
     4
 10
-139.000000
 20
115.900002
 11
-139.000000
 21
119.899986
  0
LINE
  8
0
 62
     4
 10
-143.000031
 20
119.899986
 11
-138.000031
 21
119.899986
  0
LINE
  8
0
 62
     4
 10
-143.000031
 20
115.899986
 11
-138.000031
 21
115.899986
  0
LINE
  8
0
  6
CENTER
 62
     2
 10
-142.575378
 20
94.999977
 11
-135.289642
 21
94.999977
  0
LINE
  8
0
  6
CENTER
 62
     2
 10
-139.000000
 20
98.618599
 11
-139.000000
 21
91.380508
  0
LINE
  8
0
 10
-132.520767
 20
54.499947
 11
-128.479324
 21
54.499947
  0
LINE
  8
0
 10
-132.520767
 20
61.499962
 11
-128.479324
 21
61.499962
  0
LINE
  8
0
 10
-132.520966
 20
54.499840
 11
-134.541672
 21
57.999832
  0
LINE
  8
0
 10
-126.458885
 20
57.999870
 11
-128.479599
 21
61.499859
  0
LINE
  8
0
 10
-134.541428
 20
57.999825
 11
-132.520691
 21
61.499836
  0
LINE
  8
0
 10
-128.479309
 20
54.499882
 11
-126.458565
 21
57.999893
  0
LINE
  8
0
  6
CENTER
 62
     2
 10
-136.000061
 20
57.999985
 11
-125.000031
 21
57.999985
  0
LINE
  8
0
  6
CENTER
 62
     2
 10
-130.500031
 20
63.499977
 11
-130.500031
 21
52.499977
  0
LINE
  8
0
 10
-129.287552
 20
58.699974
 11
-130.499985
 21
59.399971
  0
LINE
  8
0
 10
-130.500031
 20
59.399994
 11
-131.712463
 21
58.699993
  0
LINE
  8
0
 10
-131.712585
 20
58.699974
 11
-131.712585
 21
57.299980
  0
LINE
  8
0
 10
-131.712402
 20
57.299950
 11
-130.499969
 21
56.599949
  0
LINE
  8
0
 10
-130.500275
 20
56.600487
 11
-129.287842
 21
57.300480
  0
LINE
  8
0
 10
-129.288651
 20
57.300003
 11
-129.288651
 21
58.699997
  0
LINE
  8
0
  6
CENTER
 62
     2
 10
-142.575378
 20
75.999977
 11
-135.289642
 21
75.999977
  0
LINE
  8
0
  6
CENTER
 62
     2
 10
-139.000000
 20
79.618599
 11
-139.000000
 21
72.380501
  0
LINE
  8
0
  6
CENTER
 62
     1
 10
-122.142822
 20
121.999977
 11
-138.809525
 21
121.999977
  0
LINE
  8
0
 62
     4
 10
-127.489624
 20
118.999977
 11
-133.510406
 21
118.999977
  0
LINE
  8
0
 62
     4
 10
-127.489624
 20
125.000008
 11
-133.510406
 21
125.000008
  0
LINE
  8
0
 10
-124.500031
 20
127.999992
 11
-124.500031
 21
51.999992
  0
LINE
  8
0
 62
     4
 10
-137.800003
 20
115.799995
 11
-137.800003
 21
120.000008
  0
LINE
  8
0
 62
     4
 10
-138.000031
 20
115.900002
 11
-138.000031
 21
119.899986
  0
LINE
  8
0
 62
     4
 10
-137.800003
 20
64.199982
 11
-137.800003
 21
59.999977
  0
LINE
  8
0
 62
     4
 10
-138.000031
 20
64.099968
 11
-138.000031
 21
60.099991
  0
LINE
  8
0
 10
-150.000015
 20
127.999992
 11
-150.000015
 21
51.999992
  0
LINE
  8
0
  6
CENTER
 62
     1
 10
-130.500031
 20
129.999969
 11
-130.500031
 21
113.999977
  0
LINE
  8
0
 10
-124.000015
 20
127.000008
 11
-124.000015
 21
53.000031
  0
LINE
  8
0
 62
     4
 10
-136.330887
 20
122.900597
 11
-134.195419
 21
126.599327
  0
LINE
  8
0
 62
     4
 10
-134.195419
 20
117.400665
 11
-136.330826
 21
121.099304
  0
LINE
  8
0
 62
     4
 10
-128.364655
 20
116.499916
 11
-132.635361
 21
116.499916
  0
LINE
  8
0
 62
     4
 10
-124.669182
 20
121.099174
 11
-126.804497
 21
117.400703
  0
LINE
  8
0
 62
     4
 10
-126.804420
 20
126.599281
 11
-124.669106
 21
122.900787
  0
LINE
  8
0
 62
     4
 10
-132.635437
 20
127.499931
 11
-128.364578
 21
127.499931
  0
LINE
  8
0
 10
205.999969
 20
127.999992
 11
180.499985
 21
127.999992
  0
LINE
  8
0
 10
205.999969
 20
51.999992
 11
180.499985
 21
51.999992
  0
LINE
  8
0
 10
180.499969
 20
127.500061
 11
179.999954
 21
127.000046
  0
LINE
  8
0
 10
180.499924
 20
52.499981
 11
179.999954
 21
52.999947
  0
LINE
  8
0
  6
CENTER
 62
     2
 10
209.880920
 20
90.000000
 11
175.880936
 21
90.000000
  0
LINE
  8
0
 10
188.520737
 20
54.499947
 11
184.479294
 21
54.499947
  0
LINE
  8
0
 10
188.520737
 20
61.499962
 11
184.479294
 21
61.499962
  0
LINE
  8
0
 10
188.520905
 20
54.499882
 11
190.541626
 21
57.999859
  0
LINE
  8
0
 10
182.458786
 20
57.999931
 11
184.479507
 21
61.499908
  0
LINE
  8
0
 10
190.541351
 20
57.999859
 11
188.520615
 21
61.499882
  0
LINE
  8
0
 10
184.479187
 20
54.499916
 11
182.458450
 21
57.999935
  0
LINE
  8
0
  6
CENTER
 62
     2
 10
192.000015
 20
57.999985
 11
180.999985
 21
57.999985
  0
LINE
  8
0
  6
CENTER
 62
     2
 10
186.500000
 20
63.499977
 11
186.500000
 21
52.499977
  0
LINE
  8
0
 10
185.287567
 20
58.699963
 11
186.500000
 21
59.399967
  0
LINE
  8
0
 10
186.500076
 20
59.400097
 11
187.712479
 21
58.700111
  0
LINE
  8
0
 10
187.712555
 20
58.699974
 11
187.712555
 21
57.299980
  0
LINE
  8
0
 10
187.712448
 20
57.300007
 11
186.499985
 21
56.600002
  0
LINE
  8
0
 10
186.500137
 20
56.600365
 11
185.287704
 21
57.300350
  0
LINE
  8
0
 10
185.288620
 20
57.300003
 11
185.288620
 21
58.699997
  0
LINE
  8
0
 10
205.999969
 20
127.999992
 11
205.999969
 21
51.999992
  0
LINE
  8
0
  6
CENTER
 62
     1
 10
194.857147
 20
121.999977
 11
178.190460
 21
121.999977
  0
LINE
  8
0
  6
CENTER
 62
     1
 10
186.499954
 20
129.985687
 11
186.499954
 21
114.176155
  0
LINE
  8
0
 62
     4
 10
189.510361
 20
118.999977
 11
183.489578
 21
118.999977
  0
LINE
  8
0
 62
     4
 10
189.510361
 20
125.000008
 11
183.489578
 21
125.000008
  0
LINE
  8
0
 10
180.499985
 20
127.999992
 11
180.499985
 21
51.999992
  0
LINE
  8
0
 10
179.999969
 20
127.000008
 11
179.999969
 21
53.000031
  0
LINE
  8
0
 62
     4
 10
180.669067
 20
122.900597
 11
182.804535
 21
126.599335
  0
LINE
  8
0
 62
     4
 10
182.804657
 20
117.400719
 11
180.669250
 21
121.099365
  0
LINE
  8
0
 62
     4
 10
188.635300
 20
116.499916
 11
184.364624
 21
116.499916
  0
LINE
  8
0
 62
     4
 10
192.330734
 20
121.099167
 11
190.195419
 21
117.400688
  0
LINE
  8
0
 62
     4
 10
190.195496
 20
126.599228
 11
192.330811
 21
122.900726
  0
LINE
  8
0
 62
     4
 10
184.364517
 20
127.499931
 11
188.635406
 21
127.499931
  0
LINE
  8
0
 10
-20.000015
 20
10.561913
 11
-20.000015
 21
-14.938087
  0
LINE
  8
0
 10
-10.000023
 20
10.561913
 11
-10.000023
 21
-14.938087
  0
LINE
  8
0
 10
74.999985
 20
10.561874
 11
74.999985
 21
-14.938087
  0
LINE
  8
0
 10
64.999985
 20
10.561874
 11
64.999985
 21
-14.938087
  0
LINE
  8
0
 10
-20.000015
 20
10.561913
 11
-10.000023
 21
10.561913
  0
LINE
  8
0
 10
64.999985
 20
10.561874
 11
74.999985
 21
10.561874
  0
LINE
  8
0
 10
6.999969
 20
11.061905
 11
62.999985
 21
11.061905
  0
LINE
  8
0
 10
5.999954
 20
10.061905
 11
5.999954
 21
-4.438087
  0
LINE
  8
0
 10
63.999985
 20
10.061905
 11
63.999985
 21
-4.438087
  0
LINE
  8
0
 10
5.999945
 20
10.061931
 11
6.999958
 21
11.061943
  0
LINE
  8
0
 10
64.000031
 20
10.061970
 11
63.000046
 21
11.061964
  0
LINE
  8
0
 10
5.999977
 20
-4.438087
 11
63.999985
 21
-4.438087
  0
LINE
  8
0
 10
5.999977
 20
10.061905
 11
63.999985
 21
10.061905
  0
LINE
  8
0
 10
-10.000023
 20
-7.438087
 11
64.999985
 21
-7.438087
  0
LINE
  8
0
 10
-10.000023
 20
0.061913
 11
5.999977
 21
0.061913
  0
LINE
  8
0
 10
-9.000008
 20
6.061913
 11
5.999977
 21
6.061913
  0
LINE
  8
0
 62
     4
 10
-21.500031
 20
-3.938087
 11
-20.000015
 21
-3.938087
  0
LINE
  8
0
 62
     4
 10
-23.000023
 20
-4.438087
 11
-23.000023
 21
-7.438087
  0
LINE
  8
0
 62
     4
 10
4.499969
 20
-4.438095
 11
4.499969
 21
-7.438087
  0
LINE
  8
0
 62
     4
 10
-21.500031
 20
-2.938087
 11
-21.500031
 21
-7.938087
  0
LINE
  8
0
 62
     4
 10
2.999966
 20
-3.938087
 11
2.999966
 21
-7.438087
  0
LINE
  8
0
 62
     4
 10
-21.500034
 20
-3.938087
 11
-23.000027
 21
-4.438085
  0
LINE
  8
0
 62
     1
 10
-37.258747
 20
-8.851397
 11
-36.740662
 21
-2.929636
  0
LINE
  8
0
 62
     4
 10
-58.000023
 20
-5.938087
 11
-48.000015
 21
-5.938087
  0
LINE
  8
0
 62
     4
 10
-48.000015
 20
-7.438087
 11
-37.135071
 21
-7.438087
  0
LINE
  8
0
 62
     4
 10
-48.000015
 20
-4.438095
 11
-36.872604
 21
-4.438095
  0
LINE
  8
0
 62
     4
 10
-48.000015
 20
-7.438087
 11
-48.000015
 21
-4.438087
  0
LINE
  8
0
 62
     4
 10
-36.131248
 20
-7.438087
 11
-23.000023
 21
-7.438087
  0
LINE
  8
0
 62
     4
 10
-35.868782
 20
-4.438095
 11
-23.000023
 21
-4.438095
  0
LINE
  8
0
 62
     4
 10
-58.000023
 20
-6.938087
 11
-48.000015
 21
-6.938087
  0
LINE
  8
0
 62
     4
 10
-58.000023
 20
-4.938080
 11
-48.000015
 21
-4.938080
  0
LINE
  8
0
 62
     4
 10
-58.000015
 20
-6.938087
 11
-58.000015
 21
-4.938080
  0
LINE
  8
0
 62
     1
 10
-36.260174
 20
-8.911242
 11
-35.740711
 21
-2.973787
  0
LINE
  8
0
 10
-20.000015
 20
-14.938087
 11
74.999985
 21
-14.938087
  0
LINE
  8
0
 62
     4
 10
-50.000031
 20
0.811897
 11
-50.000031
 21
8.311905
  0
LINE
  8
0
 62
     4
 10
-40.000038
 20
8.811913
 11
-49.500038
 21
8.811913
  0
LINE
  8
0
 62
     4
 10
-40.000031
 20
0.311913
 11
-49.500031
 21
0.311913
  0
LINE
  8
0
 62
     4
 10
-23.000011
 20
-0.438087
 11
-39.250015
 21
-0.438087
  0
LINE
  8
0
 62
     4
 10
-23.000011
 20
9.561897
 11
-39.250015
 21
9.561897
  0
LINE
  8
0
 62
     4
 10
-40.000015
 20
0.311905
 11
-40.000015
 21
8.811913
  0
LINE
  8
0
 62
     4
 10
-39.250046
 20
-0.438144
 11
-40.000046
 21
0.311857
  0
LINE
  8
0
 62
     4
 10
-39.250080
 20
9.561957
 11
-40.000076
 21
8.811957
  0
LINE
  8
0
 62
     4
 10
-23.000011
 20
0.061905
 11
-39.750000
 21
0.061905
  0
LINE
  8
0
 62
     4
 10
-23.000011
 20
9.061913
 11
-39.750023
 21
9.061913
  0
LINE
  8
0
 62
     4
 10
-39.250015
 20
-0.438110
 11
-39.250015
 21
9.561874
  0
LINE
  8
0
 62
     4
 10
-46.000031
 20
1.551491
 11
-46.000031
 21
7.572296
  0
LINE
  8
0
 62
     4
 10
-50.000031
 20
7.572304
 11
-46.000031
 21
7.572304
  0
LINE
  8
0
 62
     4
 10
-50.000031
 20
1.551506
 11
-46.000031
 21
1.551506
  0
LINE
  8
0
 62
     1
 10
-49.999954
 20
7.561908
 11
-45.999958
 21
1.551525
  0
LINE
  8
0
 62
     1
 10
-49.999973
 20
1.561860
 11
-45.999973
 21
7.572266
  0
LINE
  8
0
  6
CENTER
 62
     1
 10
-6.987999
 20
4.561905
 11
-52.607040
 21
4.561905
  0
LINE
  8
0
 62
     4
 10
-49.500004
 20
0.311916
 11
-50.000000
 21
0.811914
  0
LINE
  8
0
 62
     4
 10
-50.000072
 20
8.311930
 11
-49.500080
 21
8.811926
  0
LINE
  8
0
 62
     4
 10
-49.500031
 20
0.311905
 11
-49.500031
 21
1.551491
  0
LINE
  8
0
 62
     4
 10
-49.500031
 20
7.572296
 11
-49.500031
 21
8.811897
  0
LINE
  8
0
 62
     4
 10
105.000031
 20
0.811897
 11
105.000031
 21
8.311905
  0
LINE
  8
0
 62
     4
 10
95.000000
 20
8.811905
 11
104.500015
 21
8.811905
  0
LINE
  8
0
 62
     4
 10
95.000000
 20
0.311913
 11
104.500015
 21
0.311913
  0
LINE
  8
0
 62
     4
 10
77.999985
 20
-0.438087
 11
94.249985
 21
-0.438087
  0
LINE
  8
0
 62
     4
 10
77.999985
 20
9.561897
 11
94.249985
 21
9.561897
  0
LINE
  8
0
 62
     4
 10
95.000000
 20
0.311905
 11
95.000000
 21
8.811905
  0
LINE
  8
0
 62
     4
 10
94.250084
 20
-0.438206
 11
95.000084
 21
0.311784
  0
LINE
  8
0
 62
     4
 10
94.250122
 20
9.562010
 11
95.000122
 21
8.812007
  0
LINE
  8
0
 62
     1
 10
77.999985
 20
0.061905
 11
94.749969
 21
0.061905
  0
LINE
  8
0
 62
     1
 10
77.999985
 20
9.061913
 11
94.750000
 21
9.061913
  0
LINE
  8
0
 62
     4
 10
94.249985
 20
-0.438110
 11
94.249985
 21
9.561874
  0
LINE
  8
0
 62
     4
 10
101.000000
 20
1.551491
 11
101.000000
 21
7.572296
  0
LINE
  8
0
 62
     4
 10
105.000031
 20
7.572311
 11
101.000000
 21
7.572311
  0
LINE
  8
0
 62
     4
 10
105.000031
 20
1.551506
 11
101.000000
 21
1.551506
  0
LINE
  8
0
 62
     1
 10
104.999908
 20
7.561915
 11
100.999893
 21
1.551509
  0
LINE
  8
0
 62
     1
 10
104.999931
 20
1.561849
 11
100.999947
 21
7.572258
  0
LINE
  8
0
  6
CENTER
 62
     1
 10
61.987961
 20
4.561905
 11
107.607010
 21
4.561905
  0
LINE
  8
0
 62
     4
 10
104.499931
 20
0.311955
 11
104.999908
 21
0.811967
  0
LINE
  8
0
 62
     4
 10
104.999977
 20
8.311843
 11
104.499992
 21
8.811844
  0
LINE
  8
0
 62
     4
 10
104.500015
 20
0.311905
 11
104.500015
 21
1.551491
  0
LINE
  8
0
 62
     4
 10
104.500015
 20
7.572296
 11
104.500015
 21
8.811897
  0
LINE
  8
0
 62
     4
 10
-21.500032
 20
-7.938066
 11
-23.000032
 21
-7.438066
  0
LINE
  8
0
 62
     4
 10
-23.000031
 20
-0.938139
 11
-22.769108
 21
-1.338119
  0
LINE
  8
0
 62
     4
 10
-19.999992
 20
-0.938097
 11
-20.230936
 21
-1.338099
  0
LINE
  8
0
 62
     4
 10
-22.769073
 20
-1.338104
 11
-20.230957
 21
-1.338104
  0
LINE
  8
0
 62
     4
 10
-22.769073
 20
-1.268951
 11
-20.230957
 21
-1.268951
  0
LINE
  8
0
 62
     4
 10
-22.769073
 20
-1.338104
 11
-22.769073
 21
-1.268951
  0
LINE
  8
0
 62
     4
 10
-20.230957
 20
-1.268951
 11
-20.230957
 21
-1.338104
  0
LINE
  8
0
 62
     4
 10
77.769043
 20
10.461906
 11
75.230911
 21
10.461906
  0
LINE
  8
0
 62
     4
 10
77.769043
 20
10.392761
 11
75.230911
 21
10.392761
  0
LINE
  8
0
 62
     4
 10
77.769043
 20
10.461906
 11
77.769043
 21
10.392761
  0
LINE
  8
0
 62
     4
 10
75.230911
 20
10.392761
 11
75.230911
 21
10.461906
  0
LINE
  8
0
 62
     4
 10
-10.000023
 20
-3.938087
 11
2.999966
 21
-3.938087
  0
LINE
  8
0
 62
     4
 10
-21.500031
 20
-2.938087
 11
-20.000015
 21
-2.938087
  0
LINE
  8
0
 62
     4
 10
-10.000023
 20
-2.938087
 11
-1.500046
 21
-2.938087
  0
LINE
  8
0
 62
     4
 10
-1.500046
 20
-2.938087
 11
-1.500046
 21
-3.938087
  0
LINE
  8
0
 62
     4
 10
4.499962
 20
-4.438105
 11
2.999964
 21
-3.938102
  0
LINE
  8
0
 62
     4
 10
-21.500031
 20
-7.938080
 11
-20.000015
 21
-7.938080
  0
LINE
  8
0
 10
-10.000023
 20
-2.738091
 11
5.999954
 21
-2.738091
  0
LINE
  8
0
 10
63.999985
 20
-2.738091
 11
64.999985
 21
-2.738091
  0
LINE
  8
0
 10
-9.000004
 20
4.061913
 11
5.999977
 21
4.061913
  0
LINE
  8
0
 10
-22.087410
 20
8.603363
 11
-20.312614
 21
8.603363
  0
LINE
  8
0
 10
-22.400122
 20
8.061950
 11
-22.087515
 21
8.603400
  0
LINE
  8
0
 10
-22.400024
 20
8.061913
 11
-22.400024
 21
1.061913
  0
LINE
  8
0
 10
-22.087402
 20
6.582642
 11
-20.312614
 21
6.582642
  0
LINE
  8
0
 10
-22.087410
 20
2.541183
 11
-20.312614
 21
2.541183
  0
LINE
  8
0
 10
-22.087410
 20
0.520462
 11
-20.312614
 21
0.520462
  0
LINE
  8
0
 10
-22.400074
 20
1.061874
 11
-22.087471
 21
0.520430
  0
LINE
  8
0
 10
-20.000107
 20
1.061932
 11
-20.312706
 21
0.520495
  0
LINE
  8
0
 10
-20.000084
 20
8.061872
 11
-20.312687
 21
8.603316
  0
LINE
  8
0
 62
     4
 10
-22.999996
 20
-0.938095
 11
-22.999996
 21
2.561913
  0
LINE
  8
0
 62
     4
 10
-22.769070
 20
10.461906
 11
-20.230953
 21
10.461906
  0
LINE
  8
0
 62
     4
 10
-20.000040
 20
10.061905
 11
-20.230982
 21
10.461907
  0
LINE
  8
0
 62
     4
 10
-23.000015
 20
10.061962
 11
-22.769093
 21
10.461931
  0
LINE
  8
0
 62
     4
 10
-22.769073
 20
6.697357
 11
-22.400024
 21
6.697357
  0
LINE
  8
0
 62
     4
 10
-22.769073
 20
8.257416
 11
-22.287254
 21
8.257416
  0
LINE
  8
0
 62
     4
 10
-22.769073
 20
0.866516
 11
-22.287270
 21
0.866516
  0
LINE
  8
0
 62
     4
 10
-22.769073
 20
2.426468
 11
-22.400024
 21
2.426468
  0
LINE
  8
0
 62
     4
 10
-22.769070
 20
10.392738
 11
-20.230953
 21
10.392738
  0
LINE
  8
0
 62
     4
 10
-22.769073
 20
0.866516
 11
-22.769073
 21
2.426468
  0
LINE
  8
0
 62
     4
 10
-22.769073
 20
6.697357
 11
-22.769073
 21
8.257416
  0
LINE
  8
0
 62
     4
 10
-22.769073
 20
10.392738
 11
-22.769073
 21
10.461906
  0
LINE
  8
0
 62
     4
 10
-20.230957
 20
10.392738
 11
-20.230957
 21
10.461906
  0
LINE
  8
0
 62
     4
 10
-22.999996
 20
6.561905
 11
-22.999996
 21
10.061928
  0
LINE
  8
0
 10
-28.650015
 20
6.561905
 11
-28.650015
 21
2.561905
  0
LINE
  8
0
 10
-28.650019
 20
6.561905
 11
-22.400024
 21
6.561905
  0
LINE
  8
0
 62
     2
 10
-29.000015
 20
2.911915
 11
-22.400024
 21
2.911915
  0
LINE
  8
0
 62
     2
 10
-29.000015
 20
6.211918
 11
-22.400024
 21
6.211918
  0
LINE
  8
0
 10
-10.000023
 20
6.561905
 11
-9.350008
 21
6.561905
  0
LINE
  8
0
 10
-28.650015
 20
2.561905
 11
-22.400024
 21
2.561905
  0
LINE
  8
0
 10
-10.000023
 20
2.561905
 11
-9.350008
 21
2.561905
  0
LINE
  8
0
 62
     2
 10
-10.000023
 20
2.911915
 11
-9.000008
 21
2.911915
  0
LINE
  8
0
 62
     2
 10
-10.000023
 20
6.211918
 11
-9.000008
 21
6.211918
  0
LINE
  8
0
 10
-28.650011
 20
2.561904
 11
-29.000011
 21
2.911906
  0
LINE
  8
0
 10
-29.000006
 20
6.211896
 11
-28.650009
 21
6.561894
  0
LINE
  8
0
 10
-29.000015
 20
6.211906
 11
-29.000015
 21
2.911907
  0
LINE
  8
0
 10
-9.350008
 20
2.561905
 11
-9.350008
 21
6.561905
  0
LINE
  8
0
 10
-9.000008
 20
2.911903
 11
-9.000008
 21
6.211906
  0
LINE
  8
0
 10
-9.350004
 20
6.561915
 11
-9.000004
 21
6.211915
  0
LINE
  8
0
 10
-9.000010
 20
2.911898
 11
-9.350008
 21
2.561900
  0
LINE
  8
0
 10
63.999985
 20
0.061913
 11
64.999985
 21
0.061913
  0
LINE
  8
0
 10
77.087357
 20
0.520454
 11
75.312561
 21
0.520454
  0
LINE
  8
0
 10
77.400063
 20
1.061863
 11
77.087456
 21
0.520413
  0
LINE
  8
0
 10
77.399994
 20
1.061905
 11
77.399994
 21
8.061905
  0
LINE
  8
0
 10
77.087357
 20
2.541176
 11
75.312561
 21
2.541176
  0
LINE
  8
0
 10
77.087357
 20
6.582642
 11
75.312561
 21
6.582642
  0
LINE
  8
0
 10
77.087357
 20
8.603355
 11
75.312561
 21
8.603355
  0
LINE
  8
0
 10
77.400078
 20
8.061967
 11
77.087471
 21
8.603417
  0
LINE
  8
0
 10
75.000107
 20
8.061868
 11
75.312721
 21
8.603335
  0
LINE
  8
0
 10
75.000061
 20
1.061959
 11
75.312668
 21
0.520508
  0
LINE
  8
0
 62
     4
 10
77.999969
 20
10.061905
 11
77.999969
 21
6.561905
  0
LINE
  8
0
 62
     4
 10
77.769043
 20
-1.338104
 11
75.230911
 21
-1.338104
  0
LINE
  8
0
 62
     4
 10
75.000008
 20
-0.938103
 11
75.230949
 21
-1.338106
  0
LINE
  8
0
 62
     4
 10
78.000031
 20
-0.938160
 11
77.769112
 21
-1.338124
  0
LINE
  8
0
 62
     4
 10
77.999954
 20
10.061934
 11
77.769035
 21
10.461913
  0
LINE
  8
0
 62
     4
 10
75.000008
 20
10.061889
 11
75.230949
 21
10.461891
  0
LINE
  8
0
 62
     4
 10
77.769043
 20
2.426453
 11
77.399994
 21
2.426453
  0
LINE
  8
0
 62
     4
 10
77.769043
 20
0.866394
 11
77.287201
 21
0.866394
  0
LINE
  8
0
 62
     4
 10
77.769043
 20
8.257294
 11
77.287231
 21
8.257294
  0
LINE
  8
0
 62
     4
 10
77.769043
 20
6.697342
 11
77.399994
 21
6.697342
  0
LINE
  8
0
 62
     4
 10
77.769043
 20
-1.268936
 11
75.230911
 21
-1.268936
  0
LINE
  8
0
 62
     4
 10
77.769043
 20
8.257294
 11
77.769043
 21
6.697350
  0
LINE
  8
0
 62
     4
 10
77.769043
 20
2.426453
 11
77.769043
 21
0.866402
  0
LINE
  8
0
 62
     4
 10
77.769043
 20
-1.268929
 11
77.769043
 21
-1.338097
  0
LINE
  8
0
 62
     4
 10
75.230911
 20
-1.268936
 11
75.230911
 21
-1.338104
  0
LINE
  8
0
 62
     4
 10
77.999969
 20
2.561913
 11
77.999969
 21
-0.938118
  0
LINE
  8
0
 10
83.649994
 20
6.561905
 11
83.649994
 21
2.561905
  0
LINE
  8
0
 10
83.649994
 20
6.561905
 11
77.400002
 21
6.561905
  0
LINE
  8
0
 62
     2
 10
83.999992
 20
2.911915
 11
77.400002
 21
2.911915
  0
LINE
  8
0
 62
     2
 10
83.999992
 20
6.211918
 11
77.400002
 21
6.211918
  0
LINE
  8
0
 10
83.649994
 20
2.561905
 11
77.400002
 21
2.561905
  0
LINE
  8
0
 10
83.649979
 20
2.561911
 11
83.999985
 21
2.911917
  0
LINE
  8
0
 10
83.999954
 20
6.211871
 11
83.649963
 21
6.561871
  0
LINE
  8
0
 10
83.999992
 20
6.211906
 11
83.999992
 21
2.911907
  0
LINE
  8
0
 10
64.349976
 20
2.561905
 11
64.349976
 21
6.561905
  0
LINE
  8
0
 10
64.349998
 20
6.561902
 11
63.999996
 21
6.211903
  0
LINE
  8
0
 10
64.999992
 20
6.561905
 11
64.349976
 21
6.561905
  0
LINE
  8
0
 62
     2
 10
64.999992
 20
6.211918
 11
63.999977
 21
6.211918
  0
LINE
  8
0
 62
     2
 10
64.999992
 20
2.911915
 11
63.999977
 21
2.911915
  0
LINE
  8
0
 10
64.999992
 20
2.561905
 11
64.349976
 21
2.561905
  0
LINE
  8
0
 10
63.999966
 20
2.911893
 11
64.349968
 21
2.561894
  0
LINE
  8
0
  6
CENTER
 62
     2
 10
-15.000019
 20
-7.438087
 11
-15.000019
 21
-20.543047
  0
LINE
  8
0
  6
CENTER
 62
     2
 10
69.999985
 20
-7.438087
 11
69.999985
 21
-20.543047
  0
LINE
  8
0
  6
PHANTOM
 62
     3
 10
26.249966
 20
-34.938087
 11
26.249966
 21
31.061905
  0
LINE
  8
0
  6
PHANTOM
 62
     3
 10
2.999954
 20
31.061905
 11
4.999954
 21
31.061905
  0
LINE
  8
0
  6
PHANTOM
 62
     3
 10
2.999969
 20
-34.938087
 11
4.999954
 21
-34.938087
  0
LINE
  8
0
  6
PHANTOM
 62
     3
 10
4.999954
 20
31.061905
 11
4.999954
 21
-34.938087
  0
LINE
  8
0
  6
PHANTOM
 62
     3
 10
26.249966
 20
-34.938087
 11
38.749954
 21
-34.938087
  0
LINE
  8
0
  6
PHANTOM
 62
     3
 10
43.749966
 20
-34.938087
 11
43.749966
 21
31.061905
  0
LINE
  8
0
 10
-22.400002
 20
-59.499985
 11
-19.999992
 21
-59.499985
  0
LINE
  8
0
 10
-22.087387
 20
-62.999969
 11
-20.312599
 21
-62.999969
  0
LINE
  8
0
 10
-22.400009
 20
-59.499985
 11
-22.400009
 21
-65.399963
  0
LINE
  8
0
 10
64.999969
 20
-63.999969
 11
-10.000050
 21
-63.999969
  0
LINE
  8
0
 10
64.999969
 20
-125.999985
 11
-10.000031
 21
-125.999985
  0
LINE
  8
0
 10
64.999969
 20
-132.999969
 11
64.999969
 21
-56.999985
  0
LINE
  8
0
 10
-10.000050
 20
-132.999969
 11
-10.000050
 21
-56.999985
  0
LINE
  8
0
  6
CENTER
 62
     2
 10
77.620590
 20
-95.000000
 11
-23.137947
 21
-95.000000
  0
LINE
  8
0
  6
CENTER
 62
     2
 10
58.752045
 20
-72.999969
 11
51.524918
 21
-72.999969
  0
LINE
  8
0
  6
CENTER
 62
     2
 10
54.999954
 20
-76.414856
 11
54.999954
 21
-69.728531
  0
LINE
  8
0
  6
CENTER
 62
     2
 10
58.752045
 20
-116.999969
 11
51.524918
 21
-116.999969
  0
LINE
  8
0
  6
CENTER
 62
     2
 10
-0.000050
 20
-120.414856
 11
-0.000050
 21
-113.728516
  0
LINE
  8
0
  6
CENTER
 62
     2
 10
54.999969
 20
-120.414856
 11
54.999969
 21
-113.728516
  0
LINE
  8
0
 10
75.000000
 20
-56.999985
 11
75.000000
 21
-132.999969
  0
LINE
  8
0
 10
75.000000
 20
-132.999954
 11
64.999954
 21
-132.999954
  0
LINE
  8
0
 10
75.000000
 20
-56.999985
 11
64.999954
 21
-56.999985
  0
LINE
  8
0
 10
-10.000050
 20
-56.999985
 11
-20.000000
 21
-56.999985
  0
LINE
  8
0
 10
-10.000050
 20
-132.999954
 11
-20.000000
 21
-132.999954
  0
LINE
  8
0
 10
77.399963
 20
-59.499985
 11
74.999954
 21
-59.499985
  0
LINE
  8
0
 10
77.087357
 20
-62.999969
 11
75.312561
 21
-62.999969
  0
LINE
  8
0
 10
77.399963
 20
-59.499985
 11
77.399963
 21
-66.500000
  0
LINE
  8
0
 10
77.399963
 20
-66.500000
 11
74.999954
 21
-66.500000
  0
LINE
  8
0
 10
63.999954
 20
-62.999969
 11
63.999954
 21
-61.599976
  0
LINE
  8
0
 62
     1
 10
-37.258774
 20
-119.986687
 11
-36.740688
 21
-125.908455
  0
LINE
  8
0
 62
     4
 10
-58.000015
 20
-122.899994
 11
-48.000015
 21
-122.899994
  0
LINE
  8
0
 62
     4
 10
-48.000015
 20
-121.399994
 11
-37.135071
 21
-121.399994
  0
LINE
  8
0
 62
     4
 10
-48.000015
 20
-124.399948
 11
-36.872597
 21
-124.399948
  0
LINE
  8
0
 62
     4
 10
-48.000015
 20
-121.399994
 11
-48.000015
 21
-124.399963
  0
LINE
  8
0
 62
     4
 10
-36.131241
 20
-121.399963
 11
-20.000000
 21
-121.399963
  0
LINE
  8
0
 62
     4
 10
-35.868774
 20
-124.399963
 11
-20.000000
 21
-124.399963
  0
LINE
  8
0
 62
     4
 10
-58.000015
 20
-121.899963
 11
-48.000015
 21
-121.899963
  0
LINE
  8
0
 62
     4
 10
-58.000015
 20
-123.899994
 11
-48.000015
 21
-123.899994
  0
LINE
  8
0
 62
     4
 10
-58.000008
 20
-121.899994
 11
-58.000008
 21
-123.899994
  0
LINE
  8
0
 62
     1
 10
-36.260078
 20
-119.926834
 11
-35.740620
 21
-125.864296
  0
LINE
  8
0
 62
     1
 10
-37.258690
 20
-64.186668
 11
-36.740604
 21
-70.108414
  0
LINE
  8
0
 62
     4
 10
-58.000008
 20
-67.099976
 11
-48.000000
 21
-67.099976
  0
LINE
  8
0
 62
     4
 10
-48.000000
 20
-65.599960
 11
-37.135056
 21
-65.599960
  0
LINE
  8
0
 62
     4
 10
-48.000000
 20
-68.599976
 11
-36.872589
 21
-68.599976
  0
LINE
  8
0
 62
     4
 10
-48.000000
 20
-65.599991
 11
-48.000000
 21
-68.599976
  0
LINE
  8
0
 62
     4
 10
-36.131233
 20
-65.599960
 11
-23.000008
 21
-65.599960
  0
LINE
  8
0
 62
     4
 10
-35.868767
 20
-68.599976
 11
-23.000008
 21
-68.599976
  0
LINE
  8
0
 62
     4
 10
-58.000008
 20
-66.099976
 11
-48.000000
 21
-66.099976
  0
LINE
  8
0
 62
     4
 10
-58.000008
 20
-68.099991
 11
-48.000000
 21
-68.099991
  0
LINE
  8
0
 62
     4
 10
-58.000000
 20
-66.099976
 11
-58.000000
 21
-68.099991
  0
LINE
  8
0
 62
     1
 10
-36.260082
 20
-64.126846
 11
-35.740623
 21
-70.064293
  0
LINE
  8
0
 10
-20.000000
 20
-56.999985
 11
-20.000000
 21
-132.999954
  0
LINE
  8
0
  6
CENTER
 62
     2
 10
70.000000
 20
-69.453186
 11
70.000000
 21
-76.687332
  0
LINE
  8
0
  6
CENTER
 62
     2
 10
73.738480
 20
-73.000015
 11
66.205826
 21
-73.000015
  0
LINE
  8
0
  6
CENTER
 62
     2
 10
-15.000031
 20
-69.453140
 11
-15.000031
 21
-76.687302
  0
LINE
  8
0
  6
CENTER
 62
     2
 10
-11.261536
 20
-72.999969
 11
-18.794189
 21
-72.999969
  0
LINE
  8
0
  6
CENTER
 62
     2
 10
-15.000031
 20
-113.453140
 11
-15.000031
 21
-120.687286
  0
LINE
  8
0
  6
CENTER
 62
     2
 10
-11.261536
 20
-116.999969
 11
-18.794189
 21
-116.999969
  0
LINE
  8
0
  6
CENTER
 62
     2
 10
70.000015
 20
-113.453186
 11
70.000015
 21
-120.687332
  0
LINE
  8
0
  6
CENTER
 62
     2
 10
73.738510
 20
-117.000031
 11
66.205856
 21
-117.000031
  0
LINE
  8
0
 10
64.999969
 20
-101.999969
 11
-10.000050
 21
-101.999969
  0
LINE
  8
0
 10
64.999969
 20
-87.999969
 11
-10.000050
 21
-87.999969
  0
LINE
  8
0
 10
64.999969
 20
-102.500000
 11
-10.000050
 21
-102.500000
  0
LINE
  8
0
 10
64.999969
 20
-87.499985
 11
-10.000050
 21
-87.499985
  0
LINE
  8
0
 10
64.999969
 20
-77.499985
 11
-10.000050
 21
-77.499985
  0
LINE
  8
0
 10
64.999969
 20
-112.500000
 11
-10.000050
 21
-112.500000
  0
LINE
  8
0
 10
64.999969
 20
-112.999969
 11
-10.000050
 21
-112.999969
  0
LINE
  8
0
 10
64.999969
 20
-76.999985
 11
-10.000050
 21
-76.999985
  0
LINE
  8
0
 10
63.999985
 20
-132.999969
 11
63.999985
 21
-126.999985
  0
LINE
  8
0
 10
5.999969
 20
-132.999969
 11
5.999969
 21
-125.999985
  0
LINE
  8
0
 10
63.999985
 20
-132.999969
 11
5.999969
 21
-132.999969
  0
LINE
  8
0
 10
63.999985
 20
-56.999985
 11
5.999969
 21
-56.999985
  0
LINE
  8
0
 10
5.999969
 20
-63.999969
 11
5.999969
 21
-56.999985
  0
LINE
  8
0
 10
63.999985
 20
-63.999969
 11
63.999985
 21
-56.999985
  0
LINE
  8
0
 62
     4
 10
-22.999996
 20
-131.999985
 11
-39.250000
 21
-131.999985
  0
LINE
  8
0
 62
     4
 10
-50.000008
 20
-130.000000
 11
-50.000008
 21
-123.999954
  0
LINE
  8
0
 62
     4
 10
-46.000008
 20
-131.250000
 11
-46.000008
 21
-130.000000
  0
LINE
  8
0
 62
     4
 10
-46.000000
 20
-129.999969
 11
-50.000008
 21
-129.999969
  0
LINE
  8
0
 62
     4
 10
-40.000008
 20
-131.249969
 11
-46.000000
 21
-131.249969
  0
LINE
  8
0
 62
     4
 10
-40.000000
 20
-131.250000
 11
-40.000000
 21
-124.399948
  0
LINE
  8
0
 62
     4
 10
-39.250149
 20
-132.000092
 11
-40.000149
 21
-131.250092
  0
LINE
  8
0
 62
     4
 10
-22.999996
 20
-131.500000
 11
-39.749985
 21
-131.500000
  0
LINE
  8
0
 62
     4
 10
-39.250000
 20
-132.000000
 11
-39.250000
 21
-124.399948
  0
LINE
  8
0
  6
CENTER
 62
     1
 10
-0.053215
 20
-126.999969
 11
-52.980965
 21
-126.999969
  0
LINE
  8
0
 62
     4
 10
-2.500027
 20
-128.499985
 11
-10.000050
 21
-128.499985
  0
LINE
  8
0
 62
     4
 10
-2.500045
 20
-128.499954
 11
-2.000056
 21
-127.999954
  0
LINE
  8
0
 62
     4
 10
-2.500050
 20
-128.499985
 11
-2.500050
 21
-125.999985
  0
LINE
  8
0
 62
     4
 10
-1.999779
 20
-125.999985
 11
-1.999779
 21
-127.999969
  0
LINE
  8
0
 62
     4
 10
-49.500015
 20
-130.000000
 11
-49.500015
 21
-123.999954
  0
LINE
  8
0
 62
     4
 10
78.000000
 20
-121.999969
 11
94.250000
 21
-121.999969
  0
LINE
  8
0
 62
     4
 10
78.000000
 20
-131.999969
 11
94.250000
 21
-131.999969
  0
LINE
  8
0
 62
     4
 10
105.000015
 20
-123.999954
 11
105.000015
 21
-129.999969
  0
LINE
  8
0
 62
     4
 10
101.000015
 20
-122.749954
 11
101.000015
 21
-123.999954
  0
LINE
  8
0
 62
     4
 10
101.000015
 20
-123.999954
 11
105.000015
 21
-123.999954
  0
LINE
  8
0
 62
     4
 10
101.000015
 20
-129.999969
 11
105.000015
 21
-129.999969
  0
LINE
  8
0
 62
     4
 10
95.000015
 20
-131.249969
 11
101.000015
 21
-131.249969
  0
LINE
  8
0
 62
     4
 10
95.000015
 20
-122.749954
 11
101.000015
 21
-122.749954
  0
LINE
  8
0
 62
     4
 10
95.000000
 20
-122.749954
 11
95.000000
 21
-131.249969
  0
LINE
  8
0
 62
     4
 10
94.250053
 20
-122.000046
 11
95.000061
 21
-122.750046
  0
LINE
  8
0
 62
     4
 10
94.250191
 20
-132.000198
 11
95.000191
 21
-131.250198
  0
LINE
  8
0
 62
     1
 10
78.000000
 20
-122.499969
 11
94.749985
 21
-122.499969
  0
LINE
  8
0
 62
     1
 10
78.000000
 20
-131.499954
 11
94.750015
 21
-131.499954
  0
LINE
  8
0
 62
     4
 10
94.250000
 20
-121.999969
 11
94.250000
 21
-131.999969
  0
LINE
  8
0
 62
     4
 10
101.000015
 20
-129.999969
 11
101.000015
 21
-131.249969
  0
LINE
  8
0
 62
     4
 10
64.499969
 20
-128.499985
 11
64.999969
 21
-128.499985
  0
LINE
  8
0
 62
     4
 10
63.999969
 20
-128.000000
 11
64.499962
 21
-128.499985
  0
LINE
  8
0
 62
     4
 10
64.499969
 20
-125.999985
 11
64.499969
 21
-128.499985
  0
LINE
  8
0
 10
63.999695
 20
-128.000000
 11
63.999695
 21
-125.999985
  0
LINE
  8
0
 62
     4
 10
104.500015
 20
-123.999954
 11
104.500015
 21
-129.999969
  0
LINE
  8
0
 62
     4
 10
-48.000015
 20
-123.999954
 11
-50.000008
 21
-123.999954
  0
LINE
  8
0
 10
25.499962
 20
-115.999969
 11
25.499962
 21
-117.999969
  0
LINE
  8
0
 10
29.499962
 20
-115.999969
 11
29.499962
 21
-117.999969
  0
LINE
  8
0
  6
CENTER
 62
     2
 10
61.999969
 20
-91.499969
 11
61.999969
 21
-98.499985
  0
LINE
  8
0
 62
     4
 10
-21.500015
 20
-65.099976
 11
-20.000000
 21
-65.099976
  0
LINE
  8
0
 62
     4
 10
-21.500015
 20
-65.099976
 11
-21.500015
 21
-69.099976
  0
LINE
  8
0
 62
     4
 10
-21.500000
 20
-65.099945
 11
-23.000000
 21
-65.599953
  0
LINE
  8
0
 62
     4
 10
-23.000008
 20
-65.599960
 11
-23.000008
 21
-68.599976
  0
LINE
  8
0
 62
     4
 10
-21.500017
 20
-69.099884
 11
-23.000015
 21
-68.599884
  0
LINE
  8
0
 62
     4
 10
-21.500015
 20
-69.099960
 11
-20.000000
 21
-69.099960
  0
LINE
  8
0
 62
     4
 10
-23.000000
 20
-132.499939
 11
-23.000000
 21
-124.399963
  0
LINE
  8
0
 62
     4
 10
-20.000000
 20
-132.499939
 11
-23.000000
 21
-132.499939
  0
LINE
  8
0
 62
     4
 10
-20.230896
 20
-131.599213
 11
-22.769104
 21
-131.599213
  0
LINE
  8
0
 62
     4
 10
-20.230896
 20
-126.099182
 11
-22.769104
 21
-126.099182
  0
LINE
  8
0
 62
     4
 10
-20.230896
 20
-127.900726
 11
-22.769104
 21
-127.900726
  0
LINE
  8
0
 62
     4
 10
-20.230881
 20
-127.900726
 11
-20.230881
 21
-126.099182
  0
LINE
  8
0
 62
     4
 10
-22.769104
 20
-127.900726
 11
-22.769104
 21
-126.099182
  0
LINE
  8
0
 62
     4
 10
-20.230881
 20
-132.499939
 11
-20.230881
 21
-131.599213
  0
LINE
  8
0
 62
     4
 10
-22.769104
 20
-131.599213
 11
-22.769104
 21
-132.499939
  0
LINE
  8
0
 62
     4
 10
77.999985
 20
-121.500000
 11
77.999985
 21
-132.500000
  0
LINE
  8
0
 62
     4
 10
75.000000
 20
-121.500000
 11
77.999985
 21
-121.500000
  0
LINE
  8
0
 62
     4
 10
75.000000
 20
-132.500000
 11
77.999985
 21
-132.500000
  0
LINE
  8
0
 62
     4
 10
75.230881
 20
-122.400726
 11
77.769089
 21
-122.400726
  0
LINE
  8
0
 62
     4
 10
75.230881
 20
-131.599243
 11
77.769089
 21
-131.599243
  0
LINE
  8
0
 62
     4
 10
75.230881
 20
-127.900726
 11
77.769089
 21
-127.900726
  0
LINE
  8
0
 62
     4
 10
75.230881
 20
-126.099213
 11
77.769089
 21
-126.099213
  0
LINE
  8
0
 62
     4
 10
75.230865
 20
-126.099213
 11
75.230865
 21
-127.900726
  0
LINE
  8
0
 62
     4
 10
77.769089
 20
-126.099213
 11
77.769089
 21
-127.900726
  0
LINE
  8
0
 62
     4
 10
75.230865
 20
-121.500000
 11
75.230865
 21
-122.400726
  0
LINE
  8
0
 62
     4
 10
77.769089
 20
-122.400726
 11
77.769089
 21
-121.500000
  0
LINE
  8
0
 62
     4
 10
75.230865
 20
-131.599213
 11
75.230865
 21
-132.500000
  0
LINE
  8
0
 62
     4
 10
77.769089
 20
-131.599213
 11
77.769089
 21
-132.500000
  0
LINE
  8
0
  6
CENTER
 62
     1
 10
62.234726
 20
-126.999969
 11
107.980972
 21
-126.999969
  0
LINE
  8
0
  6
CENTER
 62
     2
 10
30.499939
 20
-116.999969
 11
24.499939
 21
-116.999969
  0
LINE
  8
0
  6
CENTER
 62
     2
 10
27.499954
 20
-121.499969
 11
27.499954
 21
-112.499969
  0
LINE
  8
0
  6
CENTER
 62
     2
 10
-0.000050
 20
-76.414856
 11
-0.000050
 21
-69.728531
  0
LINE
  8
0
  6
CENTER
 62
     2
 10
3.752045
 20
-72.999969
 11
-3.475086
 21
-72.999969
  0
LINE
  8
0
  6
CENTER
 62
     2
 10
27.499954
 20
-76.414856
 11
27.499954
 21
-69.728531
  0
LINE
  8
0
  6
CENTER
 62
     2
 10
31.252045
 20
-72.999969
 11
24.024918
 21
-72.999969
  0
LINE
  8
0
  6
CENTER
 62
     2
 10
3.752045
 20
-116.999969
 11
-3.475086
 21
-116.999969
  0
LINE
  8
0
 10
-28.650000
 20
-60.999969
 11
-28.650000
 21
-64.999969
  0
LINE
  8
0
 10
-28.650003
 20
-60.999969
 11
-22.400009
 21
-60.999969
  0
LINE
  8
0
 62
     2
 10
-29.000000
 20
-64.649963
 11
-22.400009
 21
-64.649963
  0
LINE
  8
0
 62
     2
 10
-29.000000
 20
-61.349960
 11
-22.400009
 21
-61.349960
  0
LINE
  8
0
 10
-10.000008
 20
-60.999969
 11
-9.349993
 21
-60.999969
  0
LINE
  8
0
 10
-28.650000
 20
-64.999969
 11
-22.400009
 21
-64.999969
  0
LINE
  8
0
 62
     2
 10
-10.000008
 20
-61.349960
 11
-8.999992
 21
-61.349960
  0
LINE
  8
0
 10
-28.649981
 20
-64.999962
 11
-28.999983
 21
-64.649963
  0
LINE
  8
0
 10
-29.000006
 20
-61.349979
 11
-28.650013
 21
-60.999989
  0
LINE
  8
0
 10
-29.000000
 20
-61.349968
 11
-29.000000
 21
-64.649963
  0
LINE
  8
0
 10
-9.349993
 20
-63.999969
 11
-9.349993
 21
-60.999969
  0
LINE
  8
0
 10
-8.999992
 20
-63.999969
 11
-8.999992
 21
-61.349968
  0
LINE
  8
0
 10
-9.349993
 20
-60.999977
 11
-8.999991
 21
-61.349979
  0
LINE
  8
0
 10
83.650009
 20
-60.999969
 11
83.650009
 21
-64.999969
  0
LINE
  8
0
 10
83.650009
 20
-60.999969
 11
77.400017
 21
-60.999969
  0
LINE
  8
0
 62
     2
 10
84.000008
 20
-64.649963
 11
77.400017
 21
-64.649963
  0
LINE
  8
0
 62
     2
 10
84.000008
 20
-61.349960
 11
77.400017
 21
-61.349960
  0
LINE
  8
0
 10
83.650009
 20
-64.999969
 11
77.400017
 21
-64.999969
  0
LINE
  8
0
 10
83.649971
 20
-64.999947
 11
83.999977
 21
-64.649940
  0
LINE
  8
0
 10
83.999985
 20
-61.350002
 11
83.649994
 21
-61.000015
  0
LINE
  8
0
 10
84.000008
 20
-61.349968
 11
84.000008
 21
-64.649963
  0
LINE
  8
0
 10
64.349991
 20
-63.999969
 11
64.349991
 21
-60.999969
  0
LINE
  8
0
 10
64.350021
 20
-61.000004
 11
64.000023
 21
-61.350002
  0
LINE
  8
0
 10
65.000008
 20
-60.999969
 11
64.349991
 21
-60.999969
  0
LINE
  8
0
 62
     2
 10
65.000008
 20
-61.349960
 11
63.999992
 21
-61.349960
  0
LINE
  8
0
  6
PHANTOM
 62
     3
 10
43.749966
 20
-134.999969
 11
43.749966
 21
-34.938087
  0
LINE
  8
0
  6
PHANTOM
 62
     3
 10
2.999969
 20
-134.999969
 11
2.999969
 21
-34.938087
  0
LINE
  8
0
  6
PHANTOM
 62
     3
 10
38.749954
 20
-134.999969
 11
38.749954
 21
-34.938087
  0
LINE
  8
0
 10
-281.250000
 20
195.500000
 11
282.099976
 21
195.500000
  0
LINE
  8
0
 10
-281.250000
 20
195.500000
 11
-281.250000
 21
-195.000000
  0
LINE
  8
0
 10
282.099976
 20
195.500000
 11
282.099976
 21
-195.000000
  0
LINE
  8
0
 10
-281.250000
 20
-195.000000
 11
282.099976
 21
-195.000000
  0
LINE
  8
0
 10
162.099976
 20
-175.000000
 11
162.099976
 21
-195.000000
  0
LINE
  8
0
 10
162.099976
 20
-175.000000
 11
282.099976
 21
-175.000000
  0
LINE
  8
0
 10
162.099976
 20
175.500000
 11
282.099976
 21
175.500000
  0
LINE
  8
0
 10
-281.250000
 20
175.500000
 11
-161.250000
 21
175.500000
  0
LINE
  8
0
 10
162.099976
 20
195.500000
 11
162.099976
 21
175.500000
  0
LINE
  8
0
 10
-161.250000
 20
195.500000
 11
-161.250000
 21
175.500000
  0
LINE
  8
0
 10
-61.250000
 20
-185.000000
 11
138.750000
 21
-185.000000
  0
LINE
  8
0
 10
-61.250000
 20
-165.000000
 11
-61.250000
 21
-185.000000
  0
LINE
  8
0
 10
-21.250000
 20
-165.000000
 11
-21.250000
 21
-185.000000
  0
LINE
  8
0
 10
-271.250000
 20
-141.000000
 11
-235.001297
 21
-141.000000
  0
LINE
  8
0
 10
-271.250000
 20
-155.000000
 11
-71.250000
 21
-155.000000
  0
LINE
  8
0
 10
-271.250000
 20
-134.000000
 11
-71.250000
 21
-134.000000
  0
LINE
  8
0
 10
-231.250015
 20
-155.000015
 11
-235.001312
 21
-141.000015
  0
LINE
  8
0
 10
-1.250000
 20
-165.000000
 11
-1.250000
 21
-185.000000
  0
LINE
  8
0
 10
18.750000
 20
-165.000000
 11
18.750000
 21
-185.000000
  0
LINE
  8
0
 10
38.750000
 20
-165.000000
 11
38.750000
 21
-185.000000
  0
LINE
  8
0
 10
58.750000
 20
-165.000000
 11
58.750000
 21
-185.000000
  0
LINE
  8
0
 10
78.750000
 20
-165.000000
 11
78.750000
 21
-185.000000
  0
LINE
  8
0
 10
98.750000
 20
-165.000000
 11
98.750000
 21
-185.000000
  0
LINE
  8
0
 10
-271.250000
 20
-165.000000
 11
-71.250000
 21
-165.000000
  0
LINE
  8
0
 10
118.750000
 20
-165.000000
 11
118.750000
 21
-185.000000
  0
LINE
  8
0
 10
138.750000
 20
-165.000000
 11
138.750000
 21
-185.000000
  0
LINE
  8
0
 10
-61.250000
 20
-175.000000
 11
138.750000
 21
-175.000000
  0
LINE
  8
0
 10
-271.250000
 20
-185.000000
 11
-71.250000
 21
-185.000000
  0
LINE
  8
0
 10
-271.250000
 20
-134.000000
 11
-271.250000
 21
-185.000000
  0
LINE
  8
0
 10
-231.250000
 20
-134.000000
 11
-231.250000
 21
-185.000000
  0
LINE
  8
0
 10
-211.250000
 20
-134.000000
 11
-211.250000
 21
-185.000000
  0
LINE
  8
0
 10
-191.250000
 20
-134.000000
 11
-191.250000
 21
-185.000000
  0
LINE
  8
0
 10
-171.250000
 20
-134.000000
 11
-171.250000
 21
-185.000000
  0
LINE
  8
0
 10
-151.250000
 20
-134.000000
 11
-151.250000
 21
-185.000000
  0
LINE
  8
0
 10
-131.250000
 20
-134.000000
 11
-131.250000
 21
-185.000000
  0
LINE
  8
0
 10
-111.250000
 20
-134.000000
 11
-111.250000
 21
-185.000000
  0
LINE
  8
0
 10
-91.250000
 20
-134.000000
 11
-91.250000
 21
-185.000000
  0
LINE
  8
0
 10
-71.250000
 20
-134.000000
 11
-71.250000
 21
-185.000000
  0
LINE
  8
0
 10
-271.250000
 20
-175.000000
 11
-71.250000
 21
-175.000000
  0
LINE
  8
0
 10
-61.250000
 20
-165.000000
 11
138.750000
 21
-165.000000
  0
CIRCLE
  8
0
 62
     2
 10
17.499954
 20
121.999992
 40
2.000000
  0
CIRCLE
  8
0
 62
     2
 10
17.499954
 20
57.999985
 40
2.000000
  0
CIRCLE
  8
0
 62
     2
 10
52.499954
 20
57.999985
 40
2.000000
  0
CIRCLE
  8
0
 62
     2
 10
52.499954
 20
121.999992
 40
2.000000
  0
CIRCLE
  8
0
 10
56.999969
 20
90.000000
 40
2.600000
  0
ARC
  8
0
 10
72.345413
 20
59.749992
 40
5.054618
 50
339.743866
 51
20.256163
  0
ARC
  8
0
 10
72.345413
 20
56.250000
 40
5.054624
 50
339.743958
 51
20.256203
  0
ARC
  8
0
 10
80.054657
 20
56.250000
 40
5.054624
 50
159.743942
 51
200.256165
  0
ARC
  8
0
 10
80.054657
 20
59.749992
 40
5.054624
 50
159.743942
 51
200.256165
  0
CIRCLE
  8
0
 10
69.999985
 20
67.999985
 40
2.250000
  0
CIRCLE
  8
0
 10
69.999985
 20
67.999985
 40
3.999999
  0
CIRCLE
  8
0
 10
69.999985
 20
111.999992
 40
2.250000
  0
CIRCLE
  8
0
 10
69.999985
 20
111.999992
 40
3.999999
  0
CIRCLE
  8
0
 10
-15.000000
 20
67.999985
 40
2.250000
  0
CIRCLE
  8
0
 10
-15.000000
 20
67.999985
 40
3.999999
  0
CIRCLE
  8
0
 10
-15.000000
 20
111.999992
 40
3.999999
  0
CIRCLE
  8
0
 10
-15.000000
 20
111.999992
 40
2.250000
  0
CIRCLE
  8
0
 10
34.999977
 20
57.999985
 40
2.000000
  0
ARC
  8
0
 10
34.999977
 20
122.999992
 40
2.000000
 50
0.000000
 51
179.999786
  0
ARC
  8
0
 10
34.999977
 20
120.999992
 40
2.000000
 50
180.000000
 51
0.000000
  0
CIRCLE
  8
0
 10
17.499954
 20
121.999992
 40
1.650000
  0
CIRCLE
  8
0
 10
52.499954
 20
121.999992
 40
1.650000
  0
CIRCLE
  8
0
 10
17.499954
 20
57.999985
 40
1.650000
  0
CIRCLE
  8
0
 10
52.499954
 20
57.999985
 40
1.650000
  0
ARC
  8
0
 10
-17.345398
 20
59.749992
 40
5.054621
 50
159.743851
 51
200.256119
  0
ARC
  8
0
 10
-25.054642
 20
56.250000
 40
5.054621
 50
339.743835
 51
20.256105
  0
ARC
  8
0
 10
-17.345398
 20
56.250000
 40
5.054621
 50
159.743805
 51
200.256073
  0
ARC
  8
0
 10
-25.054642
 20
59.749992
 40
5.054621
 50
339.743835
 51
20.256105
  0
ARC
  8
0
 62
     4
 10
-130.500031
 20
121.999977
 40
5.899998
 50
291.218201
 51
308.781830
  0
ARC
  8
0
 62
     4
 10
-130.500031
 20
121.999977
 40
5.900001
 50
351.218140
 51
8.781876
  0
CIRCLE
  8
0
 10
-139.000000
 20
94.999977
 40
2.100000
  0
CIRCLE
  8
0
 62
     4
 10
-130.500031
 20
121.999977
 40
5.499999
  0
CIRCLE
  8
0
 62
     2
 10
-130.500031
 20
57.999985
 40
1.650000
  0
CIRCLE
  8
0
 10
-139.000000
 20
75.999977
 40
2.100000
  0
CIRCLE
  8
0
 10
-130.500031
 20
57.999985
 40
2.000000
  0
CIRCLE
  8
0
 62
     4
 10
-141.000000
 20
62.099983
 40
1.499999
  0
CIRCLE
  8
0
 62
     4
 10
-141.000000
 20
117.900002
 40
1.499999
  0
CIRCLE
  8
0
 62
     2
 10
-139.000000
 20
94.999977
 40
2.500000
  0
CIRCLE
  8
0
 10
-130.500031
 20
57.999985
 40
3.500000
  0
CIRCLE
  8
0
 10
-130.500031
 20
57.999985
 40
1.400000
  0
CIRCLE
  8
0
 62
     2
 10
-139.000000
 20
75.999977
 40
2.500000
  0
ARC
  8
0
 62
     4
 10
-130.500031
 20
121.999977
 40
4.249995
 50
135.099060
 51
224.900726
  0
ARC
  8
0
 62
     4
 10
-130.500031
 20
121.999977
 40
4.250000
 50
0.000000
 51
44.900871
  0
ARC
  8
0
 62
     4
 10
-130.500031
 20
121.999977
 40
4.250000
 50
315.099121
 51
0.000000
  0
CIRCLE
  8
0
 62
     4
 10
-130.500031
 20
121.999977
 40
2.749999
  0
CIRCLE
  8
0
 62
     4
 10
-130.500031
 20
121.999977
 40
5.000000
  0
CIRCLE
  8
0
 62
     1
 10
-130.500031
 20
121.999977
 40
4.500000
  0
ARC
  8
0
 62
     4
 10
-130.500031
 20
121.999977
 40
3.750000
 50
126.869896
 51
233.130096
  0
ARC
  8
0
 62
     4
 10
-130.500031
 20
121.999977
 40
3.750000
 50
306.869904
 51
53.130104
  0
CIRCLE
  8
0
 10
-140.500031
 20
117.999992
 40
3.500000
  0
CIRCLE
  8
0
 10
-140.500031
 20
61.999992
 40
3.500000
  0
ARC
  8
0
 62
     4
 10
-130.500031
 20
121.999977
 40
5.900004
 50
231.219070
 51
248.781815
  0
ARC
  8
0
 62
     4
 10
-130.500031
 20
121.999977
 40
5.900001
 50
111.219292
 51
128.780441
  0
ARC
  8
0
 62
     4
 10
-130.500031
 20
121.999977
 40
5.900004
 50
51.218117
 51
68.780548
  0
ARC
  8
0
 62
     4
 10
-130.500031
 20
121.999977
 40
5.900003
 50
171.219406
 51
188.780991
  0
ARC
  8
0
 62
     4
 10
186.499954
 20
121.999977
 40
5.900003
 50
171.219406
 51
188.780991
  0
ARC
  8
0
 62
     4
 10
186.499954
 20
121.999977
 40
5.899993
 50
351.218109
 51
8.781887
  0
ARC
  8
0
 62
     4
 10
186.499954
 20
121.999977
 40
5.899998
 50
291.218201
 51
308.781891
  0
CIRCLE
  8
0
 62
     2
 10
186.500000
 20
57.999985
 40
1.650000
  0
CIRCLE
  8
0
 10
186.500000
 20
57.999985
 40
2.000000
  0
CIRCLE
  8
0
 62
     4
 10
186.499954
 20
121.999977
 40
5.499999
  0
CIRCLE
  8
0
 10
186.500000
 20
57.999985
 40
3.500000
  0
CIRCLE
  8
0
 10
186.500000
 20
57.999985
 40
1.400000
  0
ARC
  8
0
 62
     4
 10
186.499954
 20
121.999977
 40
4.249995
 50
135.099060
 51
224.900726
  0
ARC
  8
0
 62
     4
 10
186.499954
 20
121.999977
 40
4.250000
 50
0.000000
 51
44.900944
  0
ARC
  8
0
 62
     4
 10
186.499954
 20
121.999977
 40
4.249995
 50
315.099060
 51
0.000000
  0
CIRCLE
  8
0
 62
     4
 10
186.499954
 20
121.999977
 40
2.749999
  0
CIRCLE
  8
0
 62
     4
 10
186.499954
 20
121.999977
 40
5.000000
  0
CIRCLE
  8
0
 62
     1
 10
186.499954
 20
121.999977
 40
4.500000
  0
ARC
  8
0
 62
     4
 10
186.499954
 20
121.999977
 40
3.750000
 50
126.869896
 51
233.130096
  0
ARC
  8
0
 62
     4
 10
186.499954
 20
121.999977
 40
3.750000
 50
306.869904
 51
53.130104
  0
ARC
  8
0
 62
     4
 10
186.499954
 20
121.999977
 40
5.900004
 50
231.219070
 51
248.781815
  0
ARC
  8
0
 62
     4
 10
186.499954
 20
121.999977
 40
5.900001
 50
111.219292
 51
128.780441
  0
ARC
  8
0
 62
     4
 10
186.499954
 20
121.999977
 40
5.900004
 50
51.218117
 51
68.780548
  0
ARC
  8
0
 10
-26.687408
 20
4.561905
 40
6.687395
 50
342.412048
 51
17.587885
  0
ARC
  8
0
 10
-15.712620
 20
4.561905
 40
6.687395
 50
162.412064
 51
197.587860
  0
ARC
  8
0
 10
-21.789085
 20
1.530823
 40
1.789074
 50
334.384186
 51
34.384220
  0
ARC
  8
0
 10
-20.610943
 20
1.530823
 40
1.789073
 50
145.615677
 51
205.615723
  0
ARC
  8
0
 10
-21.789085
 20
7.593002
 40
1.789074
 50
325.615753
 51
25.615782
  0
ARC
  8
0
 10
-20.610943
 20
7.593002
 40
1.789075
 50
154.384140
 51
214.384171
  0
ARC
  8
0
 10
75.610901
 20
7.592995
 40
1.789072
 50
325.615662
 51
25.615702
  0
ARC
  8
0
 10
70.712585
 20
4.561905
 40
6.687393
 50
342.412079
 51
17.587910
  0
ARC
  8
0
 10
75.610901
 20
1.530815
 40
1.789071
 50
334.384125
 51
34.384151
  0
ARC
  8
0
 10
76.789047
 20
1.530815
 40
1.789071
 50
145.615692
 51
205.615753
  0
ARC
  8
0
 10
81.687363
 20
4.561913
 40
6.687393
 50
162.412064
 51
197.587860
  0
ARC
  8
0
 10
76.789047
 20
7.592995
 40
1.789077
 50
154.384247
 51
214.384155
  0
ARC
  8
0
 10
-17.345383
 20
-61.249969
 40
5.054621
 50
159.743851
 51
200.256119
  0
ARC
  8
0
 10
-17.345383
 20
-64.749985
 40
5.054621
 50
159.743805
 51
187.234894
  0
ARC
  8
0
 10
-25.054626
 20
-64.749985
 40
5.054620
 50
356.029480
 51
20.256105
  0
ARC
  8
0
 10
-25.054626
 20
-61.249969
 40
5.054621
 50
339.743835
 51
20.256105
  0
CIRCLE
  8
0
 62
     2
 10
-0.000027
 20
-73.000000
 40
2.000000
  0
CIRCLE
  8
0
 62
     2
 10
-0.000027
 20
-117.000000
 40
2.000000
  0
CIRCLE
  8
0
 62
     2
 10
54.999969
 20
-117.000031
 40
2.000000
  0
CIRCLE
  8
0
 62
     2
 10
54.999969
 20
-73.000015
 40
2.000000
  0
ARC
  8
0
 10
72.345337
 20
-64.749985
 40
5.054617
 50
339.743927
 51
20.256163
  0
ARC
  8
0
 10
80.054596
 20
-64.749985
 40
5.054619
 50
159.743835
 51
200.256165
  0
ARC
  8
0
 10
80.054596
 20
-61.249969
 40
5.054619
 50
159.743835
 51
200.256119
  0
ARC
  8
0
 10
72.345337
 20
-61.249969
 40
5.054619
 50
339.743835
 51
20.256121
  0
CIRCLE
  8
0
 10
70.000000
 20
-73.000015
 40
2.250000
  0
CIRCLE
  8
0
 10
-15.000031
 20
-72.999969
 40
2.250000
  0
CIRCLE
  8
0
 10
-15.000031
 20
-116.999969
 40
2.250000
  0
CIRCLE
  8
0
 10
70.000015
 20
-117.000031
 40
2.250000
  0
CIRCLE
  8
0
 10
27.499954
 20
-72.999969
 40
2.000000
  0
ARC
  8
0
 10
27.499954
 20
-115.999969
 40
2.000000
 50
0.000000
 51
180.000000
  0
ARC
  8
0
 10
27.499954
 20
-117.999969
 40
2.000000
 50
180.000000
 51
0.000000
  0
CIRCLE
  8
0
 10
61.999969
 20
-95.000000
 40
1.250000
  0
CIRCLE
  8
0
 10
61.999969
 20
-95.000000
 40
2.250000
  0
CIRCLE
  8
0
 10
-0.000050
 20
-72.999969
 40
1.650000
  0
CIRCLE
  8
0
 10
54.999954
 20
-72.999969
 40
1.650000
  0
CIRCLE
  8
0
 10
-0.000050
 20
-116.999969
 40
1.650000
  0
CIRCLE
  8
0
 10
54.999969
 20
-116.999969
 40
1.650000
  0
POLYLINE
  8
0
 62
     4
 66
     1
  0
VERTEX
  8
0
 10
-20.230881
 20
122.900734
  0
VERTEX
  8
0
 10
-20.059004
 20
123.817642
  0
VERTEX
  8
0
 10
-20.000000
 20
124.749977
  0
VERTEX
  8
0
 10
-20.059004
 20
125.682327
  0
VERTEX
  8
0
 10
-20.230881
 20
126.599236
  0
SEQEND
  0
POLYLINE
  8
0
 62
     4
 66
     1
  0
VERTEX
  8
0
 10
-22.769104
 20
117.400703
  0
VERTEX
  8
0
 10
-22.940992
 20
118.317589
  0
VERTEX
  8
0
 10
-23.000000
 20
119.249916
  0
VERTEX
  8
0
 10
-22.940996
 20
120.182281
  0
VERTEX
  8
0
 10
-22.769104
 20
121.099205
  0
SEQEND
  0
POLYLINE
  8
0
 62
     4
 66
     1
  0
VERTEX
  8
0
 10
-22.769104
 20
122.900734
  0
VERTEX
  8
0
 10
-22.940994
 20
123.817635
  0
VERTEX
  8
0
 10
-23.000000
 20
124.749977
  0
VERTEX
  8
0
 10
-22.940994
 20
125.682327
  0
VERTEX
  8
0
 10
-22.769104
 20
126.599236
  0
SEQEND
  0
POLYLINE
  8
0
 62
     4
 66
     1
  0
VERTEX
  8
0
 10
75.230850
 20
126.599251
  0
VERTEX
  8
0
 10
75.058983
 20
125.682365
  0
VERTEX
  8
0
 10
74.999985
 20
124.750038
  0
VERTEX
  8
0
 10
75.058983
 20
123.817680
  0
VERTEX
  8
0
 10
75.230850
 20
122.900764
  0
SEQEND
  0
POLYLINE
  8
0
 62
     4
 66
     1
  0
VERTEX
  8
0
 10
75.230850
 20
121.099220
  0
VERTEX
  8
0
 10
75.058983
 20
120.182327
  0
VERTEX
  8
0
 10
74.999985
 20
119.249992
  0
VERTEX
  8
0
 10
75.058983
 20
118.317642
  0
VERTEX
  8
0
 10
75.230850
 20
117.400734
  0
SEQEND
  0
POLYLINE
  8
0
 62
     4
 66
     1
  0
VERTEX
  8
0
 10
77.769073
 20
121.099220
  0
VERTEX
  8
0
 10
77.940964
 20
120.182327
  0
VERTEX
  8
0
 10
77.999969
 20
119.249992
  0
VERTEX
  8
0
 10
77.940964
 20
118.317642
  0
VERTEX
  8
0
 10
77.769073
 20
117.400734
  0
SEQEND
  0
POLYLINE
  8
0
 62
     4
 66
     1
  0
VERTEX
  8
0
 10
77.769073
 20
126.599251
  0
VERTEX
  8
0
 10
77.940964
 20
125.682365
  0
VERTEX
  8
0
 10
77.999969
 20
124.750038
  0
VERTEX
  8
0
 10
77.940964
 20
123.817680
  0
VERTEX
  8
0
 10
77.769073
 20
122.900764
  0
SEQEND
  0
POLYLINE
  8
0
 62
     4
 66
     1
  0
VERTEX
  8
0
 10
-20.230881
 20
117.400703
  0
VERTEX
  8
0
 10
-20.059004
 20
118.317589
  0
VERTEX
  8
0
 10
-20.000000
 20
119.249916
  0
VERTEX
  8
0
 10
-20.059002
 20
120.182281
  0
VERTEX
  8
0
 10
-20.230881
 20
121.099205
  0
SEQEND
  0
POLYLINE
  8
0
 62
     4
 66
     1
  0
VERTEX
  8
0
 10
-22.769070
 20
8.257416
  0
VERTEX
  8
0
 10
-22.938749
 20
8.779059
  0
VERTEX
  8
0
 10
-22.999996
 20
9.325104
  0
VERTEX
  8
0
 10
-22.938742
 20
9.871125
  0
VERTEX
  8
0
 10
-22.769070
 20
10.392738
  0
SEQEND
  0
POLYLINE
  8
0
 62
     4
 66
     1
  0
VERTEX
  8
0
 10
-20.230957
 20
-1.268951
  0
VERTEX
  8
0
 10
-20.061272
 20
-0.739210
  0
VERTEX
  8
0
 10
-20.000015
 20
-0.201233
  0
VERTEX
  8
0
 10
-20.047590
 20
0.280063
  0
VERTEX
  8
0
 10
-20.181688
 20
0.745414
  0
SEQEND
  0
POLYLINE
  8
0
 62
     4
 66
     1
  0
VERTEX
  8
0
 10
-22.769073
 20
-1.268944
  0
VERTEX
  8
0
 10
-22.938749
 20
-0.747295
  0
VERTEX
  8
0
 10
-23.000000
 20
-0.201233
  0
VERTEX
  8
0
 10
-22.938751
 20
0.344848
  0
VERTEX
  8
0
 10
-22.769073
 20
0.866516
  0
SEQEND
  0
POLYLINE
  8
0
 62
     4
 66
     1
  0
VERTEX
  8
0
 10
77.769043
 20
0.866402
  0
VERTEX
  8
0
 10
77.938721
 20
0.344748
  0
VERTEX
  8
0
 10
77.999969
 20
-0.201309
  0
VERTEX
  8
0
 10
77.938713
 20
-0.747327
  0
VERTEX
  8
0
 10
77.769043
 20
-1.268936
  0
SEQEND
  0
POLYLINE
  8
0
 62
     4
 66
     1
  0
VERTEX
  8
0
 10
-20.181959
 20
8.377800
  0
VERTEX
  8
0
 10
-20.047991
 20
8.834622
  0
VERTEX
  8
0
 10
-20.000011
 20
9.325104
  0
VERTEX
  8
0
 10
-20.061270
 20
9.871126
  0
VERTEX
  8
0
 10
-20.230953
 20
10.392738
  0
SEQEND
  0
POLYLINE
  8
0
 62
     4
 66
     1
  0
VERTEX
  8
0
 10
75.181915
 20
0.746010
  0
VERTEX
  8
0
 10
75.047958
 20
0.289181
  0
VERTEX
  8
0
 10
74.999985
 20
-0.201309
  0
VERTEX
  8
0
 10
75.061234
 20
-0.747328
  0
VERTEX
  8
0
 10
75.230911
 20
-1.268936
  0
SEQEND
  0
POLYLINE
  8
0
 62
     4
 66
     1
  0
VERTEX
  8
0
 10
-22.797352
 20
2.561553
  0
VERTEX
  8
0
 10
-22.783428
 20
2.493920
  0
VERTEX
  8
0
 10
-22.769073
 20
2.426468
  0
SEQEND
  0
POLYLINE
  8
0
 62
     4
 66
     1
  0
VERTEX
  8
0
 10
-22.769070
 20
6.697357
  0
VERTEX
  8
0
 10
-22.783510
 20
6.629497
  0
VERTEX
  8
0
 10
-22.797497
 20
6.561542
  0
SEQEND
  0
POLYLINE
  8
0
 62
     4
 66
     1
  0
VERTEX
  8
0
 10
75.230911
 20
10.392761
  0
VERTEX
  8
0
 10
75.061234
 20
9.863017
  0
VERTEX
  8
0
 10
74.999985
 20
9.325035
  0
VERTEX
  8
0
 10
75.047554
 20
8.843743
  0
VERTEX
  8
0
 10
75.181641
 20
8.378395
  0
SEQEND
  0
POLYLINE
  8
0
 62
     4
 66
     1
  0
VERTEX
  8
0
 10
77.769043
 20
10.392761
  0
VERTEX
  8
0
 10
77.938721
 20
9.871106
  0
VERTEX
  8
0
 10
77.999969
 20
9.325035
  0
VERTEX
  8
0
 10
77.938721
 20
8.778957
  0
VERTEX
  8
0
 10
77.769043
 20
8.257294
  0
SEQEND
  0
POLYLINE
  8
0
 62
     4
 66
     1
  0
VERTEX
  8
0
 10
77.769043
 20
2.426453
  0
VERTEX
  8
0
 10
77.783485
 20
2.494313
  0
VERTEX
  8
0
 10
77.797470
 20
2.562268
  0
SEQEND
  0
POLYLINE
  8
0
 62
     4
 66
     1
  0
VERTEX
  8
0
 10
77.797325
 20
6.562258
  0
VERTEX
  8
0
 10
77.783401
 20
6.629891
  0
VERTEX
  8
0
 10
77.769043
 20
6.697342
  0
SEQEND
  0
POLYLINE
  8
0
 62
     4
 66
     1
  0
VERTEX
  8
0
 10
-20.230881
 20
-126.099182
  0
VERTEX
  8
0
 10
-20.068815
 20
-125.256859
  0
VERTEX
  8
0
 10
-20.001587
 20
-124.401878
  0
SEQEND
  0
POLYLINE
  8
0
 62
     4
 66
     1
  0
VERTEX
  8
0
 10
-22.769104
 20
-131.599213
  0
VERTEX
  8
0
 10
-22.940992
 20
-130.682327
  0
VERTEX
  8
0
 10
-23.000000
 20
-129.750000
  0
VERTEX
  8
0
 10
-22.940996
 20
-128.817642
  0
VERTEX
  8
0
 10
-22.769104
 20
-127.900726
  0
SEQEND
  0
POLYLINE
  8
0
 62
     4
 66
     1
  0
VERTEX
  8
0
 10
-22.769104
 20
-126.099182
  0
VERTEX
  8
0
 10
-22.931179
 20
-125.256866
  0
VERTEX
  8
0
 10
-22.998409
 20
-124.401878
  0
SEQEND
  0
POLYLINE
  8
0
 62
     4
 66
     1
  0
VERTEX
  8
0
 10
75.230865
 20
-122.400726
  0
VERTEX
  8
0
 10
75.058998
 20
-123.317612
  0
VERTEX
  8
0
 10
75.000000
 20
-124.249939
  0
VERTEX
  8
0
 10
75.058998
 20
-125.182297
  0
VERTEX
  8
0
 10
75.230865
 20
-126.099213
  0
SEQEND
  0
POLYLINE
  8
0
 62
     4
 66
     1
  0
VERTEX
  8
0
 10
75.230865
 20
-127.900726
  0
VERTEX
  8
0
 10
75.058998
 20
-128.817642
  0
VERTEX
  8
0
 10
75.000000
 20
-129.749985
  0
VERTEX
  8
0
 10
75.058998
 20
-130.682327
  0
VERTEX
  8
0
 10
75.230865
 20
-131.599243
  0
SEQEND
  0
POLYLINE
  8
0
 62
     4
 66
     1
  0
VERTEX
  8
0
 10
77.769089
 20
-127.900726
  0
VERTEX
  8
0
 10
77.940979
 20
-128.817642
  0
VERTEX
  8
0
 10
77.999985
 20
-129.749985
  0
VERTEX
  8
0
 10
77.940979
 20
-130.682327
  0
VERTEX
  8
0
 10
77.769089
 20
-131.599243
  0
SEQEND
  0
POLYLINE
  8
0
 62
     4
 66
     1
  0
VERTEX
  8
0
 10
77.769089
 20
-122.400726
  0
VERTEX
  8
0
 10
77.940979
 20
-123.317612
  0
VERTEX
  8
0
 10
77.999985
 20
-124.249939
  0
VERTEX
  8
0
 10
77.940979
 20
-125.182297
  0
VERTEX
  8
0
 10
77.769089
 20
-126.099213
  0
SEQEND
  0
POLYLINE
  8
0
 62
     4
 66
     1
  0
VERTEX
  8
0
 10
-20.230881
 20
-131.599213
  0
VERTEX
  8
0
 10
-20.059004
 20
-130.682327
  0
VERTEX
  8
0
 10
-20.000000
 20
-129.750000
  0
VERTEX
  8
0
 10
-20.059002
 20
-128.817642
  0
VERTEX
  8
0
 10
-20.230881
 20
-127.900726
  0
SEQEND
  0
TEXT
  8
0
 10
196.250259
 20
180.830002
 40
6.300000
  1
Ver. 1.0
 50
0.000000
 41
1.052632
 51
0.000000
  7
STANDARD
  0
TEXT
  8
0
 10
167.564667
 20
-192.100006
 40
9.000000
  1
KOGANEI CORP.
 50
0.000000
 41
1.052632
 51
0.000000
  7
STANDARD
  0
TEXT
  8
0
 10
-265.999725
 20
180.830002
 40
6.300000
  1
GT SLIDE TABLE
 50
0.000000
 41
1.052632
 51
0.000000
  7
STANDARD
  0
TEXT
  8
0
 10
-225.549713
 20
145.830002
 40
6.300000
  1
(WITH SENSOR SWITCH)
 50
0.000000
 41
1.052632
 51
0.000000
  7
STANDARD
  0
TEXT
  8
0
 10
-270.049713
 20
155.830002
 40
6.300000
  1
MODEL:AGTB16*ST(15)
 50
0.000000
 41
1.052632
 51
0.000000
  7
STANDARD
  0
TEXT
  8
0
 10
-226.142654
 20
-147.550003
 40
4.500000
  1
15
 50
0.000000
 41
1.052632
 51
0.000000
  7
STANDARD
  0
TEXT
  8
0
 10
-206.142654
 20
-147.550003
 40
4.500000
  1
30
 50
0.000000
 41
1.052632
 51
0.000000
  7
STANDARD
  0
TEXT
  8
0
 10
-186.142654
 20
-147.550003
 40
4.500000
  1
45
 50
0.000000
 41
1.052632
 51
0.000000
  7
STANDARD
  0
TEXT
  8
0
 10
-166.142654
 20
-147.550003
 40
4.500000
  1
60
 50
0.000000
 41
1.052632
 51
0.000000
  7
STANDARD
  0
TEXT
  8
0
 10
-146.142654
 20
-147.550003
 40
4.500000
  1
75
 50
0.000000
 41
1.052632
 51
0.000000
  7
STANDARD
  0
TEXT
  8
0
 10
-126.142654
 20
-147.550003
 40
4.500000
  1
90
 50
0.000000
 41
1.052632
 51
0.000000
  7
STANDARD
  0
TEXT
  8
0
 10
-265.142670
 20
-140.550003
 40
4.500000
  1
STROKE
 50
0.000000
 41
1.052632
 51
0.000000
  7
STANDARD
  0
TEXT
  8
0
 10
-267.392670
 20
-146.324997
 40
4.500000
  1
STRETCH
 50
0.000000
 41
1.052632
 51
0.000000
  7
STANDARD
  0
TEXT
  8
0
 10
-267.392670
 20
-153.074997
 40
4.500000
  1
  PLACE
 50
0.000000
 41
1.052632
 51
0.000000
  7
STANDARD
  0
TEXT
  8
0
 10
-253.892654
 20
-163.050003
 40
4.500000
  1
A
 50
0.000000
 41
1.052632
 51
0.000000
  7
STANDARD
  0
TEXT
  8
0
 10
-48.392658
 20
-183.050003
 40
4.500000
  1
D.E
 50
0.000000
 41
1.052632
 51
0.000000
  7
STANDARD
  0
TEXT
  8
0
 10
6.857346
 20
-163.050003
 40
4.500000
  1
DIMENSION LIST
 50
0.000000
 41
1.052632
 51
0.000000
  7
STANDARD
  0
TEXT
  8
0
 10
119.357346
 20
-165.050003
 40
4.500000
  1
(mm)
 50
0.000000
 41
1.052632
 51
0.000000
  7
STANDARD
  0
TEXT
  8
0
 10
-108.392654
 20
-147.550003
 40
4.500000
  1
105
 50
0.000000
 41
1.052632
 51
0.000000
  7
STANDARD
  0
TEXT
  8
0
 10
-88.392654
 20
-147.550003
 40
4.500000
  1
120
 50
0.000000
 41
1.052632
 51
0.000000
  7
STANDARD
  0
TEXT
  8
0
 10
3.857344
 20
-183.050003
 40
4.500000
  1
35
 50
0.000000
 41
1.052632
 51
0.000000
  7
STANDARD
  0
TEXT
  8
0
 10
23.857344
 20
-183.050003
 40
4.500000
  1
50
 50
0.000000
 41
1.052632
 51
0.000000
  7
STANDARD
  0
TEXT
  8
0
 10
43.857342
 20
-183.050003
 40
4.500000
  1
65
 50
0.000000
 41
1.052632
 51
0.000000
  7
STANDARD
  0
TEXT
  8
0
 10
63.857342
 20
-183.050003
 40
4.500000
  1
80
 50
0.000000
 41
1.052632
 51
0.000000
  7
STANDARD
  0
TEXT
  8
0
 10
83.857346
 20
-183.050003
 40
4.500000
  1
95
 50
0.000000
 41
1.052632
 51
0.000000
  7
STANDARD
  0
TEXT
  8
0
 10
101.607346
 20
-183.050003
 40
4.500000
  1
110
 50
0.000000
 41
1.052632
 51
0.000000
  7
STANDARD
  0
TEXT
  8
0
 10
121.607346
 20
-183.050003
 40
4.500000
  1
125
 50
0.000000
 41
1.052632
 51
0.000000
  7
STANDARD
  0
TEXT
  8
0
 10
-20.642656
 20
-183.050003
 40
4.500000
  1
27.5
 50
0.000000
 41
1.052632
 51
0.000000
  7
STANDARD
  0
TEXT
  8
0
 10
-223.892654
 20
-163.050003
 40
4.500000
  1
0
 50
0.000000
 41
1.052632
 51
0.000000
  7
STANDARD
  0
TEXT
  8
0
 10
-88.392654
 20
-163.050003
 40
4.500000
  1
105
 50
0.000000
 41
1.052632
 51
0.000000
  7
STANDARD
  0
TEXT
  8
0
 10
-106.142654
 20
-163.050003
 40
4.500000
  1
90
 50
0.000000
 41
1.052632
 51
0.000000
  7
STANDARD
  0
TEXT
  8
0
 10
-126.142654
 20
-163.050003
 40
4.500000
  1
75
 50
0.000000
 41
1.052632
 51
0.000000
  7
STANDARD
  0
TEXT
  8
0
 10
-146.142654
 20
-163.050003
 40
4.500000
  1
60
 50
0.000000
 41
1.052632
 51
0.000000
  7
STANDARD
  0
TEXT
  8
0
 10
-166.142654
 20
-163.050003
 40
4.500000
  1
45
 50
0.000000
 41
1.052632
 51
0.000000
  7
STANDARD
  0
TEXT
  8
0
 10
-186.142654
 20
-163.050003
 40
4.500000
  1
30
 50
0.000000
 41
1.052632
 51
0.000000
  7
STANDARD
  0
TEXT
  8
0
 10
-206.142654
 20
-163.050003
 40
4.500000
  1
15
 50
0.000000
 41
1.052632
 51
0.000000
  7
STANDARD
  0
TEXT
  8
0
 10
-55.142658
 20
-173.050003
 40
4.500000
  1
STROKE
 50
0.000000
 41
1.052632
 51
0.000000
  7
STANDARD
  0
TEXT
  8
0
 10
-16.142656
 20
-173.050003
 40
4.500000
  1
15
 50
0.000000
 41
1.052632
 51
0.000000
  7
STANDARD
  0
TEXT
  8
0
 10
3.857344
 20
-173.050003
 40
4.500000
  1
30
 50
0.000000
 41
1.052632
 51
0.000000
  7
STANDARD
  0
TEXT
  8
0
 10
23.857344
 20
-173.050003
 40
4.500000
  1
45
 50
0.000000
 41
1.052632
 51
0.000000
  7
STANDARD
  0
TEXT
  8
0
 10
43.857342
 20
-173.050003
 40
4.500000
  1
60
 50
0.000000
 41
1.052632
 51
0.000000
  7
STANDARD
  0
TEXT
  8
0
 10
63.857342
 20
-173.050003
 40
4.500000
  1
75
 50
0.000000
 41
1.052632
 51
0.000000
  7
STANDARD
  0
TEXT
  8
0
 10
83.857346
 20
-173.050003
 40
4.500000
  1
90
 50
0.000000
 41
1.052632
 51
0.000000
  7
STANDARD
  0
TEXT
  8
0
 10
101.607346
 20
-173.050003
 40
4.500000
  1
105
 50
0.000000
 41
1.052632
 51
0.000000
  7
STANDARD
  0
TEXT
  8
0
 10
121.607346
 20
-173.050003
 40
4.500000
  1
120
 50
0.000000
 41
1.052632
 51
0.000000
  7
STANDARD
  0
TEXT
  8
0
 10
-253.892654
 20
-183.050003
 40
4.500000
  1
C
 50
0.000000
 41
1.052632
 51
0.000000
  7
STANDARD
  0
TEXT
  8
0
 10
-203.892654
 20
-183.050003
 40
4.500000
  1
0
 50
0.000000
 41
1.052632
 51
0.000000
  7
STANDARD
  0
TEXT
  8
0
 10
-188.392654
 20
-183.050003
 40
4.500000
  1
7.5
 50
0.000000
 41
1.052632
 51
0.000000
  7
STANDARD
  0
TEXT
  8
0
 10
-166.142654
 20
-183.050003
 40
4.500000
  1
15
 50
0.000000
 41
1.052632
 51
0.000000
  7
STANDARD
  0
TEXT
  8
0
 10
-150.642654
 20
-183.050003
 40
4.500000
  1
22.5
 50
0.000000
 41
1.052632
 51
0.000000
  7
STANDARD
  0
TEXT
  8
0
 10
-126.142654
 20
-183.050003
 40
4.500000
  1
30
 50
0.000000
 41
1.052632
 51
0.000000
  7
STANDARD
  0
TEXT
  8
0
 10
-110.642654
 20
-183.050003
 40
4.500000
  1
37.5
 50
0.000000
 41
1.052632
 51
0.000000
  7
STANDARD
  0
TEXT
  8
0
 10
-86.142654
 20
-183.050003
 40
4.500000
  1
45
 50
0.000000
 41
1.052632
 51
0.000000
  7
STANDARD
  0
TEXT
  8
0
 10
-223.892654
 20
-183.050003
 40
4.500000
  1
0
 50
0.000000
 41
1.052632
 51
0.000000
  7
STANDARD
  0
TEXT
  8
0
 10
-253.892654
 20
-173.050003
 40
4.500000
  1
B
 50
0.000000
 41
1.052632
 51
0.000000
  7
STANDARD
  0
TEXT
  8
0
 10
-223.892654
 20
-173.050003
 40
4.500000
  1
0
 50
0.000000
 41
1.052632
 51
0.000000
  7
STANDARD
  0
TEXT
  8
0
 10
-203.892654
 20
-173.050003
 40
4.500000
  1
0
 50
0.000000
 41
1.052632
 51
0.000000
  7
STANDARD
  0
TEXT
  8
0
 10
-188.392654
 20
-173.050003
 40
4.500000
  1
7.5
 50
0.000000
 41
1.052632
 51
0.000000
  7
STANDARD
  0
TEXT
  8
0
 10
-166.142654
 20
-173.050003
 40
4.500000
  1
15
 50
0.000000
 41
1.052632
 51
0.000000
  7
STANDARD
  0
TEXT
  8
0
 10
-150.642654
 20
-173.050003
 40
4.500000
  1
22.5
 50
0.000000
 41
1.052632
 51
0.000000
  7
STANDARD
  0
TEXT
  8
0
 10
-126.142654
 20
-173.050003
 40
4.500000
  1
30
 50
0.000000
 41
1.052632
 51
0.000000
  7
STANDARD
  0
TEXT
  8
0
 10
-110.642654
 20
-173.050003
 40
4.500000
  1
37.5
 50
0.000000
 41
1.052632
 51
0.000000
  7
STANDARD
  0
TEXT
  8
0
 10
-86.142654
 20
-173.050003
 40
4.500000
  1
45
 50
0.000000
 41
1.052632
 51
0.000000
  7
STANDARD
  0
TEXT
  8
0
 10
-198.642654
 20
-132.050003
 40
4.500000
  1
STRETCH LIST
 50
0.000000
 41
1.052632
 51
0.000000
  7
STANDARD
  0
TEXT
  8
0
 10
-90.642654
 20
-134.050003
 40
4.500000
  1
(mm)
 50
0.000000
 41
1.052632
 51
0.000000
  7
STANDARD
  0
TEXT
  8
0
 62
     3
 10
29.857111
 20
132.949997
 40
4.500000
  1
STRETCH LINE C
 50
0.000000
 41
1.052632
 51
0.000000
  7
STANDARD
  0
TEXT
  8
0
 62
     3
 10
-28.892900
 20
152.949997
 40
4.500000
  1
STRETCH LINE A
 50
0.000000
 41
1.052632
 51
0.000000
  7
STANDARD
  0
TEXT
  8
0
 62
     3
 10
7.357111
 20
142.949997
 40
4.500000
  1
STRETCH LINE B
 50
0.000000
 41
1.052632
 51
0.000000
  7
STANDARD
  0
TEXT
  8
0
 62
     2
 10
-13.407024
 20
-140.999969
 40
3.200000
  1
20
 50
0.000000
 41
1.052632
 51
0.000000
  7
STANDARD
  0
LINE
  8
0
 62
     2
 10
-20.000000
 20
-141.999969
 11
-0.000050
 21
-141.999969
  0
LINE
  8
0
 62
     2
 10
-20.000000
 20
-141.999969
 11
-17.102222
 21
-141.223511
  0
LINE
  8
0
 62
     2
 10
-20.000000
 20
-141.999969
 11
-17.102222
 21
-142.776428
  0
LINE
  8
0
 62
     2
 10
-0.000050
 20
-141.999969
 11
-2.897827
 21
-142.776428
  0
LINE
  8
0
 62
     2
 10
-0.000050
 20
-141.999969
 11
-2.897827
 21
-141.223511
  0
LINE
  8
0
 62
     2
 10
-20.000000
 20
-132.999954
 11
-20.000000
 21
-143.499969
  0
LINE
  8
0
 62
     2
 10
-0.000050
 20
-120.414856
 11
-0.000050
 21
-143.499969
  0
TEXT
  8
0
 62
     2
 10
11.942952
 20
-140.999969
 40
3.200000
  1
D
 50
0.000000
 41
1.052632
 51
0.000000
  7
STANDARD
  0
LINE
  8
0
 62
     2
 10
-0.000050
 20
-141.999969
 11
27.499954
 21
-141.999969
  0
LINE
  8
0
 62
     2
 10
-0.000050
 20
-141.999969
 11
2.897728
 21
-141.223511
  0
LINE
  8
0
 62
     2
 10
-0.000050
 20
-141.999969
 11
2.897728
 21
-142.776428
  0
LINE
  8
0
 62
     2
 10
27.499954
 20
-141.999969
 11
24.602177
 21
-142.776428
  0
LINE
  8
0
 62
     2
 10
27.499954
 20
-141.999969
 11
24.602177
 21
-141.223511
  0
LINE
  8
0
 62
     2
 10
-0.000050
 20
-120.414856
 11
-0.000050
 21
-143.499969
  0
LINE
  8
0
 62
     2
 10
27.499954
 20
-121.499969
 11
27.499954
 21
-143.499969
  0
TEXT
  8
0
 62
     2
 10
39.442963
 20
-140.999969
 40
3.200000
  1
E
 50
0.000000
 41
1.052632
 51
0.000000
  7
STANDARD
  0
LINE
  8
0
 62
     2
 10
27.499954
 20
-141.999969
 11
54.999969
 21
-141.999969
  0
LINE
  8
0
 62
     2
 10
27.499954
 20
-141.999969
 11
30.397732
 21
-141.223511
  0
LINE
  8
0
 62
     2
 10
27.499954
 20
-141.999969
 11
30.397732
 21
-142.776428
  0
LINE
  8
0
 62
     2
 10
54.999969
 20
-141.999969
 11
52.102192
 21
-142.776428
  0
LINE
  8
0
 62
     2
 10
54.999969
 20
-141.999969
 11
52.102192
 21
-141.223511
  0
LINE
  8
0
 62
     2
 10
27.499954
 20
-121.499969
 11
27.499954
 21
-143.499969
  0
LINE
  8
0
 62
     2
 10
54.999969
 20
-120.414856
 11
54.999969
 21
-143.499969
  0
TEXT
  8
0
 62
     2
 10
61.592983
 20
-140.999969
 40
3.200000
  1
20
 50
0.000000
 41
1.052632
 51
0.000000
  7
STANDARD
  0
LINE
  8
0
 62
     2
 10
54.999969
 20
-141.999969
 11
75.000000
 21
-141.999969
  0
LINE
  8
0
 62
     2
 10
54.999969
 20
-141.999969
 11
57.897747
 21
-141.223511
  0
LINE
  8
0
 62
     2
 10
54.999969
 20
-141.999969
 11
57.897747
 21
-142.776428
  0
LINE
  8
0
 62
     2
 10
75.000000
 20
-141.999969
 11
72.102226
 21
-142.776428
  0
LINE
  8
0
 62
     2
 10
75.000000
 20
-141.999969
 11
72.102226
 21
-141.223511
  0
LINE
  8
0
 62
     2
 10
54.999969
 20
-120.414856
 11
54.999969
 21
-143.499969
  0
LINE
  8
0
 62
     2
 10
75.000000
 20
-132.999969
 11
75.000000
 21
-143.499969
  0
ENDSEC
  0
EOF
