  0
SECTION
  2
HEADER
  0
ENDSEC
  0
SECTION
  2
TABLES
  0
TABLE
  2
LTYPE
 70
     4
  0
LTYPE
  2
CONTINUOUS
 70
    64
  3
Solid line
 72
    65
 73
     0
 40
0.000000
  0
LTYPE
  2
DASHED
 70
    64
  3
__ __ __ __ __ __ __ __ __ __ __ __ __ __ __
 72
    65
 73
     2
 40
3.500000
 49
2.000000
 49
-1.500000
  0
LTYPE
  2
CENTER
 70
    64
  3
____ _ ____ _ ____ _ ____ _ ____ _ ____ _ ____
 72
    65
 73
     4
 40
17.500000
 49
13.000000
 49
-1.500000
 49
1.500000
 49
-1.500000
  0
LTYPE
  2
PHANTOM
 70
    64
  3
_____ _ _ _____ _ _ _____ _ _ _____ _ _ ____  
 72
    65
 73
     6
 40
15.500000
 49
8.000000
 49
-1.500000
 49
1.500000
 49
-1.500000
 49
1.500000
 49
-1.500000
  0
LTYPE
  2
DASHED1
 70
    64
  3
__ __ __ __ __ __ __ __ __ __ __ __ __ __ __
 72
    65
 73
     2
 40
1.500000
 49
1.000000
 49
-0.500000
  0
LTYPE
  2
DASHED2
 70
    64
  3
__ __ __ __ __ __ __ __ __ __ __ __ __ __ __
 72
    65
 73
     2
 40
3.500000
 49
2.500000
 49
-1.000000
  0
LTYPE
  2
DASHED3
 70
    64
  3
__ __ __ __ __ __ __ __ __ __ __ __ __ __ __
 72
    65
 73
     2
 40
6.000000
 49
4.000000
 49
-2.000000
  0
LTYPE
  2
DASHED4
 70
    64
  3
__ __ __ __ __ __ __ __ __ __ __ __ __ __ __
 72
    65
 73
     2
 40
12.000000
 49
10.000000
 49
-2.000000
  0
LTYPE
  2
DASHED5
 70
    64
  3
__ __ __ __ __ __ __ __ __ __ __ __ __ __ __
 72
    65
 73
     2
 40
17.000000
 49
15.000000
 49
-2.000000
  0
LTYPE
  2
DASHED6
 70
    64
  3
__ __ __ __ __ __ __ __ __ __ __ __ __ __ __
 72
    65
 73
     2
 40
29.000000
 49
27.000000
 49
-2.000000
  0
LTYPE
  2
PHANTOM1
 70
    64
  3
_____ _ _ _____ _ _ _____ _ _ _____ _ _ ____  
 72
    65
 73
     6
 40
31.000000
 49
25.000000
 49
-1.500000
 49
1.000000
 49
-1.000000
 49
1.000000
 49
-1.500000
  0
LTYPE
  2
PHANTOM2
 70
    64
  3
_____ _ _ _____ _ _ _____ _ _ _____ _ _ ____  
 72
    65
 73
     6
 40
36.000000
 49
27.000000
 49
-1.500000
 49
2.500000
 49
-1.000000
 49
2.500000
 49
-1.500000
  0
LTYPE
  2
PHANTOM3
 70
    64
  3
_____ _ _ _____ _ _ _____ _ _ _____ _ _ ____  
 72
    65
 73
     6
 40
78.000000
 49
64.000000
 49
-2.000000
 49
4.000000
 49
-2.000000
 49
4.000000
 49
-2.000000
  0
LTYPE
  2
CENTER1
 70
    64
  3
____ _ ____ _ ____ _ ____ _ ____ _ ____ _ ____
 72
    65
 73
     4
 40
19.000000
 49
14.000000
 49
-1.000000
 49
3.000000
 49
-1.000000
  0
LTYPE
  2
CENTER2
 70
    64
  3
____ _ ____ _ ____ _ ____ _ ____ _ ____ _ ____
 72
    65
 73
     4
 40
28.500000
 49
25.000000
 49
-1.000000
 49
1.500000
 49
-1.000000
  0
LTYPE
  2
CENTER3
 70
    64
  3
____ _ ____ _ ____ _ ____ _ ____ _ ____ _ ____
 72
    65
 73
     4
 40
31.500000
 49
27.000000
 49
-1.000000
 49
2.500000
 49
-1.000000
  0
LTYPE
  2
CENTER4
 70
    64
  3
____ _ ____ _ ____ _ ____ _ ____ _ ____ _ ____
 72
    65
 73
     4
 40
50.000000
 49
45.000000
 49
-1.000000
 49
3.000000
 49
-1.000000
  0
LTYPE
  2
CENTER5
 70
    64
  3
____ _ ____ _ ____ _ ____ _ ____ _ ____ _ ____
 72
    65
 73
     4
 40
100.000000
 49
92.000000
 49
-2.000000
 49
4.000000
 49
-2.000000
  0
LTYPE
  2
SBK1
 70
    64
  3
______ _ _ _ ______ _ _ _ ______ _ _ _ _____  
 72
    65
 73
     8
 40
60.500000
 49
45.000000
 49
-2.000000
 49
2.500000
 49
-2.000000
 49
2.500000
 49
-2.000000
 49
2.500000
 49
-2.000000
  0
LTYPE
  2
SBK2
 70
    64
  3
______ _ _ _ ______ _ _ _ ______ _ _ _ _____  
 72
    65
 73
     8
 40
84.000000
 49
64.000000
 49
-2.000000
 49
4.000000
 49
-2.000000
 49
4.000000
 49
-2.000000
 49
4.000000
 49
-2.000000
  0
LTYPE
  2
STCH
 70
    64
  3
__ __ __ __ __ __ __ __ __ __ __ __ __ __ __
 72
    65
 73
     2
 40
3.000000
 49
1.000000
 49
-2.000000
  0
LTYPE
  2
MTCH
 70
    64
  3
_____ _ _ _____ _ _ _____ _ _ _____ _ _ ____  
 72
    65
 73
     6
 40
80.000000
 49
66.000000
 49
-2.000000
 49
4.000000
 49
-2.000000
 49
4.000000
 49
-2.000000
  0
ENDTAB
  0
TABLE
  2
LAYER
 70
     1
  0
LAYER
  2
0
 70
     0
 62
     7
  6
CONTINUOUS
  0
ENDTAB
  0
TABLE
  2
STYLE
 70
     1
  0
STYLE
  2
STANDARD
 70
     0
 40
0.000000
 41
1.000000
 50
0.000000
 71
     0
 42
0.200000
  3
txt
  4
BIGFONT
  0
ENDTAB
  0
TABLE
  2
VIEW
 70
     0
  0
ENDTAB
  0
ENDSEC
  0
SECTION
  2
BLOCKS
  0
ENDSEC
  0
SECTION
  2
ENTITIES
  0
LINE
  8
0
 62
     4
 10
89.000015
 20
106.000015
 11
93.000015
 21
106.000015
  0
LINE
  8
0
  6
CENTER
 62
     2
 10
66.794159
 20
80.000000
 11
-35.842094
 21
80.000000
  0
LINE
  8
0
 10
-22.000008
 20
45.000000
 11
-22.000008
 21
115.000000
  0
LINE
  8
0
 10
52.000000
 20
45.000000
 11
52.000000
 21
115.000000
  0
LINE
  8
0
 10
53.000000
 20
107.000015
 11
52.000000
 21
107.000015
  0
LINE
  8
0
 10
61.000000
 20
115.000000
 11
53.000000
 21
115.000000
  0
LINE
  8
0
 10
61.000000
 20
45.000000
 11
53.000000
 21
45.000000
  0
LINE
  8
0
 10
-6.000031
 20
45.000000
 11
-6.000031
 21
115.000000
  0
LINE
  8
0
 10
50.999985
 20
46.000015
 11
-5.000015
 21
46.000015
  0
LINE
  8
0
 10
51.000000
 20
46.000015
 11
51.000000
 21
114.000000
  0
LINE
  8
0
 10
50.999985
 20
114.000000
 11
-5.000015
 21
114.000000
  0
LINE
  8
0
 10
51.999935
 20
44.999973
 11
50.999924
 21
45.999985
  0
LINE
  8
0
 10
52.000008
 20
115.000015
 11
51.000015
 21
114.000015
  0
LINE
  8
0
 10
-5.000035
 20
114.000008
 11
-6.000016
 21
114.999985
  0
LINE
  8
0
 10
-6.000021
 20
44.999977
 11
-5.000025
 21
45.999973
  0
LINE
  8
0
  6
CENTER
 62
     2
 10
8.816643
 20
109.000031
 11
2.183319
 21
109.000031
  0
LINE
  8
0
  6
CENTER
 62
     2
 10
5.499969
 20
105.733360
 11
5.499969
 21
112.200027
  0
LINE
  8
0
  6
CENTER
 62
     2
 10
8.816643
 20
51.000015
 11
2.183319
 21
51.000015
  0
LINE
  8
0
  6
CENTER
 62
     2
 10
5.499969
 20
47.733353
 11
5.499969
 21
54.200005
  0
LINE
  8
0
  6
CENTER
 62
     2
 10
43.816650
 20
51.000015
 11
37.183319
 21
51.000015
  0
LINE
  8
0
  6
CENTER
 62
     2
 10
40.499969
 20
47.733330
 11
40.499969
 21
54.200005
  0
LINE
  8
0
  6
CENTER
 62
     2
 10
43.816650
 20
109.000031
 11
37.183319
 21
109.000031
  0
LINE
  8
0
  6
CENTER
 62
     2
 10
40.499969
 20
105.733360
 11
40.499969
 21
112.200012
  0
LINE
  8
0
  6
CENTER
 62
     2
 10
44.999985
 20
76.200012
 11
44.999985
 21
83.900017
  0
LINE
  8
0
 10
-22.000008
 20
45.000000
 11
-30.000000
 21
45.000000
  0
LINE
  8
0
 10
-22.000008
 20
115.000000
 11
-30.000000
 21
115.000000
  0
LINE
  8
0
 10
-30.000000
 20
45.000000
 11
-30.000000
 21
115.000000
  0
LINE
  8
0
 10
61.000000
 20
45.000000
 11
61.000000
 21
115.000000
  0
LINE
  8
0
  6
CENTER
 62
     2
 10
61.690231
 20
97.000015
 11
52.263672
 21
97.000015
  0
LINE
  8
0
  6
CENTER
 62
     2
 10
57.000000
 20
92.344337
 11
57.000000
 21
101.772072
  0
LINE
  8
0
  6
CENTER
 62
     2
 10
-21.309784
 20
97.000015
 11
-30.736328
 21
97.000015
  0
LINE
  8
0
  6
CENTER
 62
     2
 10
-26.000015
 20
92.344337
 11
-26.000015
 21
101.772072
  0
LINE
  8
0
  6
CENTER
 62
     2
 10
-21.309784
 20
62.999985
 11
-30.736328
 21
62.999985
  0
LINE
  8
0
  6
CENTER
 62
     2
 10
-26.000015
 20
58.344330
 11
-26.000015
 21
67.772064
  0
LINE
  8
0
  6
CENTER
 62
     2
 10
61.690231
 20
62.999985
 11
52.263672
 21
62.999985
  0
LINE
  8
0
  6
CENTER
 62
     2
 10
57.000000
 20
58.344330
 11
57.000000
 21
67.772064
  0
LINE
  8
0
 10
51.999954
 20
49.599998
 11
51.999954
 21
52.399986
  0
LINE
  8
0
 10
53.000000
 20
45.000000
 11
53.000000
 21
115.000000
  0
LINE
  8
0
 10
-6.000031
 20
51.999992
 11
-20.999992
 21
51.999992
  0
LINE
  8
0
 10
-6.000008
 20
52.999985
 11
-22.000008
 21
52.999985
  0
LINE
  8
0
 10
-6.000031
 20
107.000015
 11
-22.000008
 21
107.000015
  0
LINE
  8
0
 10
-6.000008
 20
108.000008
 11
-13.999741
 21
108.000008
  0
LINE
  8
0
 10
52.000000
 20
115.000000
 11
-6.000008
 21
115.000000
  0
LINE
  8
0
 10
52.000000
 20
45.000000
 11
-6.000008
 21
45.000000
  0
LINE
  8
0
 62
     4
 10
-70.000015
 20
104.900009
 11
-60.000015
 21
104.900009
  0
LINE
  8
0
 62
     4
 10
-60.000015
 20
103.400009
 11
-30.000000
 21
103.400009
  0
LINE
  8
0
 62
     4
 10
-60.000015
 20
103.400009
 11
-60.000015
 21
105.999977
  0
LINE
  8
0
 62
     4
 10
-70.000015
 20
103.900017
 11
-60.000015
 21
103.900017
  0
LINE
  8
0
 62
     4
 10
-70.000015
 20
105.900009
 11
-60.000015
 21
105.900009
  0
LINE
  8
0
 62
     4
 10
-70.000008
 20
103.900017
 11
-70.000008
 21
105.900009
  0
LINE
  8
0
 62
     1
 10
-49.258778
 20
52.186695
 11
-48.740692
 21
58.108444
  0
LINE
  8
0
 62
     4
 10
-70.000008
 20
55.100006
 11
-60.000000
 21
55.100006
  0
LINE
  8
0
 62
     4
 10
-60.000000
 20
53.600006
 11
-49.135056
 21
53.600006
  0
LINE
  8
0
 62
     4
 10
-60.000000
 20
56.599991
 11
-48.872589
 21
56.599991
  0
LINE
  8
0
 62
     4
 10
-60.000000
 20
53.600006
 11
-60.000000
 21
56.599991
  0
LINE
  8
0
 62
     4
 10
-48.131233
 20
53.600006
 11
-35.000015
 21
53.600006
  0
LINE
  8
0
 62
     4
 10
-47.868774
 20
56.599991
 11
-35.000015
 21
56.599991
  0
LINE
  8
0
 62
     4
 10
-70.000008
 20
54.099991
 11
-60.000000
 21
54.099991
  0
LINE
  8
0
 62
     4
 10
-70.000008
 20
56.100006
 11
-60.000000
 21
56.100006
  0
LINE
  8
0
 62
     4
 10
-70.000000
 20
54.099991
 11
-70.000000
 21
56.100006
  0
LINE
  8
0
 62
     1
 10
-48.260166
 20
52.126831
 11
-47.740707
 21
58.064281
  0
LINE
  8
0
 62
     4
 10
-14.499985
 20
107.499977
 11
-22.000008
 21
107.499977
  0
LINE
  8
0
 62
     4
 10
-14.499985
 20
110.500015
 11
-22.000008
 21
110.500015
  0
LINE
  8
0
 62
     4
 10
-14.499929
 20
107.499962
 11
-13.999942
 21
107.999954
  0
LINE
  8
0
 62
     4
 10
-14.000030
 20
109.999969
 11
-14.500017
 21
110.499947
  0
LINE
  8
0
 62
     4
 10
-14.499985
 20
107.500000
 11
-14.499985
 21
110.500015
  0
LINE
  8
0
 62
     4
 10
-13.999741
 20
110.000000
 11
-13.999741
 21
107.999985
  0
LINE
  8
0
 62
     4
 10
-33.000000
 20
103.999985
 11
-51.250000
 21
103.999985
  0
LINE
  8
0
 62
     4
 10
-33.000000
 20
113.999985
 11
-51.250008
 21
113.999985
  0
LINE
  8
0
 62
     4
 10
-62.000015
 20
105.999977
 11
-62.000015
 21
111.999969
  0
LINE
  8
0
 62
     4
 10
-58.000008
 20
104.749977
 11
-58.000008
 21
105.999977
  0
LINE
  8
0
 62
     4
 10
-58.000008
 20
105.999977
 11
-62.000015
 21
105.999977
  0
LINE
  8
0
 62
     4
 10
-58.000008
 20
111.999985
 11
-62.000015
 21
111.999985
  0
LINE
  8
0
 62
     4
 10
-52.000015
 20
113.249985
 11
-58.000008
 21
113.249985
  0
LINE
  8
0
 62
     4
 10
-52.000015
 20
104.749977
 11
-58.000008
 21
104.749977
  0
LINE
  8
0
 62
     4
 10
-52.000008
 20
104.749977
 11
-52.000008
 21
113.249969
  0
LINE
  8
0
 62
     4
 10
-51.249996
 20
104.000038
 11
-51.999992
 21
104.750031
  0
LINE
  8
0
 62
     4
 10
-51.250103
 20
114.000069
 11
-52.000103
 21
113.250061
  0
LINE
  8
0
 62
     1
 10
-33.000000
 20
104.499992
 11
-51.749992
 21
104.499992
  0
LINE
  8
0
 62
     1
 10
-33.000000
 20
113.499969
 11
-51.750008
 21
113.499969
  0
LINE
  8
0
 62
     4
 10
-51.250008
 20
103.999962
 11
-51.250008
 21
113.999954
  0
LINE
  8
0
 62
     4
 10
-58.000008
 20
111.999969
 11
-58.000008
 21
113.249969
  0
LINE
  8
0
 62
     4
 10
-61.500015
 20
105.999977
 11
-61.500015
 21
111.999969
  0
LINE
  8
0
 62
     4
 10
63.999985
 20
114.000000
 11
82.250000
 21
114.000000
  0
LINE
  8
0
 62
     4
 10
63.999985
 20
104.000008
 11
82.250000
 21
104.000008
  0
LINE
  8
0
 62
     4
 10
83.000015
 20
104.750015
 11
89.000015
 21
104.750015
  0
LINE
  8
0
 62
     4
 10
83.000015
 20
113.250015
 11
89.000015
 21
113.250015
  0
LINE
  8
0
 62
     4
 10
83.000000
 20
113.250015
 11
83.000000
 21
104.750015
  0
LINE
  8
0
 62
     4
 10
82.250175
 20
114.000160
 11
83.000175
 21
113.250145
  0
LINE
  8
0
 62
     4
 10
82.250023
 20
103.999977
 11
83.000031
 21
104.749985
  0
LINE
  8
0
 62
     1
 10
63.999985
 20
113.500000
 11
82.749985
 21
113.500000
  0
LINE
  8
0
 62
     1
 10
63.999985
 20
104.500015
 11
82.749985
 21
104.500015
  0
LINE
  8
0
 62
     4
 10
82.250000
 20
114.000031
 11
82.250000
 21
104.000008
  0
LINE
  8
0
 10
51.999985
 20
110.000000
 11
51.999985
 21
107.999985
  0
LINE
  8
0
 62
     4
 10
52.499985
 20
107.500000
 11
53.000015
 21
107.500000
  0
LINE
  8
0
 62
     4
 10
52.499985
 20
110.500015
 11
52.499985
 21
107.500000
  0
LINE
  8
0
 62
     4
 10
52.499985
 20
110.500031
 11
53.000015
 21
110.500031
  0
LINE
  8
0
 62
     4
 10
52.499969
 20
110.500038
 11
51.999962
 21
110.000031
  0
LINE
  8
0
 62
     4
 10
51.999939
 20
107.999924
 11
52.499943
 21
107.499916
  0
LINE
  8
0
  6
CENTER
 62
     1
 10
-11.255028
 20
108.999985
 11
-64.842606
 21
108.999985
  0
LINE
  8
0
 10
20.999985
 20
110.000000
 11
20.999985
 21
108.000008
  0
LINE
  8
0
 62
     4
 10
63.999985
 20
114.499969
 11
63.999985
 21
103.499977
  0
LINE
  8
0
 62
     4
 10
61.000000
 20
114.499969
 11
63.999985
 21
114.499969
  0
LINE
  8
0
 62
     4
 10
61.000000
 20
103.499977
 11
63.999985
 21
103.499977
  0
LINE
  8
0
 62
     4
 10
61.230896
 20
113.599243
 11
63.769104
 21
113.599243
  0
LINE
  8
0
 62
     4
 10
61.230896
 20
104.400742
 11
63.769104
 21
104.400742
  0
LINE
  8
0
 62
     4
 10
61.230896
 20
108.099236
 11
63.769104
 21
108.099236
  0
LINE
  8
0
 62
     4
 10
61.230896
 20
109.900772
 11
63.769104
 21
109.900772
  0
LINE
  8
0
 62
     4
 10
61.230865
 20
109.900757
 11
61.230865
 21
108.099236
  0
LINE
  8
0
 62
     4
 10
63.769104
 20
109.900757
 11
63.769104
 21
108.099236
  0
LINE
  8
0
 62
     4
 10
61.230865
 20
114.499969
 11
61.230865
 21
113.599243
  0
LINE
  8
0
 62
     4
 10
63.769104
 20
113.599243
 11
63.769104
 21
114.499969
  0
LINE
  8
0
 62
     4
 10
61.230865
 20
104.400742
 11
61.230865
 21
103.499977
  0
LINE
  8
0
 62
     4
 10
63.769104
 20
104.400742
 11
63.769104
 21
103.499977
  0
LINE
  8
0
 62
     4
 10
-33.000000
 20
103.500015
 11
-33.000000
 21
114.500015
  0
LINE
  8
0
 62
     4
 10
-30.000000
 20
103.500015
 11
-33.000000
 21
103.500015
  0
LINE
  8
0
 62
     4
 10
-30.000000
 20
114.500015
 11
-33.000000
 21
114.500015
  0
LINE
  8
0
 62
     4
 10
-30.230896
 20
104.400742
 11
-32.769104
 21
104.400742
  0
LINE
  8
0
 62
     4
 10
-30.230896
 20
113.599258
 11
-32.769104
 21
113.599258
  0
LINE
  8
0
 62
     4
 10
-30.230896
 20
109.900757
 11
-32.769104
 21
109.900757
  0
LINE
  8
0
 62
     4
 10
-30.230896
 20
108.099236
 11
-32.769104
 21
108.099236
  0
LINE
  8
0
 62
     4
 10
-30.230881
 20
108.099236
 11
-30.230881
 21
109.900757
  0
LINE
  8
0
 62
     4
 10
-32.769104
 20
108.099236
 11
-32.769104
 21
109.900757
  0
LINE
  8
0
 62
     4
 10
-30.230881
 20
103.500015
 11
-30.230881
 21
104.400742
  0
LINE
  8
0
 62
     4
 10
-32.769104
 20
104.400742
 11
-32.769104
 21
103.500015
  0
LINE
  8
0
 62
     4
 10
-30.230881
 20
113.599243
 11
-30.230881
 21
114.500015
  0
LINE
  8
0
 62
     4
 10
-32.769104
 20
113.599243
 11
-32.769104
 21
114.500015
  0
LINE
  8
0
  6
CENTER
 62
     1
 10
50.985916
 20
109.000061
 11
94.888550
 21
109.000061
  0
LINE
  8
0
 62
     4
 10
-33.500027
 20
57.100006
 11
-35.000027
 21
56.600006
  0
LINE
  8
0
 62
     4
 10
-33.500015
 20
57.099998
 11
-30.000000
 21
57.099998
  0
LINE
  8
0
 62
     4
 10
-35.000015
 20
56.599991
 11
-35.000015
 21
53.600006
  0
LINE
  8
0
 62
     4
 10
-33.499802
 20
57.100014
 11
-33.499802
 21
53.100006
  0
LINE
  8
0
 10
-6.000031
 20
94.000008
 11
-22.000008
 21
94.000008
  0
LINE
  8
0
 10
-6.000031
 20
100.999992
 11
-22.000008
 21
100.999992
  0
LINE
  8
0
 10
-6.000031
 20
59.000000
 11
-22.000008
 21
59.000000
  0
LINE
  8
0
 10
-6.000031
 20
65.999992
 11
-22.000008
 21
65.999992
  0
LINE
  8
0
 10
-6.000008
 20
88.500015
 11
-22.000031
 21
88.500015
  0
LINE
  8
0
 10
-6.000008
 20
71.499985
 11
-22.000031
 21
71.499985
  0
LINE
  8
0
 10
-6.000031
 20
101.999992
 11
-22.000008
 21
101.999992
  0
LINE
  8
0
 10
-6.000031
 20
58.000008
 11
-22.000008
 21
58.000008
  0
LINE
  8
0
 10
53.000000
 20
71.500000
 11
52.000000
 21
71.500000
  0
LINE
  8
0
 10
53.000000
 20
88.499992
 11
52.000000
 21
88.499992
  0
LINE
  8
0
 10
53.000000
 20
65.999992
 11
52.000000
 21
65.999992
  0
LINE
  8
0
 10
53.000000
 20
94.000008
 11
52.000000
 21
94.000008
  0
LINE
  8
0
 10
53.000000
 20
100.999992
 11
52.000000
 21
100.999992
  0
LINE
  8
0
 10
53.000000
 20
101.999992
 11
52.000000
 21
101.999992
  0
LINE
  8
0
 10
53.000000
 20
59.000000
 11
52.000000
 21
59.000000
  0
LINE
  8
0
 10
53.000000
 20
58.000008
 11
52.000000
 21
58.000008
  0
LINE
  8
0
 10
-5.000015
 20
46.000015
 11
-5.000015
 21
114.000000
  0
LINE
  8
0
  6
CENTER
 62
     2
 10
22.999992
 20
47.399979
 11
22.999992
 21
54.599983
  0
LINE
  8
0
  6
CENTER
 62
     2
 10
26.599991
 20
50.999992
 11
19.399994
 21
50.999992
  0
LINE
  8
0
  6
CENTER
 62
     2
 10
27.499985
 20
108.999985
 11
18.500000
 21
108.999985
  0
LINE
  8
0
 10
24.999985
 20
110.000000
 11
24.999985
 21
108.000008
  0
LINE
  8
0
  6
CENTER
 62
     2
 10
22.999992
 20
104.500015
 11
22.999992
 21
113.500015
  0
LINE
  8
0
 10
-21.600006
 20
53.000008
 11
-22.000008
 21
53.000008
  0
LINE
  8
0
 62
     4
 10
-33.500015
 20
53.099998
 11
-32.400009
 21
53.099998
  0
LINE
  8
0
 62
     4
 10
-35.000000
 20
53.600014
 11
-33.500011
 21
53.100014
  0
LINE
  8
0
 10
-21.349993
 20
52.999985
 11
-22.000008
 21
52.999985
  0
LINE
  8
0
 10
-40.650002
 20
52.999992
 11
-40.650002
 21
48.999992
  0
LINE
  8
0
 10
-32.400009
 20
54.499992
 11
-29.999992
 21
54.499992
  0
LINE
  8
0
 10
-40.650002
 20
52.999992
 11
-32.400009
 21
52.999992
  0
LINE
  8
0
 10
-32.400009
 20
54.499992
 11
-32.400009
 21
47.500000
  0
LINE
  8
0
 10
-32.400009
 20
47.500000
 11
-29.999992
 21
47.500000
  0
LINE
  8
0
 62
     2
 10
-41.000000
 20
49.350002
 11
-32.400009
 21
49.350002
  0
LINE
  8
0
 62
     2
 10
-41.000000
 20
52.650005
 11
-32.400009
 21
52.650005
  0
LINE
  8
0
 10
-32.087387
 20
50.999992
 11
-30.312607
 21
50.999992
  0
LINE
  8
0
 10
-22.000008
 20
52.999992
 11
-21.349993
 21
52.999992
  0
LINE
  8
0
 10
-40.650002
 20
48.999992
 11
-32.400009
 21
48.999992
  0
LINE
  8
0
 10
-22.000008
 20
48.999992
 11
-21.349993
 21
48.999992
  0
LINE
  8
0
 62
     2
 10
-22.000008
 20
49.350002
 11
-20.999992
 21
49.350002
  0
LINE
  8
0
 62
     2
 10
-22.000008
 20
52.650005
 11
-20.999992
 21
52.650005
  0
LINE
  8
0
 10
-40.650005
 20
48.999985
 11
-41.000004
 21
49.349983
  0
LINE
  8
0
 10
-41.000004
 20
52.649986
 11
-40.650005
 21
52.999985
  0
LINE
  8
0
 10
-41.000000
 20
52.649994
 11
-41.000000
 21
49.349995
  0
LINE
  8
0
 10
-21.349993
 20
48.999992
 11
-21.349993
 21
52.999992
  0
LINE
  8
0
 10
-20.999992
 20
49.349991
 11
-20.999992
 21
52.649994
  0
LINE
  8
0
 10
-21.349974
 20
52.999989
 11
-20.999971
 21
52.649986
  0
LINE
  8
0
 10
-20.999989
 20
49.349987
 11
-21.349989
 21
48.999989
  0
LINE
  8
0
 10
71.650002
 20
52.999992
 11
71.650002
 21
48.999992
  0
LINE
  8
0
 10
63.400009
 20
54.499992
 11
60.999992
 21
54.499992
  0
LINE
  8
0
 10
71.650002
 20
52.999992
 11
63.400009
 21
52.999992
  0
LINE
  8
0
 10
63.400009
 20
54.499992
 11
63.400009
 21
47.500000
  0
LINE
  8
0
 10
63.400009
 20
47.500000
 11
60.999992
 21
47.500000
  0
LINE
  8
0
 62
     2
 10
72.000000
 20
49.350002
 11
63.400009
 21
49.350002
  0
LINE
  8
0
 62
     2
 10
72.000000
 20
52.650005
 11
63.400009
 21
52.650005
  0
LINE
  8
0
 10
63.087387
 20
50.999992
 11
61.312607
 21
50.999992
  0
LINE
  8
0
 10
53.000008
 20
52.999992
 11
52.349991
 21
52.999992
  0
LINE
  8
0
 10
71.650002
 20
48.999992
 11
63.400009
 21
48.999992
  0
LINE
  8
0
 10
53.000008
 20
48.999992
 11
52.349991
 21
48.999992
  0
LINE
  8
0
 62
     2
 10
53.000008
 20
49.350002
 11
51.999992
 21
49.350002
  0
LINE
  8
0
 62
     2
 10
53.000008
 20
52.650005
 11
51.999992
 21
52.650005
  0
LINE
  8
0
 10
71.649971
 20
49.000011
 11
71.999977
 21
49.350018
  0
LINE
  8
0
 10
71.999969
 20
52.649956
 11
71.649971
 21
52.999954
  0
LINE
  8
0
 10
72.000000
 20
52.649994
 11
72.000000
 21
49.349995
  0
LINE
  8
0
 10
52.349991
 20
48.999992
 11
52.349991
 21
52.999992
  0
LINE
  8
0
 10
51.999992
 20
49.349991
 11
51.999992
 21
52.649994
  0
LINE
  8
0
 10
52.350014
 20
52.999958
 11
52.000023
 21
52.649967
  0
LINE
  8
0
 10
51.999981
 20
49.349979
 11
52.349983
 21
48.999977
  0
LINE
  8
0
 62
     4
 10
89.000015
 20
106.000015
 11
89.000015
 21
104.750015
  0
LINE
  8
0
 62
     4
 10
93.000015
 20
112.000015
 11
93.000015
 21
106.000015
  0
LINE
  8
0
 62
     4
 10
89.000015
 20
113.250015
 11
89.000015
 21
112.000015
  0
LINE
  8
0
 62
     4
 10
89.000015
 20
112.000015
 11
93.000015
 21
112.000015
  0
LINE
  8
0
 62
     4
 10
92.500015
 20
112.000015
 11
92.500015
 21
106.000015
  0
LINE
  8
0
  6
PHANTOM
 62
     3
 10
-9.000031
 20
25.000000
 11
-9.000031
 21
140.000000
  0
LINE
  8
0
  6
PHANTOM
 62
     3
 10
14.249981
 20
25.000000
 11
14.249981
 21
130.000000
  0
LINE
  8
0
  6
PHANTOM
 62
     3
 10
31.749981
 20
25.000000
 11
31.749981
 21
120.000000
  0
LINE
  8
0
 10
-160.000000
 20
115.000000
 11
-140.500015
 21
115.000000
  0
LINE
  8
0
 10
-160.000000
 20
45.000000
 11
-140.500015
 21
45.000000
  0
LINE
  8
0
 10
-160.000000
 20
115.000000
 11
-160.000000
 21
45.000000
  0
LINE
  8
0
 10
-140.000000
 20
114.000000
 11
-140.000000
 21
46.000015
  0
LINE
  8
0
 10
-140.500031
 20
114.500031
 11
-140.000031
 21
114.000015
  0
LINE
  8
0
 10
-140.500031
 20
45.500042
 11
-140.000031
 21
46.000038
  0
LINE
  8
0
  6
CENTER
 62
     2
 10
-163.099182
 20
80.000000
 11
-137.194412
 21
80.000000
  0
LINE
  8
0
  6
CENTER
 62
     2
 10
-155.500015
 20
59.575714
 11
-155.500015
 21
50.513153
  0
LINE
  8
0
  6
CENTER
 62
     2
 10
-160.559601
 20
55.000000
 11
-150.759628
 21
55.000000
  0
LINE
  8
0
 62
     4
 10
-158.000015
 20
53.000008
 11
-157.500000
 21
53.000008
  0
LINE
  8
0
 62
     4
 10
-158.000015
 20
57.199989
 11
-158.000015
 21
53.000008
  0
LINE
  8
0
 62
     4
 10
-157.500000
 20
53.000008
 11
-157.500000
 21
52.116852
  0
LINE
  8
0
 62
     4
 10
-158.000015
 20
57.199989
 11
-152.799988
 21
57.199989
  0
LINE
  8
0
 62
     4
 10
-152.799988
 20
53.000008
 11
-152.627716
 21
53.000008
  0
LINE
  8
0
 62
     4
 10
-154.000000
 20
57.099998
 11
-154.000000
 21
53.099998
  0
LINE
  8
0
 62
     4
 10
-158.000015
 20
53.099998
 11
-153.000015
 21
53.099998
  0
LINE
  8
0
 62
     4
 10
-158.000015
 20
57.099976
 11
-153.000015
 21
57.099976
  0
LINE
  8
0
  6
CENTER
 62
     2
 10
-155.500015
 20
100.424278
 11
-155.500015
 21
109.486847
  0
LINE
  8
0
  6
CENTER
 62
     2
 10
-160.559601
 20
105.000000
 11
-151.310562
 21
105.000000
  0
LINE
  8
0
 62
     4
 10
-158.000015
 20
107.000015
 11
-157.500000
 21
107.000015
  0
LINE
  8
0
 62
     4
 10
-158.000015
 20
102.800011
 11
-158.000015
 21
107.000015
  0
LINE
  8
0
 62
     4
 10
-157.500000
 20
107.000015
 11
-157.500000
 21
107.883148
  0
LINE
  8
0
 62
     4
 10
-158.000015
 20
102.800011
 11
-152.799988
 21
102.800011
  0
LINE
  8
0
 62
     4
 10
-154.000000
 20
102.900017
 11
-154.000000
 21
106.900002
  0
LINE
  8
0
 62
     4
 10
-158.000015
 20
106.900002
 11
-153.000015
 21
106.900002
  0
LINE
  8
0
 62
     4
 10
-158.000015
 20
102.900002
 11
-153.000015
 21
102.900002
  0
LINE
  8
0
  6
CENTER
 62
     2
 10
-155.075363
 20
67.999985
 11
-147.789642
 21
67.999985
  0
LINE
  8
0
  6
CENTER
 62
     2
 10
-151.500000
 20
71.618607
 11
-151.500000
 21
64.380516
  0
LINE
  8
0
  6
CENTER
 62
     2
 10
-151.500000
 20
84.618614
 11
-151.500000
 21
77.380524
  0
LINE
  8
0
  6
CENTER
 62
     2
 10
-155.075363
 20
80.999992
 11
-147.789642
 21
80.999992
  0
LINE
  8
0
 10
-148.020752
 20
47.499977
 11
-143.979309
 21
47.499977
  0
LINE
  8
0
 10
-148.020752
 20
54.499969
 11
-143.979309
 21
54.499969
  0
LINE
  8
0
 10
-148.020981
 20
47.499886
 11
-150.041702
 21
50.999878
  0
LINE
  8
0
 10
-141.958817
 20
50.999924
 11
-143.979538
 21
54.499916
  0
LINE
  8
0
 10
-150.041428
 20
50.999855
 11
-148.020706
 21
54.499840
  0
LINE
  8
0
 10
-143.979279
 20
47.499897
 11
-141.958557
 21
50.999882
  0
LINE
  8
0
  6
CENTER
 62
     2
 10
-151.500031
 20
50.999992
 11
-140.500015
 21
50.999992
  0
LINE
  8
0
  6
CENTER
 62
     2
 10
-146.000000
 20
56.499985
 11
-146.000000
 21
45.500008
  0
LINE
  8
0
 10
-144.787613
 20
51.699970
 11
-146.000046
 21
52.399963
  0
LINE
  8
0
 10
-146.000046
 20
52.399967
 11
-147.212479
 21
51.699974
  0
LINE
  8
0
 10
-147.212570
 20
51.700005
 11
-147.212570
 21
50.299988
  0
LINE
  8
0
 10
-147.212448
 20
50.299980
 11
-146.000031
 21
49.599983
  0
LINE
  8
0
 10
-146.000229
 20
49.600422
 11
-144.787796
 21
50.300419
  0
LINE
  8
0
 10
-144.788635
 20
50.300034
 11
-144.788635
 21
51.700027
  0
LINE
  8
0
 10
-140.500015
 20
115.000000
 11
-140.500015
 21
45.000000
  0
LINE
  8
0
 62
     4
 10
-152.799988
 20
102.800011
 11
-152.799988
 21
106.912010
  0
LINE
  8
0
 62
     4
 10
-153.000015
 20
102.900017
 11
-153.000015
 21
106.900002
  0
LINE
  8
0
 62
     4
 10
-152.799988
 20
57.199989
 11
-152.799988
 21
53.000008
  0
LINE
  8
0
 62
     4
 10
-153.000015
 20
57.099998
 11
-153.000015
 21
53.099998
  0
LINE
  8
0
  6
CENTER
 62
     1
 10
-138.142822
 20
109.000008
 11
-154.809540
 21
109.000008
  0
LINE
  8
0
  6
CENTER
 62
     1
 10
-146.500000
 20
116.985687
 11
-146.500000
 21
101.176170
  0
LINE
  8
0
 62
     4
 10
-143.489594
 20
105.999992
 11
-149.510406
 21
105.999992
  0
LINE
  8
0
 62
     4
 10
-143.489594
 20
111.999969
 11
-149.510406
 21
111.999969
  0
LINE
  8
0
 62
     4
 10
-152.330856
 20
109.900658
 11
-150.195404
 21
113.599380
  0
LINE
  8
0
 62
     4
 10
-150.195389
 20
104.400757
 11
-152.330795
 21
108.099388
  0
LINE
  8
0
 62
     4
 10
-144.364655
 20
103.499954
 11
-148.635345
 21
103.499954
  0
LINE
  8
0
 62
     4
 10
-140.669189
 20
108.099236
 11
-142.804504
 21
104.400757
  0
LINE
  8
0
 62
     4
 10
-142.804398
 20
113.599358
 11
-140.669067
 21
109.900856
  0
LINE
  8
0
 62
     4
 10
-148.635437
 20
114.499969
 11
-144.364563
 21
114.499969
  0
LINE
  8
0
  6
CENTER
 62
     2
 10
193.099136
 20
80.000000
 11
166.614929
 21
80.000000
  0
LINE
  8
0
 10
189.999969
 20
115.000000
 11
170.499969
 21
115.000000
  0
LINE
  8
0
 10
189.999969
 20
45.000000
 11
170.499969
 21
45.000000
  0
LINE
  8
0
 10
190.000000
 20
115.000000
 11
190.000000
 21
45.000000
  0
LINE
  8
0
 10
170.499985
 20
114.499985
 11
169.999985
 21
113.999977
  0
LINE
  8
0
 10
170.499893
 20
45.499950
 11
169.999878
 21
45.999962
  0
LINE
  8
0
 10
178.020721
 20
47.499977
 11
173.979279
 21
47.499977
  0
LINE
  8
0
 10
178.020721
 20
54.499969
 11
173.979279
 21
54.499969
  0
LINE
  8
0
 10
178.020905
 20
47.499886
 11
180.041626
 21
50.999878
  0
LINE
  8
0
 10
171.958771
 20
50.999897
 11
173.979492
 21
54.499889
  0
LINE
  8
0
 10
180.041443
 20
50.999916
 11
178.020721
 21
54.499928
  0
LINE
  8
0
 10
173.979172
 20
47.499924
 11
171.958450
 21
50.999916
  0
LINE
  8
0
  6
CENTER
 62
     2
 10
181.499985
 20
50.999992
 11
170.499969
 21
50.999992
  0
LINE
  8
0
  6
CENTER
 62
     2
 10
176.000000
 20
56.499985
 11
176.000000
 21
45.500008
  0
LINE
  8
0
 10
174.787582
 20
51.699924
 11
176.000000
 21
52.399929
  0
LINE
  8
0
 10
175.999954
 20
52.399891
 11
177.212418
 21
51.699883
  0
LINE
  8
0
 10
177.212540
 20
51.700005
 11
177.212540
 21
50.299988
  0
LINE
  8
0
 10
177.212418
 20
50.299934
 11
175.999985
 21
49.599930
  0
LINE
  8
0
 10
176.000183
 20
49.600430
 11
174.787766
 21
50.300430
  0
LINE
  8
0
 10
174.788605
 20
50.300034
 11
174.788605
 21
51.700027
  0
LINE
  8
0
  6
CENTER
 62
     1
 10
184.857193
 20
109.000008
 11
168.190475
 21
109.000008
  0
LINE
  8
0
  6
CENTER
 62
     1
 10
176.500000
 20
116.985687
 11
176.500000
 21
101.176170
  0
LINE
  8
0
 62
     4
 10
179.510406
 20
105.999992
 11
173.489594
 21
105.999992
  0
LINE
  8
0
 62
     4
 10
179.510406
 20
111.999985
 11
173.489594
 21
111.999985
  0
LINE
  8
0
 10
170.499969
 20
115.000000
 11
170.499969
 21
45.000000
  0
LINE
  8
0
 10
169.999969
 20
114.000000
 11
169.999969
 21
46.000015
  0
LINE
  8
0
 62
     4
 10
170.669144
 20
109.900642
 11
172.804611
 21
113.599380
  0
LINE
  8
0
 62
     4
 10
172.804657
 20
104.400688
 11
170.669235
 21
108.099335
  0
LINE
  8
0
 62
     4
 10
178.635345
 20
103.499954
 11
174.364670
 21
103.499954
  0
LINE
  8
0
 62
     4
 10
182.330811
 20
108.099190
 11
180.195496
 21
104.400719
  0
LINE
  8
0
 62
     4
 10
180.195541
 20
113.599236
 11
182.330872
 21
109.900742
  0
LINE
  8
0
 62
     4
 10
174.364563
 20
114.499969
 11
178.635452
 21
114.499969
  0
LINE
  8
0
 10
-30.000000
 20
-13.723793
 11
61.000000
 21
-13.723793
  0
LINE
  8
0
 10
-30.000000
 20
5.776207
 11
-30.000000
 21
-13.723793
  0
LINE
  8
0
 10
-22.000008
 20
5.776207
 11
-22.000008
 21
-13.723793
  0
LINE
  8
0
 10
61.000000
 20
5.776207
 11
61.000000
 21
-13.723793
  0
LINE
  8
0
 10
53.000000
 20
5.776207
 11
53.000000
 21
-13.723793
  0
LINE
  8
0
 10
-30.000000
 20
5.776207
 11
-22.000008
 21
5.776207
  0
LINE
  8
0
 10
53.000000
 20
5.776207
 11
61.000000
 21
5.776207
  0
LINE
  8
0
 10
-5.000015
 20
6.276207
 11
51.000000
 21
6.276207
  0
LINE
  8
0
 10
-6.000031
 20
5.276207
 11
-6.000031
 21
-8.223793
  0
LINE
  8
0
 10
52.000000
 20
5.276207
 11
52.000000
 21
-8.223793
  0
LINE
  8
0
 10
-6.000025
 20
5.276205
 11
-5.000029
 21
6.276201
  0
LINE
  8
0
 10
52.000065
 20
5.276253
 11
51.000065
 21
6.276256
  0
LINE
  8
0
 10
-6.000008
 20
-8.223793
 11
52.000000
 21
-8.223793
  0
LINE
  8
0
 10
-6.000008
 20
5.276207
 11
52.000000
 21
5.276207
  0
LINE
  8
0
 10
-22.000008
 20
-11.223793
 11
53.000000
 21
-11.223793
  0
LINE
  8
0
 10
-22.000008
 20
-4.223793
 11
-6.000008
 21
-4.223793
  0
LINE
  8
0
 10
-20.999992
 20
1.776207
 11
-6.000008
 21
1.776207
  0
LINE
  8
0
 10
52.000000
 20
-4.223793
 11
53.000000
 21
-4.223793
  0
LINE
  8
0
 10
-32.087395
 20
4.317657
 11
-30.312607
 21
4.317657
  0
LINE
  8
0
 10
-32.400112
 20
3.776268
 11
-32.087502
 21
4.317726
  0
LINE
  8
0
 10
-32.400009
 20
3.776207
 11
-32.400009
 21
-3.223793
  0
LINE
  8
0
 10
-32.087387
 20
2.296936
 11
-30.312607
 21
2.296936
  0
LINE
  8
0
 10
-32.087395
 20
-1.744522
 11
-30.312607
 21
-1.744522
  0
LINE
  8
0
 10
-32.087395
 20
-3.765244
 11
-30.312607
 21
-3.765244
  0
LINE
  8
0
 10
-32.400078
 20
-3.223840
 11
-32.087475
 21
-3.765284
  0
LINE
  8
0
 10
-30.000090
 20
-3.223760
 11
-30.312693
 21
-3.765204
  0
LINE
  8
0
 10
-30.000082
 20
3.776153
 11
-30.312685
 21
4.317597
  0
LINE
  8
0
 10
51.999954
 20
-1.123787
 11
51.999954
 21
1.676208
  0
LINE
  8
0
 62
     4
 10
-33.500015
 20
-7.723793
 11
-30.000000
 21
-7.723793
  0
LINE
  8
0
 62
     4
 10
-35.000015
 20
-8.223793
 11
-35.000015
 21
-11.223793
  0
LINE
  8
0
 62
     4
 10
-7.500015
 20
-8.223793
 11
-7.500015
 21
-11.223793
  0
LINE
  8
0
 62
     4
 10
-33.500015
 20
-6.723793
 11
-33.500015
 21
-11.723793
  0
LINE
  8
0
 62
     4
 10
-9.000023
 20
-7.723793
 11
-9.000023
 21
-11.223793
  0
LINE
  8
0
 62
     4
 10
-33.500019
 20
-7.723792
 11
-35.000019
 21
-8.223792
  0
LINE
  8
0
 62
     1
 10
-49.258759
 20
-12.637097
 11
-48.740669
 21
-6.715344
  0
LINE
  8
0
 62
     4
 10
-70.000008
 20
-9.723785
 11
-60.000000
 21
-9.723785
  0
LINE
  8
0
 62
     4
 10
-60.000000
 20
-11.223793
 11
-49.135056
 21
-11.223793
  0
LINE
  8
0
 62
     4
 10
-60.000000
 20
-8.223793
 11
-48.872589
 21
-8.223793
  0
LINE
  8
0
 62
     4
 10
-60.000000
 20
-11.223793
 11
-60.000000
 21
-8.223793
  0
LINE
  8
0
 62
     4
 10
-48.131233
 20
-11.223793
 11
-35.000015
 21
-11.223793
  0
LINE
  8
0
 62
     4
 10
-47.868774
 20
-8.223793
 11
-35.000015
 21
-8.223793
  0
LINE
  8
0
 62
     4
 10
-70.000008
 20
-10.723785
 11
-60.000000
 21
-10.723785
  0
LINE
  8
0
 62
     4
 10
-70.000008
 20
-8.723785
 11
-60.000000
 21
-8.723785
  0
LINE
  8
0
 62
     4
 10
-70.000000
 20
-10.723785
 11
-70.000000
 21
-8.723785
  0
LINE
  8
0
 62
     1
 10
-48.260170
 20
-12.696950
 11
-47.740707
 21
-6.759490
  0
LINE
  8
0
 62
     4
 10
-62.000023
 20
-3.973801
 11
-62.000023
 21
3.526199
  0
LINE
  8
0
 62
     4
 10
-52.000023
 20
4.026215
 11
-61.500023
 21
4.026215
  0
LINE
  8
0
 62
     4
 10
-52.000023
 20
-4.473793
 11
-61.500023
 21
-4.473793
  0
LINE
  8
0
 62
     4
 10
-33.000000
 20
-5.223793
 11
-51.250000
 21
-5.223793
  0
LINE
  8
0
 62
     4
 10
-33.000000
 20
4.776207
 11
-51.250008
 21
4.776207
  0
LINE
  8
0
 62
     4
 10
-52.000008
 20
-4.473801
 11
-52.000008
 21
4.026199
  0
LINE
  8
0
 62
     4
 10
-51.250050
 20
-5.223851
 11
-52.000050
 21
-4.473849
  0
LINE
  8
0
 10
-51.250076
 20
4.776263
 11
-52.000080
 21
4.026256
  0
LINE
  8
0
 62
     1
 10
-33.000000
 20
-4.723801
 11
-51.749992
 21
-4.723801
  0
LINE
  8
0
 62
     1
 10
-33.000000
 20
4.276207
 11
-51.750008
 21
4.276207
  0
LINE
  8
0
 62
     4
 10
-51.250008
 20
-5.223816
 11
-51.250008
 21
4.776184
  0
LINE
  8
0
 62
     4
 10
-58.000015
 20
-3.234207
 11
-58.000015
 21
2.786598
  0
LINE
  8
0
 62
     4
 10
-62.000023
 20
2.786606
 11
-58.000015
 21
2.786606
  0
LINE
  8
0
 62
     4
 10
-62.000023
 20
-3.234200
 11
-58.000015
 21
-3.234200
  0
LINE
  8
0
 62
     1
 10
-61.999947
 20
2.776231
 11
-57.999950
 21
-3.234159
  0
LINE
  8
0
 62
     1
 10
-61.999939
 20
-3.223858
 11
-57.999943
 21
2.786539
  0
LINE
  8
0
 10
-61.499996
 20
-4.473777
 11
-61.999996
 21
-3.973780
  0
LINE
  8
0
 62
     4
 10
-62.000088
 20
3.526268
 11
-61.500099
 21
4.026259
  0
LINE
  8
0
 62
     4
 10
-61.500023
 20
-4.473801
 11
-61.500023
 21
-3.234207
  0
LINE
  8
0
 62
     4
 10
-61.500023
 20
2.786598
 11
-61.500023
 21
4.026199
  0
LINE
  8
0
 62
     4
 10
93.000015
 20
3.526215
 11
93.000015
 21
-3.973785
  0
LINE
  8
0
 62
     4
 10
83.000015
 20
-4.473793
 11
92.500015
 21
-4.473793
  0
LINE
  8
0
 62
     4
 10
83.000015
 20
4.026215
 11
92.500015
 21
4.026215
  0
LINE
  8
0
 62
     4
 10
63.999985
 20
4.776207
 11
82.250000
 21
4.776207
  0
LINE
  8
0
 62
     4
 10
63.999985
 20
-5.223785
 11
82.250000
 21
-5.223785
  0
LINE
  8
0
 62
     4
 10
83.000000
 20
4.026215
 11
83.000000
 21
-4.473785
  0
LINE
  8
0
 62
     4
 10
82.250069
 20
4.776280
 11
83.000061
 21
4.026286
  0
LINE
  8
0
 62
     4
 10
82.250168
 20
-5.223923
 11
83.000183
 21
-4.473907
  0
LINE
  8
0
 62
     1
 10
63.999985
 20
4.276215
 11
82.749985
 21
4.276215
  0
LINE
  8
0
 62
     1
 10
63.999985
 20
-4.723785
 11
82.749985
 21
-4.723785
  0
LINE
  8
0
 62
     4
 10
82.250000
 20
4.776222
 11
82.250000
 21
-5.223778
  0
LINE
  8
0
 62
     4
 10
89.000015
 20
2.786613
 11
89.000015
 21
-3.234192
  0
LINE
  8
0
 62
     4
 10
93.000015
 20
-3.234192
 11
89.000015
 21
-3.234192
  0
LINE
  8
0
 62
     4
 10
93.000015
 20
2.786606
 11
89.000015
 21
2.786606
  0
LINE
  8
0
 62
     1
 10
92.999916
 20
-3.223838
 11
88.999916
 21
2.786560
  0
LINE
  8
0
 62
     1
 10
92.999893
 20
2.776304
 11
88.999893
 21
-3.234096
  0
LINE
  8
0
 62
     4
 10
92.499939
 20
4.026128
 11
92.999939
 21
3.526127
  0
LINE
  8
0
 62
     4
 10
93.000130
 20
-3.973919
 11
92.500145
 21
-4.473909
  0
LINE
  8
0
 62
     4
 10
92.500015
 20
4.026215
 11
92.500015
 21
2.786613
  0
LINE
  8
0
 62
     4
 10
92.500015
 20
-3.234184
 11
92.500015
 21
-4.473785
  0
LINE
  8
0
 10
-22.000008
 20
-6.523788
 11
-6.000008
 21
-6.523788
  0
LINE
  8
0
 62
     4
 10
-33.500015
 20
-6.723793
 11
-30.000000
 21
-6.723793
  0
LINE
  8
0
 10
52.000000
 20
-6.523788
 11
53.000000
 21
-6.523788
  0
LINE
  8
0
  6
CENTER
 62
     1
 10
-25.573547
 20
-0.223793
 11
-65.700897
 21
-0.223793
  0
LINE
  8
0
  6
CENTER
 62
     1
 10
58.125534
 20
-0.223785
 11
96.623779
 21
-0.223785
  0
LINE
  8
0
 10
-30.000000
 20
-5.723824
 11
-30.000000
 21
5.276222
  0
LINE
  8
0
 62
     4
 10
-32.999985
 20
-5.723793
 11
-32.999985
 21
-1.723793
  0
LINE
  8
0
 62
     4
 10
-32.769058
 20
5.676216
 11
-30.230942
 21
5.676216
  0
LINE
  8
0
 62
     4
 10
-30.000019
 20
5.276217
 11
-30.230961
 21
5.676219
  0
LINE
  8
0
 62
     4
 10
-32.999992
 20
5.276231
 11
-32.769062
 21
5.676213
  0
LINE
  8
0
 62
     4
 10
-33.000000
 20
-5.723832
 11
-32.769077
 21
-6.123812
  0
LINE
  8
0
 62
     4
 10
-29.999975
 20
-5.723791
 11
-30.230919
 21
-6.123792
  0
LINE
  8
0
 62
     4
 10
-32.769058
 20
-6.123802
 11
-30.230942
 21
-6.123802
  0
LINE
  8
0
 62
     4
 10
-32.769058
 20
3.471718
 11
-32.400009
 21
3.471718
  0
LINE
  8
0
 62
     4
 10
-32.769058
 20
-3.919182
 11
-30.230942
 21
-3.919182
  0
LINE
  8
0
 62
     4
 10
-32.769058
 20
-2.359230
 11
-32.400009
 21
-2.359230
  0
LINE
  8
0
 62
     4
 10
-32.769058
 20
-6.054649
 11
-30.230942
 21
-6.054649
  0
LINE
  8
0
 62
     4
 10
-32.769058
 20
5.607048
 11
-30.230942
 21
5.607048
  0
LINE
  8
0
 62
     4
 10
-32.769058
 20
-3.919182
 11
-32.769058
 21
-2.359230
  0
LINE
  8
0
 62
     4
 10
-32.769058
 20
2.276207
 11
-32.769058
 21
3.471718
  0
LINE
  8
0
 62
     4
 10
-30.230942
 20
-3.623627
 11
-30.230942
 21
-3.919182
  0
LINE
  8
0
 62
     4
 10
-32.769058
 20
-6.123802
 11
-32.769058
 21
-6.054649
  0
LINE
  8
0
 62
     4
 10
-30.230942
 20
-6.054649
 11
-30.230942
 21
-6.123802
  0
LINE
  8
0
 62
     4
 10
-32.769058
 20
5.607048
 11
-32.769058
 21
5.676216
  0
LINE
  8
0
 62
     4
 10
-30.230942
 20
5.607048
 11
-30.230942
 21
5.676216
  0
LINE
  8
0
 62
     4
 10
-32.999985
 20
2.276207
 11
-32.999985
 21
5.276237
  0
LINE
  8
0
 10
63.087387
 20
4.317657
 11
61.312592
 21
4.317657
  0
LINE
  8
0
 10
63.400093
 20
3.776274
 11
63.087486
 21
4.317726
  0
LINE
  8
0
 10
63.400009
 20
3.776207
 11
63.400009
 21
-3.223793
  0
LINE
  8
0
 10
63.087387
 20
2.296936
 11
61.312592
 21
2.296936
  0
LINE
  8
0
 10
63.087387
 20
-1.744522
 11
61.312592
 21
-1.744522
  0
LINE
  8
0
 10
63.087387
 20
-3.765244
 11
61.312592
 21
-3.765244
  0
LINE
  8
0
 10
63.400002
 20
-3.223798
 11
63.087406
 21
-3.765229
  0
LINE
  8
0
 10
61.000114
 20
-3.223739
 11
61.312729
 21
-3.765203
  0
LINE
  8
0
 10
61.000053
 20
3.776207
 11
61.312653
 21
4.317645
  0
LINE
  8
0
 62
     4
 10
63.999985
 20
-5.723793
 11
63.999985
 21
-1.723793
  0
LINE
  8
0
 62
     4
 10
63.769058
 20
5.676216
 11
61.230942
 21
5.676216
  0
LINE
  8
0
 62
     4
 10
61.000011
 20
5.276203
 11
61.230953
 21
5.676206
  0
LINE
  8
0
 62
     4
 10
63.999996
 20
5.276241
 11
63.769070
 21
5.676231
  0
LINE
  8
0
 62
     4
 10
64.000092
 20
-5.723879
 11
63.769169
 21
-6.123864
  0
LINE
  8
0
 62
     4
 10
60.999947
 20
-5.723814
 11
61.230888
 21
-6.123816
  0
LINE
  8
0
 62
     4
 10
63.769058
 20
-6.123802
 11
61.230942
 21
-6.123802
  0
LINE
  8
0
 62
     4
 10
63.769058
 20
3.471718
 11
63.400009
 21
3.471718
  0
LINE
  8
0
 62
     4
 10
63.769058
 20
-3.919182
 11
61.230942
 21
-3.919182
  0
LINE
  8
0
 62
     4
 10
63.769058
 20
-2.359230
 11
63.400009
 21
-2.359230
  0
LINE
  8
0
 62
     4
 10
63.769058
 20
-6.054649
 11
61.230942
 21
-6.054649
  0
LINE
  8
0
 62
     4
 10
63.769058
 20
5.607048
 11
61.230942
 21
5.607048
  0
LINE
  8
0
 62
     4
 10
63.769058
 20
-3.919182
 11
63.769058
 21
-2.359230
  0
LINE
  8
0
 62
     4
 10
63.769058
 20
2.276207
 11
63.769058
 21
3.471718
  0
LINE
  8
0
 62
     4
 10
61.230942
 20
-3.623619
 11
61.230942
 21
-3.919182
  0
LINE
  8
0
 62
     4
 10
63.769058
 20
-6.123802
 11
63.769058
 21
-6.054649
  0
LINE
  8
0
 62
     4
 10
61.230942
 20
-6.054649
 11
61.230942
 21
-6.123802
  0
LINE
  8
0
 62
     4
 10
63.769058
 20
5.607048
 11
63.769058
 21
5.676216
  0
LINE
  8
0
 62
     4
 10
61.230942
 20
5.607048
 11
61.230942
 21
5.676216
  0
LINE
  8
0
 62
     4
 10
63.999985
 20
2.276207
 11
63.999985
 21
5.276237
  0
LINE
  8
0
 62
     4
 10
-33.500015
 20
-11.723793
 11
-30.000000
 21
-11.723793
  0
LINE
  8
0
 62
     4
 10
-35.000023
 20
-11.223827
 11
-33.500031
 21
-11.723827
  0
LINE
  8
0
 62
     4
 10
-7.500023
 20
-8.223783
 11
-9.000018
 21
-7.723782
  0
LINE
  8
0
 62
     4
 10
-13.500031
 20
-6.723793
 11
-13.500031
 21
-7.723793
  0
LINE
  8
0
 62
     4
 10
-22.000008
 20
-6.723793
 11
-13.500031
 21
-6.723793
  0
LINE
  8
0
 62
     4
 10
-22.000008
 20
-7.723793
 11
-9.000023
 21
-7.723793
  0
LINE
  8
0
 10
-20.999992
 20
-0.223793
 11
-6.000008
 21
-0.223793
  0
LINE
  8
0
 10
51.999992
 20
-1.373787
 11
51.999992
 21
1.926193
  0
LINE
  8
0
 10
-40.650002
 20
2.276207
 11
-40.650002
 21
-1.723793
  0
LINE
  8
0
 10
-40.650002
 20
2.276207
 11
-32.400009
 21
2.276207
  0
LINE
  8
0
 62
     2
 10
-41.000000
 20
-1.373783
 11
-32.400009
 21
-1.373783
  0
LINE
  8
0
 62
     2
 10
-41.000000
 20
1.926220
 11
-32.400009
 21
1.926220
  0
LINE
  8
0
 10
-22.000008
 20
2.276207
 11
-21.349993
 21
2.276207
  0
LINE
  8
0
 10
-40.650002
 20
-1.723793
 11
-32.400009
 21
-1.723793
  0
LINE
  8
0
 10
-22.000008
 20
-1.723793
 11
-21.349993
 21
-1.723793
  0
LINE
  8
0
 62
     2
 10
-22.000008
 20
-1.373783
 11
-20.999992
 21
-1.373783
  0
LINE
  8
0
 62
     2
 10
-22.000008
 20
1.926220
 11
-20.999992
 21
1.926220
  0
LINE
  8
0
 10
-40.649998
 20
-1.723795
 11
-40.999996
 21
-1.373793
  0
LINE
  8
0
 10
-40.999989
 20
1.926210
 11
-40.649994
 21
2.276208
  0
LINE
  8
0
 10
-41.000000
 20
1.926208
 11
-41.000000
 21
-1.373791
  0
LINE
  8
0
 10
-21.349993
 20
-1.723793
 11
-21.349993
 21
2.276207
  0
LINE
  8
0
 10
-20.999992
 20
-1.373795
 11
-20.999992
 21
1.926208
  0
LINE
  8
0
 10
-21.349995
 20
2.276209
 11
-20.999990
 21
1.926207
  0
LINE
  8
0
 10
-20.999989
 20
-1.373798
 11
-21.349989
 21
-1.723799
  0
LINE
  8
0
 10
71.650002
 20
2.276207
 11
71.650002
 21
-1.723793
  0
LINE
  8
0
 10
71.650002
 20
2.276207
 11
63.400009
 21
2.276207
  0
LINE
  8
0
 62
     2
 10
72.000000
 20
-1.373783
 11
63.400009
 21
-1.373783
  0
LINE
  8
0
 62
     2
 10
72.000000
 20
1.926220
 11
63.400009
 21
1.926220
  0
LINE
  8
0
 10
53.000008
 20
2.276207
 11
52.349991
 21
2.276207
  0
LINE
  8
0
 10
71.650002
 20
-1.723793
 11
63.400009
 21
-1.723793
  0
LINE
  8
0
 10
53.000008
 20
-1.723793
 11
52.349991
 21
-1.723793
  0
LINE
  8
0
 62
     2
 10
53.000008
 20
-1.373783
 11
51.999992
 21
-1.373783
  0
LINE
  8
0
 62
     2
 10
53.000008
 20
1.926220
 11
51.999992
 21
1.926220
  0
LINE
  8
0
 10
71.649979
 20
-1.723768
 11
71.999985
 21
-1.373765
  0
LINE
  8
0
 10
71.999992
 20
1.926182
 11
71.649994
 21
2.276181
  0
LINE
  8
0
 10
72.000000
 20
1.926208
 11
72.000000
 21
-1.373791
  0
LINE
  8
0
 10
52.349991
 20
-1.723793
 11
52.349991
 21
2.276207
  0
LINE
  8
0
 10
52.350010
 20
2.276180
 11
52.000015
 21
1.926188
  0
LINE
  8
0
 10
51.999958
 20
-1.373809
 11
52.349964
 21
-1.723812
  0
LINE
  8
0
  6
CENTER
 62
     2
 10
-26.000004
 20
-7.723793
 11
-26.000004
 21
-18.882559
  0
LINE
  8
0
  6
CENTER
 62
     2
 10
57.000000
 20
-7.723793
 11
57.000000
 21
-18.882559
  0
LINE
  8
0
  6
PHANTOM
 62
     3
 10
14.249981
 20
-34.999939
 11
14.249981
 21
25.000000
  0
LINE
  8
0
  6
PHANTOM
 62
     3
 10
-7.000031
 20
25.000000
 11
-7.000031
 21
-34.999939
  0
LINE
  8
0
  6
PHANTOM
 62
     3
 10
-7.000031
 20
25.000000
 11
-9.000031
 21
25.000000
  0
LINE
  8
0
  6
PHANTOM
 62
     3
 10
26.749992
 20
-34.999939
 11
14.249981
 21
-34.999939
  0
LINE
  8
0
  6
PHANTOM
 62
     3
 10
-7.000031
 20
-34.999939
 11
-9.000031
 21
-34.999939
  0
LINE
  8
0
  6
PHANTOM
 62
     3
 10
31.749981
 20
-34.999939
 11
31.749981
 21
25.000000
  0
LINE
  8
0
 10
52.999969
 20
-61.999954
 11
-22.000053
 21
-61.999954
  0
LINE
  8
0
 10
52.999969
 20
-117.999939
 11
-22.000031
 21
-117.999939
  0
LINE
  8
0
 10
52.999969
 20
-124.999939
 11
52.999969
 21
-54.999939
  0
LINE
  8
0
 10
-22.000053
 20
-124.999939
 11
-22.000053
 21
-54.999939
  0
LINE
  8
0
  6
CENTER
 62
     2
 10
65.620590
 20
-89.999939
 11
-35.137955
 21
-89.999939
  0
LINE
  8
0
  6
CENTER
 62
     2
 10
-8.247955
 20
-70.999939
 11
-15.475090
 21
-70.999939
  0
LINE
  8
0
  6
CENTER
 62
     2
 10
-12.000053
 20
-74.414825
 11
-12.000053
 21
-67.728485
  0
LINE
  8
0
  6
CENTER
 62
     2
 10
-8.247955
 20
-108.999939
 11
-15.475090
 21
-108.999939
  0
LINE
  8
0
  6
CENTER
 62
     2
 10
-12.000053
 20
-112.414825
 11
-12.000053
 21
-105.728485
  0
LINE
  8
0
  6
CENTER
 62
     2
 10
46.752045
 20
-108.999939
 11
39.524918
 21
-108.999939
  0
LINE
  8
0
  6
CENTER
 62
     2
 10
42.999969
 20
-112.414825
 11
42.999969
 21
-105.728485
  0
LINE
  8
0
  6
CENTER
 62
     2
 10
46.752045
 20
-70.999939
 11
39.524918
 21
-70.999939
  0
LINE
  8
0
  6
CENTER
 62
     2
 10
42.999969
 20
-74.414825
 11
42.999969
 21
-67.728485
  0
LINE
  8
0
 10
52.999969
 20
-82.499939
 11
-22.000031
 21
-82.499939
  0
LINE
  8
0
 10
52.999969
 20
-97.499939
 11
-22.000031
 21
-97.499939
  0
LINE
  8
0
 10
52.999969
 20
-105.499939
 11
-22.000031
 21
-105.499939
  0
LINE
  8
0
 10
52.999969
 20
-74.499954
 11
-22.000031
 21
-74.499954
  0
LINE
  8
0
 10
52.999969
 20
-105.999939
 11
-22.000031
 21
-105.999939
  0
LINE
  8
0
 10
52.999969
 20
-96.999954
 11
-22.000031
 21
-96.999954
  0
LINE
  8
0
 10
52.999969
 20
-82.999939
 11
-22.000031
 21
-82.999939
  0
LINE
  8
0
 10
52.999969
 20
-73.999939
 11
-22.000031
 21
-73.999939
  0
LINE
  8
0
 10
-30.000000
 20
-54.999939
 11
-30.000000
 21
-124.999939
  0
LINE
  8
0
 10
61.000000
 20
-54.999939
 11
61.000000
 21
-124.999939
  0
LINE
  8
0
 10
61.000000
 20
-124.999939
 11
52.999954
 21
-124.999939
  0
LINE
  8
0
 10
61.000000
 20
-54.999939
 11
52.999954
 21
-54.999939
  0
LINE
  8
0
 10
-22.000053
 20
-54.999939
 11
-30.000000
 21
-54.999939
  0
LINE
  8
0
 10
-22.000053
 20
-124.999939
 11
-30.000000
 21
-124.999939
  0
LINE
  8
0
 10
-32.400009
 20
-57.499939
 11
-29.999992
 21
-57.499939
  0
LINE
  8
0
 10
-32.400009
 20
-57.499939
 11
-32.400009
 21
-63.233299
  0
LINE
  8
0
 10
51.999954
 20
-60.999954
 11
51.999954
 21
-59.599945
  0
LINE
  8
0
 62
     1
 10
-49.258801
 20
-111.986649
 11
-48.740707
 21
-117.908409
  0
LINE
  8
0
 62
     4
 10
-70.000015
 20
-114.899948
 11
-60.000015
 21
-114.899948
  0
LINE
  8
0
 62
     4
 10
-60.000015
 20
-113.399963
 11
-49.135071
 21
-113.399963
  0
LINE
  8
0
 62
     4
 10
-60.000015
 20
-116.399902
 11
-48.872604
 21
-116.399902
  0
LINE
  8
0
 62
     4
 10
-60.000015
 20
-113.399948
 11
-60.000015
 21
-116.399933
  0
LINE
  8
0
 62
     4
 10
-48.131241
 20
-113.399933
 11
-30.000000
 21
-113.399933
  0
LINE
  8
0
 62
     4
 10
-47.868782
 20
-116.399963
 11
-30.000000
 21
-116.399963
  0
LINE
  8
0
 62
     4
 10
-70.000015
 20
-113.899963
 11
-60.000015
 21
-113.899963
  0
LINE
  8
0
 62
     4
 10
-70.000015
 20
-115.899963
 11
-60.000015
 21
-115.899963
  0
LINE
  8
0
 62
     4
 10
-70.000008
 20
-113.899963
 11
-70.000008
 21
-115.899948
  0
LINE
  8
0
 62
     1
 10
-48.260071
 20
-111.926788
 11
-47.740608
 21
-117.864258
  0
LINE
  8
0
 62
     1
 10
-49.258690
 20
-62.186646
 11
-48.740604
 21
-68.108391
  0
LINE
  8
0
 62
     4
 10
-70.000008
 20
-65.099945
 11
-60.000000
 21
-65.099945
  0
LINE
  8
0
 62
     4
 10
-60.000000
 20
-63.599945
 11
-49.135056
 21
-63.599945
  0
LINE
  8
0
 62
     4
 10
-60.000000
 20
-66.599930
 11
-48.872589
 21
-66.599930
  0
LINE
  8
0
 62
     4
 10
-60.000000
 20
-63.599945
 11
-60.000000
 21
-66.599945
  0
LINE
  8
0
 62
     4
 10
-48.131233
 20
-63.599945
 11
-33.500015
 21
-63.599945
  0
LINE
  8
0
 62
     4
 10
-47.868774
 20
-66.599930
 11
-33.500015
 21
-66.599930
  0
LINE
  8
0
 62
     4
 10
-70.000008
 20
-64.099945
 11
-60.000000
 21
-64.099945
  0
LINE
  8
0
 62
     4
 10
-70.000008
 20
-66.099945
 11
-60.000000
 21
-66.099945
  0
LINE
  8
0
 62
     4
 10
-70.000000
 20
-64.099945
 11
-70.000000
 21
-66.099945
  0
LINE
  8
0
 62
     1
 10
-48.260094
 20
-62.126797
 11
-47.740631
 21
-68.064247
  0
LINE
  8
0
 62
     4
 10
-32.000015
 20
-63.099960
 11
-30.000000
 21
-63.099960
  0
LINE
  8
0
 62
     4
 10
-31.999998
 20
-63.099991
 11
-33.499996
 21
-63.600002
  0
LINE
  8
0
 62
     4
 10
-33.500015
 20
-63.599945
 11
-33.500015
 21
-66.599945
  0
LINE
  8
0
 62
     4
 10
-33.500023
 20
-66.599953
 11
-32.000027
 21
-67.099953
  0
LINE
  8
0
 62
     4
 10
-32.000015
 20
-63.099960
 11
-32.000015
 21
-67.099945
  0
LINE
  8
0
 62
     4
 10
-32.000015
 20
-67.099960
 11
-30.000000
 21
-67.099960
  0
LINE
  8
0
  6
CENTER
 62
     2
 10
59.909912
 20
-72.999939
 11
54.011627
 21
-72.999939
  0
LINE
  8
0
  6
CENTER
 62
     2
 10
56.999985
 20
-75.817017
 11
56.999985
 21
-70.193878
  0
LINE
  8
0
  6
CENTER
 62
     2
 10
-23.090096
 20
-72.999939
 11
-28.988373
 21
-72.999939
  0
LINE
  8
0
  6
CENTER
 62
     2
 10
-26.000031
 20
-75.817017
 11
-26.000031
 21
-70.193878
  0
LINE
  8
0
  6
CENTER
 62
     2
 10
-23.090096
 20
-106.999954
 11
-28.988373
 21
-106.999954
  0
LINE
  8
0
  6
CENTER
 62
     2
 10
-26.000031
 20
-109.817032
 11
-26.000031
 21
-104.193878
  0
LINE
  8
0
  6
CENTER
 62
     2
 10
59.909912
 20
-106.999954
 11
54.011627
 21
-106.999954
  0
LINE
  8
0
  6
CENTER
 62
     2
 10
56.999985
 20
-109.817032
 11
56.999985
 21
-104.193878
  0
LINE
  8
0
 10
51.999985
 20
-124.999939
 11
51.999985
 21
-117.999939
  0
LINE
  8
0
 10
-6.000031
 20
-124.999939
 11
-6.000031
 21
-117.999939
  0
LINE
  8
0
 10
51.999985
 20
-124.999939
 11
-6.000031
 21
-124.999939
  0
LINE
  8
0
 10
51.999985
 20
-54.999939
 11
-6.000031
 21
-54.999939
  0
LINE
  8
0
 10
-6.000031
 20
-61.999954
 11
-6.000031
 21
-54.999939
  0
LINE
  8
0
 10
51.999985
 20
-61.999954
 11
51.999985
 21
-54.999939
  0
LINE
  8
0
 62
     4
 10
-33.000000
 20
-123.999939
 11
-51.250000
 21
-123.999939
  0
LINE
  8
0
 62
     4
 10
-62.000015
 20
-121.999969
 11
-62.000015
 21
-115.999939
  0
LINE
  8
0
 62
     4
 10
-58.000008
 20
-123.249969
 11
-58.000008
 21
-121.999969
  0
LINE
  8
0
 62
     4
 10
-58.000000
 20
-121.999954
 11
-62.000015
 21
-121.999954
  0
LINE
  8
0
 62
     4
 10
-52.000015
 20
-123.249954
 11
-58.000000
 21
-123.249954
  0
LINE
  8
0
 62
     4
 10
-52.000008
 20
-123.249969
 11
-52.000008
 21
-116.399902
  0
LINE
  8
0
 62
     4
 10
-51.250103
 20
-124.000053
 11
-52.000114
 21
-123.250046
  0
LINE
  8
0
 62
     1
 10
-33.000000
 20
-123.499954
 11
-51.749985
 21
-123.499954
  0
LINE
  8
0
 62
     4
 10
-51.250008
 20
-123.999969
 11
-51.250008
 21
-116.399902
  0
LINE
  8
0
 62
     4
 10
-14.500031
 20
-120.499939
 11
-22.000053
 21
-120.499939
  0
LINE
  8
0
 62
     4
 10
-14.500031
 20
-120.499901
 11
-14.000039
 21
-119.999916
  0
LINE
  8
0
 62
     4
 10
-14.500031
 20
-120.499939
 11
-14.500031
 21
-117.999939
  0
LINE
  8
0
 62
     4
 10
-13.999779
 20
-117.999939
 11
-13.999779
 21
-119.999969
  0
LINE
  8
0
 62
     4
 10
-61.500015
 20
-121.999969
 11
-61.500015
 21
-115.999939
  0
LINE
  8
0
 62
     4
 10
63.999985
 20
-113.999939
 11
82.250000
 21
-113.999939
  0
LINE
  8
0
 62
     4
 10
63.999985
 20
-123.999939
 11
82.250000
 21
-123.999939
  0
LINE
  8
0
 62
     4
 10
93.000015
 20
-115.999939
 11
93.000015
 21
-121.999939
  0
LINE
  8
0
 62
     4
 10
89.000015
 20
-114.749939
 11
89.000015
 21
-115.999939
  0
LINE
  8
0
 62
     4
 10
89.000015
 20
-115.999939
 11
93.000015
 21
-115.999939
  0
LINE
  8
0
 62
     4
 10
89.000015
 20
-121.999939
 11
93.000015
 21
-121.999939
  0
LINE
  8
0
 62
     4
 10
83.000015
 20
-123.249939
 11
89.000015
 21
-123.249939
  0
LINE
  8
0
 62
     4
 10
83.000015
 20
-114.749939
 11
89.000015
 21
-114.749939
  0
LINE
  8
0
 62
     4
 10
83.000000
 20
-114.749939
 11
83.000000
 21
-123.249939
  0
LINE
  8
0
 62
     4
 10
82.249992
 20
-113.999924
 11
83.000023
 21
-114.749954
  0
LINE
  8
0
 62
     4
 10
82.250183
 20
-124.000153
 11
83.000191
 21
-123.250153
  0
LINE
  8
0
 62
     1
 10
63.999985
 20
-114.499939
 11
82.749985
 21
-114.499939
  0
LINE
  8
0
 62
     1
 10
63.999985
 20
-123.499939
 11
82.749985
 21
-123.499939
  0
LINE
  8
0
 62
     4
 10
82.250000
 20
-113.999939
 11
82.250000
 21
-123.999939
  0
LINE
  8
0
 62
     4
 10
89.000015
 20
-121.999939
 11
89.000015
 21
-123.249939
  0
LINE
  8
0
 62
     4
 10
52.499969
 20
-120.499969
 11
52.999969
 21
-120.499969
  0
LINE
  8
0
 62
     4
 10
51.999943
 20
-119.999969
 11
52.499958
 21
-120.499977
  0
LINE
  8
0
 62
     4
 10
52.499969
 20
-117.999939
 11
52.499969
 21
-120.499969
  0
LINE
  8
0
 62
     4
 10
92.500015
 20
-115.999939
 11
92.500015
 21
-121.999939
  0
LINE
  8
0
  6
CENTER
 62
     1
 10
-12.676582
 20
-118.999939
 11
-64.726318
 21
-118.999939
  0
LINE
  8
0
 10
13.499962
 20
-107.999939
 11
13.499962
 21
-109.999939
  0
LINE
  8
0
 10
17.499962
 20
-107.999939
 11
17.499962
 21
-109.999939
  0
LINE
  8
0
  6
CENTER
 62
     2
 10
15.499992
 20
-74.600021
 11
15.499992
 21
-67.400024
  0
LINE
  8
0
  6
CENTER
 62
     2
 10
19.099991
 20
-71.000000
 11
11.899994
 21
-71.000000
  0
LINE
  8
0
 10
17.499985
 20
-108.000000
 11
17.499985
 21
-110.000000
  0
LINE
  8
0
 62
     4
 10
-60.000015
 20
-115.999939
 11
-62.000015
 21
-115.999939
  0
LINE
  8
0
  6
CENTER
 62
     2
 10
49.999969
 20
-86.499939
 11
49.999969
 21
-93.499954
  0
LINE
  8
0
 62
     4
 10
-33.000000
 20
-124.499939
 11
-33.000000
 21
-116.399963
  0
LINE
  8
0
 62
     4
 10
-30.000000
 20
-124.499939
 11
-33.000000
 21
-124.499939
  0
LINE
  8
0
 62
     4
 10
-30.230896
 20
-123.599213
 11
-32.769104
 21
-123.599213
  0
LINE
  8
0
 62
     4
 10
-30.230896
 20
-118.099182
 11
-32.769104
 21
-118.099182
  0
LINE
  8
0
 62
     4
 10
-30.230896
 20
-119.900711
 11
-32.769104
 21
-119.900711
  0
LINE
  8
0
 62
     4
 10
-30.230881
 20
-119.900711
 11
-30.230881
 21
-118.099182
  0
LINE
  8
0
 62
     4
 10
-32.769104
 20
-119.900711
 11
-32.769104
 21
-118.099182
  0
LINE
  8
0
 62
     4
 10
-30.230881
 20
-124.499939
 11
-30.230881
 21
-123.599213
  0
LINE
  8
0
 62
     4
 10
-32.769104
 20
-123.599213
 11
-32.769104
 21
-124.499939
  0
LINE
  8
0
 62
     4
 10
63.999985
 20
-113.499954
 11
63.999985
 21
-124.499969
  0
LINE
  8
0
 62
     4
 10
61.000000
 20
-113.499954
 11
63.999985
 21
-113.499954
  0
LINE
  8
0
 62
     4
 10
61.000000
 20
-124.499969
 11
63.999985
 21
-124.499969
  0
LINE
  8
0
 62
     4
 10
61.230896
 20
-114.400681
 11
63.769104
 21
-114.400681
  0
LINE
  8
0
 62
     4
 10
61.230896
 20
-123.599213
 11
63.769104
 21
-123.599213
  0
LINE
  8
0
 62
     4
 10
61.230896
 20
-119.900711
 11
63.769104
 21
-119.900711
  0
LINE
  8
0
 62
     4
 10
61.230896
 20
-118.099182
 11
63.769104
 21
-118.099182
  0
LINE
  8
0
 62
     4
 10
61.230865
 20
-118.099182
 11
61.230865
 21
-119.900711
  0
LINE
  8
0
 62
     4
 10
63.769104
 20
-118.099182
 11
63.769104
 21
-119.900711
  0
LINE
  8
0
 62
     4
 10
61.230865
 20
-113.499954
 11
61.230865
 21
-114.400681
  0
LINE
  8
0
 62
     4
 10
63.769104
 20
-114.400681
 11
63.769104
 21
-113.499954
  0
LINE
  8
0
 62
     4
 10
61.230865
 20
-123.599213
 11
61.230865
 21
-124.499969
  0
LINE
  8
0
 62
     4
 10
63.769104
 20
-123.599213
 11
63.769104
 21
-124.499969
  0
LINE
  8
0
  6
CENTER
 62
     1
 10
50.985916
 20
-118.999939
 11
94.888550
 21
-118.999939
  0
LINE
  8
0
  6
CENTER
 62
     2
 10
19.999985
 20
-109.000015
 11
11.000000
 21
-109.000015
  0
LINE
  8
0
  6
CENTER
 62
     2
 10
15.499992
 20
-113.499985
 11
15.499992
 21
-104.499985
  0
LINE
  8
0
 10
-32.087387
 20
-60.999939
 11
-30.312607
 21
-60.999939
  0
LINE
  8
0
 10
63.400009
 20
-57.499939
 11
60.999992
 21
-57.499939
  0
LINE
  8
0
 10
63.400009
 20
-57.499939
 11
63.400009
 21
-64.499931
  0
LINE
  8
0
 10
63.400009
 20
-64.499931
 11
60.999992
 21
-64.499931
  0
LINE
  8
0
 10
63.087387
 20
-60.999939
 11
61.312607
 21
-60.999939
  0
LINE
  8
0
 10
-40.650002
 20
-58.999939
 11
-40.650002
 21
-62.999939
  0
LINE
  8
0
 10
-40.650002
 20
-58.999939
 11
-32.400009
 21
-58.999939
  0
LINE
  8
0
 62
     2
 10
-41.000000
 20
-62.649933
 11
-32.400009
 21
-62.649933
  0
LINE
  8
0
 62
     2
 10
-41.000000
 20
-59.349930
 11
-32.400009
 21
-59.349930
  0
LINE
  8
0
 10
-40.650002
 20
-62.999939
 11
-32.400009
 21
-62.999939
  0
LINE
  8
0
 10
-40.649994
 20
-62.999928
 11
-40.999992
 21
-62.649925
  0
LINE
  8
0
 10
-40.999989
 20
-59.349937
 11
-40.649994
 21
-58.999935
  0
LINE
  8
0
 10
-41.000000
 20
-59.349937
 11
-41.000000
 21
-62.649933
  0
LINE
  8
0
 10
-22.000008
 20
-58.999939
 11
-21.349993
 21
-58.999939
  0
LINE
  8
0
 62
     2
 10
-22.000008
 20
-59.349930
 11
-20.999992
 21
-59.349930
  0
LINE
  8
0
 10
-21.349993
 20
-61.999954
 11
-21.349993
 21
-58.999939
  0
LINE
  8
0
 10
-20.999992
 20
-61.999954
 11
-20.999992
 21
-59.349937
  0
LINE
  8
0
 10
-21.350016
 20
-58.999954
 11
-21.000013
 21
-59.349957
  0
LINE
  8
0
 10
71.650002
 20
-58.999939
 11
71.650002
 21
-62.999939
  0
LINE
  8
0
 10
71.650002
 20
-58.999939
 11
63.400009
 21
-58.999939
  0
LINE
  8
0
 62
     2
 10
72.000000
 20
-62.649933
 11
63.400009
 21
-62.649933
  0
LINE
  8
0
 62
     2
 10
72.000000
 20
-59.349930
 11
63.400009
 21
-59.349930
  0
LINE
  8
0
 10
71.650002
 20
-62.999939
 11
63.400009
 21
-62.999939
  0
LINE
  8
0
 10
71.649986
 20
-62.999912
 11
71.999992
 21
-62.649910
  0
LINE
  8
0
 10
71.999985
 20
-59.349972
 11
71.649986
 21
-58.999966
  0
LINE
  8
0
 10
72.000000
 20
-59.349937
 11
72.000000
 21
-62.649933
  0
LINE
  8
0
 62
     2
 10
53.000008
 20
-59.349930
 11
51.999992
 21
-59.349930
  0
LINE
  8
0
 10
53.000008
 20
-58.999939
 11
52.349991
 21
-58.999939
  0
LINE
  8
0
 10
52.350048
 20
-58.999977
 11
52.000053
 21
-59.349968
  0
LINE
  8
0
 10
52.349991
 20
-61.999954
 11
52.349991
 21
-58.999939
  0
LINE
  8
0
  6
PHANTOM
 62
     3
 10
31.749981
 20
-126.999939
 11
31.749981
 21
-34.999939
  0
LINE
  8
0
  6
PHANTOM
 62
     3
 10
-9.000031
 20
-126.999939
 11
-9.000031
 21
-34.999939
  0
LINE
  8
0
  6
PHANTOM
 62
     3
 10
26.749992
 20
-126.999939
 11
26.749992
 21
-34.999939
  0
LINE
  8
0
 10
-281.250000
 20
195.500000
 11
282.099976
 21
195.500000
  0
LINE
  8
0
 10
-281.250000
 20
195.500000
 11
-281.250000
 21
-195.000000
  0
LINE
  8
0
 10
282.099976
 20
195.500000
 11
282.099976
 21
-195.000000
  0
LINE
  8
0
 10
-281.250000
 20
-195.000000
 11
282.099976
 21
-195.000000
  0
LINE
  8
0
 10
162.099976
 20
-175.000000
 11
162.099976
 21
-195.000000
  0
LINE
  8
0
 10
162.099976
 20
-175.000000
 11
282.099976
 21
-175.000000
  0
LINE
  8
0
 10
162.099976
 20
175.500000
 11
282.099976
 21
175.500000
  0
LINE
  8
0
 10
-281.250000
 20
175.500000
 11
-161.250000
 21
175.500000
  0
LINE
  8
0
 10
162.099976
 20
195.500000
 11
162.099976
 21
175.500000
  0
LINE
  8
0
 10
-161.250000
 20
195.500000
 11
-161.250000
 21
175.500000
  0
LINE
  8
0
 10
-61.250000
 20
-185.000000
 11
138.750000
 21
-185.000000
  0
LINE
  8
0
 10
-61.250000
 20
-165.000000
 11
-61.250000
 21
-185.000000
  0
LINE
  8
0
 10
-21.250000
 20
-165.000000
 11
-21.250000
 21
-185.000000
  0
LINE
  8
0
 10
-271.250000
 20
-141.000000
 11
-235.001297
 21
-141.000000
  0
LINE
  8
0
 10
-271.250000
 20
-155.000000
 11
-71.250000
 21
-155.000000
  0
LINE
  8
0
 10
-271.250000
 20
-134.000000
 11
-71.250000
 21
-134.000000
  0
LINE
  8
0
 10
-231.250015
 20
-155.000015
 11
-235.001312
 21
-141.000015
  0
LINE
  8
0
 10
-1.250000
 20
-165.000000
 11
-1.250000
 21
-185.000000
  0
LINE
  8
0
 10
18.750000
 20
-165.000000
 11
18.750000
 21
-185.000000
  0
LINE
  8
0
 10
38.750000
 20
-165.000000
 11
38.750000
 21
-185.000000
  0
LINE
  8
0
 10
58.750000
 20
-165.000000
 11
58.750000
 21
-185.000000
  0
LINE
  8
0
 10
78.750000
 20
-165.000000
 11
78.750000
 21
-185.000000
  0
LINE
  8
0
 10
98.750000
 20
-165.000000
 11
98.750000
 21
-185.000000
  0
LINE
  8
0
 10
-61.250000
 20
-165.000000
 11
138.750000
 21
-165.000000
  0
LINE
  8
0
 10
118.750000
 20
-165.000000
 11
118.750000
 21
-185.000000
  0
LINE
  8
0
 10
138.750000
 20
-165.000000
 11
138.750000
 21
-185.000000
  0
LINE
  8
0
 10
-61.250000
 20
-175.000000
 11
138.750000
 21
-175.000000
  0
LINE
  8
0
 10
-271.250000
 20
-185.000000
 11
-71.250000
 21
-185.000000
  0
LINE
  8
0
 10
-271.250000
 20
-134.000000
 11
-271.250000
 21
-185.000000
  0
LINE
  8
0
 10
-231.250000
 20
-134.000000
 11
-231.250000
 21
-185.000000
  0
LINE
  8
0
 10
-211.250000
 20
-134.000000
 11
-211.250000
 21
-185.000000
  0
LINE
  8
0
 10
-191.250000
 20
-134.000000
 11
-191.250000
 21
-185.000000
  0
LINE
  8
0
 10
-171.250000
 20
-134.000000
 11
-171.250000
 21
-185.000000
  0
LINE
  8
0
 10
-151.250000
 20
-134.000000
 11
-151.250000
 21
-185.000000
  0
LINE
  8
0
 10
-131.250000
 20
-134.000000
 11
-131.250000
 21
-185.000000
  0
LINE
  8
0
 10
-111.250000
 20
-134.000000
 11
-111.250000
 21
-185.000000
  0
LINE
  8
0
 10
-271.250000
 20
-165.000000
 11
-71.250000
 21
-165.000000
  0
LINE
  8
0
 10
-91.250000
 20
-134.000000
 11
-91.250000
 21
-185.000000
  0
LINE
  8
0
 10
-71.250000
 20
-134.000000
 11
-71.250000
 21
-185.000000
  0
LINE
  8
0
 10
-271.250000
 20
-175.000000
 11
-71.250000
 21
-175.000000
  0
CIRCLE
  8
0
 62
     2
 10
5.499969
 20
109.000031
 40
2.000000
  0
CIRCLE
  8
0
 62
     2
 10
5.499969
 20
51.000015
 40
2.000000
  0
CIRCLE
  8
0
 62
     2
 10
40.499969
 20
50.999992
 40
2.000000
  0
CIRCLE
  8
0
 62
     2
 10
40.499969
 20
109.000008
 40
2.000000
  0
CIRCLE
  8
0
 10
44.999985
 20
80.000000
 40
2.600000
  0
CIRCLE
  8
0
 10
57.000000
 20
97.000015
 40
1.699999
  0
CIRCLE
  8
0
 10
57.000000
 20
97.000015
 40
3.250000
  0
CIRCLE
  8
0
 10
-26.000015
 20
97.000015
 40
1.699999
  0
CIRCLE
  8
0
 10
-26.000015
 20
97.000015
 40
3.250000
  0
CIRCLE
  8
0
 10
-26.000015
 20
62.999985
 40
1.699999
  0
CIRCLE
  8
0
 10
-26.000015
 20
62.999985
 40
3.250000
  0
CIRCLE
  8
0
 10
57.000000
 20
62.999985
 40
1.699999
  0
CIRCLE
  8
0
 10
57.000000
 20
62.999985
 40
3.250000
  0
CIRCLE
  8
0
 10
22.999992
 20
50.999992
 40
2.000000
  0
ARC
  8
0
 10
22.999992
 20
110.000000
 40
2.000000
 50
0.000000
 51
180.000000
  0
ARC
  8
0
 10
22.999992
 20
108.000008
 40
2.000000
 50
180.000000
 51
0.000000
  0
CIRCLE
  8
0
 10
5.499969
 20
109.000031
 40
1.650000
  0
CIRCLE
  8
0
 10
40.499969
 20
109.000031
 40
1.650000
  0
CIRCLE
  8
0
 10
5.499969
 20
51.000015
 40
1.650000
  0
CIRCLE
  8
0
 10
40.499969
 20
51.000015
 40
1.650000
  0
ARC
  8
0
 10
-35.054626
 20
49.250008
 40
5.054621
 50
339.743835
 51
20.256105
  0
ARC
  8
0
 10
-35.054626
 20
52.750000
 40
5.054621
 50
339.743835
 51
20.256105
  0
ARC
  8
0
 10
-27.345383
 20
49.250008
 40
5.054621
 50
159.743805
 51
200.256073
  0
ARC
  8
0
 10
-27.345383
 20
52.750000
 40
5.054623
 50
159.743851
 51
200.256104
  0
ARC
  8
0
 10
66.054626
 20
49.250008
 40
5.054620
 50
159.743927
 51
200.256165
  0
ARC
  8
0
 10
66.054626
 20
52.750000
 40
5.054620
 50
159.743927
 51
200.256165
  0
ARC
  8
0
 10
58.345383
 20
49.250008
 40
5.054620
 50
339.743927
 51
20.256203
  0
ARC
  8
0
 10
58.345383
 20
52.750000
 40
5.054622
 50
339.743896
 51
20.256163
  0
ARC
  8
0
 62
     4
 10
-146.500000
 20
109.000008
 40
5.900004
 50
51.218117
 51
68.780548
  0
ARC
  8
0
 62
     4
 10
-146.500000
 20
109.000008
 40
5.900001
 50
111.219292
 51
128.780441
  0
CIRCLE
  8
0
 10
-151.500000
 20
80.999992
 40
2.100000
  0
ARC
  8
0
 62
     4
 10
-146.500000
 20
109.000008
 40
5.900003
 50
171.219406
 51
188.780991
  0
CIRCLE
  8
0
 10
-146.000000
 20
50.999992
 40
2.000000
  0
CIRCLE
  8
0
 10
-151.500000
 20
67.999985
 40
2.100000
  0
CIRCLE
  8
0
 62
     2
 10
-146.000000
 20
50.999992
 40
1.650000
  0
CIRCLE
  8
0
 62
     4
 10
-156.000000
 20
55.099991
 40
1.499999
  0
CIRCLE
  8
0
 62
     4
 10
-156.000000
 20
104.900009
 40
1.499999
  0
CIRCLE
  8
0
 62
     2
 10
-151.500000
 20
80.999992
 40
2.500000
  0
CIRCLE
  8
0
 62
     2
 10
-151.500000
 20
67.999985
 40
2.500000
  0
CIRCLE
  8
0
 10
-146.000000
 20
50.999992
 40
3.500000
  0
CIRCLE
  8
0
 10
-146.000000
 20
50.999992
 40
1.400000
  0
CIRCLE
  8
0
 10
-155.500015
 20
105.000000
 40
3.500000
  0
CIRCLE
  8
0
 10
-155.500015
 20
55.000000
 40
3.500000
  0
ARC
  8
0
 62
     4
 10
-146.500000
 20
109.000008
 40
5.899993
 50
351.218109
 51
8.781887
  0
CIRCLE
  8
0
 62
     4
 10
-146.500000
 20
109.000008
 40
5.499999
  0
ARC
  8
0
 62
     4
 10
-146.500000
 20
109.000008
 40
5.899998
 50
291.218201
 51
308.781891
  0
ARC
  8
0
 62
     4
 10
-146.500000
 20
109.000008
 40
4.249995
 50
135.099060
 51
224.900726
  0
ARC
  8
0
 62
     4
 10
-146.500000
 20
109.000008
 40
4.250000
 50
0.000000
 51
44.900944
  0
ARC
  8
0
 62
     4
 10
-146.500000
 20
109.000008
 40
4.249995
 50
315.099060
 51
0.000000
  0
CIRCLE
  8
0
 62
     4
 10
-146.500000
 20
109.000008
 40
2.749999
  0
CIRCLE
  8
0
 62
     4
 10
-146.500000
 20
109.000008
 40
5.000000
  0
CIRCLE
  8
0
 62
     1
 10
-146.500000
 20
109.000008
 40
4.500000
  0
ARC
  8
0
 62
     4
 10
-146.500000
 20
109.000008
 40
3.750000
 50
126.869896
 51
233.130096
  0
ARC
  8
0
 62
     4
 10
-146.500000
 20
109.000008
 40
3.750000
 50
306.869904
 51
53.130104
  0
ARC
  8
0
 62
     4
 10
-146.500000
 20
109.000008
 40
5.900004
 50
231.219070
 51
248.781815
  0
ARC
  8
0
 62
     4
 10
176.500000
 20
109.000008
 40
5.900003
 50
171.219406
 51
188.780991
  0
ARC
  8
0
 62
     4
 10
176.500000
 20
109.000008
 40
5.900004
 50
51.218117
 51
68.780548
  0
ARC
  8
0
 62
     4
 10
176.500000
 20
109.000008
 40
5.899993
 50
351.218109
 51
8.781887
  0
ARC
  8
0
 62
     4
 10
176.500000
 20
109.000008
 40
5.899998
 50
291.218201
 51
308.781891
  0
CIRCLE
  8
0
 10
176.000000
 20
50.999992
 40
2.000000
  0
CIRCLE
  8
0
 62
     2
 10
176.000000
 20
50.999992
 40
1.650000
  0
CIRCLE
  8
0
 62
     4
 10
176.500000
 20
109.000008
 40
5.499999
  0
CIRCLE
  8
0
 10
176.000000
 20
50.999992
 40
3.500000
  0
CIRCLE
  8
0
 10
176.000000
 20
50.999992
 40
1.400000
  0
ARC
  8
0
 62
     4
 10
176.500000
 20
109.000008
 40
4.249995
 50
135.099060
 51
224.900726
  0
ARC
  8
0
 62
     4
 10
176.500000
 20
109.000008
 40
4.250000
 50
0.000000
 51
44.900944
  0
ARC
  8
0
 62
     4
 10
176.500000
 20
109.000008
 40
4.249995
 50
315.099060
 51
0.000000
  0
CIRCLE
  8
0
 62
     4
 10
176.500000
 20
109.000008
 40
2.749999
  0
CIRCLE
  8
0
 62
     4
 10
176.500000
 20
109.000008
 40
5.000000
  0
CIRCLE
  8
0
 62
     1
 10
176.500000
 20
109.000008
 40
4.500000
  0
ARC
  8
0
 62
     4
 10
176.500000
 20
109.000008
 40
3.750000
 50
126.869896
 51
233.130096
  0
ARC
  8
0
 62
     4
 10
176.500000
 20
109.000008
 40
3.750000
 50
306.869904
 51
53.130104
  0
ARC
  8
0
 62
     4
 10
176.500000
 20
109.000008
 40
5.900004
 50
231.219070
 51
248.781815
  0
ARC
  8
0
 62
     4
 10
176.500000
 20
109.000008
 40
5.900001
 50
111.219292
 51
128.780441
  0
ARC
  8
0
 10
-31.789078
 20
3.307297
 40
1.789074
 50
325.615753
 51
25.615797
  0
ARC
  8
0
 10
-30.610931
 20
3.307297
 40
1.789075
 50
154.384155
 51
214.384201
  0
ARC
  8
0
 10
-25.712624
 20
0.276207
 40
6.687393
 50
162.412064
 51
197.587860
  0
ARC
  8
0
 10
-30.610931
 20
-2.754883
 40
1.789075
 50
145.615723
 51
205.615753
  0
ARC
  8
0
 10
-31.789078
 20
-2.754883
 40
1.789074
 50
334.384155
 51
34.384216
  0
ARC
  8
0
 10
-36.687393
 20
0.276207
 40
6.687395
 50
342.412048
 51
17.587885
  0
ARC
  8
0
 10
62.789078
 20
3.307297
 40
1.789075
 50
154.384155
 51
214.384201
  0
ARC
  8
0
 10
61.610916
 20
3.307297
 40
1.789074
 50
325.615753
 51
25.615797
  0
ARC
  8
0
 10
56.712616
 20
0.276207
 40
6.687394
 50
342.412048
 51
17.587885
  0
ARC
  8
0
 10
61.610916
 20
-2.754883
 40
1.789073
 50
334.384216
 51
34.384254
  0
ARC
  8
0
 10
62.789078
 20
-2.754883
 40
1.789074
 50
145.615753
 51
205.615799
  0
ARC
  8
0
 10
67.687393
 20
0.276207
 40
6.687393
 50
162.412064
 51
197.587860
  0
CIRCLE
  8
0
 62
     2
 10
-12.000031
 20
-70.999969
 40
2.000000
  0
CIRCLE
  8
0
 62
     2
 10
-12.000031
 20
-108.999969
 40
2.000000
  0
CIRCLE
  8
0
 62
     2
 10
42.999969
 20
-108.999985
 40
2.000000
  0
CIRCLE
  8
0
 62
     2
 10
42.999969
 20
-71.000000
 40
2.000000
  0
ARC
  8
0
 10
-35.054626
 20
-62.749924
 40
5.054621
 50
356.029053
 51
20.256105
  0
ARC
  8
0
 10
-35.054626
 20
-59.249931
 40
5.054621
 50
339.743835
 51
20.256105
  0
ARC
  8
0
 10
-27.345383
 20
-62.749924
 40
5.054621
 50
159.743805
 51
183.970917
  0
ARC
  8
0
 10
-27.345383
 20
-59.249931
 40
5.054623
 50
159.743851
 51
200.256104
  0
CIRCLE
  8
0
 10
56.999985
 20
-72.999939
 40
1.699999
  0
CIRCLE
  8
0
 10
-26.000031
 20
-72.999939
 40
1.699999
  0
CIRCLE
  8
0
 10
-26.000031
 20
-106.999954
 40
1.699999
  0
CIRCLE
  8
0
 10
56.999985
 20
-106.999954
 40
1.699999
  0
CIRCLE
  8
0
 10
15.499954
 20
-70.999954
 40
2.000000
  0
ARC
  8
0
 10
15.499954
 20
-107.999939
 40
2.000000
 50
0.000000
 51
180.000000
  0
ARC
  8
0
 10
15.499954
 20
-109.999939
 40
2.000000
 50
180.000000
 51
0.000000
  0
CIRCLE
  8
0
 10
49.999969
 20
-89.999939
 40
2.250000
  0
CIRCLE
  8
0
 10
49.999969
 20
-89.999939
 40
1.250000
  0
CIRCLE
  8
0
 10
-12.000053
 20
-70.999939
 40
1.650000
  0
CIRCLE
  8
0
 10
42.999969
 20
-70.999939
 40
1.650000
  0
CIRCLE
  8
0
 10
-12.000053
 20
-108.999939
 40
1.650000
  0
CIRCLE
  8
0
 10
42.999969
 20
-108.999939
 40
1.650000
  0
ARC
  8
0
 10
66.054626
 20
-62.749924
 40
5.054620
 50
159.743927
 51
200.256165
  0
ARC
  8
0
 10
66.054626
 20
-59.249931
 40
5.054620
 50
159.743927
 51
200.256165
  0
ARC
  8
0
 10
58.345383
 20
-62.749924
 40
5.054620
 50
339.743927
 51
20.256203
  0
ARC
  8
0
 10
58.345383
 20
-59.249931
 40
5.054622
 50
339.743896
 51
20.256163
  0
POLYLINE
  8
0
 62
     4
 66
     1
  0
VERTEX
  8
0
 10
-30.230881
 20
104.400742
  0
VERTEX
  8
0
 10
-30.059004
 20
105.317627
  0
VERTEX
  8
0
 10
-30.000000
 20
106.249954
  0
VERTEX
  8
0
 10
-30.059002
 20
107.182312
  0
VERTEX
  8
0
 10
-30.230881
 20
108.099236
  0
SEQEND
  0
POLYLINE
  8
0
 62
     4
 66
     1
  0
VERTEX
  8
0
 10
-32.769104
 20
104.400742
  0
VERTEX
  8
0
 10
-32.940994
 20
105.317627
  0
VERTEX
  8
0
 10
-33.000000
 20
106.249954
  0
VERTEX
  8
0
 10
-32.940994
 20
107.182320
  0
VERTEX
  8
0
 10
-32.769104
 20
108.099236
  0
SEQEND
  0
POLYLINE
  8
0
 62
     4
 66
     1
  0
VERTEX
  8
0
 10
-30.230881
 20
109.900757
  0
VERTEX
  8
0
 10
-30.059004
 20
110.817665
  0
VERTEX
  8
0
 10
-30.000000
 20
111.750015
  0
VERTEX
  8
0
 10
-30.059004
 20
112.682358
  0
VERTEX
  8
0
 10
-30.230881
 20
113.599258
  0
SEQEND
  0
POLYLINE
  8
0
 62
     4
 66
     1
  0
VERTEX
  8
0
 10
-32.769104
 20
109.900757
  0
VERTEX
  8
0
 10
-32.940994
 20
110.817665
  0
VERTEX
  8
0
 10
-33.000000
 20
111.750015
  0
VERTEX
  8
0
 10
-32.940994
 20
112.682358
  0
VERTEX
  8
0
 10
-32.769104
 20
113.599258
  0
SEQEND
  0
POLYLINE
  8
0
 62
     4
 66
     1
  0
VERTEX
  8
0
 10
61.230865
 20
113.599243
  0
VERTEX
  8
0
 10
61.058998
 20
112.682358
  0
VERTEX
  8
0
 10
61.000000
 20
111.750031
  0
VERTEX
  8
0
 10
61.058994
 20
110.817680
  0
VERTEX
  8
0
 10
61.230865
 20
109.900772
  0
SEQEND
  0
POLYLINE
  8
0
 62
     4
 66
     1
  0
VERTEX
  8
0
 10
63.769104
 20
113.599243
  0
VERTEX
  8
0
 10
63.940987
 20
112.682358
  0
VERTEX
  8
0
 10
63.999985
 20
111.750031
  0
VERTEX
  8
0
 10
63.940987
 20
110.817680
  0
VERTEX
  8
0
 10
63.769104
 20
109.900772
  0
SEQEND
  0
POLYLINE
  8
0
 62
     4
 66
     1
  0
VERTEX
  8
0
 10
61.230865
 20
108.099236
  0
VERTEX
  8
0
 10
61.058994
 20
107.182327
  0
VERTEX
  8
0
 10
61.000000
 20
106.249977
  0
VERTEX
  8
0
 10
61.058994
 20
105.317642
  0
VERTEX
  8
0
 10
61.230865
 20
104.400742
  0
SEQEND
  0
POLYLINE
  8
0
 62
     4
 66
     1
  0
VERTEX
  8
0
 10
63.769104
 20
108.099236
  0
VERTEX
  8
0
 10
63.940987
 20
107.182327
  0
VERTEX
  8
0
 10
63.999985
 20
106.249977
  0
VERTEX
  8
0
 10
63.940987
 20
105.317642
  0
VERTEX
  8
0
 10
63.769104
 20
104.400742
  0
SEQEND
  0
POLYLINE
  8
0
 62
     4
 66
     1
  0
VERTEX
  8
0
 10
61.080688
 20
3.911462
  0
VERTEX
  8
0
 10
61.020908
 20
4.193542
  0
VERTEX
  8
0
 10
61.000000
 20
4.539421
  0
VERTEX
  8
0
 10
61.061260
 20
5.085440
  0
VERTEX
  8
0
 10
61.230942
 20
5.607048
  0
SEQEND
  0
POLYLINE
  8
0
 62
     4
 66
     1
  0
VERTEX
  8
0
 10
63.769058
 20
3.471718
  0
VERTEX
  8
0
 10
63.938736
 20
3.993368
  0
VERTEX
  8
0
 10
63.999985
 20
4.539421
  0
VERTEX
  8
0
 10
63.938732
 20
5.085438
  0
VERTEX
  8
0
 10
63.769058
 20
5.607048
  0
SEQEND
  0
POLYLINE
  8
0
 62
     4
 66
     1
  0
VERTEX
  8
0
 10
-32.769058
 20
-6.054649
  0
VERTEX
  8
0
 10
-32.938732
 20
-5.532997
  0
VERTEX
  8
0
 10
-32.999985
 20
-4.986931
  0
VERTEX
  8
0
 10
-32.938736
 20
-4.440850
  0
VERTEX
  8
0
 10
-32.769058
 20
-3.919182
  0
SEQEND
  0
POLYLINE
  8
0
 62
     4
 66
     1
  0
VERTEX
  8
0
 10
-32.769058
 20
3.471718
  0
VERTEX
  8
0
 10
-32.938736
 20
3.993368
  0
VERTEX
  8
0
 10
-32.999985
 20
4.539421
  0
VERTEX
  8
0
 10
-32.938732
 20
5.085439
  0
VERTEX
  8
0
 10
-32.769058
 20
5.607048
  0
SEQEND
  0
POLYLINE
  8
0
 62
     4
 66
     1
  0
VERTEX
  8
0
 10
-32.885986
 20
-1.723057
  0
VERTEX
  8
0
 10
-32.832466
 20
-2.042265
  0
VERTEX
  8
0
 10
-32.769058
 20
-2.359230
  0
SEQEND
  0
POLYLINE
  8
0
 62
     4
 66
     1
  0
VERTEX
  8
0
 10
61.230942
 20
-6.054649
  0
VERTEX
  8
0
 10
61.061256
 20
-5.532998
  0
VERTEX
  8
0
 10
61.000000
 20
-4.986931
  0
VERTEX
  8
0
 10
61.061256
 20
-4.440849
  0
VERTEX
  8
0
 10
61.230942
 20
-3.919182
  0
SEQEND
  0
POLYLINE
  8
0
 62
     4
 66
     1
  0
VERTEX
  8
0
 10
-30.080690
 20
3.911462
  0
VERTEX
  8
0
 10
-30.020908
 20
4.193542
  0
VERTEX
  8
0
 10
-30.000000
 20
4.539421
  0
VERTEX
  8
0
 10
-30.061258
 20
5.085440
  0
VERTEX
  8
0
 10
-30.230942
 20
5.607048
  0
SEQEND
  0
POLYLINE
  8
0
 62
     4
 66
     1
  0
VERTEX
  8
0
 10
-30.230942
 20
-6.054649
  0
VERTEX
  8
0
 10
-30.061256
 20
-5.532998
  0
VERTEX
  8
0
 10
-30.000000
 20
-4.986931
  0
VERTEX
  8
0
 10
-30.061255
 20
-4.440849
  0
VERTEX
  8
0
 10
-30.230942
 20
-3.919182
  0
SEQEND
  0
POLYLINE
  8
0
 62
     4
 66
     1
  0
VERTEX
  8
0
 10
63.885986
 20
-1.723057
  0
VERTEX
  8
0
 10
63.832466
 20
-2.042265
  0
VERTEX
  8
0
 10
63.769058
 20
-2.359230
  0
SEQEND
  0
POLYLINE
  8
0
 62
     4
 66
     1
  0
VERTEX
  8
0
 10
63.769058
 20
-6.054649
  0
VERTEX
  8
0
 10
63.938732
 20
-5.532997
  0
VERTEX
  8
0
 10
63.999985
 20
-4.986931
  0
VERTEX
  8
0
 10
63.938736
 20
-4.440850
  0
VERTEX
  8
0
 10
63.769058
 20
-3.919182
  0
SEQEND
  0
POLYLINE
  8
0
 62
     4
 66
     1
  0
VERTEX
  8
0
 10
-32.769104
 20
-118.099182
  0
VERTEX
  8
0
 10
-32.931183
 20
-117.256859
  0
VERTEX
  8
0
 10
-32.998413
 20
-116.401863
  0
SEQEND
  0
POLYLINE
  8
0
 62
     4
 66
     1
  0
VERTEX
  8
0
 10
-30.230881
 20
-123.599213
  0
VERTEX
  8
0
 10
-30.059004
 20
-122.682327
  0
VERTEX
  8
0
 10
-30.000000
 20
-121.750000
  0
VERTEX
  8
0
 10
-30.059002
 20
-120.817635
  0
VERTEX
  8
0
 10
-30.230881
 20
-119.900711
  0
SEQEND
  0
POLYLINE
  8
0
 62
     4
 66
     1
  0
VERTEX
  8
0
 10
-32.769104
 20
-123.599213
  0
VERTEX
  8
0
 10
-32.940994
 20
-122.682327
  0
VERTEX
  8
0
 10
-33.000000
 20
-121.750000
  0
VERTEX
  8
0
 10
-32.940994
 20
-120.817635
  0
VERTEX
  8
0
 10
-32.769104
 20
-119.900711
  0
SEQEND
  0
POLYLINE
  8
0
 62
     4
 66
     1
  0
VERTEX
  8
0
 10
-30.230881
 20
-118.099182
  0
VERTEX
  8
0
 10
-30.068815
 20
-117.256851
  0
VERTEX
  8
0
 10
-30.001587
 20
-116.401863
  0
SEQEND
  0
POLYLINE
  8
0
 62
     4
 66
     1
  0
VERTEX
  8
0
 10
61.230865
 20
-114.400681
  0
VERTEX
  8
0
 10
61.058998
 20
-115.317566
  0
VERTEX
  8
0
 10
61.000000
 20
-116.249893
  0
VERTEX
  8
0
 10
61.058994
 20
-117.182259
  0
VERTEX
  8
0
 10
61.230865
 20
-118.099182
  0
SEQEND
  0
POLYLINE
  8
0
 62
     4
 66
     1
  0
VERTEX
  8
0
 10
61.230865
 20
-119.900711
  0
VERTEX
  8
0
 10
61.058994
 20
-120.817612
  0
VERTEX
  8
0
 10
61.000000
 20
-121.749939
  0
VERTEX
  8
0
 10
61.058994
 20
-122.682297
  0
VERTEX
  8
0
 10
61.230865
 20
-123.599213
  0
SEQEND
  0
POLYLINE
  8
0
 62
     4
 66
     1
  0
VERTEX
  8
0
 10
63.769104
 20
-114.400681
  0
VERTEX
  8
0
 10
63.940987
 20
-115.317566
  0
VERTEX
  8
0
 10
63.999985
 20
-116.249893
  0
VERTEX
  8
0
 10
63.940987
 20
-117.182259
  0
VERTEX
  8
0
 10
63.769104
 20
-118.099182
  0
SEQEND
  0
POLYLINE
  8
0
 62
     4
 66
     1
  0
VERTEX
  8
0
 10
63.769104
 20
-119.900711
  0
VERTEX
  8
0
 10
63.940987
 20
-120.817612
  0
VERTEX
  8
0
 10
63.999985
 20
-121.749939
  0
VERTEX
  8
0
 10
63.940987
 20
-122.682297
  0
VERTEX
  8
0
 10
63.769104
 20
-123.599213
  0
SEQEND
  0
TEXT
  8
0
 10
196.250259
 20
180.830002
 40
6.300000
  1
Ver. 1.0
 50
0.000000
 41
1.052632
 51
0.000000
  7
STANDARD
  0
TEXT
  8
0
 10
167.564667
 20
-192.100006
 40
9.000000
  1
KOGANEI CORP.
 50
0.000000
 41
1.052632
 51
0.000000
  7
STANDARD
  0
TEXT
  8
0
 10
-265.999725
 20
180.830002
 40
6.300000
  1
GT SLIDE TABLE
 50
0.000000
 41
1.052632
 51
0.000000
  7
STANDARD
  0
TEXT
  8
0
 10
-225.549713
 20
145.830002
 40
6.300000
  1
(WITH SENSOR SWITCH)
 50
0.000000
 41
1.052632
 51
0.000000
  7
STANDARD
  0
TEXT
  8
0
 10
-270.049713
 20
155.830002
 40
6.300000
  1
MODEL:AGTB10*ST(15)
 50
0.000000
 41
1.052632
 51
0.000000
  7
STANDARD
  0
TEXT
  8
0
 10
-226.142654
 20
-147.550003
 40
4.500000
  1
15
 50
0.000000
 41
1.052632
 51
0.000000
  7
STANDARD
  0
TEXT
  8
0
 10
-206.142654
 20
-147.550003
 40
4.500000
  1
30
 50
0.000000
 41
1.052632
 51
0.000000
  7
STANDARD
  0
TEXT
  8
0
 10
-186.142654
 20
-147.550003
 40
4.500000
  1
45
 50
0.000000
 41
1.052632
 51
0.000000
  7
STANDARD
  0
TEXT
  8
0
 10
-166.142654
 20
-147.550003
 40
4.500000
  1
60
 50
0.000000
 41
1.052632
 51
0.000000
  7
STANDARD
  0
TEXT
  8
0
 10
-146.142654
 20
-147.550003
 40
4.500000
  1
75
 50
0.000000
 41
1.052632
 51
0.000000
  7
STANDARD
  0
TEXT
  8
0
 10
-126.142654
 20
-147.550003
 40
4.500000
  1
90
 50
0.000000
 41
1.052632
 51
0.000000
  7
STANDARD
  0
TEXT
  8
0
 10
-265.142670
 20
-140.550003
 40
4.500000
  1
STROKE
 50
0.000000
 41
1.052632
 51
0.000000
  7
STANDARD
  0
TEXT
  8
0
 10
-267.392670
 20
-146.324997
 40
4.500000
  1
STRETCH
 50
0.000000
 41
1.052632
 51
0.000000
  7
STANDARD
  0
TEXT
  8
0
 10
-267.392670
 20
-153.074997
 40
4.500000
  1
  PLACE
 50
0.000000
 41
1.052632
 51
0.000000
  7
STANDARD
  0
TEXT
  8
0
 10
-253.892654
 20
-163.050003
 40
4.500000
  1
A
 50
0.000000
 41
1.052632
 51
0.000000
  7
STANDARD
  0
TEXT
  8
0
 10
-48.392658
 20
-183.050003
 40
4.500000
  1
D.E
 50
0.000000
 41
1.052632
 51
0.000000
  7
STANDARD
  0
TEXT
  8
0
 10
6.857346
 20
-163.050003
 40
4.500000
  1
DIMENSION LIST
 50
0.000000
 41
1.052632
 51
0.000000
  7
STANDARD
  0
TEXT
  8
0
 10
119.357346
 20
-165.050003
 40
4.500000
  1
(mm)
 50
0.000000
 41
1.052632
 51
0.000000
  7
STANDARD
  0
TEXT
  8
0
 10
-108.392654
 20
-147.550003
 40
4.500000
  1
105
 50
0.000000
 41
1.052632
 51
0.000000
  7
STANDARD
  0
TEXT
  8
0
 10
-88.392654
 20
-147.550003
 40
4.500000
  1
120
 50
0.000000
 41
1.052632
 51
0.000000
  7
STANDARD
  0
TEXT
  8
0
 10
3.857344
 20
-183.050003
 40
4.500000
  1
35
 50
0.000000
 41
1.052632
 51
0.000000
  7
STANDARD
  0
TEXT
  8
0
 10
23.857344
 20
-183.050003
 40
4.500000
  1
50
 50
0.000000
 41
1.052632
 51
0.000000
  7
STANDARD
  0
TEXT
  8
0
 10
43.857342
 20
-183.050003
 40
4.500000
  1
65
 50
0.000000
 41
1.052632
 51
0.000000
  7
STANDARD
  0
TEXT
  8
0
 10
63.857342
 20
-183.050003
 40
4.500000
  1
80
 50
0.000000
 41
1.052632
 51
0.000000
  7
STANDARD
  0
TEXT
  8
0
 10
83.857346
 20
-183.050003
 40
4.500000
  1
95
 50
0.000000
 41
1.052632
 51
0.000000
  7
STANDARD
  0
TEXT
  8
0
 10
101.607346
 20
-183.050003
 40
4.500000
  1
110
 50
0.000000
 41
1.052632
 51
0.000000
  7
STANDARD
  0
TEXT
  8
0
 10
121.607346
 20
-183.050003
 40
4.500000
  1
125
 50
0.000000
 41
1.052632
 51
0.000000
  7
STANDARD
  0
TEXT
  8
0
 10
-20.642656
 20
-183.050003
 40
4.500000
  1
27.5
 50
0.000000
 41
1.052632
 51
0.000000
  7
STANDARD
  0
TEXT
  8
0
 10
-223.892654
 20
-163.050003
 40
4.500000
  1
0
 50
0.000000
 41
1.052632
 51
0.000000
  7
STANDARD
  0
TEXT
  8
0
 10
-88.392654
 20
-163.050003
 40
4.500000
  1
105
 50
0.000000
 41
1.052632
 51
0.000000
  7
STANDARD
  0
TEXT
  8
0
 10
-106.142654
 20
-163.050003
 40
4.500000
  1
90
 50
0.000000
 41
1.052632
 51
0.000000
  7
STANDARD
  0
TEXT
  8
0
 10
-126.142654
 20
-163.050003
 40
4.500000
  1
75
 50
0.000000
 41
1.052632
 51
0.000000
  7
STANDARD
  0
TEXT
  8
0
 10
-146.142654
 20
-163.050003
 40
4.500000
  1
60
 50
0.000000
 41
1.052632
 51
0.000000
  7
STANDARD
  0
TEXT
  8
0
 10
-166.142654
 20
-163.050003
 40
4.500000
  1
45
 50
0.000000
 41
1.052632
 51
0.000000
  7
STANDARD
  0
TEXT
  8
0
 10
-186.142654
 20
-163.050003
 40
4.500000
  1
30
 50
0.000000
 41
1.052632
 51
0.000000
  7
STANDARD
  0
TEXT
  8
0
 10
-206.142654
 20
-163.050003
 40
4.500000
  1
15
 50
0.000000
 41
1.052632
 51
0.000000
  7
STANDARD
  0
TEXT
  8
0
 10
-55.142658
 20
-173.050003
 40
4.500000
  1
STROKE
 50
0.000000
 41
1.052632
 51
0.000000
  7
STANDARD
  0
TEXT
  8
0
 10
-16.142656
 20
-173.050003
 40
4.500000
  1
15
 50
0.000000
 41
1.052632
 51
0.000000
  7
STANDARD
  0
TEXT
  8
0
 10
3.857344
 20
-173.050003
 40
4.500000
  1
30
 50
0.000000
 41
1.052632
 51
0.000000
  7
STANDARD
  0
TEXT
  8
0
 10
23.857344
 20
-173.050003
 40
4.500000
  1
45
 50
0.000000
 41
1.052632
 51
0.000000
  7
STANDARD
  0
TEXT
  8
0
 10
43.857342
 20
-173.050003
 40
4.500000
  1
60
 50
0.000000
 41
1.052632
 51
0.000000
  7
STANDARD
  0
TEXT
  8
0
 10
63.857342
 20
-173.050003
 40
4.500000
  1
75
 50
0.000000
 41
1.052632
 51
0.000000
  7
STANDARD
  0
TEXT
  8
0
 10
83.857346
 20
-173.050003
 40
4.500000
  1
90
 50
0.000000
 41
1.052632
 51
0.000000
  7
STANDARD
  0
TEXT
  8
0
 10
101.607346
 20
-173.050003
 40
4.500000
  1
105
 50
0.000000
 41
1.052632
 51
0.000000
  7
STANDARD
  0
TEXT
  8
0
 10
121.607346
 20
-173.050003
 40
4.500000
  1
120
 50
0.000000
 41
1.052632
 51
0.000000
  7
STANDARD
  0
TEXT
  8
0
 62
     3
 10
17.857126
 20
119.949997
 40
4.500000
  1
STRETCH LINE C
 50
0.000000
 41
1.052632
 51
0.000000
  7
STANDARD
  0
TEXT
  8
0
 62
     3
 10
-40.892887
 20
139.949997
 40
4.500000
  1
STRETCH LINE A
 50
0.000000
 41
1.052632
 51
0.000000
  7
STANDARD
  0
TEXT
  8
0
 62
     3
 10
-4.642874
 20
129.949997
 40
4.500000
  1
STRETCH LINE B
 50
0.000000
 41
1.052632
 51
0.000000
  7
STANDARD
  0
TEXT
  8
0
 10
-253.892654
 20
-183.050003
 40
4.500000
  1
C
 50
0.000000
 41
1.052632
 51
0.000000
  7
STANDARD
  0
TEXT
  8
0
 10
-203.892654
 20
-183.050003
 40
4.500000
  1
0
 50
0.000000
 41
1.052632
 51
0.000000
  7
STANDARD
  0
TEXT
  8
0
 10
-188.392654
 20
-183.050003
 40
4.500000
  1
7.5
 50
0.000000
 41
1.052632
 51
0.000000
  7
STANDARD
  0
TEXT
  8
0
 10
-166.142654
 20
-183.050003
 40
4.500000
  1
15
 50
0.000000
 41
1.052632
 51
0.000000
  7
STANDARD
  0
TEXT
  8
0
 10
-150.642654
 20
-183.050003
 40
4.500000
  1
22.5
 50
0.000000
 41
1.052632
 51
0.000000
  7
STANDARD
  0
TEXT
  8
0
 10
-126.142654
 20
-183.050003
 40
4.500000
  1
30
 50
0.000000
 41
1.052632
 51
0.000000
  7
STANDARD
  0
TEXT
  8
0
 10
-110.642654
 20
-183.050003
 40
4.500000
  1
37.5
 50
0.000000
 41
1.052632
 51
0.000000
  7
STANDARD
  0
TEXT
  8
0
 10
-86.142654
 20
-183.050003
 40
4.500000
  1
45
 50
0.000000
 41
1.052632
 51
0.000000
  7
STANDARD
  0
TEXT
  8
0
 10
-223.892654
 20
-183.050003
 40
4.500000
  1
0
 50
0.000000
 41
1.052632
 51
0.000000
  7
STANDARD
  0
TEXT
  8
0
 10
-253.892654
 20
-173.050003
 40
4.500000
  1
B
 50
0.000000
 41
1.052632
 51
0.000000
  7
STANDARD
  0
TEXT
  8
0
 10
-223.892654
 20
-173.050003
 40
4.500000
  1
0
 50
0.000000
 41
1.052632
 51
0.000000
  7
STANDARD
  0
TEXT
  8
0
 10
-203.892654
 20
-173.050003
 40
4.500000
  1
0
 50
0.000000
 41
1.052632
 51
0.000000
  7
STANDARD
  0
TEXT
  8
0
 10
-188.392654
 20
-173.050003
 40
4.500000
  1
7.5
 50
0.000000
 41
1.052632
 51
0.000000
  7
STANDARD
  0
TEXT
  8
0
 10
-166.142654
 20
-173.050003
 40
4.500000
  1
15
 50
0.000000
 41
1.052632
 51
0.000000
  7
STANDARD
  0
TEXT
  8
0
 10
-150.642654
 20
-173.050003
 40
4.500000
  1
22.5
 50
0.000000
 41
1.052632
 51
0.000000
  7
STANDARD
  0
TEXT
  8
0
 10
-126.142654
 20
-173.050003
 40
4.500000
  1
30
 50
0.000000
 41
1.052632
 51
0.000000
  7
STANDARD
  0
TEXT
  8
0
 10
-110.642654
 20
-173.050003
 40
4.500000
  1
37.5
 50
0.000000
 41
1.052632
 51
0.000000
  7
STANDARD
  0
TEXT
  8
0
 10
-86.142654
 20
-173.050003
 40
4.500000
  1
45
 50
0.000000
 41
1.052632
 51
0.000000
  7
STANDARD
  0
TEXT
  8
0
 10
-198.642654
 20
-132.050003
 40
4.500000
  1
STRETCH LIST
 50
0.000000
 41
1.052632
 51
0.000000
  7
STANDARD
  0
TEXT
  8
0
 10
-90.642654
 20
-134.050003
 40
4.500000
  1
(mm)
 50
0.000000
 41
1.052632
 51
0.000000
  7
STANDARD
  0
TEXT
  8
0
 62
     2
 10
-24.407026
 20
-132.999939
 40
3.200000
  1
18
 50
0.000000
 41
1.052632
 51
0.000000
  7
STANDARD
  0
LINE
  8
0
 62
     2
 10
-30.000000
 20
-133.999939
 11
-12.000053
 21
-133.999939
  0
LINE
  8
0
 62
     2
 10
-30.000000
 20
-133.999939
 11
-27.102222
 21
-133.223480
  0
LINE
  8
0
 62
     2
 10
-30.000000
 20
-133.999939
 11
-27.102222
 21
-134.776398
  0
LINE
  8
0
 62
     2
 10
-12.000053
 20
-133.999939
 11
-14.897831
 21
-134.776398
  0
LINE
  8
0
 62
     2
 10
-12.000053
 20
-133.999939
 11
-14.897831
 21
-133.223480
  0
LINE
  8
0
 62
     2
 10
-30.000000
 20
-124.999939
 11
-30.000000
 21
-135.499939
  0
LINE
  8
0
 62
     2
 10
-12.000053
 20
-112.414825
 11
-12.000053
 21
-135.499939
  0
TEXT
  8
0
 62
     2
 10
-0.057031
 20
-132.999939
 40
3.200000
  1
D
 50
0.000000
 41
1.052632
 51
0.000000
  7
STANDARD
  0
LINE
  8
0
 62
     2
 10
-12.000053
 20
-133.999939
 11
15.499992
 21
-133.999939
  0
LINE
  8
0
 62
     2
 10
-12.000053
 20
-133.999939
 11
-9.102276
 21
-133.223480
  0
LINE
  8
0
 62
     2
 10
-12.000053
 20
-133.999939
 11
-9.102276
 21
-134.776398
  0
LINE
  8
0
 62
     2
 10
15.499992
 20
-133.999939
 11
12.602215
 21
-134.776398
  0
LINE
  8
0
 62
     2
 10
15.499992
 20
-133.999939
 11
12.602215
 21
-133.223480
  0
LINE
  8
0
 62
     2
 10
-12.000053
 20
-112.414825
 11
-12.000053
 21
-135.499939
  0
LINE
  8
0
 62
     2
 10
15.499992
 20
-113.499985
 11
15.499992
 21
-135.499939
  0
TEXT
  8
0
 62
     2
 10
27.442982
 20
-132.999939
 40
3.200000
  1
E
 50
0.000000
 41
1.052632
 51
0.000000
  7
STANDARD
  0
LINE
  8
0
 62
     2
 10
15.499992
 20
-133.999939
 11
42.999969
 21
-133.999939
  0
LINE
  8
0
 62
     2
 10
15.499992
 20
-133.999939
 11
18.397770
 21
-133.223480
  0
LINE
  8
0
 62
     2
 10
15.499992
 20
-133.999939
 11
18.397770
 21
-134.776398
  0
LINE
  8
0
 62
     2
 10
42.999969
 20
-133.999939
 11
40.102192
 21
-134.776398
  0
LINE
  8
0
 62
     2
 10
42.999969
 20
-133.999939
 11
40.102192
 21
-133.223480
  0
LINE
  8
0
 62
     2
 10
15.499992
 20
-113.499985
 11
15.499992
 21
-135.499939
  0
LINE
  8
0
 62
     2
 10
42.999969
 20
-112.414825
 11
42.999969
 21
-135.499939
  0
TEXT
  8
0
 62
     2
 10
48.592983
 20
-132.999939
 40
3.200000
  1
18
 50
0.000000
 41
1.052632
 51
0.000000
  7
STANDARD
  0
LINE
  8
0
 62
     2
 10
42.999969
 20
-133.999939
 11
61.000000
 21
-133.999939
  0
LINE
  8
0
 62
     2
 10
42.999969
 20
-133.999939
 11
45.897747
 21
-133.223480
  0
LINE
  8
0
 62
     2
 10
42.999969
 20
-133.999939
 11
45.897747
 21
-134.776398
  0
LINE
  8
0
 62
     2
 10
61.000000
 20
-133.999939
 11
58.102222
 21
-134.776398
  0
LINE
  8
0
 62
     2
 10
61.000000
 20
-133.999939
 11
58.102222
 21
-133.223480
  0
LINE
  8
0
 62
     2
 10
42.999969
 20
-112.414825
 11
42.999969
 21
-135.499939
  0
LINE
  8
0
 62
     2
 10
61.000000
 20
-124.999939
 11
61.000000
 21
-135.499939
  0
ENDSEC
  0
EOF
