  0
SECTION
  2
HEADER
  9
$ACADVER
  1
AC1012
  9
$DWGCODEPAGE
  3
dos932
  9
$INSBASE
 10
0.0
 20
0.0
 30
0.0
  9
$EXTMIN
 10
-194.25
 20
-133.5
 30
0.0
  9
$EXTMAX
 10
196.25000429153442
 20
132.60000610351562
 30
0.0
  9
$LIMMIN
 10
-194.25
 20
-133.5
  9
$LIMMAX
 10
196.25000429153442
 20
132.60000610351562
  9
$ORTHOMODE
 70
               0
  9
$REGENMODE
 70
               1
  9
$FILLMODE
 70
               1
  9
$QTEXTMODE
 70
               0
  9
$MIRRTEXT
 70
               1
  9
$DRAGMODE
 70
               2
  9
$LTSCALE
 40
1.0
  9
$OSMODE
 70
               0
  9
$ATTMODE
 70
               1
  9
$TEXTSIZE
 40
3.2000000476837158
  9
$TRACEWID
 40
0.05
  9
$TEXTSTYLE
  7
MX_NOTE_STANDARD
  9
$CLAYER
  8
0
  9
$CELTYPE
  6
CONTINUOUS
  9
$CECOLOR
 62
             256
  9
$CELTSCALE
 40
1.0
  9
$DELOBJ
 70
               1
  9
$DISPSILH
 70
               0
  9
$DIMSCALE
 40
1.0
  9
$DIMASZ
 40
2.5
  9
$DIMEXO
 40
1.5
  9
$DIMDLI
 40
3.75
  9
$DIMRND
 40
0.0
  9
$DIMDLE
 40
0.0
  9
$DIMEXE
 40
1.5
  9
$DIMTP
 40
0.0
  9
$DIMTM
 40
0.0
  9
$DIMTXT
 40
3.2000000476837158
  9
$DIMCEN
 40
2.5
  9
$DIMTSZ
 40
0.0
  9
$DIMTOL
 70
               0
  9
$DIMLIM
 70
               0
  9
$DIMTIH
 70
               0
  9
$DIMTOH
 70
               0
  9
$DIMSE1
 70
               0
  9
$DIMSE2
 70
               0
  9
$DIMTAD
 70
               1
  9
$DIMZIN
 70
               8
  9
$DIMBLK
  1

  9
$DIMASO
 70
               1
  9
$DIMSHO
 70
               1
  9
$DIMPOST
  1

  9
$DIMAPOST
  1

  9
$DIMALT
 70
               0
  9
$DIMALTD
 70
               4
  9
$DIMALTF
 40
0.03937007874016
  9
$DIMLFAC
 40
1.0
  9
$DIMTOFL
 70
               1
  9
$DIMTVP
 40
0.0
  9
$DIMTIX
 70
               0
  9
$DIMSOXD
 70
               0
  9
$DIMSAH
 70
               0
  9
$DIMBLK1
  1

  9
$DIMBLK2
  1

  9
$DIMSTYLE
  2
MXDIMSTYLE
  9
$DIMCLRD
 70
               0
  9
$DIMCLRE
 70
               0
  9
$DIMCLRT
 70
               0
  9
$DIMTFAC
 40
1.0
  9
$DIMGAP
 40
1.0
  9
$DIMJUST
 70
               0
  9
$DIMSD1
 70
               0
  9
$DIMSD2
 70
               0
  9
$DIMTOLJ
 70
               1
  9
$DIMTZIN
 70
               0
  9
$DIMALTZ
 70
               0
  9
$DIMALTTZ
 70
               0
  9
$DIMFIT
 70
               3
  9
$DIMUPT
 70
               1
  9
$DIMUNIT
 70
               2
  9
$DIMDEC
 70
               4
  9
$DIMTDEC
 70
               4
  9
$DIMALTU
 70
               2
  9
$DIMALTTD
 70
               4
  9
$DIMTXSTY
  7
MX_NOTE_STANDARD
  9
$DIMAUNIT
 70
               0
  9
$LUNITS
 70
               2
  9
$LUPREC
 70
               4
  9
$SKETCHINC
 40
0.1
  9
$FILLETRAD
 40
0.0
  9
$AUNITS
 70
               0
  9
$AUPREC
 70
               0
  9
$MENU
  1
acad
  9
$ELEVATION
 40
0.0
  9
$PELEVATION
 40
0.0
  9
$THICKNESS
 40
0.0
  9
$LIMCHECK
 70
               0
  9
$BLIPMODE
 70
               1
  9
$CHAMFERA
 40
0.0
  9
$CHAMFERB
 40
0.0
  9
$CHAMFERC
 40
0.0
  9
$CHAMFERD
 40
0.0
  9
$SKPOLY
 70
               0
  9
$TDCREATE
 40
2453690.590775463
  9
$TDUPDATE
 40
2453690.590775463
  9
$TDINDWG
 40
0.0000000000
  9
$TDUSRTIMER
 40
0.0000000000
  9
$USRTIMER
 70
               1
  9
$ANGBASE
 50
0.0
  9
$ANGDIR
 70
               0
  9
$PDMODE
 70
               0
  9
$PDSIZE
 40
0.0
  9
$PLINEWID
 40
0.0
  9
$COORDS
 70
               1
  9
$SPLFRAME
 70
               0
  9
$SPLINETYPE
 70
               6
  9
$SPLINESEGS
 70
               8
  9
$ATTDIA
 70
               0
  9
$ATTREQ
 70
               1
  9
$HANDLING
 70
               1
  9
$HANDSEED
  5
309
  9
$SURFTAB1
 70
               6
  9
$SURFTAB2
 70
               6
  9
$SURFTYPE
 70
               6
  9
$SURFU
 70
               6
  9
$SURFV
 70
               6
  9
$UCSNAME
  2

  9
$UCSORG
 10
0.0
 20
0.0
 30
0.0
  9
$UCSXDIR
 10
1.0
 20
0.0
 30
0.0
  9
$UCSYDIR
 10
0.0
 20
1.0
 30
0.0
  9
$PUCSNAME
  2

  9
$PUCSORG
 10
0.0
 20
0.0
 30
0.0
  9
$PUCSXDIR
 10
1.0
 20
0.0
 30
0.0
  9
$PUCSYDIR
 10
0.0
 20
1.0
 30
0.0
  9
$USERI1
 70
               0
  9
$USERI2
 70
               0
  9
$USERI3
 70
               0
  9
$USERI4
 70
               0
  9
$USERI5
 70
               0
  9
$USERR1
 40
0.0
  9
$USERR2
 40
0.0
  9
$USERR3
 40
0.0
  9
$USERR4
 40
0.0
  9
$USERR5
 40
0.0
  9
$WORLDVIEW
 70
               1
  9
$SHADEDGE
 70
               3
  9
$SHADEDIF
 70
              70
  9
$TILEMODE
 70
               1
  9
$MAXACTVP
 70
              16
  9
$PINSBASE
 10
0.0
 20
0.0
 30
0.0
  9
$PLIMCHECK
 70
               0
  9
$PEXTMIN
 10
1.0000000000000000E+20
 20
1.0000000000000000E+20
 30
1.0000000000000000E+20
  9
$PEXTMAX
 10
-1.0000000000000000E+20
 20
-1.0000000000000000E+20
 30
-1.0000000000000000E+20
  9
$PLIMMIN
 10
0.0
 20
0.0
  9
$PLIMMAX
 10
12.0
 20
9.0
  9
$UNITMODE
 70
               0
  9
$VISRETAIN
 70
               0
  9
$PLINEGEN
 70
               1
  9
$PSLTSCALE
 70
               0
  9
$TREEDEPTH
 70
            3020
  9
$PICKSTYLE
 70
               1
  9
$CMLSTYLE
  2
Standard
  9
$CMLJUST
 70
               0
  9
$CMLSCALE
 40
1.0
  9
$SAVEIMAGES
 70
               0
  0
ENDSEC
  0
SECTION
  2
CLASSES
  0
CLASS
  1
LWPOLYLINE
  2
AcDbPolyline
  3
"AutoCAD"
 90
        0
280
               0
281
               1
  0
CLASS
  1
IMAGE
  2
AcDbRasterImage
  3
ISM
 90
      127
280
               0
281
               1
  0
CLASS
  1
OLE2FRAME
  2
AcDbOle2Frame
  3
""
 90
        0
280
               0
281
               1
  0
CLASS
  1
HATCH
  2
AcDbHatch
  3
"ACAD_SEDONA"
 90
        0
280
               0
281
               1
  0
CLASS
  1
DICTIONARYVAR
  2
AcDbDictionaryVar
  3
"AutoCAD"
 90
        0
280
               0
281
               0
  0
CLASS
  1
RASTERVARIABLES
  2
AcDbRasterVariables
  3
ISM
 90
        0
280
               0
281
               0
  0
CLASS
  1
IMAGEDEF
  2
AcDbRasterImageDef
  3
ISM
 90
        0
280
               0
281
               0
  0
CLASS
  1
IMAGEDEF_REACTOR
  2
AcDbRasterImageDefReactor
  3
ISM
 90
        1
280
               0
281
               0
  0
CLASS
  1
IDBUFFER
  2
AcDbIdBuffer
  3
"Acad"
 90
        0
280
               0
281
               0
  0
CLASS
  1
SPATIAL_FILTER
  2
AcDbSpatialFilter
  3
"Acad"
 90
        0
280
               0
281
               0
  0
CLASS
  1
XRECORD
  2
AcDbXrecord
  3
"<Built In>"
 90
        0
280
               0
281
               0
  0
CLASS
  1
SORTENTSTABLE
  2
AcDbSortentsTable
  3
"AutoCAD"
 90
        0
280
               0
281
               0
  0
CLASS
  1
LAYER_INDEX
  2
AcDbLayerIndex
  3
"Acad"
 90
        0
280
               0
281
               0
  0
CLASS
  1
SPATIAL_INDEX
  2
AcDbSpatialIndex
  3
"Acad"
 90
        0
280
               0
281
               0
  0
CLASS
  1
OBJECT_PTR
  2
CAseDLPNTableRecord
  3
"ASE-LPNTableRecord"
 90
        1
280
               0
281
               0
  0
CLASS
  1
LAYOUT
  2
AcDbLayout
  3
"AutoCAD 2000"
 90
        1
280
               0
281
               0
  0
CLASS
  1
PLOTSETTINGS
  2
AcDbPlotSettings
  3
"AutoCAD 2000"
 90
        1
280
               0
281
               0
  0
CLASS
  1
ACDBDICTIONARYWDFLT
  2
AcDbDictionaryWithDefault
  3
"AutoCAD 2000"
 90
        1
280
               0
281
               0
  0
CLASS
  1
ACDBPLACEHOLDER
  2
AcDbPlaceHolder
  3
"AutoCAD 2000"
 90
        1
280
               0
281
               0
  0
ENDSEC
  0
SECTION
  2
TABLES
  0
TABLE
  2
VPORT
  5
7
100
AcDbSymbolTable
 70
               1
  0
VPORT
  5
15
100
AcDbSymbolTableRecord
100
AcDbViewportTableRecord
  2
*ACTIVE
 70
               0
 10
0.0
 20
0.0
 11
1.0
 21
1.0
 12
1.0000021457672119
 22
-0.4499969482421875
 13
0.0
 23
0.0
 14
1.0
 24
1.0
 15
0.0
 25
0.0
 16
0.0
 26
0.0
 36
1.0
 17
0.0
 27
0.0
 37
0.0
 40
268.76100616455079
 41
1.7320508075688772
 42
50.0
 43
0.0
 44
0.0
 50
0.0
 51
0.0
 71
               0
 72
             100
 73
               1
 74
               1
 75
               0
 76
               0
 77
               0
 78
               0
  0
ENDTAB
  0
TABLE
  2
LTYPE
  5
4
100
AcDbSymbolTable
 70
               4
  0
LTYPE
  5
11
100
AcDbSymbolTableRecord
100
AcDbLinetypeTableRecord
  2
BYBLOCK
 70
              64
  3

 72
              65
 73
               0
 40
0.0
  0
LTYPE
  5
12
100
AcDbSymbolTableRecord
100
AcDbLinetypeTableRecord
  2
BYLAYER
 70
              64
  3

 72
              65
 73
               0
 40
0.0
  0
LTYPE
  5
13
100
AcDbSymbolTableRecord
100
AcDbLinetypeTableRecord
  2
CONTINUOUS
 70
              64
  3
Solid line
 72
              65
 73
               0
 40
0.0
  0
LTYPE
  5
2A
100
AcDbSymbolTableRecord
100
AcDbLinetypeTableRecord
  2
CENTER
 70
              64
  3
Center ____ _ ____ _ ____ _ ____ _ ____ _ ____
 72
              65
 73
               4
 40
26.0
 49
20.0
 74
               0
 49
-2.0
 74
               0
 49
2.0
 74
               0
 49
-2.0
 74
               0
  0
ENDTAB
  0
TABLE
  2
LAYER
  5
2
100
AcDbSymbolTable
 70
               2
  0
LAYER
  5
14
100
AcDbSymbolTableRecord
100
AcDbLayerTableRecord
  2
0
 70
               0
 62
               7
  6
CONTINUOUS
  0
LAYER
  5
1D
100
AcDbSymbolTableRecord
100
AcDbLayerTableRecord
  2
DEFPOINTS
 70
               0
 62
               7
  6
CONTINUOUS
  0
ENDTAB
  0
TABLE
  2
STYLE
  5
3
100
AcDbSymbolTable
 70
               1
  0
STYLE
  5
17
100
AcDbSymbolTableRecord
100
AcDbTextStyleTableRecord
  2
MX_NOTE_STANDARD
 70
               0
 40
0.0
 41
1.0
 50
0.0
 71
               0
 42
3.2000000476837158
  3
txt.shx
  4
extfont.shx
  0
ENDTAB
  0
TABLE
  2
VIEW
  5
5
100
AcDbSymbolTable
 70
               0
  0
ENDTAB
  0
TABLE
  2
UCS
  5
6
100
AcDbSymbolTable
 70
               0
  0
ENDTAB
  0
TABLE
  2
APPID
  5
8
100
AcDbSymbolTable
 70
               1
  0
APPID
  5
16
100
AcDbSymbolTableRecord
100
AcDbRegAppTableRecord
  2
ACAD
 70
               0
  0
ENDTAB
  0
TABLE
  2
DIMSTYLE
  5
9
100
AcDbSymbolTable
 70
               1
  0
DIMSTYLE
105
18
100
AcDbSymbolTableRecord
100
AcDbDimStyleTableRecord
  2
MXDIMSTYLE
 70
               0
  3

  4

  5

  6

  7

 40
1.0
 41
2.5
 42
1.5
 43
3.75
 44
1.5
 45
0.0
 46
0.0
 47
0.0
 48
0.0
 71
               0
 72
               0
 73
               0
 74
               0
 75
               0
 76
               0
 77
               1
 78
               8
140
3.2000000476837158
141
2.5
142
0.0
143
0.03937007874016
144
1.0
145
0.0
146
1.0
147
1.0
170
               0
171
               4
172
               1
173
               0
174
               0
175
               0
176
               0
177
               0
178
               0
270
               2
271
               4
272
               4
273
               2
274
               4
275
               0
280
               0
281
               0
282
               0
283
               1
284
               0
285
               0
286
               0
287
               3
288
               1
340
17
  0
ENDTAB
  0
TABLE
  2
BLOCK_RECORD
  5
1
100
AcDbSymbolTable
 70
              11
  0
BLOCK_RECORD
  5
A
100
AcDbSymbolTableRecord
100
AcDbBlockTableRecord
  2
*MODEL_SPACE
  0
BLOCK_RECORD
  5
B
100
AcDbSymbolTableRecord
100
AcDbBlockTableRecord
  2
*PAPER_SPACE
  0
BLOCK_RECORD
  5
1E
100
AcDbSymbolTableRecord
100
AcDbBlockTableRecord
  2
AFDPGL-14-JA-1
  0
BLOCK_RECORD
  5
1F
100
AcDbSymbolTableRecord
100
AcDbBlockTableRecord
  2
AFDPGL-14-JA-2
  0
BLOCK_RECORD
  5
20
100
AcDbSymbolTableRecord
100
AcDbBlockTableRecord
  2
AFDPGL-14-JA-3
  0
BLOCK_RECORD
  5
21
100
AcDbSymbolTableRecord
100
AcDbBlockTableRecord
  2
AFDPGL-14-JA-4
  0
BLOCK_RECORD
  5
22
100
AcDbSymbolTableRecord
100
AcDbBlockTableRecord
  2
AFDPGL-14-JA-5
  0
BLOCK_RECORD
  5
23
100
AcDbSymbolTableRecord
100
AcDbBlockTableRecord
  2
AFDPGL-14-JA-6
  0
BLOCK_RECORD
  5
24
100
AcDbSymbolTableRecord
100
AcDbBlockTableRecord
  2
AFDPGL-14-JA-7
  0
BLOCK_RECORD
  5
25
100
AcDbSymbolTableRecord
100
AcDbBlockTableRecord
  2
AFDPGL-14-JA-8
  0
BLOCK_RECORD
  5
26
100
AcDbSymbolTableRecord
100
AcDbBlockTableRecord
  2
AFDPGL-14-JA-9
  0
BLOCK_RECORD
  5
27
100
AcDbSymbolTableRecord
100
AcDbBlockTableRecord
  2
AFDPGL-14-JA-10
  0
BLOCK_RECORD
  5
28
100
AcDbSymbolTableRecord
100
AcDbBlockTableRecord
  2
AFDPGL-14-JA-11
  0
ENDTAB
  0
ENDSEC
  0
SECTION
  2
BLOCKS
  0
BLOCK
  5
D
100
AcDbEntity
  8
0
100
AcDbBlockBegin
  2
*MODEL_SPACE
 70
               0
 10
0.0
 20
0.0
 30
0.0
  3
*MODEL_SPACE
  1

  0
ENDBLK
  5
E
100
AcDbEntity
  8
0
100
AcDbBlockEnd
  0
BLOCK
  5
F
100
AcDbEntity
 67
               1
  8
0
100
AcDbBlockBegin
  2
*PAPER_SPACE
 70
               0
 10
0.0
 20
0.0
 30
0.0
  3
*PAPER_SPACE
  1

  0
ENDBLK
  5
10
100
AcDbEntity
 67
               1
  8
0
100
AcDbBlockEnd
  0
BLOCK
  5
29
100
AcDbEntity
  8
0
100
AcDbBlockBegin
  2
AFDPGL-14-JA-1
 70
               0
 10
0.0
 20
0.0
 30
0.0
  3
AFDPGL-14-JA-1
  1

  0
LINE
  5
2B
100
AcDbEntity
  8
0
  6
CENTER
 62
               2
100
AcDbLine
 10
-81.425171426631692
 20
9.0
 30
0.0
 11
69.999999996411361
 21
9.0
 31
0.0
  0
ARC
  5
2C
100
AcDbEntity
  8
0
  6
CONTINUOUS
 62
               7
100
AcDbCircle
 10
-66.500015258789063
 20
11.000001430511475
 30
0.0
 40
1.5
100
AcDbArc
 50
89.999982013910653
 51
179.99996402782131
  0
ARC
  5
2D
100
AcDbEntity
  8
0
  6
CONTINUOUS
 62
               7
100
AcDbCircle
 10
-66.500015258789063
 20
7.0000015255063772
 30
0.0
 40
1.5
100
AcDbArc
 50
179.99997768819966
 51
270.00002800400199
  0
CIRCLE
  5
2E
100
AcDbEntity
  8
0
  6
CONTINUOUS
 62
               2
100
AcDbCircle
 10
0.0
 20
18.5
 30
0.0
 40
2.0
  0
CIRCLE
  5
2F
100
AcDbEntity
  8
0
  6
CONTINUOUS
 62
               2
100
AcDbCircle
 10
-40.000007629394531
 20
18.5
 30
0.0
 40
2.0
  0
CIRCLE
  5
30
100
AcDbEntity
  8
0
  6
CONTINUOUS
 62
               2
100
AcDbCircle
 10
40.0
 20
18.5
 30
0.0
 40
2.0
  0
LINE
  5
31
100
AcDbEntity
  8
0
  6
CONTINUOUS
 62
               7
100
AcDbLine
 10
-66.500015258789063
 20
5.5000015497207642
 30
0.0
 11
-65.000015258789063
 21
5.5000015497207642
 31
0.0
  0
LINE
  5
32
100
AcDbEntity
  8
0
  6
CONTINUOUS
 62
               7
100
AcDbLine
 10
-66.500015258789063
 20
12.500001430511475
 30
0.0
 11
-65.000015258789063
 21
12.500001430511475
 31
0.0
  0
LINE
  5
33
100
AcDbEntity
  8
0
  6
CONTINUOUS
 62
               7
100
AcDbLine
 10
-68.000015258789063
 20
11.000001430511475
 30
0.0
 11
-68.000015258789063
 21
7.0000015255063772
 31
0.0
  0
LINE
  5
34
100
AcDbEntity
  8
0
  6
CONTINUOUS
 62
               7
100
AcDbLine
 10
-65.000015258789063
 20
11.86602783203125
 30
0.0
 11
65.0
 21
11.86602783203125
 31
0.0
  0
LINE
  5
35
100
AcDbEntity
  8
0
  6
CONTINUOUS
 62
               7
100
AcDbLine
 10
-65.000015258789063
 20
10.13397216796875
 30
0.0
 11
65.0
 21
10.13397216796875
 31
0.0
  0
LINE
  5
36
100
AcDbEntity
  8
0
  6
CONTINUOUS
 62
               7
100
AcDbLine
 10
-31.000015258789063
 20
24.5
 30
0.0
 11
31.0
 21
24.5
 31
0.0
  0
LINE
  5
37
100
AcDbEntity
  8
0
  6
CONTINUOUS
 62
               7
100
AcDbLine
 10
-31.000015258789063
 20
25.5
 30
0.0
 11
31.0
 21
25.5
 31
0.0
  0
LINE
  5
38
100
AcDbEntity
  8
0
  6
CONTINUOUS
 62
               7
100
AcDbLine
 10
66.0
 20
30.5
 30
0.0
 11
66.0
 21
23.000003814697266
 31
0.0
  0
LINE
  5
39
100
AcDbEntity
  8
0
  6
CONTINUOUS
 62
               7
100
AcDbLine
 10
-66.000015258789063
 20
30.5
 30
0.0
 11
-66.000015258789063
 21
23.000003814697266
 31
0.0
  0
LINE
  5
3A
100
AcDbEntity
  8
0
  6
CONTINUOUS
 62
               7
100
AcDbLine
 10
32.0
 20
31.0
 30
0.0
 11
32.0
 21
23.000003814697266
 31
0.0
  0
LINE
  5
3B
100
AcDbEntity
  8
0
  6
CONTINUOUS
 62
               7
100
AcDbLine
 10
65.0
 20
30.5
 30
0.0
 11
66.0
 21
30.5
 31
0.0
  0
LINE
  5
3C
100
AcDbEntity
  8
0
  6
CONTINUOUS
 62
               7
100
AcDbLine
 10
31.0
 20
30.5
 30
0.0
 11
32.0
 21
30.5
 31
0.0
  0
LINE
  5
3D
100
AcDbEntity
  8
0
  6
CONTINUOUS
 62
               7
100
AcDbLine
 10
65.0
 20
31.0
 30
0.0
 11
65.0
 21
23.000003814697266
 31
0.0
  0
LINE
  5
3E
100
AcDbEntity
  8
0
  6
CONTINUOUS
 62
               7
100
AcDbLine
 10
31.0
 20
30.5
 30
0.0
 11
31.0
 21
23.000003814697266
 31
0.0
  0
LINE
  5
3F
100
AcDbEntity
  8
0
  6
CONTINUOUS
 62
               7
100
AcDbLine
 10
32.000001907348633
 20
31.0
 30
0.0
 11
65.0
 21
31.0
 31
0.0
  0
LINE
  5
40
100
AcDbEntity
  8
0
  6
CONTINUOUS
 62
               7
100
AcDbLine
 10
-32.000015258789063
 20
31.0
 30
0.0
 11
-32.000015258789063
 21
23.000003814697266
 31
0.0
  0
LINE
  5
41
100
AcDbEntity
  8
0
  6
CONTINUOUS
 62
               7
100
AcDbLine
 10
-65.000015258789063
 20
30.5
 30
0.0
 11
-66.000015258789063
 21
30.5
 31
0.0
  0
LINE
  5
42
100
AcDbEntity
  8
0
  6
CONTINUOUS
 62
               7
100
AcDbLine
 10
-31.000015258789063
 20
30.5
 30
0.0
 11
-32.000015258789063
 21
30.5
 31
0.0
  0
LINE
  5
43
100
AcDbEntity
  8
0
  6
CONTINUOUS
 62
               7
100
AcDbLine
 10
-65.000015258789063
 20
31.0
 30
0.0
 11
-65.000015258789063
 21
23.000003814697266
 31
0.0
  0
LINE
  5
44
100
AcDbEntity
  8
0
  6
CONTINUOUS
 62
               7
100
AcDbLine
 10
-31.000015258789063
 20
30.5
 30
0.0
 11
-31.000015258789063
 21
23.000003814697266
 31
0.0
  0
LINE
  5
45
100
AcDbEntity
  8
0
  6
CONTINUOUS
 62
               7
100
AcDbLine
 10
-32.000015258789063
 20
31.0
 30
0.0
 11
-65.000015258789063
 21
31.0
 31
0.0
  0
LINE
  5
46
100
AcDbEntity
  8
0
  6
CONTINUOUS
 62
               7
100
AcDbLine
 10
-65.000015258789063
 20
6.5999984741210938
 30
0.0
 11
65.0
 21
6.5999984741210938
 31
0.0
  0
LINE
  5
47
100
AcDbEntity
  8
0
  6
CONTINUOUS
 62
               7
100
AcDbLine
 10
-65.000015258789063
 20
3.4000015258789063
 30
0.0
 11
65.0
 21
3.4000015258789063
 31
0.0
  0
LINE
  5
48
100
AcDbEntity
  8
0
  6
CONTINUOUS
 62
               7
100
AcDbLine
 10
-65.000015258789063
 20
23.000003814697266
 30
0.0
 11
65.0
 21
23.000003814697266
 31
0.0
  0
LINE
  5
49
100
AcDbEntity
  8
0
  6
CONTINUOUS
 62
               7
100
AcDbLine
 10
-65.000015258789063
 20
0.0
 30
0.0
 11
65.0
 21
0.0
 31
0.0
  0
LINE
  5
4A
100
AcDbEntity
  8
0
  6
CONTINUOUS
 62
               7
100
AcDbLine
 10
65.0
 20
23.000003814697266
 30
0.0
 11
65.0
 21
0.0
 31
0.0
  0
LINE
  5
4B
100
AcDbEntity
  8
0
  6
CONTINUOUS
 62
               7
100
AcDbLine
 10
-65.000015258789063
 20
23.000003814697266
 30
0.0
 11
-65.000015258789063
 21
0.0
 31
0.0
  0
LINE
  5
4C
100
AcDbEntity
  8
0
  6
CONTINUOUS
 62
               7
100
AcDbLine
 10
66.0
 20
23.000003814697266
 30
0.0
 11
65.0
 21
23.000003814697266
 31
0.0
  0
LINE
  5
4D
100
AcDbEntity
  8
0
  6
CONTINUOUS
 62
               7
100
AcDbLine
 10
-66.000015258789063
 20
23.000003814697266
 30
0.0
 11
-65.000015258789063
 21
23.000003814697266
 31
0.0
  0
CIRCLE
  5
4E
100
AcDbEntity
  8
0
  6
CONTINUOUS
 62
               7
100
AcDbCircle
 10
40.0
 20
18.5
 30
0.0
 40
1.621
  0
CIRCLE
  5
4F
100
AcDbEntity
  8
0
  6
CONTINUOUS
 62
               7
100
AcDbCircle
 10
-40.000007629394531
 20
18.5
 30
0.0
 40
1.621
  0
CIRCLE
  5
50
100
AcDbEntity
  8
0
  6
CONTINUOUS
 62
               7
100
AcDbCircle
 10
0.0
 20
18.5
 30
0.0
 40
1.621
  0
LINE
  5
51
100
AcDbEntity
  8
0
  6
CONTINUOUS
 62
               2
100
AcDbLine
 10
41.0
 20
29.0
 30
0.0
 11
41.0
 21
33.0
 31
0.0
  0
LINE
  5
52
100
AcDbEntity
  8
0
  6
CONTINUOUS
 62
               2
100
AcDbLine
 10
56.0
 20
29.0
 30
0.0
 11
56.0
 21
33.0
 31
0.0
  0
LINE
  5
53
100
AcDbEntity
  8
0
  6
CONTINUOUS
 62
               2
100
AcDbLine
 10
50.0
 20
21.000003814697266
 30
0.0
 11
50.0
 21
25.000003814697266
 31
0.0
  0
LINE
  5
54
100
AcDbEntity
  8
0
  6
CONTINUOUS
 62
               2
100
AcDbLine
 10
20.0
 20
21.000003814697266
 30
0.0
 11
20.0
 21
25.000003814697266
 31
0.0
  0
LINE
  5
55
100
AcDbEntity
  8
0
  6
CONTINUOUS
 62
               2
100
AcDbLine
 10
-20.000007629394531
 20
21.000003814697266
 30
0.0
 11
-20.000007629394531
 21
25.000003814697266
 31
0.0
  0
LINE
  5
56
100
AcDbEntity
  8
0
  6
CONTINUOUS
 62
               2
100
AcDbLine
 10
-41.0
 20
29.0
 30
0.0
 11
-41.0
 21
33.0
 31
0.0
  0
LINE
  5
57
100
AcDbEntity
  8
0
  6
CONTINUOUS
 62
               2
100
AcDbLine
 10
-56.0
 20
29.0
 30
0.0
 11
-56.0
 21
33.0
 31
0.0
  0
LINE
  5
58
100
AcDbEntity
  8
0
  6
CONTINUOUS
 62
               2
100
AcDbLine
 10
-50.000007629394531
 20
21.000003814697266
 30
0.0
 11
-50.000007629394531
 21
25.000003814697266
 31
0.0
  0
LINE
  5
59
100
AcDbEntity
  8
0
  6
CONTINUOUS
 62
               2
100
AcDbLine
 10
-40.0
 20
-2.0
 30
0.0
 11
-40.0
 21
2.0
 31
0.0
  0
LINE
  5
5A
100
AcDbEntity
  8
0
  6
CONTINUOUS
 62
               2
100
AcDbLine
 10
-20.0
 20
-2.0
 30
0.0
 11
-20.0
 21
2.0
 31
0.0
  0
LINE
  5
5B
100
AcDbEntity
  8
0
  6
CONTINUOUS
 62
               2
100
AcDbLine
 10
20.0
 20
-2.0
 30
0.0
 11
20.0
 21
2.0
 31
0.0
  0
LINE
  5
5C
100
AcDbEntity
  8
0
  6
CONTINUOUS
 62
               2
100
AcDbLine
 10
40.0
 20
-2.0
 30
0.0
 11
40.0
 21
2.0
 31
0.0
  0
LINE
  5
5D
100
AcDbEntity
  8
0
  6
CONTINUOUS
 62
               2
100
AcDbLine
 10
40.0
 20
15.0
 30
0.0
 11
40.0
 21
22.0
 31
0.0
  0
LINE
  5
5E
100
AcDbEntity
  8
0
  6
CONTINUOUS
 62
               2
100
AcDbLine
 10
36.5
 20
18.5
 30
0.0
 11
43.5
 21
18.5
 31
0.0
  0
LINE
  5
5F
100
AcDbEntity
  8
0
  6
CONTINUOUS
 62
               2
100
AcDbLine
 10
-40.000007629394531
 20
15.0
 30
0.0
 11
-40.000007629394531
 21
22.0
 31
0.0
  0
LINE
  5
60
100
AcDbEntity
  8
0
  6
CONTINUOUS
 62
               2
100
AcDbLine
 10
-43.500007629394531
 20
18.5
 30
0.0
 11
-36.500007629394531
 21
18.5
 31
0.0
  0
LINE
  5
61
100
AcDbEntity
  8
0
  6
CONTINUOUS
 62
               2
100
AcDbLine
 10
-3.5
 20
18.5
 30
0.0
 11
3.5
 21
18.5
 31
0.0
  0
LINE
  5
62
100
AcDbEntity
  8
0
  6
CONTINUOUS
 62
               7
100
AcDbLine
 10
-71.100006109297738
 20
4.0
 30
0.0
 11
-66.100006103515625
 21
4.0
 31
0.0
  0
LINE
  5
63
100
AcDbEntity
  8
0
  6
CONTINUOUS
 62
               7
100
AcDbLine
 10
-70.600006103515625
 20
8.9999682114930692
 30
0.0
 11
-68.000015258789063
 21
8.9999682114930692
 31
0.0
  0
LINE
  5
64
100
AcDbEntity
  8
0
  6
CONTINUOUS
 62
               7
100
AcDbLine
 10
-71.100006109297738
 20
14.0
 30
0.0
 11
-66.100006103515625
 21
14.0
 31
0.0
  0
ARC
  5
65
100
AcDbEntity
  8
0
  6
CONTINUOUS
 62
               7
100
AcDbCircle
 10
-64.60008557453034
 20
6.4999841057465346
 30
0.0
 40
6.4999205289852915
100
AcDbArc
 50
157.37999494746586
 51
202.62000505253417
  0
ARC
  5
66
100
AcDbEntity
  8
0
  6
CONTINUOUS
 62
               7
100
AcDbCircle
 10
-64.599926631995672
 20
11.499984105746535
 30
0.0
 40
6.5000794715199541
100
AcDbArc
 50
157.38027515474036
 51
202.61972484525964
  0
LINE
  5
67
100
AcDbEntity
  8
0
  6
CONTINUOUS
 62
               7
100
AcDbLine
 10
-79.600015258789057
 20
6.4999999999999956
 30
0.0
 11
-79.100015258789057
 21
6.0
 31
0.0
  0
LINE
  5
68
100
AcDbEntity
  8
0
  6
CONTINUOUS
 62
               7
100
AcDbLine
 10
-79.600015258789057
 20
11.500000000000004
 30
0.0
 11
-79.100015258789057
 21
12.0
 31
0.0
  0
LINE
  5
69
100
AcDbEntity
  8
0
  6
CONTINUOUS
 62
               7
100
AcDbLine
 10
-79.100015258789057
 20
12.0
 30
0.0
 11
-79.100015258789057
 21
6.0
 31
0.0
  0
LINE
  5
6A
100
AcDbEntity
  8
0
  6
CONTINUOUS
 62
               2
100
AcDbLine
 10
-79.600015258789057
 20
6.5414999999999992
 30
0.0
 11
-71.100006103515625
 21
6.5414999999999992
 31
0.0
  0
LINE
  5
6B
100
AcDbEntity
  8
0
  6
CONTINUOUS
 62
               2
100
AcDbLine
 10
-79.600015258789057
 20
11.458500000000001
 30
0.0
 11
-71.100006103515625
 21
11.458500000000001
 31
0.0
  0
LINE
  5
6C
100
AcDbEntity
  8
0
  6
CONTINUOUS
 62
               7
100
AcDbLine
 10
-79.100015258789057
 20
6.0
 30
0.0
 11
-71.100006103515625
 21
6.0
 31
0.0
  0
LINE
  5
6D
100
AcDbEntity
  8
0
  6
CONTINUOUS
 62
               7
100
AcDbLine
 10
-79.100015258789057
 20
12.0
 30
0.0
 11
-71.100006103515625
 21
12.0
 31
0.0
  0
LINE
  5
6E
100
AcDbEntity
  8
0
  6
CONTINUOUS
 62
               7
100
AcDbLine
 10
-71.100006103515625
 20
14.0
 30
0.0
 11
-71.100006103515625
 21
4.0
 31
0.0
  0
LINE
  5
6F
100
AcDbEntity
  8
0
  6
CONTINUOUS
 62
               7
100
AcDbLine
 10
-79.600015258789057
 20
11.500000000000004
 30
0.0
 11
-79.600015258789057
 21
6.4999999999999956
 31
0.0
  0
LINE
  5
70
100
AcDbEntity
  8
0
  6
CONTINUOUS
 62
               7
100
AcDbLine
 10
-66.100006103515625
 20
14.0
 30
0.0
 11
-66.100006103515625
 21
12.500001430511475
 31
0.0
  0
LINE
  5
71
100
AcDbEntity
  8
0
  6
CONTINUOUS
 62
               7
100
AcDbLine
 10
-66.100006103515625
 20
14.0
 30
0.0
 11
-65.000015258789063
 21
14.0
 31
0.0
  0
ARC
  5
72
100
AcDbEntity
  8
0
  6
CONTINUOUS
 62
               7
100
AcDbCircle
 10
-72.600118994274226
 20
11.5
 30
0.0
 40
6.5001128907585954
100
AcDbArc
 50
8.8497409252383168
 51
22.619450329968227
  0
LINE
  5
73
100
AcDbEntity
  8
0
  6
CONTINUOUS
 62
               7
100
AcDbLine
 10
-66.100006103515625
 20
5.5000015497207642
 30
0.0
 11
-66.100006103515625
 21
4.0
 31
0.0
  0
LINE
  5
74
100
AcDbEntity
  8
0
  6
CONTINUOUS
 62
               7
100
AcDbLine
 10
-66.100006103515625
 20
4.0
 30
0.0
 11
-65.000015258789063
 21
4.0
 31
0.0
  0
ARC
  5
75
100
AcDbEntity
  8
0
  6
CONTINUOUS
 62
               7
100
AcDbCircle
 10
-72.600118994274226
 20
6.4999364229861385
 30
0.0
 40
6.5001128907585954
100
AcDbArc
 50
337.38054967003177
 51
351.15025907476166
  0
LINE
  5
76
100
AcDbEntity
  8
0
  6
CENTER
 62
               2
100
AcDbLine
 10
0.0
 20
-5.13397216796875
 30
0.0
 11
0.0
 21
34.86602783203125
 31
0.0
  0
ENDBLK
  5
77
100
AcDbEntity
  8
0
100
AcDbBlockEnd
  0
BLOCK
  5
78
100
AcDbEntity
  8
0
100
AcDbBlockBegin
  2
AFDPGL-14-JA-2
 70
               0
 10
0.0
 20
0.0
 30
0.0
  3
AFDPGL-14-JA-2
  1

  0
LINE
  5
79
100
AcDbEntity
  8
0
  6
CONTINUOUS
 62
               7
100
AcDbLine
 10
-22.500094546075864
 20
2.8999999999999999
 30
0.0
 11
-20.899993896304238
 21
2.8999999999999999
 31
0.0
  0
LINE
  5
7A
100
AcDbEntity
  8
0
  6
CONTINUOUS
 62
               7
100
AcDbLine
 10
-22.499949170335004
 20
7.0999999999999996
 30
0.0
 11
-20.899993896304238
 21
7.0999999999999996
 31
0.0
  0
LINE
  5
7B
100
AcDbEntity
  8
0
  6
CONTINUOUS
 62
               7
100
AcDbLine
 10
20.900009155453574
 20
2.8999999999999999
 30
0.0
 11
22.500027014007639
 21
2.8999999999999999
 31
0.0
  0
LINE
  5
7C
100
AcDbEntity
  8
0
  6
CONTINUOUS
 62
               7
100
AcDbLine
 10
20.900009155453574
 20
7.0999999999999996
 30
0.0
 11
22.499946368916461
 21
7.0999999999999996
 31
0.0
  0
LINE
  5
7D
100
AcDbEntity
  8
0
  6
CONTINUOUS
 62
               2
100
AcDbLine
 10
-20.900001525698769
 20
8.0999999046325684
 30
0.0
 11
-20.900001525698769
 21
1.9000000953674316
 31
0.0
  0
LINE
  5
7E
100
AcDbEntity
  8
0
  6
CONTINUOUS
 62
               2
100
AcDbLine
 10
-24.999999999819863
 20
5.0
 30
0.0
 11
-17.800003051577676
 21
5.0
 31
0.0
  0
LINE
  5
7F
100
AcDbEntity
  8
0
  6
CONTINUOUS
 62
               2
100
AcDbLine
 10
20.900001526059043
 20
8.0999999046325684
 30
0.0
 11
20.900001526059043
 21
1.9000000953674316
 31
0.0
  0
LINE
  5
80
100
AcDbEntity
  8
0
  6
CONTINUOUS
 62
               2
100
AcDbLine
 10
17.800003051937949
 20
5.0
 30
0.0
 11
25.000000000180137
 21
5.0
 31
0.0
  0
ARC
  5
81
100
AcDbEntity
  8
0
  6
CONTINUOUS
 62
               7
100
AcDbCircle
 10
24.500000000180137
 20
11.0
 30
0.0
 40
1.0
100
AcDbArc
 50
119.99993503741253
 51
240.00008864087849
  0
ARC
  5
82
100
AcDbEntity
  8
0
  6
CONTINUOUS
 62
               7
100
AcDbCircle
 10
-20.899993896304238
 20
5.0
 30
0.0
 40
2.0999999046325684
100
AcDbArc
 50
269.99992236344099
 51
90.000002504478161
  0
CIRCLE
  5
83
100
AcDbEntity
  8
0
  6
CONTINUOUS
 62
               7
100
AcDbCircle
 10
10.500000000180137
 20
9.0
 30
0.0
 40
3.5
  0
ARC
  5
84
100
AcDbEntity
  8
0
  6
CONTINUOUS
 62
               7
100
AcDbCircle
 10
6.5000000001801368
 20
23.699996948242188
 30
0.0
 40
1.0
100
AcDbArc
 50
90.000002504478161
 51
269.99997336248867
  0
ARC
  5
85
100
AcDbEntity
  8
0
  6
CONTINUOUS
 62
               7
100
AcDbCircle
 10
6.2500000001801368
 20
23.699996948242188
 30
0.0
 40
1.2999999523162842
100
AcDbArc
 50
78.912501783283105
 51
281.08741944217036
  0
ARC
  5
86
100
AcDbEntity
  8
0
  6
CONTINUOUS
 62
               7
100
AcDbCircle
 10
-6.2499999998198632
 20
23.699996948242188
 30
0.0
 40
1.2999999523162842
100
AcDbArc
 50
258.91251726489429
 51
98.297459742182227
  0
ARC
  5
87
100
AcDbEntity
  8
0
  6
CONTINUOUS
 62
               7
100
AcDbCircle
 10
-6.4999999998198632
 20
23.699996948242188
 30
0.0
 40
1.0
100
AcDbArc
 50
269.9999770049543
 51
90.000002504478161
  0
CIRCLE
  5
88
100
AcDbEntity
  8
0
  6
CONTINUOUS
 62
               7
100
AcDbCircle
 10
10.500000000180137
 20
9.0
 30
0.0
 40
4.5
  0
ARC
  5
89
100
AcDbEntity
  8
0
  6
CONTINUOUS
 62
               7
100
AcDbCircle
 10
-23.499999999819863
 20
22.5
 30
0.0
 40
0.5
100
AcDbArc
 50
90.000002504478161
 51
179.99997768819966
  0
ARC
  5
8A
100
AcDbEntity
  8
0
  6
CONTINUOUS
 62
               7
100
AcDbCircle
 10
23.500000000180137
 20
22.5
 30
0.0
 40
0.5
100
AcDbArc
 50
0.0000179860890374
 51
90.000002504478161
  0
ARC
  5
8B
100
AcDbEntity
  8
0
  6
CONTINUOUS
 62
               7
100
AcDbCircle
 10
20.900009155453574
 20
5.0
 30
0.0
 40
2.0999999046325684
100
AcDbArc
 50
90.000016164856504
 51
270.00000068324533
  0
CIRCLE
  5
8C
100
AcDbEntity
  8
0
  6
CONTINUOUS
 62
               7
100
AcDbCircle
 10
-10.499999999819863
 20
9.0
 30
0.0
 40
7.5
  0
CIRCLE
  5
8D
100
AcDbEntity
  8
0
  6
CONTINUOUS
 62
               7
100
AcDbCircle
 10
10.500000000180137
 20
9.0
 30
0.0
 40
7.5
  0
LINE
  5
8E
100
AcDbEntity
  8
0
  6
CONTINUOUS
 62
               7
100
AcDbLine
 10
-13.999999999819863
 20
17.0
 30
0.0
 11
-13.999999999819863
 21
21.0
 31
0.0
  0
LINE
  5
8F
100
AcDbEntity
  8
0
  6
CONTINUOUS
 62
               7
100
AcDbLine
 10
14.000000000180137
 20
17.0
 30
0.0
 11
14.000000000180137
 21
21.0
 31
0.0
  0
LINE
  5
90
100
AcDbEntity
  8
0
  6
CONTINUOUS
 62
               7
100
AcDbLine
 10
-14.999999999819863
 20
17.0
 30
0.0
 11
-14.999999999819863
 21
23.0
 31
0.0
  0
LINE
  5
91
100
AcDbEntity
  8
0
  6
CONTINUOUS
 62
               7
100
AcDbLine
 10
15.000000000180137
 20
17.0
 30
0.0
 11
15.000000000180137
 21
23.0
 31
0.0
  0
LINE
  5
92
100
AcDbEntity
  8
0
  6
CONTINUOUS
 62
               7
100
AcDbLine
 10
7.0000000001801368
 20
17.300003051757813
 30
0.0
 11
7.0000000001801368
 21
21.0
 31
0.0
  0
LINE
  5
93
100
AcDbEntity
  8
0
  6
CONTINUOUS
 62
               7
100
AcDbLine
 10
7.0000000001801368
 20
20.699996948242188
 30
0.0
 11
14.000000000180137
 21
20.699996948242188
 31
0.0
  0
LINE
  5
94
100
AcDbEntity
  8
0
  6
CONTINUOUS
 62
               7
100
AcDbLine
 10
14.000000000180137
 20
17.300003051757813
 30
0.0
 11
7.0000000001801368
 21
17.300003051757813
 31
0.0
  0
LINE
  5
95
100
AcDbEntity
  8
0
  6
CONTINUOUS
 62
               7
100
AcDbLine
 10
-6.9999999998198632
 20
17.300003051757813
 30
0.0
 11
-6.9999999998198632
 21
21.0
 31
0.0
  0
LINE
  5
96
100
AcDbEntity
  8
0
  6
CONTINUOUS
 62
               7
100
AcDbLine
 10
-13.999999999819863
 20
17.300003051757813
 30
0.0
 11
-6.9999999998198632
 21
17.300003051757813
 31
0.0
  0
LINE
  5
97
100
AcDbEntity
  8
0
  6
CONTINUOUS
 62
               7
100
AcDbLine
 10
-22.999943137165495
 20
6.600006103515625
 30
0.0
 11
-23.999999999819863
 21
6.600006103515625
 31
0.0
  0
LINE
  5
98
100
AcDbEntity
  8
0
  6
CONTINUOUS
 62
               7
100
AcDbLine
 10
-22.999943137165495
 20
6.600006103515625
 30
0.0
 11
-22.499949157238007
 21
7.1000000238418579
 31
0.0
  0
LINE
  5
99
100
AcDbEntity
  8
0
  6
CONTINUOUS
 62
               7
100
AcDbLine
 10
-23.000088481676265
 20
3.3999938964843741
 30
0.0
 11
-22.500094532966614
 21
2.8999999761581421
 31
0.0
  0
LINE
  5
9A
100
AcDbEntity
  8
0
  6
CONTINUOUS
 62
               7
100
AcDbLine
 10
-23.000088481676265
 20
3.399993896484375
 30
0.0
 11
-23.999999999819863
 21
3.399993896484375
 31
0.0
  0
LINE
  5
9B
100
AcDbEntity
  8
0
  6
CONTINUOUS
 62
               7
100
AcDbLine
 10
24.000000000180137
 20
11.86602783203125
 30
0.0
 11
24.000000000180137
 21
22.5
 31
0.0
  0
LINE
  5
9C
100
AcDbEntity
  8
0
  6
CONTINUOUS
 62
               7
100
AcDbLine
 10
12.500000000180137
 20
29.499985362518434
 30
0.0
 11
11.999984730476953
 21
30.0
 31
0.0
  0
LINE
  5
9D
100
AcDbEntity
  8
0
  6
CONTINUOUS
 62
               7
100
AcDbLine
 10
11.999987387973365
 20
21.5
 30
0.0
 11
12.500000000180137
 21
22.000012612206774
 31
0.0
  0
LINE
  5
9E
100
AcDbEntity
  8
0
  6
CONTINUOUS
 62
               7
100
AcDbLine
 10
-12.499999999819863
 20
29.500036324272514
 30
0.0
 11
-12.000036324092378
 21
30.0
 31
0.0
  0
LINE
  5
9F
100
AcDbEntity
  8
0
  6
CONTINUOUS
 62
               7
100
AcDbLine
 10
-11.999954212390492
 20
21.5
 30
0.0
 11
-12.499999999819863
 21
22.000045787429372
 31
0.0
  0
LINE
  5
A0
100
AcDbEntity
  8
0
  6
CONTINUOUS
 62
               7
100
AcDbLine
 10
12.500000000180137
 20
22.000012612206774
 30
0.0
 11
12.500000000180137
 21
29.499985362518434
 31
0.0
  0
LINE
  5
A1
100
AcDbEntity
  8
0
  6
CONTINUOUS
 62
               7
100
AcDbLine
 10
6.5000000001801368
 20
21.5
 30
0.0
 11
11.999987387973365
 21
21.5
 31
0.0
  0
LINE
  5
A2
100
AcDbEntity
  8
0
  6
CONTINUOUS
 62
               7
100
AcDbLine
 10
6.0000000001801368
 20
24.975738525390625
 30
0.0
 11
6.0000000001801368
 21
25.5
 31
0.0
  0
LINE
  5
A3
100
AcDbEntity
  8
0
  6
CONTINUOUS
 62
               7
100
AcDbLine
 10
6.5000000001801368
 20
24.699996948242188
 30
0.0
 11
6.5000000001801368
 21
26.300003051757812
 31
0.0
  0
LINE
  5
A4
100
AcDbEntity
  8
0
  6
CONTINUOUS
 62
               7
100
AcDbLine
 10
6.2500000001801368
 20
25.0
 30
0.0
 11
6.2500000001801368
 21
26.0
 31
0.0
  0
LINE
  5
A5
100
AcDbEntity
  8
0
  6
CONTINUOUS
 62
               7
100
AcDbLine
 10
6.5000000001801368
 20
21.5
 30
0.0
 11
6.5000000001801368
 21
22.699996948242188
 31
0.0
  0
LINE
  5
A6
100
AcDbEntity
  8
0
  6
CONTINUOUS
 62
               7
100
AcDbLine
 10
6.2500000001801368
 20
21.0
 30
0.0
 11
6.2500000001801368
 21
22.399993896484375
 31
0.0
  0
LINE
  5
A7
100
AcDbEntity
  8
0
  6
CONTINUOUS
 62
               7
100
AcDbLine
 10
-6.4999999998198632
 20
26.300003051757812
 30
0.0
 11
6.5000000001801368
 21
26.300003051757812
 31
0.0
  0
LINE
  5
A8
100
AcDbEntity
  8
0
  6
CONTINUOUS
 62
               7
100
AcDbLine
 10
-6.2499999998198632
 20
25.0
 30
0.0
 11
-6.2499999998198632
 21
26.0
 31
0.0
  0
LINE
  5
A9
100
AcDbEntity
  8
0
  6
CONTINUOUS
 62
               7
100
AcDbLine
 10
-6.2499999998198632
 20
21.0
 30
0.0
 11
-6.2499999998198632
 21
22.399993896484375
 31
0.0
  0
LINE
  5
AA
100
AcDbEntity
  8
0
  6
CONTINUOUS
 62
               7
100
AcDbLine
 10
-12.000036324092378
 20
30.0
 30
0.0
 11
11.999984730476957
 21
30.0
 31
0.0
  0
LINE
  5
AB
100
AcDbEntity
  8
0
  6
CONTINUOUS
 62
               7
100
AcDbLine
 10
-12.499999999819863
 20
22.000045787429372
 30
0.0
 11
-12.499999999819863
 21
29.500036324272514
 31
0.0
  0
LINE
  5
AC
100
AcDbEntity
  8
0
  6
CONTINUOUS
 62
               7
100
AcDbLine
 10
6.5000341766725969
 20
31.0
 30
0.0
 11
13.500000000180137
 21
31.0
 31
0.0
  0
LINE
  5
AD
100
AcDbEntity
  8
0
  6
CONTINUOUS
 62
               7
100
AcDbLine
 10
6.0000342188194438
 20
30.5
 30
0.0
 11
6.5000341766725969
 21
31.0
 31
0.0
  0
LINE
  5
AE
100
AcDbEntity
  8
0
  6
CONTINUOUS
 62
               7
100
AcDbLine
 10
-6.0000334120167365
 20
30.5
 30
0.0
 11
6.0000342188194447
 21
30.5
 31
0.0
  0
LINE
  5
AF
100
AcDbEntity
  8
0
  6
CONTINUOUS
 62
               7
100
AcDbLine
 10
-6.0000277154398987
 20
30.499994303422682
 30
0.0
 11
-6.500028246234649
 21
30.999994876364326
 31
0.0
  0
LINE
  5
B0
100
AcDbEntity
  8
0
  6
CONTINUOUS
 62
               7
100
AcDbLine
 10
-11.999954212390492
 20
21.5
 30
0.0
 11
-6.4999999998198632
 21
21.5
 31
0.0
  0
LINE
  5
B1
100
AcDbEntity
  8
0
  6
CONTINUOUS
 62
               7
100
AcDbLine
 10
-6.4999999998198632
 20
24.699996948242188
 30
0.0
 11
-6.4999999998198632
 21
26.300003051757812
 31
0.0
  0
LINE
  5
B2
100
AcDbEntity
  8
0
  6
CONTINUOUS
 62
               7
100
AcDbLine
 10
-5.9999999998198632
 20
24.975738525390625
 30
0.0
 11
-5.9999999998198632
 21
25.5
 31
0.0
  0
LINE
  5
B3
100
AcDbEntity
  8
0
  6
CONTINUOUS
 62
               7
100
AcDbLine
 10
-6.4999999998198632
 20
21.5
 30
0.0
 11
-6.4999999998198632
 21
22.699996948242188
 31
0.0
  0
LINE
  5
B4
100
AcDbEntity
  8
0
  6
CONTINUOUS
 62
               7
100
AcDbLine
 10
-6.2499999998198632
 20
26.0
 30
0.0
 11
6.2500000001801368
 21
26.0
 31
0.0
  0
LINE
  5
B5
100
AcDbEntity
  8
0
  6
CONTINUOUS
 62
               7
100
AcDbLine
 10
3.0427856447113868
 20
8.1999969482421875
 30
0.0
 11
-3.0427856443511132
 21
8.1999969482421875
 31
0.0
  0
LINE
  5
B6
100
AcDbEntity
  8
0
  6
CONTINUOUS
 62
               7
100
AcDbLine
 10
3.0427856447113868
 20
9.8000030517578125
 30
0.0
 11
-3.0427856443511132
 21
9.8000030517578125
 31
0.0
  0
LINE
  5
B7
100
AcDbEntity
  8
0
  6
CONTINUOUS
 62
               7
100
AcDbLine
 10
-5.9999999998198632
 20
25.5
 30
0.0
 11
6.0000000001801368
 21
25.5
 31
0.0
  0
LINE
  5
B8
100
AcDbEntity
  8
0
  6
CONTINUOUS
 62
               7
100
AcDbLine
 10
-23.999999999819863
 20
6.600006103515625
 30
0.0
 11
-23.999999999819863
 21
22.5
 31
0.0
  0
LINE
  5
B9
100
AcDbEntity
  8
0
  6
CONTINUOUS
 62
               7
100
AcDbLine
 10
-23.999999999819863
 20
0.0
 30
0.0
 11
-23.999999999819863
 21
3.399993896484375
 31
0.0
  0
LINE
  5
BA
100
AcDbEntity
  8
0
  6
CONTINUOUS
 62
               7
100
AcDbLine
 10
-23.999999999819863
 20
0.0
 30
0.0
 11
24.000000000180137
 21
0.0
 31
0.0
  0
LINE
  5
BB
100
AcDbEntity
  8
0
  6
CONTINUOUS
 62
               7
100
AcDbLine
 10
24.000000000180137
 20
6.600006103515625
 30
0.0
 11
24.000000000180137
 21
10.13397216796875
 31
0.0
  0
LINE
  5
BC
100
AcDbEntity
  8
0
  6
CONTINUOUS
 62
               7
100
AcDbLine
 10
23.000020903772004
 20
3.399993896484375
 30
0.0
 11
24.000000000180137
 21
3.399993896484375
 31
0.0
  0
LINE
  5
BD
100
AcDbEntity
  8
0
  6
CONTINUOUS
 62
               7
100
AcDbLine
 10
22.500027000904083
 20
2.9000000357627869
 30
0.0
 11
23.000020903772004
 21
3.3999938964843754
 31
0.0
  0
LINE
  5
BE
100
AcDbEntity
  8
0
  6
CONTINUOUS
 62
               7
100
AcDbLine
 10
22.999940307547174
 20
6.600006103515625
 30
0.0
 11
24.000000000180137
 21
6.600006103515625
 31
0.0
  0
LINE
  5
BF
100
AcDbEntity
  8
0
  6
CONTINUOUS
 62
               7
100
AcDbLine
 10
22.499946355819702
 20
7.1000000238418579
 30
0.0
 11
22.99994033575058
 21
6.6000060439109802
 31
0.0
  0
LINE
  5
C0
100
AcDbEntity
  8
0
  6
CONTINUOUS
 62
               7
100
AcDbLine
 10
24.000000000180137
 20
0.0
 30
0.0
 11
24.000000000180137
 21
3.399993896484375
 31
0.0
  0
LINE
  5
C1
100
AcDbEntity
  8
0
  6
CONTINUOUS
 62
               2
100
AcDbLine
 10
10.500000000180137
 20
-2.0
 30
0.0
 11
10.500000000180137
 21
23.0
 31
0.0
  0
LINE
  5
C2
100
AcDbEntity
  8
0
  6
CONTINUOUS
 62
               2
100
AcDbLine
 10
-10.499999999819863
 20
-2.0
 30
0.0
 11
-10.499999999819863
 21
23.0
 31
0.0
  0
LINE
  5
C3
100
AcDbEntity
  8
0
  6
CONTINUOUS
 62
               7
100
AcDbLine
 10
-13.999999999819863
 20
21.0
 30
0.0
 11
-6.2499999998198632
 21
21.0
 31
0.0
  0
LINE
  5
C4
100
AcDbEntity
  8
0
  6
CONTINUOUS
 62
               7
100
AcDbLine
 10
-13.499999999819863
 20
21.0
 30
0.0
 11
-13.499999999819863
 21
31.0
 31
0.0
  0
LINE
  5
C5
100
AcDbEntity
  8
0
  6
CONTINUOUS
 62
               7
100
AcDbLine
 10
6.0000000001801368
 20
17.0
 30
0.0
 11
15.000000000180137
 21
17.0
 31
0.0
  0
LINE
  5
C6
100
AcDbEntity
  8
0
  6
CONTINUOUS
 62
               7
100
AcDbLine
 10
-5.9999999998198632
 20
17.0
 30
0.0
 11
-5.9999999998198632
 21
22.424270629882812
 31
0.0
  0
LINE
  5
C7
100
AcDbEntity
  8
0
  6
CONTINUOUS
 62
               7
100
AcDbLine
 10
6.0000000001801368
 20
17.0
 30
0.0
 11
6.0000000001801368
 21
22.424270629882812
 31
0.0
  0
LINE
  5
C8
100
AcDbEntity
  8
0
  6
CONTINUOUS
 62
               7
100
AcDbLine
 10
6.2500000001801368
 20
21.0
 30
0.0
 11
14.000000000180137
 21
21.0
 31
0.0
  0
LINE
  5
C9
100
AcDbEntity
  8
0
  6
CONTINUOUS
 62
               7
100
AcDbLine
 10
13.500000000180137
 20
21.0
 30
0.0
 11
13.500000000180137
 21
31.0
 31
0.0
  0
LINE
  5
CA
100
AcDbEntity
  8
0
  6
CONTINUOUS
 62
               7
100
AcDbLine
 10
-14.999999999819863
 20
17.0
 30
0.0
 11
-5.9999999998198632
 21
17.0
 31
0.0
  0
LINE
  5
CB
100
AcDbEntity
  8
0
  6
CONTINUOUS
 62
               7
100
AcDbLine
 10
-5.9999999998198632
 20
18.0
 30
0.0
 11
6.0000000001801368
 21
18.0
 31
0.0
  0
LINE
  5
CC
100
AcDbEntity
  8
0
  6
CONTINUOUS
 62
               7
100
AcDbLine
 10
-13.499999999819863
 20
31.0
 30
0.0
 11
-6.5000333698698913
 21
31.0
 31
0.0
  0
LINE
  5
CD
100
AcDbEntity
  8
0
  6
CONTINUOUS
 62
               7
100
AcDbLine
 10
15.000000000180137
 20
23.0
 30
0.0
 11
23.500000000180137
 21
23.0
 31
0.0
  0
LINE
  5
CE
100
AcDbEntity
  8
0
  6
CONTINUOUS
 62
               7
100
AcDbLine
 10
-23.499999999819863
 20
23.0
 30
0.0
 11
-14.999999999819863
 21
23.0
 31
0.0
  0
LINE
  5
CF
100
AcDbEntity
  8
0
  6
CENTER
 62
               2
100
AcDbLine
 10
-27.499999999819863
 20
9.0
 30
0.0
 11
27.500000000180137
 21
9.0
 31
0.0
  0
LINE
  5
D0
100
AcDbEntity
  8
0
  6
CONTINUOUS
 62
               2
100
AcDbLine
 10
-10.0
 20
28.5
 30
0.0
 11
-10.0
 21
32.5
 31
0.0
  0
LINE
  5
D1
100
AcDbEntity
  8
0
  6
CONTINUOUS
 62
               2
100
AcDbLine
 10
10.0
 20
28.5
 30
0.0
 11
10.0
 21
32.5
 31
0.0
  0
LINE
  5
D2
100
AcDbEntity
  8
0
  6
CONTINUOUS
 62
               2
100
AcDbLine
 10
-25.999999999819863
 20
18.500000000312006
 30
0.0
 11
-21.999999999819863
 21
18.500000000312006
 31
0.0
  0
LINE
  5
D3
100
AcDbEntity
  8
0
  6
CONTINUOUS
 62
               2
100
AcDbLine
 10
22.000000000180137
 20
18.500000000312006
 30
0.0
 11
26.000000000180137
 21
18.500000000312006
 31
0.0
  0
LINE
  5
D4
100
AcDbEntity
  8
0
  6
CONTINUOUS
 62
               2
100
AcDbLine
 10
-20.0
 20
21.0
 30
0.0
 11
-20.0
 21
25.0
 31
0.0
  0
LINE
  5
D5
100
AcDbEntity
  8
0
  6
CONTINUOUS
 62
               2
100
AcDbLine
 10
20.0
 20
21.0
 30
0.0
 11
20.0
 21
25.0
 31
0.0
  0
CIRCLE
  5
D6
100
AcDbEntity
  8
0
  6
CONTINUOUS
 62
               7
100
AcDbCircle
 10
-10.499999999819863
 20
9.0
 30
0.0
 40
5.0
  0
CIRCLE
  5
D7
100
AcDbEntity
  8
0
  6
CONTINUOUS
 62
               7
100
AcDbCircle
 10
-10.499999999819863
 20
9.0
 30
0.0
 40
3.0
  0
CIRCLE
  5
D8
100
AcDbEntity
  8
0
  6
CONTINUOUS
 62
               7
100
AcDbCircle
 10
-10.499999999819863
 20
9.0
 30
0.0
 40
4.5
  0
LINE
  5
D9
100
AcDbEntity
  8
0
  6
CONTINUOUS
 62
               7
100
AcDbLine
 10
-4.726502537531303
 20
8.999986490548963
 30
0.0
 11
-7.6132592624398399
 21
13.999996359592387
 31
0.0
  0
LINE
  5
DA
100
AcDbEntity
  8
0
  6
CONTINUOUS
 62
               7
100
AcDbLine
 10
-7.6132507322417382
 20
14.0
 30
0.0
 11
-13.386749267397988
 21
14.0
 31
0.0
  0
LINE
  5
DB
100
AcDbEntity
  8
0
  6
CONTINUOUS
 62
               7
100
AcDbLine
 10
-16.273485693677628
 20
8.9999678521953683
 30
0.0
 11
-13.386735737844845
 21
13.999963818484503
 31
0.0
  0
LINE
  5
DC
100
AcDbEntity
  8
0
  6
CONTINUOUS
 62
               7
100
AcDbLine
 10
-13.386757015985893
 20
3.9999867885721869
 30
0.0
 11
-16.27351374089443
 21
8.9999966576156112
 31
0.0
  0
LINE
  5
DD
100
AcDbEntity
  8
0
  6
CONTINUOUS
 62
               7
100
AcDbLine
 10
-7.6132507322417382
 20
4.0
 30
0.0
 11
-13.386749267397988
 21
4.0
 31
0.0
  0
LINE
  5
DE
100
AcDbEntity
  8
0
  6
CONTINUOUS
 62
               7
100
AcDbLine
 10
-7.6132115634217712
 20
3.999972245203935
 30
0.0
 11
-4.7264616075889876
 21
8.9999682114930692
 31
0.0
  0
CIRCLE
  5
DF
100
AcDbEntity
  8
0
  6
CONTINUOUS
 62
               2
100
AcDbCircle
 10
-10.499999999819863
 20
9.0
 30
0.0
 40
2.4584999999999999
  0
LINE
  5
E0
100
AcDbEntity
  8
0
  6
CONTINUOUS
 62
               7
100
AcDbLine
 10
10.100006103515625
 20
5.5229339599609375
 30
0.0
 11
10.100006103515625
 21
12.477066040039063
 31
0.0
  0
LINE
  5
E1
100
AcDbEntity
  8
0
  6
CONTINUOUS
 62
               7
100
AcDbLine
 10
10.899993896484375
 20
5.5229339599609375
 30
0.0
 11
10.899993896484375
 21
12.477066040039063
 31
0.0
  0
LINE
  5
E2
100
AcDbEntity
  8
0
  6
CENTER
 62
               2
100
AcDbLine
 10
0.0
 20
-5.13397216796875
 30
0.0
 11
0.0
 21
34.86602783203125
 31
0.0
  0
ENDBLK
  5
E3
100
AcDbEntity
  8
0
100
AcDbBlockEnd
  0
BLOCK
  5
E4
100
AcDbEntity
  8
0
100
AcDbBlockBegin
  2
AFDPGL-14-JA-3
 70
               0
 10
0.0
 20
0.0
 30
0.0
  3
AFDPGL-14-JA-3
  1

  0
LINE
  5
E5
100
AcDbEntity
  8
0
  6
CONTINUOUS
 62
               7
100
AcDbLine
 10
20.900001526059043
 20
2.8999999999999999
 30
0.0
 11
22.500094367261909
 21
2.8999999999999999
 31
0.0
  0
LINE
  5
E6
100
AcDbEntity
  8
0
  6
CONTINUOUS
 62
               7
100
AcDbLine
 10
20.900001526059043
 20
7.0999999999999996
 30
0.0
 11
22.499949110730352
 21
7.0999999999999996
 31
0.0
  0
LINE
  5
E7
100
AcDbEntity
  8
0
  6
CONTINUOUS
 62
               7
100
AcDbLine
 10
-22.500027093359034
 20
2.8999999999999999
 30
0.0
 11
-20.900001525698769
 21
2.8999999999999999
 31
0.0
  0
LINE
  5
E8
100
AcDbEntity
  8
0
  6
CONTINUOUS
 62
               7
100
AcDbLine
 10
-22.499951858363424
 20
7.0999999999999996
 30
0.0
 11
-20.900001525698769
 21
7.0999999999999996
 31
0.0
  0
CIRCLE
  5
E9
100
AcDbEntity
  8
0
  6
CONTINUOUS
 62
               2
100
AcDbCircle
 10
-10.499999999819863
 20
9.0
 30
0.0
 40
2.5
  0
CIRCLE
  5
EA
100
AcDbEntity
  8
0
  6
CONTINUOUS
 62
               7
100
AcDbCircle
 10
-10.499999999819863
 20
9.0
 30
0.0
 40
4.5
  0
CIRCLE
  5
EB
100
AcDbEntity
  8
0
  6
CONTINUOUS
 62
               2
100
AcDbCircle
 10
10.500000000180137
 20
9.0
 30
0.0
 40
2.5
  0
ARC
  5
EC
100
AcDbEntity
  8
0
  6
CONTINUOUS
 62
               7
100
AcDbCircle
 10
20.900001526059043
 20
5.0
 30
0.0
 40
2.0999999046325684
100
AcDbArc
 50
90.000002504478161
 51
270.00008264551536
  0
ARC
  5
ED
100
AcDbEntity
  8
0
  6
CONTINUOUS
 62
               7
100
AcDbCircle
 10
-6.4999999998198632
 20
23.699996948242188
 30
0.0
 40
1.0
100
AcDbArc
 50
270.00003847665687
 51
90.000002504478161
  0
ARC
  5
EE
100
AcDbEntity
  8
0
  6
CONTINUOUS
 62
               7
100
AcDbCircle
 10
-6.2499999998198632
 20
23.699996948242188
 30
0.0
 40
1.2999999523162842
100
AcDbArc
 50
258.91259239697513
 51
101.08749639548405
  0
ARC
  5
EF
100
AcDbEntity
  8
0
  6
CONTINUOUS
 62
               7
100
AcDbCircle
 10
6.2500000001801368
 20
23.699996948242188
 30
0.0
 40
1.2999999523162842
100
AcDbArc
 50
81.702538436584931
 51
281.08747408368373
  0
ARC
  5
F0
100
AcDbEntity
  8
0
  6
CONTINUOUS
 62
               7
100
AcDbCircle
 10
6.5000000001801368
 20
23.699996948242188
 30
0.0
 40
1.0
100
AcDbArc
 50
90.000002504478161
 51
270.00002800400199
  0
CIRCLE
  5
F1
100
AcDbEntity
  8
0
  6
CONTINUOUS
 62
               7
100
AcDbCircle
 10
10.500000000180137
 20
9.0
 30
0.0
 40
4.5
  0
ARC
  5
F2
100
AcDbEntity
  8
0
  6
CONTINUOUS
 62
               7
100
AcDbCircle
 10
23.500000000180137
 20
22.5
 30
0.0
 40
0.5
100
AcDbArc
 50
0.0000179860890374
 51
90.000002504478161
  0
ARC
  5
F3
100
AcDbEntity
  8
0
  6
CONTINUOUS
 62
               7
100
AcDbCircle
 10
-20.900001525698769
 20
5.0
 30
0.0
 40
2.0999999046325684
100
AcDbArc
 50
269.99999749552182
 51
89.999988844099832
  0
CIRCLE
  5
F4
100
AcDbEntity
  8
0
  6
CONTINUOUS
 62
               7
100
AcDbCircle
 10
-10.499999999819863
 20
9.0
 30
0.0
 40
7.5
  0
CIRCLE
  5
F5
100
AcDbEntity
  8
0
  6
CONTINUOUS
 62
               7
100
AcDbCircle
 10
10.500000000180137
 20
9.0
 30
0.0
 40
7.5
  0
ARC
  5
F6
100
AcDbEntity
  8
0
  6
CONTINUOUS
 62
               7
100
AcDbCircle
 10
-24.499999999819863
 20
11.0
 30
0.0
 40
1.0
100
AcDbArc
 50
299.9999095378887
 51
60.000069971543809
  0
LINE
  5
F7
100
AcDbEntity
  8
0
  6
CONTINUOUS
 62
               2
100
AcDbLine
 10
20.900001526059043
 20
8.0999999046325684
 30
0.0
 11
20.900001526059043
 21
1.9000000953674316
 31
0.0
  0
LINE
  5
F8
100
AcDbEntity
  8
0
  6
CONTINUOUS
 62
               2
100
AcDbLine
 10
-20.900001525698769
 20
8.0999999046325684
 30
0.0
 11
-20.900001525698769
 21
1.9000000953674316
 31
0.0
  0
LINE
  5
F9
100
AcDbEntity
  8
0
  6
CONTINUOUS
 62
               2
100
AcDbLine
 10
-24.999999999819863
 20
5.0
 30
0.0
 11
-17.800003051577676
 21
5.0
 31
0.0
  0
LINE
  5
FA
100
AcDbEntity
  8
0
  6
CONTINUOUS
 62
               2
100
AcDbLine
 10
17.800003051937949
 20
5.0
 30
0.0
 11
25.000000000180137
 21
5.0
 31
0.0
  0
LINE
  5
FB
100
AcDbEntity
  8
0
  6
CONTINUOUS
 62
               7
100
AcDbLine
 10
-13.999999999819863
 20
17.0
 30
0.0
 11
-13.999999999819863
 21
21.0
 31
0.0
  0
LINE
  5
FC
100
AcDbEntity
  8
0
  6
CONTINUOUS
 62
               7
100
AcDbLine
 10
15.000000000180137
 20
17.0
 30
0.0
 11
15.000000000180137
 21
23.0
 31
0.0
  0
LINE
  5
FD
100
AcDbEntity
  8
0
  6
CONTINUOUS
 62
               7
100
AcDbLine
 10
-14.999999999819863
 20
17.0
 30
0.0
 11
-14.999999999819863
 21
23.0
 31
0.0
  0
LINE
  5
FE
100
AcDbEntity
  8
0
  6
CONTINUOUS
 62
               7
100
AcDbLine
 10
-6.9999999998198632
 20
17.300003051757813
 30
0.0
 11
-6.9999999998198632
 21
21.0
 31
0.0
  0
LINE
  5
FF
100
AcDbEntity
  8
0
  6
CONTINUOUS
 62
               7
100
AcDbLine
 10
-6.9999999998198632
 20
20.699996948242188
 30
0.0
 11
-13.999999999819863
 21
20.699996948242188
 31
0.0
  0
LINE
  5
100
100
AcDbEntity
  8
0
  6
CONTINUOUS
 62
               7
100
AcDbLine
 10
-13.999999999819863
 20
17.300003051757813
 30
0.0
 11
-6.9999999998198632
 21
17.300003051757813
 31
0.0
  0
LINE
  5
101
100
AcDbEntity
  8
0
  6
CONTINUOUS
 62
               7
100
AcDbLine
 10
7.000007629574668
 20
17.300003051757813
 30
0.0
 11
7.000007629574668
 21
21.0
 31
0.0
  0
LINE
  5
102
100
AcDbEntity
  8
0
  6
CONTINUOUS
 62
               7
100
AcDbLine
 10
14.000000000180137
 20
17.300003051757813
 30
0.0
 11
7.000007629574668
 21
17.300003051757813
 31
0.0
  0
LINE
  5
103
100
AcDbEntity
  8
0
  6
CONTINUOUS
 62
               7
100
AcDbLine
 10
22.999943049361065
 20
6.600006103515625
 30
0.0
 11
24.000000000180137
 21
6.600006103515625
 31
0.0
  0
LINE
  5
104
100
AcDbEntity
  8
0
  6
CONTINUOUS
 62
               7
100
AcDbLine
 10
22.499949097633362
 20
7.1000000238418579
 30
0.0
 11
22.999943017959595
 21
6.600006103515625
 31
0.0
  0
LINE
  5
105
100
AcDbEntity
  8
0
  6
CONTINUOUS
 62
               7
100
AcDbLine
 10
22.500094354152679
 20
2.8999999761581421
 30
0.0
 11
23.000088334083557
 21
3.399993896484375
 31
0.0
  0
LINE
  5
106
100
AcDbEntity
  8
0
  6
CONTINUOUS
 62
               7
100
AcDbLine
 10
23.000088365497273
 20
3.399993896484375
 30
0.0
 11
24.000000000180137
 21
3.399993896484375
 31
0.0
  0
LINE
  5
107
100
AcDbEntity
  8
0
  6
CONTINUOUS
 62
               7
100
AcDbLine
 10
-23.999999999819863
 20
11.86602783203125
 30
0.0
 11
-23.999999999819863
 21
22.5
 31
0.0
  0
LINE
  5
108
100
AcDbEntity
  8
0
  6
CONTINUOUS
 62
               7
100
AcDbLine
 10
-12.499999999819863
 20
29.499977038659917
 30
0.0
 11
-11.999977309004805
 21
29.999999097243972
 31
0.0
  0
LINE
  5
109
100
AcDbEntity
  8
0
  6
CONTINUOUS
 62
               7
100
AcDbLine
 10
-12.000006356244
 20
21.500012267511238
 30
0.0
 11
-12.500006887038751
 21
22.000012798305988
 31
0.0
  0
LINE
  5
10A
100
AcDbEntity
  8
0
  6
CONTINUOUS
 62
               7
100
AcDbLine
 10
12.500000000180137
 20
29.500018833559807
 30
0.0
 11
12.000018833739944
 21
30.0
 31
0.0
  0
LINE
  5
10B
100
AcDbEntity
  8
0
  6
CONTINUOUS
 62
               7
100
AcDbLine
 10
11.99997866093014
 20
21.500020359706014
 30
0.0
 11
12.49997919172489
 21
22.000020890500764
 31
0.0
  0
LINE
  5
10C
100
AcDbEntity
  8
0
  6
CONTINUOUS
 62
               7
100
AcDbLine
 10
-12.499999999819863
 20
22.0
 30
0.0
 11
-12.499999999819863
 21
29.499977038659917
 31
0.0
  0
LINE
  5
10D
100
AcDbEntity
  8
0
  6
CONTINUOUS
 62
               7
100
AcDbLine
 10
-6.4999999998198632
 20
21.5
 30
0.0
 11
-11.999999999819863
 21
21.5
 31
0.0
  0
LINE
  5
10E
100
AcDbEntity
  8
0
  6
CONTINUOUS
 62
               7
100
AcDbLine
 10
-5.9999999998198632
 20
24.975738525390625
 30
0.0
 11
-5.9999999998198632
 21
25.5
 31
0.0
  0
LINE
  5
10F
100
AcDbEntity
  8
0
  6
CONTINUOUS
 62
               7
100
AcDbLine
 10
-6.4999999998198632
 20
24.699996948242188
 30
0.0
 11
-6.4999999998198632
 21
26.300003051757812
 31
0.0
  0
LINE
  5
110
100
AcDbEntity
  8
0
  6
CONTINUOUS
 62
               7
100
AcDbLine
 10
-6.2499999998198632
 20
25.0
 30
0.0
 11
-6.2499999998198632
 21
26.0
 31
0.0
  0
LINE
  5
111
100
AcDbEntity
  8
0
  6
CONTINUOUS
 62
               7
100
AcDbLine
 10
-6.4999999998198632
 20
21.5
 30
0.0
 11
-6.4999999998198632
 21
22.699996948242188
 31
0.0
  0
LINE
  5
112
100
AcDbEntity
  8
0
  6
CONTINUOUS
 62
               7
100
AcDbLine
 10
-6.2499999998198632
 20
21.0
 30
0.0
 11
-6.2499999998198632
 21
22.399993896484375
 31
0.0
  0
LINE
  5
113
100
AcDbEntity
  8
0
  6
CONTINUOUS
 62
               7
100
AcDbLine
 10
6.5000000001801368
 20
26.300003051757812
 30
0.0
 11
-6.4999999998198632
 21
26.300003051757812
 31
0.0
  0
LINE
  5
114
100
AcDbEntity
  8
0
  6
CONTINUOUS
 62
               7
100
AcDbLine
 10
6.2500000001801368
 20
25.0
 30
0.0
 11
6.2500000001801368
 21
26.0
 31
0.0
  0
LINE
  5
115
100
AcDbEntity
  8
0
  6
CONTINUOUS
 62
               7
100
AcDbLine
 10
6.2500000001801368
 20
21.0
 30
0.0
 11
6.2500000001801368
 21
22.399993896484375
 31
0.0
  0
LINE
  5
116
100
AcDbEntity
  8
0
  6
CONTINUOUS
 62
               7
100
AcDbLine
 10
12.000018833739944
 20
30.0
 30
0.0
 11
-11.999976406247633
 21
30.0
 31
0.0
  0
LINE
  5
117
100
AcDbEntity
  8
0
  6
CONTINUOUS
 62
               7
100
AcDbLine
 10
12.500000000180137
 20
22.0
 30
0.0
 11
12.500000000180137
 21
29.500018833559807
 31
0.0
  0
LINE
  5
118
100
AcDbEntity
  8
0
  6
CONTINUOUS
 62
               7
100
AcDbLine
 10
-6.5000300878391393
 20
31.0
 30
0.0
 11
-13.499999999819863
 21
31.0
 31
0.0
  0
LINE
  5
119
100
AcDbEntity
  8
0
  6
CONTINUOUS
 62
               7
100
AcDbLine
 10
-6.0000301299859853
 20
30.5
 30
0.0
 11
-6.5000300878391393
 21
31.0
 31
0.0
  0
LINE
  5
11A
100
AcDbEntity
  8
0
  6
CONTINUOUS
 62
               7
100
AcDbLine
 10
6.000032106053677
 20
30.5
 30
0.0
 11
-6.0000301299859853
 21
30.5
 31
0.0
  0
LINE
  5
11B
100
AcDbEntity
  8
0
  6
CONTINUOUS
 62
               7
100
AcDbLine
 10
6.0000270113646934
 20
30.499994905310587
 30
0.0
 11
6.5000275421594438
 21
30.999995478252231
 31
0.0
  0
LINE
  5
11C
100
AcDbEntity
  8
0
  6
CONTINUOUS
 62
               7
100
AcDbLine
 10
12.000000000180137
 20
21.5
 30
0.0
 11
6.5000000001801368
 21
21.5
 31
0.0
  0
LINE
  5
11D
100
AcDbEntity
  8
0
  6
CONTINUOUS
 62
               7
100
AcDbLine
 10
6.5000000001801368
 20
24.699996948242188
 30
0.0
 11
6.5000000001801368
 21
26.300003051757812
 31
0.0
  0
LINE
  5
11E
100
AcDbEntity
  8
0
  6
CONTINUOUS
 62
               7
100
AcDbLine
 10
6.0000000001801368
 20
24.975738525390625
 30
0.0
 11
6.0000000001801368
 21
25.5
 31
0.0
  0
LINE
  5
11F
100
AcDbEntity
  8
0
  6
CONTINUOUS
 62
               7
100
AcDbLine
 10
6.5000000001801368
 20
21.5
 30
0.0
 11
6.5000000001801368
 21
22.699996948242188
 31
0.0
  0
LINE
  5
120
100
AcDbEntity
  8
0
  6
CONTINUOUS
 62
               7
100
AcDbLine
 10
6.2500000001801368
 20
26.0
 30
0.0
 11
-6.2499999998198632
 21
26.0
 31
0.0
  0
LINE
  5
121
100
AcDbEntity
  8
0
  6
CONTINUOUS
 62
               7
100
AcDbLine
 10
3.0427856447113868
 20
8.1999969482421875
 30
0.0
 11
-3.0427856443511132
 21
8.1999969482421875
 31
0.0
  0
LINE
  5
122
100
AcDbEntity
  8
0
  6
CONTINUOUS
 62
               7
100
AcDbLine
 10
3.0427856447113868
 20
9.8000030517578125
 30
0.0
 11
-3.0427856443511132
 21
9.8000030517578125
 31
0.0
  0
LINE
  5
123
100
AcDbEntity
  8
0
  6
CONTINUOUS
 62
               7
100
AcDbLine
 10
6.0000000001801368
 20
25.5
 30
0.0
 11
-5.9999999998198632
 21
25.5
 31
0.0
  0
LINE
  5
124
100
AcDbEntity
  8
0
  6
CONTINUOUS
 62
               7
100
AcDbLine
 10
24.000000000180137
 20
6.600006103515625
 30
0.0
 11
24.000000000180137
 21
22.5
 31
0.0
  0
LINE
  5
125
100
AcDbEntity
  8
0
  6
CONTINUOUS
 62
               7
100
AcDbLine
 10
24.000000000180137
 20
0.0
 30
0.0
 11
24.000000000180137
 21
3.399993896484375
 31
0.0
  0
LINE
  5
126
100
AcDbEntity
  8
0
  6
CONTINUOUS
 62
               7
100
AcDbLine
 10
24.000000000180137
 20
0.0
 30
0.0
 11
-23.999999999819863
 21
0.0
 31
0.0
  0
LINE
  5
127
100
AcDbEntity
  8
0
  6
CONTINUOUS
 62
               7
100
AcDbLine
 10
-23.999999999819863
 20
6.600006103515625
 30
0.0
 11
-23.999999999819863
 21
10.13397216796875
 31
0.0
  0
LINE
  5
128
100
AcDbEntity
  8
0
  6
CONTINUOUS
 62
               7
100
AcDbLine
 10
-23.000021031989746
 20
3.399993896484375
 30
0.0
 11
-23.999999999819863
 21
3.399993896484375
 31
0.0
  0
LINE
  5
129
100
AcDbEntity
  8
0
  6
CONTINUOUS
 62
               7
100
AcDbLine
 10
-22.500027093359034
 20
2.8999999999999995
 30
0.0
 11
-23.000020039201388
 21
3.3999929036961021
 31
0.0
  0
LINE
  5
12A
100
AcDbEntity
  8
0
  6
CONTINUOUS
 62
               7
100
AcDbLine
 10
-22.999945796994137
 20
6.600006103515625
 30
0.0
 11
-23.999999999819863
 21
6.600006103515625
 31
0.0
  0
LINE
  5
12B
100
AcDbEntity
  8
0
  6
CONTINUOUS
 62
               7
100
AcDbLine
 10
-22.499951858363424
 20
7.1000000000000005
 30
0.0
 11
-22.999945796994137
 21
6.6000061035156241
 31
0.0
  0
LINE
  5
12C
100
AcDbEntity
  8
0
  6
CONTINUOUS
 62
               7
100
AcDbLine
 10
-23.999999999819863
 20
0.0
 30
0.0
 11
-23.999999999819863
 21
3.399993896484375
 31
0.0
  0
LINE
  5
12D
100
AcDbEntity
  8
0
  6
CONTINUOUS
 62
               7
100
AcDbLine
 10
14.000000000180137
 20
21.0
 30
0.0
 11
6.2500000001801368
 21
21.0
 31
0.0
  0
LINE
  5
12E
100
AcDbEntity
  8
0
  6
CONTINUOUS
 62
               7
100
AcDbLine
 10
13.500000000180137
 20
21.0
 30
0.0
 11
13.500000000180137
 21
31.0
 31
0.0
  0
LINE
  5
12F
100
AcDbEntity
  8
0
  6
CONTINUOUS
 62
               7
100
AcDbLine
 10
-5.9999999998198632
 20
17.0
 30
0.0
 11
-14.999999999819863
 21
17.0
 31
0.0
  0
LINE
  5
130
100
AcDbEntity
  8
0
  6
CONTINUOUS
 62
               7
100
AcDbLine
 10
6.0000000001801368
 20
17.0
 30
0.0
 11
6.0000000001801368
 21
22.424270629882812
 31
0.0
  0
LINE
  5
131
100
AcDbEntity
  8
0
  6
CONTINUOUS
 62
               7
100
AcDbLine
 10
-5.9999999998198632
 20
17.0
 30
0.0
 11
-5.9999999998198632
 21
22.424270629882812
 31
0.0
  0
LINE
  5
132
100
AcDbEntity
  8
0
  6
CONTINUOUS
 62
               7
100
AcDbLine
 10
-6.2499999998198632
 20
21.0
 30
0.0
 11
-13.999999999819863
 21
21.0
 31
0.0
  0
LINE
  5
133
100
AcDbEntity
  8
0
  6
CONTINUOUS
 62
               7
100
AcDbLine
 10
-13.499999999819863
 20
21.0
 30
0.0
 11
-13.499999999819863
 21
31.0
 31
0.0
  0
LINE
  5
134
100
AcDbEntity
  8
0
  6
CONTINUOUS
 62
               7
100
AcDbLine
 10
15.000000000180137
 20
17.0
 30
0.0
 11
6.0000000001801368
 21
17.0
 31
0.0
  0
LINE
  5
135
100
AcDbEntity
  8
0
  6
CONTINUOUS
 62
               7
100
AcDbLine
 10
6.0000000001801368
 20
18.0
 30
0.0
 11
-5.9999999998198632
 21
18.0
 31
0.0
  0
LINE
  5
136
100
AcDbEntity
  8
0
  6
CONTINUOUS
 62
               7
100
AcDbLine
 10
13.500000000180137
 20
31.0
 30
0.0
 11
6.500032063906831
 21
31.0
 31
0.0
  0
LINE
  5
137
100
AcDbEntity
  8
0
  6
CONTINUOUS
 62
               7
100
AcDbLine
 10
14.000000000180137
 20
17.0
 30
0.0
 11
14.000000000180137
 21
21.0
 31
0.0
  0
LINE
  5
138
100
AcDbEntity
  8
0
  6
CONTINUOUS
 62
               7
100
AcDbLine
 10
-14.999999999819863
 20
23.0
 30
0.0
 11
-23.499999999819863
 21
23.0
 31
0.0
  0
LINE
  5
139
100
AcDbEntity
  8
0
  6
CONTINUOUS
 62
               7
100
AcDbLine
 10
23.500000000180137
 20
23.0
 30
0.0
 11
15.000000000180137
 21
23.0
 31
0.0
  0
ARC
  5
13A
100
AcDbEntity
  8
0
  6
CONTINUOUS
 62
               7
100
AcDbCircle
 10
-23.499999999819863
 20
22.5
 30
0.0
 40
0.5
100
AcDbArc
 50
89.999997495521839
 51
179.99998201391097
  0
CIRCLE
  5
13B
100
AcDbEntity
  8
0
  6
CONTINUOUS
 62
               7
100
AcDbCircle
 10
10.500000000180137
 20
9.0
 30
0.0
 40
2.0670000000000002
  0
CIRCLE
  5
13C
100
AcDbEntity
  8
0
  6
CONTINUOUS
 62
               7
100
AcDbCircle
 10
-10.499999999819863
 20
9.0
 30
0.0
 40
2.0670000000000002
  0
LINE
  5
13D
100
AcDbEntity
  8
0
  6
CONTINUOUS
 62
               2
100
AcDbLine
 10
-10.0
 20
28.5
 30
0.0
 11
-10.0
 21
32.5
 31
0.0
  0
LINE
  5
13E
100
AcDbEntity
  8
0
  6
CONTINUOUS
 62
               2
100
AcDbLine
 10
10.0
 20
28.5
 30
0.0
 11
10.0
 21
32.5
 31
0.0
  0
LINE
  5
13F
100
AcDbEntity
  8
0
  6
CONTINUOUS
 62
               2
100
AcDbLine
 10
-25.999999999819863
 20
18.5
 30
0.0
 11
-21.999999999819863
 21
18.5
 31
0.0
  0
LINE
  5
140
100
AcDbEntity
  8
0
  6
CONTINUOUS
 62
               2
100
AcDbLine
 10
22.000000000180137
 20
18.5
 30
0.0
 11
26.000000000180137
 21
18.5
 31
0.0
  0
LINE
  5
141
100
AcDbEntity
  8
0
  6
CONTINUOUS
 62
               2
100
AcDbLine
 10
20.0
 20
21.0
 30
0.0
 11
20.0
 21
25.0
 31
0.0
  0
LINE
  5
142
100
AcDbEntity
  8
0
  6
CONTINUOUS
 62
               2
100
AcDbLine
 10
-20.0
 20
21.0
 30
0.0
 11
-20.0
 21
25.0
 31
0.0
  0
LINE
  5
143
100
AcDbEntity
  8
0
  6
CENTER
 62
               2
100
AcDbLine
 10
0.0
 20
-5.13397216796875
 30
0.0
 11
0.0
 21
34.86602783203125
 31
0.0
  0
LINE
  5
144
100
AcDbEntity
  8
0
  6
CENTER
 62
               2
100
AcDbLine
 10
-27.499999999819863
 20
9.0
 30
0.0
 11
27.500000000180137
 21
9.0
 31
0.0
  0
LINE
  5
145
100
AcDbEntity
  8
0
  6
CONTINUOUS
 62
               2
100
AcDbLine
 10
-10.499999999819863
 20
-2.0
 30
0.0
 11
-10.499999999819863
 21
23.0
 31
0.0
  0
LINE
  5
146
100
AcDbEntity
  8
0
  6
CONTINUOUS
 62
               2
100
AcDbLine
 10
10.500000000180137
 20
-2.0
 30
0.0
 11
10.500000000180137
 21
23.0
 31
0.0
  0
ENDBLK
  5
147
100
AcDbEntity
  8
0
100
AcDbBlockEnd
  0
BLOCK
  5
148
100
AcDbEntity
  8
0
100
AcDbBlockBegin
  2
AFDPGL-14-JA-4
 70
               0
 10
0.0
 20
0.0
 30
0.0
  3
AFDPGL-14-JA-4
  1

  0
CIRCLE
  5
149
100
AcDbEntity
  8
0
  6
CONTINUOUS
 62
               2
100
AcDbCircle
 10
20.000000003588646
 20
-20.0
 30
0.0
 40
2.0
  0
CIRCLE
  5
14A
100
AcDbEntity
  8
0
  6
CONTINUOUS
 62
               2
100
AcDbCircle
 10
20.000000003588646
 20
20.0
 30
0.0
 40
2.0
  0
CIRCLE
  5
14B
100
AcDbEntity
  8
0
  6
CONTINUOUS
 62
               2
100
AcDbCircle
 10
-20.000007625805885
 20
-20.0
 30
0.0
 40
2.0
  0
CIRCLE
  5
14C
100
AcDbEntity
  8
0
  6
CONTINUOUS
 62
               2
100
AcDbCircle
 10
-20.000007625805885
 20
20.0
 30
0.0
 40
2.0
  0
CIRCLE
  5
14D
100
AcDbEntity
  8
0
  6
CONTINUOUS
 62
               2
100
AcDbCircle
 10
41.000000003588646
 20
10.0
 30
0.0
 40
1.5
  0
CIRCLE
  5
14E
100
AcDbEntity
  8
0
  6
CONTINUOUS
 62
               2
100
AcDbCircle
 10
56.000000003588646
 20
10.0
 30
0.0
 40
1.5
  0
CIRCLE
  5
14F
100
AcDbEntity
  8
0
  6
CONTINUOUS
 62
               2
100
AcDbCircle
 10
56.000000003588646
 20
-10.0
 30
0.0
 40
1.5
  0
CIRCLE
  5
150
100
AcDbEntity
  8
0
  6
CONTINUOUS
 62
               2
100
AcDbCircle
 10
41.000000003588646
 20
-10.0
 30
0.0
 40
1.5
  0
CIRCLE
  5
151
100
AcDbEntity
  8
0
  6
CONTINUOUS
 62
               2
100
AcDbCircle
 10
-55.999999996411354
 20
10.0
 30
0.0
 40
1.5
  0
CIRCLE
  5
152
100
AcDbEntity
  8
0
  6
CONTINUOUS
 62
               2
100
AcDbCircle
 10
-40.999999996411354
 20
10.0
 30
0.0
 40
1.5
  0
CIRCLE
  5
153
100
AcDbEntity
  8
0
  6
CONTINUOUS
 62
               2
100
AcDbCircle
 10
-40.999999996411354
 20
-10.0
 30
0.0
 40
1.5
  0
CIRCLE
  5
154
100
AcDbEntity
  8
0
  6
CONTINUOUS
 62
               2
100
AcDbCircle
 10
-55.999999996411354
 20
-10.0
 30
0.0
 40
1.5
  0
ARC
  5
155
100
AcDbEntity
  8
0
  6
CONTINUOUS
 62
               7
100
AcDbCircle
 10
-66.500015255200424
 20
-8.5
 30
0.0
 40
1.5
100
AcDbArc
 50
89.999975183721489
 51
180.00001866933468
  0
ARC
  5
156
100
AcDbEntity
  8
0
  6
CONTINUOUS
 62
               7
100
AcDbCircle
 10
-66.500015255200424
 20
-12.5
 30
0.0
 40
1.5
100
AcDbArc
 50
180.00003597217869
 51
270.00001798608935
  0
CIRCLE
  5
157
100
AcDbEntity
  8
0
  6
CONTINUOUS
 62
               2
100
AcDbCircle
 10
-50.000007625805885
 20
-20.0
 30
0.0
 40
2.0
  0
CIRCLE
  5
158
100
AcDbEntity
  8
0
  6
CONTINUOUS
 62
               2
100
AcDbCircle
 10
50.000000003588646
 20
-20.0
 30
0.0
 40
2.0
  0
CIRCLE
  5
159
100
AcDbEntity
  8
0
  6
CONTINUOUS
 62
               2
100
AcDbCircle
 10
50.000000003588646
 20
20.0
 30
0.0
 40
2.0
  0
CIRCLE
  5
15A
100
AcDbEntity
  8
0
  6
CONTINUOUS
 62
               2
100
AcDbCircle
 10
-50.000007625805885
 20
20.0
 30
0.0
 40
2.0
  0
LINE
  5
15B
100
AcDbEntity
  8
0
  6
CONTINUOUS
 62
               7
100
AcDbLine
 10
-65.000015255200424
 20
15.0
 30
0.0
 11
65.000000003588639
 21
15.0
 31
0.0
  0
LINE
  5
15C
100
AcDbEntity
  8
0
  6
CONTINUOUS
 62
               7
100
AcDbLine
 10
31.000000003588646
 20
-7.0
 30
0.0
 11
-30.999999996411354
 21
-7.0
 31
0.0
  0
LINE
  5
15D
100
AcDbEntity
  8
0
  6
CONTINUOUS
 62
               7
100
AcDbLine
 10
65.000000003588639
 20
-15.0
 30
0.0
 11
-65.000015255200424
 21
-15.0
 31
0.0
  0
LINE
  5
15E
100
AcDbEntity
  8
0
  6
CONTINUOUS
 62
               7
100
AcDbLine
 10
-30.999999996411354
 20
7.0
 30
0.0
 11
31.000000003588646
 21
7.0
 31
0.0
  0
LINE
  5
15F
100
AcDbEntity
  8
0
  6
CONTINUOUS
 62
               7
100
AcDbLine
 10
-30.999999996411354
 20
6.0
 30
0.0
 11
31.000000003588646
 21
6.0
 31
0.0
  0
LINE
  5
160
100
AcDbEntity
  8
0
  6
CONTINUOUS
 62
               7
100
AcDbLine
 10
-30.999999996411354
 20
-6.0
 30
0.0
 11
31.000000003588646
 21
-6.0
 31
0.0
  0
LINE
  5
161
100
AcDbEntity
  8
0
  6
CONTINUOUS
 62
               7
100
AcDbLine
 10
32.000000003588646
 20
13.0
 30
0.0
 11
31.000000003588646
 21
13.0
 31
0.0
  0
LINE
  5
162
100
AcDbEntity
  8
0
  6
CONTINUOUS
 62
               7
100
AcDbLine
 10
65.000000003588639
 20
7.0
 30
0.0
 11
32.000000003588646
 21
7.0
 31
0.0
  0
LINE
  5
163
100
AcDbEntity
  8
0
  6
CONTINUOUS
 62
               7
100
AcDbLine
 10
65.000000003588639
 20
13.5
 30
0.0
 11
32.000000003588646
 21
13.5
 31
0.0
  0
LINE
  5
164
100
AcDbEntity
  8
0
  6
CONTINUOUS
 62
               7
100
AcDbLine
 10
66.000000003588639
 20
13.0
 30
0.0
 11
65.000000003588639
 21
13.0
 31
0.0
  0
LINE
  5
165
100
AcDbEntity
  8
0
  6
CONTINUOUS
 62
               7
100
AcDbLine
 10
66.000000003588639
 20
13.0
 30
0.0
 11
66.000000003588639
 21
-13.0
 31
0.0
  0
LINE
  5
166
100
AcDbEntity
  8
0
  6
CONTINUOUS
 62
               7
100
AcDbLine
 10
66.000000003588639
 20
-13.0
 30
0.0
 11
65.000000003588639
 21
-13.0
 31
0.0
  0
LINE
  5
167
100
AcDbEntity
  8
0
  6
CONTINUOUS
 62
               7
100
AcDbLine
 10
65.000000003588639
 20
-7.0
 30
0.0
 11
32.000000003588646
 21
-7.0
 31
0.0
  0
LINE
  5
168
100
AcDbEntity
  8
0
  6
CONTINUOUS
 62
               7
100
AcDbLine
 10
65.000000003588639
 20
-13.5
 30
0.0
 11
32.000000003588646
 21
-13.5
 31
0.0
  0
LINE
  5
169
100
AcDbEntity
  8
0
  6
CONTINUOUS
 62
               7
100
AcDbLine
 10
32.000000003588646
 20
-13.0
 30
0.0
 11
31.000000003588646
 21
-13.0
 31
0.0
  0
LINE
  5
16A
100
AcDbEntity
  8
0
  6
CONTINUOUS
 62
               7
100
AcDbLine
 10
32.000000003588646
 20
13.5
 30
0.0
 11
32.000000003588646
 21
-13.5
 31
0.0
  0
LINE
  5
16B
100
AcDbEntity
  8
0
  6
CONTINUOUS
 62
               7
100
AcDbLine
 10
31.000000003588646
 20
13.0
 30
0.0
 11
31.000000003588646
 21
-13.0
 31
0.0
  0
LINE
  5
16C
100
AcDbEntity
  8
0
  6
CONTINUOUS
 62
               7
100
AcDbLine
 10
-64.999999996411361
 20
7.0
 30
0.0
 11
-31.999999996411354
 21
7.0
 31
0.0
  0
LINE
  5
16D
100
AcDbEntity
  8
0
  6
CONTINUOUS
 62
               7
100
AcDbLine
 10
-64.999999996411361
 20
13.5
 30
0.0
 11
-31.999999996411354
 21
13.5
 31
0.0
  0
LINE
  5
16E
100
AcDbEntity
  8
0
  6
CONTINUOUS
 62
               7
100
AcDbLine
 10
-31.999999996411354
 20
13.0
 30
0.0
 11
-30.999999996411354
 21
13.0
 31
0.0
  0
LINE
  5
16F
100
AcDbEntity
  8
0
  6
CONTINUOUS
 62
               7
100
AcDbLine
 10
-30.999999996411354
 20
13.0
 30
0.0
 11
-30.999999996411354
 21
-13.0
 31
0.0
  0
LINE
  5
170
100
AcDbEntity
  8
0
  6
CONTINUOUS
 62
               7
100
AcDbLine
 10
-31.999999996411354
 20
13.5
 30
0.0
 11
-31.999999996411354
 21
-13.5
 31
0.0
  0
LINE
  5
171
100
AcDbEntity
  8
0
  6
CONTINUOUS
 62
               7
100
AcDbLine
 10
-31.999999996411354
 20
-13.0
 30
0.0
 11
-30.999999996411354
 21
-13.0
 31
0.0
  0
LINE
  5
172
100
AcDbEntity
  8
0
  6
CONTINUOUS
 62
               7
100
AcDbLine
 10
-64.999999996411361
 20
-7.0
 30
0.0
 11
-31.999999996411354
 21
-7.0
 31
0.0
  0
LINE
  5
173
100
AcDbEntity
  8
0
  6
CONTINUOUS
 62
               7
100
AcDbLine
 10
-64.999999996411361
 20
-13.5
 30
0.0
 11
-31.999999996411354
 21
-13.5
 31
0.0
  0
LINE
  5
174
100
AcDbEntity
  8
0
  6
CONTINUOUS
 62
               7
100
AcDbLine
 10
-65.999999996411361
 20
-13.0
 30
0.0
 11
-64.999999996411361
 21
-13.0
 31
0.0
  0
LINE
  5
175
100
AcDbEntity
  8
0
  6
CONTINUOUS
 62
               7
100
AcDbLine
 10
-65.999999996411361
 20
13.0
 30
0.0
 11
-65.999999996411361
 21
-13.0
 31
0.0
  0
LINE
  5
176
100
AcDbEntity
  8
0
  6
CONTINUOUS
 62
               7
100
AcDbLine
 10
-65.999999996411361
 20
13.0
 30
0.0
 11
-64.999999996411361
 21
13.0
 31
0.0
  0
LINE
  5
177
100
AcDbEntity
  8
0
  6
CONTINUOUS
 62
               7
100
AcDbLine
 10
64.499998271465302
 20
-24.0
 30
0.0
 11
65.000000003588639
 21
-23.499998310023656
 31
0.0
  0
LINE
  5
178
100
AcDbEntity
  8
0
  6
CONTINUOUS
 62
               7
100
AcDbLine
 10
64.999999940395355
 20
23.50000524520874
 30
0.0
 11
64.500005227750492
 21
24.000000000000007
 31
0.0
  0
LINE
  5
179
100
AcDbEntity
  8
0
  6
CONTINUOUS
 62
               7
100
AcDbLine
 10
-65.000015258789063
 20
23.499999165534973
 30
0.0
 11
-64.500014364719391
 21
24.000000059604645
 31
0.0
  0
LINE
  5
17A
100
AcDbEntity
  8
0
  6
CONTINUOUS
 62
               7
100
AcDbLine
 10
-65.000015258789063
 20
-23.499992966651917
 30
0.0
 11
-64.500008183293545
 21
-23.999999999999996
 31
0.0
  0
LINE
  5
17B
100
AcDbEntity
  8
0
  6
CONTINUOUS
 62
               7
100
AcDbLine
 10
-64.500008165836334
 20
-24.0
 30
0.0
 11
64.499998284385583
 21
-24.0
 31
0.0
  0
LINE
  5
17C
100
AcDbEntity
  8
0
  6
CONTINUOUS
 62
               7
100
AcDbLine
 10
-64.500014364719391
 20
24.0
 30
0.0
 11
64.50000524520874
 21
24.0
 31
0.0
  0
LINE
  5
17D
100
AcDbEntity
  8
0
  6
CONTINUOUS
 62
               7
100
AcDbLine
 10
-68.000015255200424
 20
-12.5
 30
0.0
 11
-68.000015255200424
 21
-10.899993890268661
 31
0.0
  0
LINE
  5
17E
100
AcDbEntity
  8
0
  6
CONTINUOUS
 62
               7
100
AcDbLine
 10
-66.500015255200424
 20
-14.0
 30
0.0
 11
-65.000015255200424
 21
-14.0
 31
0.0
  0
LINE
  5
17F
100
AcDbEntity
  8
0
  6
CONTINUOUS
 62
               7
100
AcDbLine
 10
-66.500014605511765
 20
-7.0000000000001403
 30
0.0
 11
-65.999999996411361
 21
-7.0000000000001403
 31
0.0
  0
LINE
  5
180
100
AcDbEntity
  8
0
  6
CONTINUOUS
 62
               7
100
AcDbLine
 10
-65.000015255200424
 20
-23.499992966651917
 30
0.0
 11
-65.000015255200424
 21
23.499999165534973
 31
0.0
  0
LINE
  5
181
100
AcDbEntity
  8
0
  6
CONTINUOUS
 62
               2
100
AcDbLine
 10
43.500000003588646
 20
10.0
 30
0.0
 11
38.500000003588646
 21
10.0
 31
0.0
  0
LINE
  5
182
100
AcDbEntity
  8
0
  6
CONTINUOUS
 62
               2
100
AcDbLine
 10
41.000000003588646
 20
12.5
 30
0.0
 11
41.000000003588646
 21
7.5
 31
0.0
  0
LINE
  5
183
100
AcDbEntity
  8
0
  6
CONTINUOUS
 62
               2
100
AcDbLine
 10
58.500000003588646
 20
10.0
 30
0.0
 11
53.500000003588646
 21
10.0
 31
0.0
  0
LINE
  5
184
100
AcDbEntity
  8
0
  6
CONTINUOUS
 62
               2
100
AcDbLine
 10
56.000000003588646
 20
12.5
 30
0.0
 11
56.000000003588646
 21
7.5
 31
0.0
  0
LINE
  5
185
100
AcDbEntity
  8
0
  6
CONTINUOUS
 62
               2
100
AcDbLine
 10
56.000000003588646
 20
-7.5
 30
0.0
 11
56.000000003588646
 21
-12.5
 31
0.0
  0
LINE
  5
186
100
AcDbEntity
  8
0
  6
CONTINUOUS
 62
               2
100
AcDbLine
 10
43.500000003588646
 20
-10.0
 30
0.0
 11
38.500000003588646
 21
-10.0
 31
0.0
  0
LINE
  5
187
100
AcDbEntity
  8
0
  6
CONTINUOUS
 62
               2
100
AcDbLine
 10
41.000000003588646
 20
-7.5
 30
0.0
 11
41.000000003588646
 21
-12.5
 31
0.0
  0
LINE
  5
188
100
AcDbEntity
  8
0
  6
CONTINUOUS
 62
               2
100
AcDbLine
 10
-38.499999996411354
 20
10.0
 30
0.0
 11
-43.499999996411354
 21
10.0
 31
0.0
  0
LINE
  5
189
100
AcDbEntity
  8
0
  6
CONTINUOUS
 62
               2
100
AcDbLine
 10
-40.999999996411354
 20
12.5
 30
0.0
 11
-40.999999996411354
 21
7.5
 31
0.0
  0
LINE
  5
18A
100
AcDbEntity
  8
0
  6
CONTINUOUS
 62
               2
100
AcDbLine
 10
-53.499999996411354
 20
10.0
 30
0.0
 11
-58.499999996411354
 21
10.0
 31
0.0
  0
LINE
  5
18B
100
AcDbEntity
  8
0
  6
CONTINUOUS
 62
               2
100
AcDbLine
 10
-55.999999996411354
 20
12.5
 30
0.0
 11
-55.999999996411354
 21
7.5
 31
0.0
  0
LINE
  5
18C
100
AcDbEntity
  8
0
  6
CONTINUOUS
 62
               2
100
AcDbLine
 10
-53.499999996411354
 20
-10.0
 30
0.0
 11
-58.499999996411354
 21
-10.0
 31
0.0
  0
LINE
  5
18D
100
AcDbEntity
  8
0
  6
CONTINUOUS
 62
               2
100
AcDbLine
 10
-55.999999996411354
 20
-7.5
 30
0.0
 11
-55.999999996411354
 21
-12.5
 31
0.0
  0
LINE
  5
18E
100
AcDbEntity
  8
0
  6
CONTINUOUS
 62
               2
100
AcDbLine
 10
-38.499999996411354
 20
-10.0
 30
0.0
 11
-43.499999996411354
 21
-10.0
 31
0.0
  0
LINE
  5
18F
100
AcDbEntity
  8
0
  6
CONTINUOUS
 62
               2
100
AcDbLine
 10
-40.999999996411354
 20
-7.5
 30
0.0
 11
-40.999999996411354
 21
-12.5
 31
0.0
  0
LINE
  5
190
100
AcDbEntity
  8
0
  6
CONTINUOUS
 62
               7
100
AcDbLine
 10
65.000000003588639
 20
-23.499998331069946
 30
0.0
 11
65.000000003588639
 21
23.500005185604095
 31
0.0
  0
LINE
  5
191
100
AcDbEntity
  8
0
  6
CONTINUOUS
 62
               2
100
AcDbLine
 10
58.500000003588646
 20
-10.0
 30
0.0
 11
53.500000003588646
 21
-10.0
 31
0.0
  0
CIRCLE
  5
192
100
AcDbEntity
  8
0
  6
CONTINUOUS
 62
               7
100
AcDbCircle
 10
-50.000007625805885
 20
20.0
 30
0.0
 40
1.621
  0
CIRCLE
  5
193
100
AcDbEntity
  8
0
  6
CONTINUOUS
 62
               7
100
AcDbCircle
 10
-20.000007625805885
 20
20.0
 30
0.0
 40
1.621
  0
CIRCLE
  5
194
100
AcDbEntity
  8
0
  6
CONTINUOUS
 62
               7
100
AcDbCircle
 10
20.000000003588646
 20
20.0
 30
0.0
 40
1.621
  0
CIRCLE
  5
195
100
AcDbEntity
  8
0
  6
CONTINUOUS
 62
               7
100
AcDbCircle
 10
50.000000003588646
 20
20.0
 30
0.0
 40
1.621
  0
CIRCLE
  5
196
100
AcDbEntity
  8
0
  6
CONTINUOUS
 62
               7
100
AcDbCircle
 10
50.000000003588646
 20
-20.0
 30
0.0
 40
1.621
  0
CIRCLE
  5
197
100
AcDbEntity
  8
0
  6
CONTINUOUS
 62
               7
100
AcDbCircle
 10
20.000000003588646
 20
-20.0
 30
0.0
 40
1.621
  0
CIRCLE
  5
198
100
AcDbEntity
  8
0
  6
CONTINUOUS
 62
               7
100
AcDbCircle
 10
-20.000007625805885
 20
-20.0
 30
0.0
 40
1.621
  0
CIRCLE
  5
199
100
AcDbEntity
  8
0
  6
CONTINUOUS
 62
               7
100
AcDbCircle
 10
-50.000007625805885
 20
-20.0
 30
0.0
 40
1.621
  0
CIRCLE
  5
19A
100
AcDbEntity
  8
0
  6
CONTINUOUS
 62
               7
100
AcDbCircle
 10
56.000000003588646
 20
10.0
 30
0.0
 40
1.2295
  0
CIRCLE
  5
19B
100
AcDbEntity
  8
0
  6
CONTINUOUS
 62
               7
100
AcDbCircle
 10
56.000000003588646
 20
-10.0
 30
0.0
 40
1.2295
  0
CIRCLE
  5
19C
100
AcDbEntity
  8
0
  6
CONTINUOUS
 62
               7
100
AcDbCircle
 10
41.000000003588646
 20
10.0
 30
0.0
 40
1.2295
  0
CIRCLE
  5
19D
100
AcDbEntity
  8
0
  6
CONTINUOUS
 62
               7
100
AcDbCircle
 10
41.000000003588646
 20
-10.0
 30
0.0
 40
1.2295
  0
CIRCLE
  5
19E
100
AcDbEntity
  8
0
  6
CONTINUOUS
 62
               7
100
AcDbCircle
 10
-40.999999996411354
 20
10.0
 30
0.0
 40
1.2295
  0
CIRCLE
  5
19F
100
AcDbEntity
  8
0
  6
CONTINUOUS
 62
               7
100
AcDbCircle
 10
-40.999999996411354
 20
-10.0
 30
0.0
 40
1.2295
  0
CIRCLE
  5
1A0
100
AcDbEntity
  8
0
  6
CONTINUOUS
 62
               7
100
AcDbCircle
 10
-55.999999996411354
 20
10.0
 30
0.0
 40
1.2295
  0
CIRCLE
  5
1A1
100
AcDbEntity
  8
0
  6
CONTINUOUS
 62
               7
100
AcDbCircle
 10
-55.999999996411354
 20
-10.0
 30
0.0
 40
1.2295
  0
LINE
  5
1A2
100
AcDbEntity
  8
0
  6
CENTER
 62
               2
100
AcDbLine
 10
-70.0
 20
0.0
 30
0.0
 11
70.0
 21
0.0
 31
0.0
  0
LINE
  5
1A3
100
AcDbEntity
  8
0
  6
CONTINUOUS
 62
               2
100
AcDbLine
 10
-40.000007625805885
 20
-26.0
 30
0.0
 11
-40.000007625805885
 21
-22.0
 31
0.0
  0
LINE
  5
1A4
100
AcDbEntity
  8
0
  6
CONTINUOUS
 62
               2
100
AcDbLine
 10
40.000000003588646
 20
-26.0
 30
0.0
 11
40.000000003588646
 21
-22.0
 31
0.0
  0
LINE
  5
1A5
100
AcDbEntity
  8
0
  6
CONTINUOUS
 62
               2
100
AcDbLine
 10
-40.000007625805885
 20
26.0
 30
0.0
 11
-40.000007625805885
 21
22.0
 31
0.0
  0
LINE
  5
1A6
100
AcDbEntity
  8
0
  6
CONTINUOUS
 62
               2
100
AcDbLine
 10
40.000000003588646
 20
26.0
 30
0.0
 11
40.000000003588646
 21
22.0
 31
0.0
  0
LINE
  5
1A7
100
AcDbEntity
  8
0
  6
CONTINUOUS
 62
               2
100
AcDbLine
 10
-48.499999996411354
 20
-15.0
 30
0.0
 11
-48.499999996411354
 21
15.0
 31
0.0
  0
LINE
  5
1A8
100
AcDbEntity
  8
0
  6
CONTINUOUS
 62
               2
100
AcDbLine
 10
48.500000003588632
 20
-15.0
 30
0.0
 11
48.500000003588632
 21
15.0
 31
0.0
  0
LINE
  5
1A9
100
AcDbEntity
  8
0
  6
CONTINUOUS
 62
               2
100
AcDbLine
 10
64.000000003588639
 20
10.5
 30
0.0
 11
68.000000003588639
 21
10.5
 31
0.0
  0
LINE
  5
1AA
100
AcDbEntity
  8
0
  6
CONTINUOUS
 62
               2
100
AcDbLine
 10
64.000000003588639
 20
-10.5
 30
0.0
 11
68.000000003588639
 21
-10.5
 31
0.0
  0
LINE
  5
1AB
100
AcDbEntity
  8
0
  6
CONTINUOUS
 62
               2
100
AcDbLine
 10
-50.000007625805885
 20
-23.5
 30
0.0
 11
-50.000007625805885
 21
-16.5
 31
0.0
  0
LINE
  5
1AC
100
AcDbEntity
  8
0
  6
CONTINUOUS
 62
               2
100
AcDbLine
 10
-53.500007625805885
 20
-20.0
 30
0.0
 11
-46.500007625805885
 21
-20.0
 31
0.0
  0
LINE
  5
1AD
100
AcDbEntity
  8
0
  6
CONTINUOUS
 62
               2
100
AcDbLine
 10
-50.000007625805885
 20
16.5
 30
0.0
 11
-50.000007625805885
 21
23.5
 31
0.0
  0
LINE
  5
1AE
100
AcDbEntity
  8
0
  6
CONTINUOUS
 62
               2
100
AcDbLine
 10
-53.500007625805885
 20
20.0
 30
0.0
 11
-46.500007625805885
 21
20.0
 31
0.0
  0
LINE
  5
1AF
100
AcDbEntity
  8
0
  6
CONTINUOUS
 62
               2
100
AcDbLine
 10
-20.000007625805885
 20
16.5
 30
0.0
 11
-20.000007625805885
 21
23.5
 31
0.0
  0
LINE
  5
1B0
100
AcDbEntity
  8
0
  6
CONTINUOUS
 62
               2
100
AcDbLine
 10
-23.500007625805885
 20
20.0
 30
0.0
 11
-16.500007625805885
 21
20.0
 31
0.0
  0
LINE
  5
1B1
100
AcDbEntity
  8
0
  6
CONTINUOUS
 62
               2
100
AcDbLine
 10
20.000000003588646
 20
16.5
 30
0.0
 11
20.000000003588646
 21
23.5
 31
0.0
  0
LINE
  5
1B2
100
AcDbEntity
  8
0
  6
CONTINUOUS
 62
               2
100
AcDbLine
 10
16.500000003588646
 20
20.0
 30
0.0
 11
23.500000003588646
 21
20.0
 31
0.0
  0
LINE
  5
1B3
100
AcDbEntity
  8
0
  6
CONTINUOUS
 62
               2
100
AcDbLine
 10
50.000000003588646
 20
16.5
 30
0.0
 11
50.000000003588646
 21
23.5
 31
0.0
  0
LINE
  5
1B4
100
AcDbEntity
  8
0
  6
CONTINUOUS
 62
               2
100
AcDbLine
 10
46.500000003588646
 20
20.0
 30
0.0
 11
53.500000003588646
 21
20.0
 31
0.0
  0
LINE
  5
1B5
100
AcDbEntity
  8
0
  6
CONTINUOUS
 62
               2
100
AcDbLine
 10
-20.000007625805885
 20
-23.5
 30
0.0
 11
-20.000007625805885
 21
-16.5
 31
0.0
  0
LINE
  5
1B6
100
AcDbEntity
  8
0
  6
CONTINUOUS
 62
               2
100
AcDbLine
 10
-23.500007625805885
 20
-20.0
 30
0.0
 11
-16.500007625805885
 21
-20.0
 31
0.0
  0
LINE
  5
1B7
100
AcDbEntity
  8
0
  6
CONTINUOUS
 62
               2
100
AcDbLine
 10
20.000000003588646
 20
-23.5
 30
0.0
 11
20.000000003588646
 21
-16.5
 31
0.0
  0
LINE
  5
1B8
100
AcDbEntity
  8
0
  6
CONTINUOUS
 62
               2
100
AcDbLine
 10
16.500000003588646
 20
-20.0
 30
0.0
 11
23.500000003588646
 21
-20.0
 31
0.0
  0
LINE
  5
1B9
100
AcDbEntity
  8
0
  6
CONTINUOUS
 62
               2
100
AcDbLine
 10
50.000000003588646
 20
-23.5
 30
0.0
 11
50.000000003588646
 21
-16.5
 31
0.0
  0
LINE
  5
1BA
100
AcDbEntity
  8
0
  6
CONTINUOUS
 62
               2
100
AcDbLine
 10
46.500000003588646
 20
-20.0
 30
0.0
 11
53.500000003588646
 21
-20.0
 31
0.0
  0
ARC
  5
1BB
100
AcDbEntity
  8
0
  6
CONTINUOUS
 62
               7
100
AcDbCircle
 10
-68.452499386059799
 20
14.849998474121094
 30
0.0
 40
2.3525009155273437
100
AcDbArc
 50
321.94886586969722
 51
38.051202432194479
  0
ARC
  5
1BC
100
AcDbEntity
  8
0
  6
CONTINUOUS
 62
               7
100
AcDbCircle
 10
-74.760009762036361
 20
10.5
 30
0.0
 40
8.6599979400634766
100
AcDbArc
 50
340.4352373112003
 51
19.564817330313065
  0
ARC
  5
1BD
100
AcDbEntity
  8
0
  6
CONTINUOUS
 62
               7
100
AcDbCircle
 10
-68.452499386059799
 20
6.1500015258789062
 30
0.0
 40
2.3525009155273437
100
AcDbArc
 50
321.94885220931889
 51
38.051188771816136
  0
LINE
  5
1BE
100
AcDbEntity
  8
0
  6
CONTINUOUS
 62
               7
100
AcDbLine
 10
-79.600015255200418
 20
8.0
 30
0.0
 11
-79.600015255200418
 21
12.999999999999998
 31
0.0
  0
LINE
  5
1BF
100
AcDbEntity
  8
0
  6
CONTINUOUS
 62
               7
100
AcDbLine
 10
-71.100006099926986
 20
6.1500015258789062
 30
0.0
 11
-71.100006099926986
 21
14.849998474121094
 31
0.0
  0
LINE
  5
1C0
100
AcDbEntity
  8
0
  6
CONTINUOUS
 62
               7
100
AcDbLine
 10
-79.100015255200418
 20
7.5
 30
0.0
 11
-71.100006099926986
 21
7.5
 31
0.0
  0
LINE
  5
1C1
100
AcDbEntity
  8
0
  6
CONTINUOUS
 62
               7
100
AcDbLine
 10
-79.100015255200418
 20
13.5
 30
0.0
 11
-71.100006099926986
 21
13.5
 31
0.0
  0
LINE
  5
1C2
100
AcDbEntity
  8
0
  6
CONTINUOUS
 62
               2
100
AcDbLine
 10
-79.600015255200418
 20
8.0414999999999992
 30
0.0
 11
-71.100006099926986
 21
8.0414999999999992
 31
0.0
  0
LINE
  5
1C3
100
AcDbEntity
  8
0
  6
CONTINUOUS
 62
               2
100
AcDbLine
 10
-79.600015255200418
 20
12.958500000000001
 30
0.0
 11
-71.100006099926986
 21
12.958500000000001
 31
0.0
  0
LINE
  5
1C4
100
AcDbEntity
  8
0
  6
CONTINUOUS
 62
               7
100
AcDbLine
 10
-79.100015255200418
 20
7.5
 30
0.0
 11
-79.100015255200418
 21
13.5
 31
0.0
  0
LINE
  5
1C5
100
AcDbEntity
  8
0
  6
CONTINUOUS
 62
               7
100
AcDbLine
 10
-70.600006099926986
 20
16.300003051757813
 30
0.0
 11
-66.600006099926986
 21
16.300003051757813
 31
0.0
  0
LINE
  5
1C6
100
AcDbEntity
  8
0
  6
CONTINUOUS
 62
               7
100
AcDbLine
 10
-70.600006099926986
 20
4.6999969482421875
 30
0.0
 11
-66.600006099926986
 21
4.6999969482421875
 31
0.0
  0
LINE
  5
1C7
100
AcDbEntity
  8
0
  6
CONTINUOUS
 62
               7
100
AcDbLine
 10
-79.600015255200418
 20
8.0
 30
0.0
 11
-79.100015255200418
 21
7.5
 31
0.0
  0
LINE
  5
1C8
100
AcDbEntity
  8
0
  6
CONTINUOUS
 62
               7
100
AcDbLine
 10
-79.600015255200418
 20
12.999999999999998
 30
0.0
 11
-79.100015255200418
 21
13.5
 31
0.0
  0
LINE
  5
1C9
100
AcDbEntity
  8
0
  6
CONTINUOUS
 62
               7
100
AcDbLine
 10
-70.600006099926986
 20
7.5999984741210938
 30
0.0
 11
-66.600006099926986
 21
7.5999984741210938
 31
0.0
  0
LINE
  5
1CA
100
AcDbEntity
  8
0
  6
CONTINUOUS
 62
               7
100
AcDbLine
 10
-70.600006099926986
 20
13.400001525878906
 30
0.0
 11
-66.600006099926986
 21
13.400001525878906
 31
0.0
  0
ARC
  5
1CB
100
AcDbEntity
  8
0
  6
CONTINUOUS
 62
               7
100
AcDbCircle
 10
-68.747512813794174
 20
6.1500015258789062
 30
0.0
 40
2.3525009155273437
100
AcDbArc
 50
141.94884355789688
 51
218.05118012039412
  0
ARC
  5
1CC
100
AcDbEntity
  8
0
  6
CONTINUOUS
 62
               7
100
AcDbCircle
 10
-62.440017696606667
 20
10.5
 30
0.0
 40
8.6599979400634766
100
AcDbArc
 50
160.43521499939996
 51
199.56479501851271
  0
ARC
  5
1CD
100
AcDbEntity
  8
0
  6
CONTINUOUS
 62
               7
100
AcDbCircle
 10
-68.747512813794174
 20
14.849998474121094
 30
0.0
 40
2.3525009155273437
100
AcDbArc
 50
141.94888453903189
 51
218.05122110152914
  0
LINE
  5
1CE
100
AcDbEntity
  8
0
  6
CONTINUOUS
 62
               7
100
AcDbLine
 10
-66.100006099926986
 20
5.5
 30
0.0
 11
-66.100006099926986
 21
15.5
 31
0.0
  0
LINE
  5
1CF
100
AcDbEntity
  8
0
  6
CONTINUOUS
 62
               7
100
AcDbLine
 10
-66.100006099926986
 20
15.5
 30
0.0
 11
-65.000015255200424
 21
15.5
 31
0.0
  0
LINE
  5
1D0
100
AcDbEntity
  8
0
  6
CONTINUOUS
 62
               2
100
AcDbLine
 10
-81.600015255200418
 20
10.5
 30
0.0
 11
-62.883014065676605
 21
10.5
 31
0.0
  0
LINE
  5
1D1
100
AcDbEntity
  8
0
  6
CONTINUOUS
 62
               7
100
AcDbLine
 10
-66.100006099926986
 20
5.5
 30
0.0
 11
-65.999999996411361
 21
5.5
 31
0.0
  0
LINE
  5
1D2
100
AcDbEntity
  8
0
  6
CONTINUOUS
 62
               7
100
AcDbLine
 10
-67.999999996411361
 20
-10.099990838510848
 30
0.0
 11
-66.600006099926986
 21
-10.099990838510848
 31
0.0
  0
LINE
  5
1D3
100
AcDbEntity
  8
0
  6
CONTINUOUS
 62
               7
100
AcDbLine
 10
-67.999999996411361
 20
-10.899993890268661
 30
0.0
 11
-66.600006099926986
 21
-10.899993890268661
 31
0.0
  0
LINE
  5
1D4
100
AcDbEntity
  8
0
  6
CONTINUOUS
 62
               7
100
AcDbLine
 10
-66.600006099926986
 20
-10.099990838510848
 30
0.0
 11
-66.600006099926986
 21
-10.899993890268661
 31
0.0
  0
LINE
  5
1D5
100
AcDbEntity
  8
0
  6
CONTINUOUS
 62
               2
100
AcDbLine
 10
-69.5
 20
-10.5
 30
0.0
 11
-62.883014065676605
 21
-10.5
 31
0.0
  0
LINE
  5
1D6
100
AcDbEntity
  8
0
  6
CONTINUOUS
 62
               7
100
AcDbLine
 10
-68.000015255200424
 20
-10.099990838510848
 30
0.0
 11
-68.000015255200424
 21
-8.5
 31
0.0
  0
CIRCLE
  5
1D7
100
AcDbEntity
  8
0
  6
CONTINUOUS
 62
               7
100
AcDbCircle
 10
-48.499999996411354
 20
0.0
 30
0.0
 40
2.0
  0
CIRCLE
  5
1D8
100
AcDbEntity
  8
0
  6
CONTINUOUS
 62
               7
100
AcDbCircle
 10
48.500000003588632
 20
0.0
 30
0.0
 40
2.0
  0
LINE
  5
1D9
100
AcDbEntity
  8
0
  6
CENTER
 62
               2
100
AcDbLine
 10
0.0
 20
-27.5
 30
0.0
 11
0.0
 21
27.5
 31
0.0
  0
ENDBLK
  5
1DA
100
AcDbEntity
  8
0
100
AcDbBlockEnd
  0
BLOCK
  5
1DB
100
AcDbEntity
  8
0
100
AcDbBlockBegin
  2
AFDPGL-14-JA-5
 70
               0
 10
0.0
 20
0.0
 30
0.0
  3
AFDPGL-14-JA-5
  1

  0
CIRCLE
  5
1DC
100
AcDbEntity
  8
0
  6
CONTINUOUS
 62
               7
100
AcDbCircle
 10
0.0000000035886387
 20
0.0
 30
0.0
 40
2.0
  0
CIRCLE
  5
1DD
100
AcDbEntity
  8
0
  6
CONTINUOUS
 62
               7
100
AcDbCircle
 10
0.0000000035886387
 20
0.0
 30
0.0
 40
5.0
  0
ARC
  5
1DE
100
AcDbEntity
  8
0
  6
CONTINUOUS
 62
               7
100
AcDbCircle
 10
18.500000003588639
 20
0.0
 30
0.0
 40
1.5
100
AcDbArc
 50
90.000002504478161
 51
270.00000068324533
  0
ARC
  5
1DF
100
AcDbEntity
  8
0
  6
CONTINUOUS
 62
               7
100
AcDbCircle
 10
21.500000003588639
 20
0.0
 30
0.0
 40
1.5
100
AcDbArc
 50
269.99999749552182
 51
90.000002504478161
  0
CIRCLE
  5
1E0
100
AcDbEntity
  8
0
  6
CONTINUOUS
 62
               7
100
AcDbCircle
 10
-19.999999996411361
 20
0.0
 30
0.0
 40
1.5
  0
CIRCLE
  5
1E1
100
AcDbEntity
  8
0
  6
CONTINUOUS
 62
               2
100
AcDbCircle
 10
-39.999999996411361
 20
0.0
 30
0.0
 40
2.5
  0
CIRCLE
  5
1E2
100
AcDbEntity
  8
0
  6
CONTINUOUS
 62
               2
100
AcDbCircle
 10
40.000000003588639
 20
0.0
 30
0.0
 40
2.5
  0
ARC
  5
1E3
100
AcDbEntity
  8
0
  6
CONTINUOUS
 62
               7
100
AcDbCircle
 10
-66.500015255200424
 20
8.5
 30
0.0
 40
1.5
100
AcDbArc
 50
179.99997768819966
 51
270.00002800400199
  0
ARC
  5
1E4
100
AcDbEntity
  8
0
  6
CONTINUOUS
 62
               7
100
AcDbCircle
 10
-66.500015255200424
 20
12.5
 30
0.0
 40
1.5
100
AcDbArc
 50
89.999982013910653
 51
179.99996402782131
  0
LINE
  5
1E5
100
AcDbEntity
  8
0
  6
CONTINUOUS
 62
               7
100
AcDbLine
 10
18.500000003588639
 20
1.5
 30
0.0
 11
21.500000003588639
 21
1.5
 31
0.0
  0
LINE
  5
1E6
100
AcDbEntity
  8
0
  6
CONTINUOUS
 62
               7
100
AcDbLine
 10
18.500000003588639
 20
-1.5
 30
0.0
 11
21.500000003588639
 21
-1.5
 31
0.0
  0
LINE
  5
1E7
100
AcDbEntity
  8
0
  6
CONTINUOUS
 62
               2
100
AcDbLine
 10
21.500000003588639
 20
3.5
 30
0.0
 11
21.500000003588639
 21
-3.5
 31
0.0
  0
LINE
  5
1E8
100
AcDbEntity
  8
0
  6
CONTINUOUS
 62
               2
100
AcDbLine
 10
18.500000003588639
 20
3.5
 30
0.0
 11
18.500000003588639
 21
-3.5
 31
0.0
  0
LINE
  5
1E9
100
AcDbEntity
  8
0
  6
CENTER
 62
               2
100
AcDbLine
 10
-70.0
 20
0.0
 30
0.0
 11
70.0
 21
0.0
 31
0.0
  0
LINE
  5
1EA
100
AcDbEntity
  8
0
  6
CONTINUOUS
 62
               2
100
AcDbLine
 10
-39.999999996411361
 20
-4.5
 30
0.0
 11
-39.999999996411361
 21
4.5
 31
0.0
  0
LINE
  5
1EB
100
AcDbEntity
  8
0
  6
CONTINUOUS
 62
               2
100
AcDbLine
 10
-19.999999996411361
 20
-3.5
 30
0.0
 11
-19.999999996411361
 21
3.5
 31
0.0
  0
LINE
  5
1EC
100
AcDbEntity
  8
0
  6
CONTINUOUS
 62
               2
100
AcDbLine
 10
20.000000003588639
 20
-3.5
 30
0.0
 11
20.000000003588639
 21
3.5
 31
0.0
  0
LINE
  5
1ED
100
AcDbEntity
  8
0
  6
CONTINUOUS
 62
               7
100
AcDbLine
 10
-66.500015255200424
 20
14.0
 30
0.0
 11
-65.000015255200424
 21
14.0
 31
0.0
  0
LINE
  5
1EE
100
AcDbEntity
  8
0
  6
CONTINUOUS
 62
               7
100
AcDbLine
 10
-66.500015255200424
 20
7.0
 30
0.0
 11
-65.000015255200424
 21
7.0
 31
0.0
  0
LINE
  5
1EF
100
AcDbEntity
  8
0
  6
CONTINUOUS
 62
               7
100
AcDbLine
 10
-68.000015255200424
 20
8.5
 30
0.0
 11
-68.000015255200424
 21
10.100006109731339
 31
0.0
  0
LINE
  5
1F0
100
AcDbEntity
  8
0
  6
CONTINUOUS
 62
               7
100
AcDbLine
 10
64.999999437214228
 20
23.49999977341497
 30
0.0
 11
64.499998864272584
 21
24.000000304209721
 31
0.0
  0
LINE
  5
1F1
100
AcDbEntity
  8
0
  6
CONTINUOUS
 62
               7
100
AcDbLine
 10
-64.499999996411361
 20
24.0
 30
0.0
 11
64.500000003588639
 21
24.0
 31
0.0
  0
LINE
  5
1F2
100
AcDbEntity
  8
0
  6
CONTINUOUS
 62
               7
100
AcDbLine
 10
-65.000014952717038
 20
-23.5000032961442
 30
0.0
 11
-64.500014379775394
 21
-24.000003826938951
 31
0.0
  0
LINE
  5
1F3
100
AcDbEntity
  8
0
  6
CONTINUOUS
 62
               7
100
AcDbLine
 10
64.500002573195388
 20
-24.000002436092473
 30
0.0
 11
65.000003103990139
 21
-23.500001863150828
 31
0.0
  0
LINE
  5
1F4
100
AcDbEntity
  8
0
  6
CONTINUOUS
 62
               7
100
AcDbLine
 10
-64.499999996411361
 20
-24.0
 30
0.0
 11
64.500000003588639
 21
-24.0
 31
0.0
  0
LINE
  5
1F5
100
AcDbEntity
  8
0
  6
CONTINUOUS
 62
               7
100
AcDbLine
 10
-65.000012733825315
 20
23.499995673339072
 30
0.0
 11
-64.500012160883671
 21
23.999996204133822
 31
0.0
  0
LINE
  5
1F6
100
AcDbEntity
  8
0
  6
CONTINUOUS
 62
               7
100
AcDbLine
 10
65.000000003588639
 20
-23.5
 30
0.0
 11
65.000000003588639
 21
23.5
 31
0.0
  0
LINE
  5
1F7
100
AcDbEntity
  8
0
  6
CONTINUOUS
 62
               7
100
AcDbLine
 10
-65.000015255200424
 20
-23.5
 30
0.0
 11
-65.000015255200424
 21
23.5
 31
0.0
  0
LINE
  5
1F8
100
AcDbEntity
  8
0
  6
CONTINUOUS
 62
               7
100
AcDbLine
 10
66.000000003588639
 20
13.0
 30
0.0
 11
65.000000003588639
 21
13.0
 31
0.0
  0
LINE
  5
1F9
100
AcDbEntity
  8
0
  6
CONTINUOUS
 62
               7
100
AcDbLine
 10
66.000000003588639
 20
13.0
 30
0.0
 11
66.000000003588639
 21
-13.0
 31
0.0
  0
LINE
  5
1FA
100
AcDbEntity
  8
0
  6
CONTINUOUS
 62
               7
100
AcDbLine
 10
66.000000003588639
 20
-13.0
 30
0.0
 11
65.000000003588639
 21
-13.0
 31
0.0
  0
LINE
  5
1FB
100
AcDbEntity
  8
0
  6
CONTINUOUS
 62
               7
100
AcDbLine
 10
-65.999999996411361
 20
7.0
 30
0.0
 11
-65.999999996411361
 21
-5.5
 31
0.0
  0
CIRCLE
  5
1FC
100
AcDbEntity
  8
0
  6
CONTINUOUS
 62
               7
100
AcDbCircle
 10
40.000000003588639
 20
0.0
 30
0.0
 40
2.0670000000000002
  0
CIRCLE
  5
1FD
100
AcDbEntity
  8
0
  6
CONTINUOUS
 62
               7
100
AcDbCircle
 10
-39.999999996411361
 20
0.0
 30
0.0
 40
2.0670000000000002
  0
LINE
  5
1FE
100
AcDbEntity
  8
0
  6
CONTINUOUS
 62
               2
100
AcDbLine
 10
-40.000007625805893
 20
26.0
 30
0.0
 11
-40.000007625805893
 21
22.0
 31
0.0
  0
LINE
  5
1FF
100
AcDbEntity
  8
0
  6
CONTINUOUS
 62
               2
100
AcDbLine
 10
40.000000003588639
 20
26.0
 30
0.0
 11
40.000000003588639
 21
22.0
 31
0.0
  0
LINE
  5
200
100
AcDbEntity
  8
0
  6
CONTINUOUS
 62
               2
100
AcDbLine
 10
64.000000003588639
 20
10.5
 30
0.0
 11
68.000000003588639
 21
10.5
 31
0.0
  0
LINE
  5
201
100
AcDbEntity
  8
0
  6
CONTINUOUS
 62
               2
100
AcDbLine
 10
64.000000003588639
 20
-10.5
 30
0.0
 11
68.000000003588639
 21
-10.5
 31
0.0
  0
LINE
  5
202
100
AcDbEntity
  8
0
  6
CONTINUOUS
 62
               2
100
AcDbLine
 10
40.000000003588639
 20
-4.5
 30
0.0
 11
40.000000003588639
 21
4.5
 31
0.0
  0
LINE
  5
203
100
AcDbEntity
  8
0
  6
CONTINUOUS
 62
               7
100
AcDbLine
 10
-70.600006099926986
 20
-13.400001525878906
 30
0.0
 11
-66.600006099926986
 21
-13.400001525878906
 31
0.0
  0
LINE
  5
204
100
AcDbEntity
  8
0
  6
CONTINUOUS
 62
               7
100
AcDbLine
 10
-70.600006099926986
 20
-7.5999984741210938
 30
0.0
 11
-66.600006099926986
 21
-7.5999984741210938
 31
0.0
  0
LINE
  5
205
100
AcDbEntity
  8
0
  6
CONTINUOUS
 62
               2
100
AcDbLine
 10
-81.600015255200418
 20
-10.5
 30
0.0
 11
-63.000015255200424
 21
-10.5
 31
0.0
  0
LINE
  5
206
100
AcDbEntity
  8
0
  6
CONTINUOUS
 62
               7
100
AcDbLine
 10
-70.600006099926986
 20
-4.7000007629394531
 30
0.0
 11
-66.600006099926986
 21
-4.7000007629394531
 31
0.0
  0
LINE
  5
207
100
AcDbEntity
  8
0
  6
CONTINUOUS
 62
               7
100
AcDbLine
 10
-70.600006099926986
 20
-16.299995422363281
 30
0.0
 11
-66.600006099926986
 21
-16.299995422363281
 31
0.0
  0
LINE
  5
208
100
AcDbEntity
  8
0
  6
CONTINUOUS
 62
               2
100
AcDbLine
 10
-79.600015255200418
 20
-12.958500000000001
 30
0.0
 11
-71.100006099926986
 21
-12.958500000000001
 31
0.0
  0
LINE
  5
209
100
AcDbEntity
  8
0
  6
CONTINUOUS
 62
               2
100
AcDbLine
 10
-79.600015255200418
 20
-8.0414999999999992
 30
0.0
 11
-71.100006099926986
 21
-8.0414999999999992
 31
0.0
  0
LINE
  5
20A
100
AcDbEntity
  8
0
  6
CONTINUOUS
 62
               7
100
AcDbLine
 10
-79.100015255200418
 20
-13.5
 30
0.0
 11
-71.100006099926986
 21
-13.5
 31
0.0
  0
LINE
  5
20B
100
AcDbEntity
  8
0
  6
CONTINUOUS
 62
               7
100
AcDbLine
 10
-79.100015255200418
 20
-7.5
 30
0.0
 11
-71.100006099926986
 21
-7.5
 31
0.0
  0
LINE
  5
20C
100
AcDbEntity
  8
0
  6
CONTINUOUS
 62
               7
100
AcDbLine
 10
-71.100006099926986
 20
-6.1499977111816406
 30
0.0
 11
-71.100006099926986
 21
-14.849998474121094
 31
0.0
  0
ARC
  5
20D
100
AcDbEntity
  8
0
  6
CONTINUOUS
 62
               7
100
AcDbCircle
 10
-68.747512813794174
 20
-6.1500015258789062
 30
0.0
 40
2.3525009155273437
100
AcDbArc
 50
141.94881623714019
 51
218.05115279963746
  0
ARC
  5
20E
100
AcDbEntity
  8
0
  6
CONTINUOUS
 62
               7
100
AcDbCircle
 10
-62.440017696606674
 20
-10.5
 30
0.0
 40
8.6599979400634766
100
AcDbArc
 50
160.4352013390216
 51
199.56478135813438
  0
ARC
  5
20F
100
AcDbEntity
  8
0
  6
CONTINUOUS
 62
               7
100
AcDbCircle
 10
-68.747512813794174
 20
-14.849998474121094
 30
0.0
 40
2.3525009155273437
100
AcDbArc
 50
141.94877525600518
 51
218.05111181850242
  0
LINE
  5
210
100
AcDbEntity
  8
0
  6
CONTINUOUS
 62
               7
100
AcDbLine
 10
-79.600015255200418
 20
-12.999999940395355
 30
0.0
 11
-79.600015255200418
 21
-8.0000000321741584
 31
0.0
  0
LINE
  5
211
100
AcDbEntity
  8
0
  6
CONTINUOUS
 62
               7
100
AcDbLine
 10
-79.100015255200418
 20
-7.5
 30
0.0
 11
-79.100015255200418
 21
-13.5
 31
0.0
  0
LINE
  5
212
100
AcDbEntity
  8
0
  6
CONTINUOUS
 62
               7
100
AcDbLine
 10
-79.60001528263092
 20
-8.0000000596046448
 30
0.0
 11
-79.100015223026276
 21
-7.4999999999999929
 31
0.0
  0
LINE
  5
213
100
AcDbEntity
  8
0
  6
CONTINUOUS
 62
               7
100
AcDbLine
 10
-79.100015223026276
 20
-13.5
 30
0.0
 11
-79.600015255200418
 21
-12.999999967825858
 31
0.0
  0
ARC
  5
214
100
AcDbEntity
  8
0
  6
CONTINUOUS
 62
               7
100
AcDbCircle
 10
-68.452499386059799
 20
-14.849998474121094
 30
0.0
 40
2.3525009155273437
100
AcDbArc
 50
321.94879756780551
 51
38.051134130302778
  0
ARC
  5
215
100
AcDbEntity
  8
0
  6
CONTINUOUS
 62
               7
100
AcDbCircle
 10
-68.452499386059799
 20
-6.1500015258789062
 30
0.0
 40
2.3525009155273437
100
AcDbArc
 50
321.94881122818384
 51
38.051147790681114
  0
LINE
  5
216
100
AcDbEntity
  8
0
  6
CONTINUOUS
 62
               7
100
AcDbLine
 10
-66.100006099926986
 20
-15.5
 30
0.0
 11
-65.000015255200424
 21
-15.5
 31
0.0
  0
LINE
  5
217
100
AcDbEntity
  8
0
  6
CONTINUOUS
 62
               7
100
AcDbLine
 10
-66.100006099926986
 20
-5.5
 30
0.0
 11
-66.100006099926986
 21
-15.5
 31
0.0
  0
ARC
  5
218
100
AcDbEntity
  8
0
  6
CONTINUOUS
 62
               7
100
AcDbCircle
 10
-74.760009762036361
 20
-10.5
 30
0.0
 40
8.6599979400634766
100
AcDbArc
 50
340.43518266968692
 51
19.564762688799703
  0
LINE
  5
219
100
AcDbEntity
  8
0
  6
CONTINUOUS
 62
               7
100
AcDbLine
 10
-66.100006099926986
 20
-5.5
 30
0.0
 11
-65.000015255200424
 21
-5.5
 31
0.0
  0
LINE
  5
21A
100
AcDbEntity
  8
0
  6
CONTINUOUS
 62
               7
100
AcDbLine
 10
-68.000015255200424
 20
10.900009161489152
 30
0.0
 11
-66.600021358716049
 21
10.900009161489152
 31
0.0
  0
LINE
  5
21B
100
AcDbEntity
  8
0
  6
CONTINUOUS
 62
               7
100
AcDbLine
 10
-68.000015255200424
 20
10.100006109731339
 30
0.0
 11
-66.600021358716049
 21
10.100006109731339
 31
0.0
  0
LINE
  5
21C
100
AcDbEntity
  8
0
  6
CONTINUOUS
 62
               2
100
AcDbLine
 10
-69.500015258789063
 20
10.5
 30
0.0
 11
-62.883029324465674
 21
10.5
 31
0.0
  0
LINE
  5
21D
100
AcDbEntity
  8
0
  6
CONTINUOUS
 62
               7
100
AcDbLine
 10
-66.600021358716049
 20
10.900009161489152
 30
0.0
 11
-66.600021358716049
 21
10.100006109731339
 31
0.0
  0
LINE
  5
21E
100
AcDbEntity
  8
0
  6
CONTINUOUS
 62
               7
100
AcDbLine
 10
-68.000015255200424
 20
10.900009161489152
 30
0.0
 11
-68.000015255200424
 21
12.5
 31
0.0
  0
LINE
  5
21F
100
AcDbEntity
  8
0
  6
CONTINUOUS
 62
               2
100
AcDbLine
 10
40.000000003588639
 20
-26.0
 30
0.0
 11
40.000000003588639
 21
-22.0
 31
0.0
  0
LINE
  5
220
100
AcDbEntity
  8
0
  6
CONTINUOUS
 62
               2
100
AcDbLine
 10
-40.000007625805893
 20
-26.0
 30
0.0
 11
-40.000007625805893
 21
-22.0
 31
0.0
  0
LINE
  5
221
100
AcDbEntity
  8
0
  6
CENTER
 62
               2
100
AcDbLine
 10
0.0
 20
-27.5
 30
0.0
 11
0.0
 21
27.5
 31
0.0
  0
ENDBLK
  5
222
100
AcDbEntity
  8
0
100
AcDbBlockEnd
  0
BLOCK
  5
223
100
AcDbEntity
  8
0
100
AcDbBlockBegin
  2
AFDPGL-14-JA-6
 70
               0
 10
0.0
 20
0.0
 30
0.0
  3
AFDPGL-14-JA-6
  1

  0
LINE
  5
224
100
AcDbEntity
  8
0
  6
CONTINUOUS
 62
             200
100
AcDbLine
 10
17.752309468182794
 20
-1.1999995318056875
 30
0.0
 11
19.253464201208473
 21
-3.7999995326055824
 31
0.0
  0
LINE
  5
225
100
AcDbEntity
  8
0
  6
CONTINUOUS
 62
             200
100
AcDbLine
 10
0.9500000003197613
 20
0.6001359967690263
 30
0.0
 11
0.9500000000000028
 21
-0.0000000005062049
 31
0.0
  0
LINE
  5
226
100
AcDbEntity
  8
0
  6
CONTINUOUS
 62
             200
100
AcDbLine
 10
3.050000000319784
 20
0.6001359956500494
 30
0.0
 11
3.0500000000000256
 21
-0.0000000016251818
 31
0.0
  0
LINE
  5
227
100
AcDbEntity
  8
0
  6
CONTINUOUS
 62
               4
100
AcDbLine
 10
0.7514285716417817
 20
0.4001359968748233
 30
0.0
 11
3.2514285716417817
 21
0.4001359955427262
 31
0.0
  0
LINE
  5
228
100
AcDbEntity
  8
0
  6
CONTINUOUS
 62
               4
100
AcDbLine
 10
3.051428571748346
 20
0.6001359956493104
 30
0.0
 11
3.2514285716417817
 21
0.4001359955427262
 31
0.0
  0
LINE
  5
229
100
AcDbEntity
  8
0
  6
CONTINUOUS
 62
               4
100
AcDbLine
 10
0.7514285716417817
 20
0.4001359968748233
 30
0.0
 11
0.9514285717483375
 21
0.6001359967682873
 31
0.0
  0
LINE
  5
22A
100
AcDbEntity
  8
0
  6
CONTINUOUS
 62
               4
100
AcDbLine
 10
3.2514285716417817
 20
0.4001359955427262
 30
0.0
 11
3.2514285714285762
 21
-0.0000000017324879
 31
0.0
  0
LINE
  5
22B
100
AcDbEntity
  8
0
  6
CONTINUOUS
 62
               4
100
AcDbLine
 10
0.7514285714285762
 20
-0.0000000004003908
 30
0.0
 11
0.7514285716417817
 21
0.4001359968748233
 31
0.0
  0
LINE
  5
22C
100
AcDbEntity
  8
0
  6
CONTINUOUS
 62
             200
100
AcDbLine
 10
0.9499999986146861
 20
-2.5998640032309908
 30
0.0
 11
0.9499999978161782
 21
-4.0984354318024145
 31
0.0
  0
LINE
  5
22D
100
AcDbEntity
  8
0
  6
CONTINUOUS
 62
             200
100
AcDbLine
 10
3.0499999986147088
 20
-2.5998640043499677
 30
0.0
 11
3.0499999978146661
 21
-4.1012925757785297
 31
0.0
  0
LINE
  5
22E
100
AcDbEntity
  8
0
  6
CONTINUOUS
 62
               4
100
AcDbLine
 10
0.9514285717483375
 20
0.6001359967682873
 30
0.0
 11
3.051428571748346
 21
0.6001359956493104
 31
0.0
  0
LINE
  5
22F
100
AcDbEntity
  8
0
  6
CONTINUOUS
 62
               4
100
AcDbLine
 10
-0.000000000959048
 20
-1.7998640027247745
 30
0.0
 11
0.0
 21
0.0
 31
0.0
  0
LINE
  5
230
100
AcDbEntity
  8
0
  6
CONTINUOUS
 62
             200
100
AcDbLine
 10
2.0000000006854748
 20
1.2864823073744986
 30
0.0
 11
1.9999999973000513
 21
-5.0670362504197755
 31
0.0
  0
LINE
  5
231
100
AcDbEntity
  8
0
  6
CONTINUOUS
 62
               4
100
AcDbLine
 10
3.9999999990408952
 20
-1.8000000048561589
 30
0.0
 11
3.9999999986146122
 21
-2.6000000048561702
 31
0.0
  0
LINE
  5
232
100
AcDbEntity
  8
0
  6
CONTINUOUS
 62
               4
100
AcDbLine
 10
-0.000000000959048
 20
-1.7998640027247745
 30
0.0
 11
-0.000000001385402
 21
-2.6000000027247836
 31
0.0
  0
LINE
  5
233
100
AcDbEntity
  8
0
  6
CONTINUOUS
 62
               4
100
AcDbLine
 10
0.7514285700432595
 20
-2.5998640031251767
 30
0.0
 11
0.7514285693505229
 21
-3.8998640031251739
 31
0.0
  0
LINE
  5
234
100
AcDbEntity
  8
0
  6
CONTINUOUS
 62
             200
100
AcDbLine
 10
0.7514285693505229
 20
-3.8998640031251739
 30
0.0
 11
3.2514285693505229
 21
-3.899864004457271
 31
0.0
  0
LINE
  5
235
100
AcDbEntity
  8
0
  6
CONTINUOUS
 62
               4
100
AcDbLine
 10
1.2514285690841263
 20
-4.399864003391599
 30
0.0
 11
0.7514285693505229
 21
-3.8998640031251739
 31
0.0
  0
LINE
  5
236
100
AcDbEntity
  8
0
  6
CONTINUOUS
 62
               4
100
AcDbLine
 10
1.2514285690841263
 20
-4.399864003391599
 30
0.0
 11
2.7514285690841263
 21
-4.3998640041908459
 31
0.0
  0
LINE
  5
237
100
AcDbEntity
  8
0
  6
CONTINUOUS
 62
               4
100
AcDbLine
 10
3.2514285693505229
 20
-3.899864004457271
 30
0.0
 11
2.7514285690841263
 21
-4.3998640041908459
 31
0.0
  0
LINE
  5
238
100
AcDbEntity
  8
0
  6
CONTINUOUS
 62
               4
100
AcDbLine
 10
3.2514285700432595
 20
-2.5998640044572738
 30
0.0
 11
3.2514285693505229
 21
-3.899864004457271
 31
0.0
  0
LINE
  5
239
100
AcDbEntity
  8
0
  6
CONTINUOUS
 62
               4
100
AcDbLine
 10
4.2999999990409066
 20
-1.8000000050160025
 30
0.0
 11
4.2999999975489231
 21
-4.5999995246376812
 31
0.0
  0
LINE
  5
23A
100
AcDbEntity
  8
0
  6
CONTINUOUS
 62
               4
100
AcDbLine
 10
15.499999997548912
 20
-4.5999995306055439
 30
0.0
 11
15.500000000000014
 21
-0.0000000082590788
 31
0.0
  0
LINE
  5
23B
100
AcDbEntity
  8
0
  6
CONTINUOUS
 62
               4
100
AcDbLine
 10
4.2999999961865001
 20
-4.5999995246376812
 30
0.0
 11
15.499999992780545
 21
-4.5999995306055439
 31
0.0
  0
LINE
  5
23C
100
AcDbEntity
  8
0
  6
CONTINUOUS
 62
               4
100
AcDbLine
 10
-0.000000005727486
 20
-1.8000000027247722
 30
0.0
 11
4.2999999976784835
 21
-1.8000000050160025
 31
0.0
  0
LINE
  5
23D
100
AcDbEntity
  8
0
  6
CONTINUOUS
 62
               4
100
AcDbLine
 10
-0.000000006153769
 20
-2.6000000027247836
 30
0.0
 11
3.9999999938462452
 21
-2.6000000048561702
 31
0.0
  0
LINE
  5
23E
100
AcDbEntity
  8
0
  6
CONTINUOUS
 62
               4
100
AcDbLine
 10
-0.0000000053544937
 20
-1.1000000027247836
 30
0.0
 11
15.499999999413888
 21
-1.1000000109838624
 31
0.0
  0
LINE
  5
23F
100
AcDbEntity
  8
0
  6
CONTINUOUS
 62
               4
100
AcDbLine
 10
-0.0000000050614375
 20
-0.5499999965940106
 30
0.0
 11
15.499999999706944
 21
-0.5500000048530893
 31
0.0
  0
LINE
  5
240
100
AcDbEntity
  8
0
  6
CONTINUOUS
 62
               4
100
AcDbLine
 10
-0.000000004768367
 20
0.0
 30
0.0
 11
15.500000000000014
 21
-0.0000000082590788
 31
0.0
  0
LINE
  5
241
100
AcDbEntity
  8
0
  6
CONTINUOUS
 62
               4
100
AcDbLine
 10
15.499999999360597
 20
-1.199999530605524
 30
0.0
 11
17.752309468182744
 21
-1.1999995318056875
 31
0.0
  0
LINE
  5
242
100
AcDbEntity
  8
0
  6
CONTINUOUS
 62
               4
100
AcDbLine
 10
15.499999997975195
 20
-3.7999995306055325
 30
0.0
 11
19.253464201208459
 21
-3.7999995326055824
 31
0.0
  0
ENDBLK
  5
243
100
AcDbEntity
  8
0
100
AcDbBlockEnd
  0
BLOCK
  5
244
100
AcDbEntity
  8
0
100
AcDbBlockBegin
  2
AFDPGL-14-JA-7
 70
               0
 10
0.0
 20
0.0
 30
0.0
  3
AFDPGL-14-JA-7
  1

  0
LINE
  5
245
100
AcDbEntity
  8
0
  6
CONTINUOUS
 62
             200
100
AcDbLine
 10
1.0499999999456691
 20
-0.0000106803918385
 30
0.0
 11
1.0500061044101017
 21
0.600125319577117
 31
0.0
  0
LINE
  5
246
100
AcDbEntity
  8
0
  6
CONTINUOUS
 62
             200
100
AcDbLine
 10
-1.0499999999456975
 20
0.0000106803918669
 30
0.0
 11
-1.0499938954812649
 21
0.6001466803608224
 31
0.0
  0
LINE
  5
247
100
AcDbEntity
  8
0
  6
CONTINUOUS
 62
             200
100
AcDbLine
 10
1.0499583260041447
 20
-4.097017537322742
 30
0.0
 11
1.0499735532611112
 21
-2.6000106802573413
 31
0.0
  0
LINE
  5
248
100
AcDbEntity
  8
0
  6
CONTINUOUS
 62
             200
100
AcDbLine
 10
-1.0500416738872502
 20
-4.0969961765390366
 30
0.0
 11
-1.0500264466302838
 21
-2.5999893194736501
 31
0.0
  0
LINE
  5
249
100
AcDbEntity
  8
0
  6
CONTINUOUS
 62
               4
100
AcDbLine
 10
-1.2499959298313001
 20
0.4001487147314862
 30
0.0
 11
-1.0499938954812649
 21
0.6001466803608224
 31
0.0
  0
LINE
  5
24A
100
AcDbEntity
  8
0
  6
CONTINUOUS
 62
               4
100
AcDbLine
 10
-1.249999999935369
 20
0.0000127147522022
 30
0.0
 11
-1.2499959298313001
 21
0.4001487147314862
 31
0.0
  0
LINE
  5
24B
100
AcDbEntity
  8
0
  6
CONTINUOUS
 62
               4
100
AcDbLine
 10
-2.050011188875942
 20
-1.0999791477494796
 30
0.0
 11
-2.0500259220739565
 21
-2.5484145762459889
 31
0.0
  0
LINE
  5
24C
100
AcDbEntity
  8
0
  6
CONTINUOUS
 62
               4
100
AcDbLine
 10
-2.050011188875942
 20
-1.0999791477494796
 30
0.0
 11
-1.5014341513107468
 21
-0.5485561563092745
 31
0.0
  0
LINE
  5
24D
100
AcDbEntity
  8
0
  6
CONTINUOUS
 62
               4
100
AcDbLine
 10
-1.2500264466199553
 20
-2.5999872851132864
 30
0.0
 11
-1.2500396395165581
 21
-3.8969941421890439
 31
0.0
  0
LINE
  5
24E
100
AcDbEntity
  8
0
  6
CONTINUOUS
 62
               4
100
AcDbLine
 10
-0.7471876116485703
 20
-4.3998563999833351
 30
0.0
 11
-1.2500396395165581
 21
-3.8969941421890439
 31
0.0
  0
LINE
  5
24F
100
AcDbEntity
  8
0
  6
CONTINUOUS
 62
               4
100
AcDbLine
 10
-0.7471876116485703
 20
-4.3998563999833351
 30
0.0
 11
0.7470981025598178
 21
-4.3998715995614077
 31
0.0
  0
LINE
  5
250
100
AcDbEntity
  8
0
  6
CONTINUOUS
 62
             200
100
AcDbLine
 10
-0.0000515408882222
 20
-5.0670362463671665
 30
0.0
 11
0.0000130858430225
 21
1.2864823110984247
 31
0.0
  0
LINE
  5
251
100
AcDbEntity
  8
0
  6
CONTINUOUS
 62
               4
100
AcDbLine
 10
-1.5000055652754156
 20
-0.5471201589357264
 30
0.0
 11
-1.4999999999224087
 21
0.0000152604274319
 31
0.0
  0
LINE
  5
252
100
AcDbEntity
  8
0
  6
CONTINUOUS
 62
               4
100
AcDbLine
 10
1.0500061044101017
 20
0.600125319577117
 30
0.0
 11
1.2500040700393811
 21
0.400123285227096
 31
0.0
  0
LINE
  5
253
100
AcDbEntity
  8
0
  6
CONTINUOUS
 62
               4
100
AcDbLine
 10
1.2500040700393811
 20
0.400123285227096
 30
0.0
 11
1.2499999999353122
 21
-0.0000127147521738
 31
0.0
  0
LINE
  5
254
100
AcDbEntity
  8
0
  6
CONTINUOUS
 62
               4
100
AcDbLine
 10
2.0499888109119979
 20
-1.1000208521366943
 30
0.0
 11
2.0499740777140119
 21
-2.5484562806331894
 31
0.0
  0
LINE
  5
255
100
AcDbEntity
  8
0
  6
CONTINUOUS
 62
               4
100
AcDbLine
 10
1.2499735546341526
 20
-2.5998767146177073
 30
0.0
 11
1.2499603603540947
 21
-3.8970195716934484
 31
0.0
  0
LINE
  5
256
100
AcDbEntity
  8
0
  6
CONTINUOUS
 62
               4
100
AcDbLine
 10
1.4999944054313801
 20
-0.5500152576741755
 30
0.0
 11
1.4999999999224087
 21
-0.0000152549778534
 31
0.0
  0
LINE
  5
257
100
AcDbEntity
  8
0
  6
CONTINUOUS
 62
               4
100
AcDbLine
 10
1.4999943993007037
 20
-0.5500152515433427
 30
0.0
 11
2.0499888109119979
 21
-1.1000208521366943
 31
0.0
  0
LINE
  5
258
100
AcDbEntity
  8
0
  6
CONTINUOUS
 62
               4
100
AcDbLine
 10
-2.0500264465785278
 20
-2.5999791476718883
 30
0.0
 11
2.0493642765354423
 21
-2.6000208458616498
 31
0.0
  0
LINE
  5
259
100
AcDbEntity
  8
0
  6
CONTINUOUS
 62
               4
100
AcDbLine
 10
-2.0500183091371582
 20
-1.799979147713259
 30
0.0
 11
2.0499816906507817
 21
-1.8000208521004595
 31
0.0
  0
ARC
  5
25A
100
AcDbEntity
  8
0
  6
CONTINUOUS
 62
               4
100
AcDbCircle
 10
-0.0000259380835814
 20
-2.5499989232664007
 30
0.0
 40
2.050000596223347
100
AcDbArc
 50
179.95571883900286
 51
359.99941719868929
  0
LINE
  5
25B
100
AcDbEntity
  8
0
  6
CONTINUOUS
 62
               4
100
AcDbLine
 10
1.2499603603540947
 20
-3.8970195716934484
 30
0.0
 11
0.7470981025598178
 21
-4.3998715995614077
 31
0.0
  0
LINE
  5
25C
100
AcDbEntity
  8
0
  6
CONTINUOUS
 62
               4
100
AcDbLine
 10
-1.2500396395165581
 20
-3.8969941421890439
 30
0.0
 11
1.2499603603540947
 21
-3.8970195716934484
 31
0.0
  0
LINE
  5
25D
100
AcDbEntity
  8
0
  6
CONTINUOUS
 62
               4
100
AcDbLine
 10
-1.5014285713509139
 20
0.0000152722337816
 30
0.0
 11
1.4999999999223803
 21
-0.0000152577026284
 31
0.0
  0
LINE
  5
25E
100
AcDbEntity
  8
0
  6
CONTINUOUS
 62
               4
100
AcDbLine
 10
-1.2499959298313001
 20
0.4001487147314862
 30
0.0
 11
1.2500040700393811
 21
0.400123285227096
 31
0.0
  0
LINE
  5
25F
100
AcDbEntity
  8
0
  6
CONTINUOUS
 62
               4
100
AcDbLine
 10
-1.0499938954812649
 20
0.6001466803608224
 30
0.0
 11
1.0500061044101017
 21
0.600125319577117
 31
0.0
  0
ENDBLK
  5
260
100
AcDbEntity
  8
0
100
AcDbBlockEnd
  0
BLOCK
  5
261
100
AcDbEntity
  8
0
100
AcDbBlockBegin
  2
AFDPGL-14-JA-8
 70
               0
 10
0.0
 20
0.0
 30
0.0
  3
AFDPGL-14-JA-8
  1

  0
LINE
  5
262
100
AcDbEntity
  8
0
  6
CENTER
 62
             200
100
AcDbLine
 10
-1.4104017530141562
 20
0.0000027769050206
 30
0.0
 11
21.5028868407544
 21
-0.0000423365003854
 31
0.0
  0
LINE
  5
263
100
AcDbEntity
  8
0
  6
CONTINUOUS
 62
             200
100
AcDbLine
 10
17.752312033093887
 20
1.2999650479158333
 30
0.0
 11
19.253461648426573
 21
-1.3000379076654554
 31
0.0
  0
LINE
  5
264
100
AcDbEntity
  8
0
  6
CONTINUOUS
 62
               4
100
AcDbLine
 10
15.499997445200592
 20
-1.3000305175629165
 30
0.0
 11
19.253461648426565
 21
-1.3000379076654554
 31
0.0
  0
LINE
  5
265
100
AcDbEntity
  8
0
  6
CONTINUOUS
 62
               4
100
AcDbLine
 10
15.500002564276087
 20
1.2999694824320613
 30
0.0
 11
17.752312033093858
 21
1.2999650479158333
 31
0.0
  0
LINE
  5
266
100
AcDbEntity
  8
0
  6
CONTINUOUS
 62
             200
100
AcDbLine
 10
2.0000057988829099
 20
2.9428532051010734
 30
0.0
 11
1.9999935075065451
 21
-3.2999886111674357
 31
0.0
  0
LINE
  5
267
100
AcDbEntity
  8
0
  6
CONTINUOUS
 62
               4
100
AcDbLine
 10
3.8999970514480111
 20
-1.5000076786103307
 30
0.0
 11
3.9000029580735855
 21
1.4999923213838571
 31
0.0
  0
LINE
  5
268
100
AcDbEntity
  8
0
  6
CONTINUOUS
 62
               4
100
AcDbLine
 10
10.399997051435406
 20
-1.5000204762990563
 30
0.0
 11
10.400002958060981
 21
1.4999795236951314
 31
0.0
  0
LINE
  5
269
100
AcDbEntity
  8
0
  6
CONTINUOUS
 62
               4
100
AcDbLine
 10
7.9999988234277595
 20
-0.6000157510003419
 30
0.0
 11
8.0000017767405467
 21
0.8999842489967449
 31
0.0
  0
LINE
  5
26A
100
AcDbEntity
  8
0
  6
CONTINUOUS
 62
               4
100
AcDbLine
 10
9.5999988234246558
 20
-0.6000189012006558
 30
0.0
 11
9.6000017767374288
 21
0.8999810987964452
 31
0.0
  0
LINE
  5
26B
100
AcDbEntity
  8
0
  6
CONTINUOUS
 62
               4
100
AcDbLine
 10
-0.0000040361941274
 20
-2.0499999999960039
 30
0.0
 11
0.0000040361941274
 21
2.0499999999960465
 31
0.0
  0
LINE
  5
26C
100
AcDbEntity
  8
0
  6
CONTINUOUS
 62
               4
100
AcDbLine
 10
15.499995968544198
 20
-2.0500305175614528
 30
0.0
 11
15.500004040932481
 21
2.0499694824305976
 31
0.0
  0
LINE
  5
26D
100
AcDbEntity
  8
0
  6
CONTINUOUS
 62
               4
100
AcDbLine
 10
0.0000029533127872
 20
1.4999999999971152
 30
0.0
 11
15.500002958051098
 21
1.4999694824316663
 31
0.0
  0
LINE
  5
26E
100
AcDbEntity
  8
0
  6
CONTINUOUS
 62
               4
100
AcDbLine
 10
-0.0000029533127872
 20
-1.4999999999970868
 30
0.0
 11
15.499997051425538
 21
-1.5000305175625357
 31
0.0
  0
CIRCLE
  5
26F
100
AcDbEntity
  8
0
  6
CONTINUOUS
 62
               4
100
AcDbCircle
 10
2.0000000047644875
 20
-0.0000039377503782
 30
0.0
 40
1.3999999999999997
  0
CIRCLE
  5
270
100
AcDbEntity
  8
0
  6
CONTINUOUS
 62
               4
100
AcDbCircle
 10
2.0000000047644875
 20
-0.0000039377503782
 30
0.0
 40
1.25
  0
CIRCLE
  5
271
100
AcDbEntity
  8
0
  6
CONTINUOUS
 62
             200
100
AcDbCircle
 10
2.0000000047644875
 20
-0.0000039377503782
 30
0.0
 40
1.05
  0
LINE
  5
272
100
AcDbEntity
  8
0
  6
CONTINUOUS
 62
               4
100
AcDbLine
 10
0.957196541628818
 20
-0.6892505824808666
 30
0.0
 11
2.6892507557893737
 21
1.0427968112959718
 31
0.0
  0
LINE
  5
273
100
AcDbEntity
  8
0
  6
CONTINUOUS
 62
               4
100
AcDbLine
 10
1.310749265781908
 20
-1.0428046529562778
 30
0.0
 11
3.0428034694819246
 21
0.6892427303600925
 31
0.0
  0
LINE
  5
274
100
AcDbEntity
  8
0
  6
CONTINUOUS
 62
               4
100
AcDbLine
 10
8.0000017767405467
 20
0.8999842489967449
 30
0.0
 11
9.6000017767374288
 21
0.8999810987964452
 31
0.0
  0
LINE
  5
275
100
AcDbEntity
  8
0
  6
CONTINUOUS
 62
               4
100
AcDbLine
 10
7.9999988234277595
 20
-0.6000157510003419
 30
0.0
 11
9.5999988234246558
 21
-0.6000189012006558
 31
0.0
  0
LINE
  5
276
100
AcDbEntity
  8
0
  6
CONTINUOUS
 62
               4
100
AcDbLine
 10
0.0000040361941274
 20
2.0499999999960465
 30
0.0
 11
15.500004040932481
 21
2.0499694824305976
 31
0.0
  0
LINE
  5
277
100
AcDbEntity
  8
0
  6
CONTINUOUS
 62
               4
100
AcDbLine
 10
-0.0000040361941274
 20
-2.0499999999960039
 30
0.0
 11
15.499995968544198
 21
-2.0500305175614528
 31
0.0
  0
ENDBLK
  5
278
100
AcDbEntity
  8
0
100
AcDbBlockEnd
  0
BLOCK
  5
279
100
AcDbEntity
  8
0
100
AcDbBlockBegin
  2
AFDPGL-14-JA-9
 70
               0
 10
0.0
 20
0.0
 30
0.0
  3
AFDPGL-14-JA-9
  1

  0
LINE
  5
27A
100
AcDbEntity
  8
0
  6
CONTINUOUS
 62
             200
100
AcDbLine
 10
11.199999999999989
 20
8.1445121127279805
 30
0.0
 11
13.800000000000011
 21
9.6456668471390827
 31
0.0
  0
LINE
  5
27B
100
AcDbEntity
  8
0
  6
CONTINUOUS
 62
               4
100
AcDbLine
 10
10.400000005449556
 20
0.9479762348989311
 30
0.0
 11
12.050955663295326
 21
1.4979762296661931
 31
0.0
  0
LINE
  5
27C
100
AcDbEntity
  8
0
  6
CONTINUOUS
 62
               4
100
AcDbLine
 10
12.050955663295326
 20
1.4979762296661931
 30
0.0
 11
12.050955663295326
 21
5.8979763159612446
 31
0.0
  0
LINE
  5
27D
100
AcDbEntity
  8
0
  6
CONTINUOUS
 62
               4
100
AcDbLine
 10
12.949044336704674
 20
4.8979763118740749
 30
0.0
 11
12.949044336704674
 21
5.8979763118740749
 31
0.0
  0
LINE
  5
27E
100
AcDbEntity
  8
0
  6
CONTINUOUS
 62
               4
100
AcDbLine
 10
12.949044336704674
 20
4.8979763159612446
 30
0.0
 11
15.0
 21
4.8979763159612446
 31
0.0
  0
LINE
  5
27F
100
AcDbEntity
  8
0
  6
CONTINUOUS
 62
               4
100
AcDbLine
 10
14.600000000000023
 20
4.8979763159612446
 30
0.0
 11
14.600000000000023
 21
5.8979763159612446
 31
0.0
  0
LINE
  5
280
100
AcDbEntity
  8
0
  6
CONTINUOUS
 62
               4
100
AcDbLine
 10
10.400000000000006
 20
-0.0020236840387469
 30
0.0
 11
10.400000000000006
 21
5.8979763159612446
 31
0.0
  0
LINE
  5
281
100
AcDbEntity
  8
0
  6
CONTINUOUS
 62
               4
100
AcDbLine
 10
10.400000000000006
 20
5.8979763159612446
 30
0.0
 11
14.600000000000023
 21
5.8979763159612446
 31
0.0
  0
LINE
  5
282
100
AcDbEntity
  8
0
  6
CONTINUOUS
 62
               4
100
AcDbLine
 10
15.0
 20
3.8979763159612446
 30
0.0
 11
10.400000000000006
 21
3.8979763159612446
 31
0.0
  0
LINE
  5
283
100
AcDbEntity
  8
0
  6
CONTINUOUS
 62
             200
100
AcDbLine
 10
0.9499999999999886
 20
0.5979763159612475
 30
0.0
 11
0.9499999999999886
 21
-0.0020236840387469
 31
0.0
  0
LINE
  5
284
100
AcDbEntity
  8
0
  6
CONTINUOUS
 62
             200
100
AcDbLine
 10
3.0500000000000114
 20
0.5979763159612475
 30
0.0
 11
3.0500000000000114
 21
-0.0020236840387469
 31
0.0
  0
LINE
  5
285
100
AcDbEntity
  8
0
  6
CONTINUOUS
 62
               4
100
AcDbLine
 10
0.751428571428562
 20
0.3979763159612446
 30
0.0
 11
3.251428571428562
 21
0.3979763159612446
 31
0.0
  0
LINE
  5
286
100
AcDbEntity
  8
0
  6
CONTINUOUS
 62
               4
100
AcDbLine
 10
3.0514285714285734
 20
0.5979763159612475
 30
0.0
 11
3.251428571428562
 21
0.3979763159612446
 31
0.0
  0
LINE
  5
287
100
AcDbEntity
  8
0
  6
CONTINUOUS
 62
               4
100
AcDbLine
 10
0.751428571428562
 20
0.3979763159612446
 30
0.0
 11
0.9514285714285791
 21
0.5979763159612475
 31
0.0
  0
LINE
  5
288
100
AcDbEntity
  8
0
  6
CONTINUOUS
 62
               4
100
AcDbLine
 10
3.251428571428562
 20
0.3979763159612446
 30
0.0
 11
3.251428571428562
 21
-0.0020236840387469
 31
0.0
  0
LINE
  5
289
100
AcDbEntity
  8
0
  6
CONTINUOUS
 62
               4
100
AcDbLine
 10
0.751428571428562
 20
-0.0020236840387469
 30
0.0
 11
0.751428571428562
 21
0.3979763159612446
 31
0.0
  0
LINE
  5
28A
100
AcDbEntity
  8
0
  6
CONTINUOUS
 62
             200
100
AcDbLine
 10
0.9499999999999886
 20
-2.6020236840387554
 30
0.0
 11
0.9499999999999886
 21
-4.1005951126101792
 31
0.0
  0
LINE
  5
28B
100
AcDbEntity
  8
0
  6
CONTINUOUS
 62
             200
100
AcDbLine
 10
3.0500000000000114
 20
-2.6020236840387554
 30
0.0
 11
3.0500000000000114
 21
-4.1034522554673174
 31
0.0
  0
LINE
  5
28C
100
AcDbEntity
  8
0
  6
CONTINUOUS
 62
               4
100
AcDbLine
 10
0.9514285714285791
 20
0.5979763159612475
 30
0.0
 11
3.0514285714285734
 21
0.5979763159612475
 31
0.0
  0
LINE
  5
28D
100
AcDbEntity
  8
0
  6
CONTINUOUS
 62
               4
100
AcDbLine
 10
0.0
 20
-1.8020236840387582
 30
0.0
 11
0.0
 21
0.0
 31
0.0
  0
LINE
  5
28E
100
AcDbEntity
  8
0
  6
CONTINUOUS
 62
             200
100
AcDbLine
 10
2.0
 20
1.2843226271262154
 30
0.0
 11
2.0
 21
-5.0691959306680729
 31
0.0
  0
LINE
  5
28F
100
AcDbEntity
  8
0
  6
CONTINUOUS
 62
               4
100
AcDbLine
 10
4.0
 20
-1.8020236840387582
 30
0.0
 11
4.0
 21
-2.6020236840387554
 31
0.0
  0
LINE
  5
290
100
AcDbEntity
  8
0
  6
CONTINUOUS
 62
               4
100
AcDbLine
 10
0.0
 20
-1.8020236840387582
 30
0.0
 11
0.0
 21
-2.6020236840387554
 31
0.0
  0
LINE
  5
291
100
AcDbEntity
  8
0
  6
CONTINUOUS
 62
               4
100
AcDbLine
 10
0.751428571428562
 20
-2.6020236840387554
 30
0.0
 11
0.751428571428562
 21
-3.9020236840387525
 31
0.0
  0
LINE
  5
292
100
AcDbEntity
  8
0
  6
CONTINUOUS
 62
             200
100
AcDbLine
 10
0.751428571428562
 20
-3.9020236840387525
 30
0.0
 11
3.251428571428562
 21
-3.9020236840387525
 31
0.0
  0
LINE
  5
293
100
AcDbEntity
  8
0
  6
CONTINUOUS
 62
               4
100
AcDbLine
 10
1.251428571428562
 20
-4.4020236840387525
 30
0.0
 11
0.751428571428562
 21
-3.9020236840387525
 31
0.0
  0
LINE
  5
294
100
AcDbEntity
  8
0
  6
CONTINUOUS
 62
               4
100
AcDbLine
 10
1.251428571428562
 20
-4.4020236840387525
 30
0.0
 11
2.751428571428562
 21
-4.4020236840387525
 31
0.0
  0
LINE
  5
295
100
AcDbEntity
  8
0
  6
CONTINUOUS
 62
               4
100
AcDbLine
 10
3.251428571428562
 20
-3.9020236840387525
 30
0.0
 11
2.751428571428562
 21
-4.4020236840387525
 31
0.0
  0
LINE
  5
296
100
AcDbEntity
  8
0
  6
CONTINUOUS
 62
               4
100
AcDbLine
 10
3.251428571428562
 20
-2.6020236840387554
 30
0.0
 11
3.251428571428562
 21
-3.9020236840387525
 31
0.0
  0
LINE
  5
297
100
AcDbEntity
  8
0
  6
CONTINUOUS
 62
               4
100
AcDbLine
 10
4.3000000000000114
 20
-1.8000000000000114
 30
0.0
 11
4.3000000000000114
 21
-4.6000000000000085
 31
0.0
  0
LINE
  5
298
100
AcDbEntity
  8
0
  6
CONTINUOUS
 62
               4
100
AcDbLine
 10
15.0
 20
-4.6000000000000085
 30
0.0
 11
15.0
 21
4.8979763159612446
 31
0.0
  0
LINE
  5
299
100
AcDbEntity
  8
0
  6
CONTINUOUS
 62
               4
100
AcDbLine
 10
11.199999999999989
 20
5.8979763159612446
 30
0.0
 11
11.199999999999989
 21
8.1445121127279805
 31
0.0
  0
LINE
  5
29A
100
AcDbEntity
  8
0
  6
CONTINUOUS
 62
               4
100
AcDbLine
 10
13.800000000000011
 20
5.8979763159612446
 30
0.0
 11
13.800000000000011
 21
9.6456668471390827
 31
0.0
  0
LINE
  5
29B
100
AcDbEntity
  8
0
  6
CONTINUOUS
 62
               4
100
AcDbLine
 10
4.2999999986376167
 20
-4.6000000000000085
 30
0.0
 11
14.999999995231633
 21
-4.6000000000000085
 31
0.0
  0
LINE
  5
29C
100
AcDbEntity
  8
0
  6
CONTINUOUS
 62
               4
100
AcDbLine
 10
-0.000000004768367
 20
0.0
 30
0.0
 11
14.999999995231633
 21
0.0
 31
0.0
  0
LINE
  5
29D
100
AcDbEntity
  8
0
  6
CONTINUOUS
 62
               4
100
AcDbLine
 10
0.0
 20
-1.8000000000000114
 30
0.0
 11
4.3000000000000114
 21
-1.8000000000000114
 31
0.0
  0
LINE
  5
29E
100
AcDbEntity
  8
0
  6
CONTINUOUS
 62
               4
100
AcDbLine
 10
-0.000000004768367
 20
-2.6000000000000085
 30
0.0
 11
3.999999995231633
 21
-2.6000000000000085
 31
0.0
  0
LINE
  5
29F
100
AcDbEntity
  8
0
  6
CONTINUOUS
 62
               4
100
AcDbLine
 10
-0.000000004768367
 20
-1.1000000082564156
 30
0.0
 11
14.999999995231633
 21
-1.1000000082564156
 31
0.0
  0
LINE
  5
2A0
100
AcDbEntity
  8
0
  6
CONTINUOUS
 62
               4
100
AcDbLine
 10
-0.000000004768367
 20
-0.5500000000000114
 30
0.0
 11
15.0
 21
-0.5500000000000114
 31
0.0
  0
LINE
  5
2A1
100
AcDbEntity
  8
0
  6
CONTINUOUS
 62
               4
100
AcDbLine
 10
10.399999988419665
 20
0.9479762301305641
 30
0.0
 11
14.999999995231633
 21
0.9479762301305641
 31
0.0
  0
LINE
  5
2A2
100
AcDbEntity
  8
0
  6
CONTINUOUS
 62
               4
100
AcDbLine
 10
10.400000005449556
 20
1.4979762335365336
 30
0.0
 11
15.0
 21
1.4979762335365336
 31
0.0
  0
ENDBLK
  5
2A3
100
AcDbEntity
  8
0
100
AcDbBlockEnd
  0
BLOCK
  5
2A4
100
AcDbEntity
  8
0
100
AcDbBlockBegin
  2
AFDPGL-14-JA-10
 70
               0
 10
0.0
 20
0.0
 30
0.0
  3
AFDPGL-14-JA-10
  1

  0
LINE
  5
2A5
100
AcDbEntity
  8
0
  6
CONTINUOUS
 62
             200
100
AcDbLine
 10
0.0001954518545944
 20
-5.5464060456854583
 30
0.0
 11
-0.0003407417318328
 21
9.6693480110617855
 31
0.0
  0
LINE
  5
2A6
100
AcDbEntity
  8
0
  6
CONTINUOUS
 62
             200
100
AcDbLine
 10
-1.3002870066651013
 20
8.14446621019502
 30
0.0
 11
1.299660091973518
 21
9.6457125660358685
 31
0.0
  0
LINE
  5
2A7
100
AcDbEntity
  8
0
  6
CONTINUOUS
 62
               4
100
AcDbLine
 10
-2.050207839693396
 20
5.8979039852957129
 30
0.0
 11
2.0497921577608871
 21
5.8980484667124529
 31
0.0
  0
LINE
  5
2A8
100
AcDbEntity
  8
0
  6
CONTINUOUS
 62
               4
100
AcDbLine
 10
-2.050137360953519
 20
3.8979039865375285
 30
0.0
 11
2.0498626365007588
 21
3.8980484679542826
 31
0.0
  0
LINE
  5
2A9
100
AcDbEntity
  8
0
  6
CONTINUOUS
 62
               4
100
AcDbLine
 10
-1.0500210716566727
 20
0.5979393142515193
 30
0.0
 11
1.0499789270394224
 21
0.5980133169284017
 31
0.0
  0
LINE
  5
2AA
100
AcDbEntity
  8
0
  6
CONTINUOUS
 62
               4
100
AcDbLine
 10
-1.2500140236584905
 20
0.397932266501698
 30
0.0
 11
-1.0500210716566727
 21
0.5979393142515193
 31
0.0
  0
LINE
  5
2AB
100
AcDbEntity
  8
0
  6
CONTINUOUS
 62
               4
100
AcDbLine
 10
1.0499789270394224
 20
0.5980133169284017
 30
0.0
 11
1.2499859747892437
 21
0.3980203649265661
 31
0.0
  0
LINE
  5
2AC
100
AcDbEntity
  8
0
  6
CONTINUOUS
 62
               4
100
AcDbLine
 10
-1.2500140236584905
 20
0.397932266501698
 30
0.0
 11
1.2499859747892437
 21
0.3980203649265661
 31
0.0
  0
LINE
  5
2AD
100
AcDbEntity
  8
0
  6
CONTINUOUS
 62
               4
100
AcDbLine
 10
1.2499859747892437
 20
0.3980203649265661
 30
0.0
 11
1.2499999992238706
 21
0.0000440492124341
 31
0.0
  0
LINE
  5
2AE
100
AcDbEntity
  8
0
  6
CONTINUOUS
 62
               4
100
AcDbLine
 10
-1.2499999992238635
 20
-0.0000440492124341
 30
0.0
 11
-1.2500140236584905
 21
0.397932266501698
 31
0.0
  0
LINE
  5
2AF
100
AcDbEntity
  8
0
  6
CONTINUOUS
 62
               4
100
AcDbLine
 10
-2.0479374800693648
 20
-1.1020958527495281
 30
0.0
 11
-1.4999805753631605
 21
-0.5512461834778719
 31
0.0
  0
LINE
  5
2B0
100
AcDbEntity
  8
0
  6
CONTINUOUS
 62
               4
100
AcDbLine
 10
2.0500387620340632
 20
-1.0999277586086436
 30
0.0
 11
1.5000193807221116
 21
-0.5499471406035923
 31
0.0
  0
LINE
  5
2B1
100
AcDbEntity
  8
0
  6
CONTINUOUS
 62
               4
100
AcDbLine
 10
1.2500916215857103
 20
-2.5999559491732498
 30
0.0
 11
1.2501374033960708
 21
-3.8991224895481622
 31
0.0
  0
LINE
  5
2B2
100
AcDbEntity
  8
0
  6
CONTINUOUS
 62
               4
100
AcDbLine
 10
-1.2499083768620238
 20
-2.6000440475980753
 30
0.0
 11
-1.2498625950516633
 21
-3.8992105879730303
 31
0.0
  0
LINE
  5
2B3
100
AcDbEntity
  8
0
  6
CONTINUOUS
 62
               4
100
AcDbLine
 10
-1.2498625950516633
 20
-3.8992105879730303
 30
0.0
 11
1.2501374033960708
 21
-3.8991224895481622
 31
0.0
  0
LINE
  5
2B4
100
AcDbEntity
  8
0
  6
CONTINUOUS
 62
               4
100
AcDbLine
 10
1.2501374033960708
 20
-3.8991224895481622
 30
0.0
 11
0.7472979812200222
 21
-4.4019973524619616
 31
0.0
  0
LINE
  5
2B5
100
AcDbEntity
  8
0
  6
CONTINUOUS
 62
               4
100
AcDbLine
 10
-0.7469877321378533
 20
-4.4020500101490541
 30
0.0
 11
-1.2498625950516633
 21
-3.8992105879730303
 31
0.0
  0
LINE
  5
2B6
100
AcDbEntity
  8
0
  6
CONTINUOUS
 62
               4
100
AcDbLine
 10
2.0006585422338752
 20
-1.7999294991711139
 30
0.0
 11
2.0006868050431805
 21
-2.6019531827118669
 31
0.0
  0
LINE
  5
2B7
100
AcDbEntity
  8
0
  6
CONTINUOUS
 62
               4
100
AcDbLine
 10
-1.999341455282492
 20
-1.8000704566508574
 30
0.0
 11
-1.9993131924731919
 21
-2.6020941401916389
 31
0.0
  0
LINE
  5
2B8
100
AcDbEntity
  8
0
  6
CONTINUOUS
 62
               4
100
AcDbLine
 10
-0.7469877321378533
 20
-4.4020500101490541
 30
0.0
 11
0.7472979812200222
 21
-4.4019973524619616
 31
0.0
  0
LINE
  5
2B9
100
AcDbEntity
  8
0
  6
CONTINUOUS
 62
               4
100
AcDbLine
 10
-2.0499101173624119
 20
-2.5506673517348588
 30
0.0
 11
-2.0499611641068682
 21
-1.1020959240628798
 31
0.0
  0
LINE
  5
2BA
100
AcDbEntity
  8
0
  6
CONTINUOUS
 62
               4
100
AcDbLine
 10
2.0500930698801447
 20
-2.6410406145987366
 30
0.0
 11
2.0500387620343545
 21
-1.0999277668650507
 31
0.0
  0
ARC
  5
2BB
100
AcDbEntity
  8
0
  6
CONTINUOUS
 62
               4
100
AcDbCircle
 10
0.000089860393345
 20
-2.5499999984166948
 30
0.0
 40
2.0499999999999994
100
AcDbArc
 50
180.00201906717066
 51
0.0020190671706368
  0
LINE
  5
2BC
100
AcDbEntity
  8
0
  6
CONTINUOUS
 62
               4
100
AcDbLine
 10
-2.0500527864656135
 20
1.4979039865305595
 30
0.0
 11
-2.050207839693396
 21
5.8979039852957129
 31
0.0
  0
LINE
  5
2BD
100
AcDbEntity
  8
0
  6
CONTINUOUS
 62
               4
100
AcDbLine
 10
2.0499472109885239
 20
1.4980484718703622
 30
0.0
 11
2.0497921577608871
 21
5.8980484667124529
 31
0.0
  0
LINE
  5
2BE
100
AcDbEntity
  8
0
  6
CONTINUOUS
 62
               4
100
AcDbLine
 10
1.4999665929835082
 20
0.948029090558407
 30
0.0
 11
2.0499472124329579
 21
1.4980484733148529
 31
0.0
  0
LINE
  5
2BF
100
AcDbEntity
  8
0
  6
CONTINUOUS
 62
               4
100
AcDbLine
 10
-2.0500527918332985
 20
1.4979039918978572
 30
0.0
 11
-1.5000334051536335
 21
0.9479233685255082
 31
0.0
  0
LINE
  5
2C0
100
AcDbEntity
  8
0
  6
CONTINUOUS
 62
               4
100
AcDbLine
 10
-1.4999805753631854
 20
-0.5512461826113082
 30
0.0
 11
-1.5000334051537045
 21
0.9479233704870467
 31
0.0
  0
LINE
  5
2C1
100
AcDbEntity
  8
0
  6
CONTINUOUS
 62
               4
100
AcDbLine
 10
1.5000193807222821
 20
-0.5499471454540128
 30
0.0
 11
1.4999665929835757
 21
0.9480290885968827
 31
0.0
  0
LINE
  5
2C2
100
AcDbEntity
  8
0
  6
CONTINUOUS
 62
               4
100
AcDbLine
 10
-1.5000000010301591
 20
-0.0000528590549891
 30
0.0
 11
1.4999999971071176
 21
0.000052859054847
 31
0.0
  0
LINE
  5
2C3
100
AcDbEntity
  8
0
  6
CONTINUOUS
 62
               4
100
AcDbLine
 10
-2.0499365678612627
 20
-1.8000722395907616
 30
0.0
 11
2.0500634295930205
 21
-1.7999277581740216
 31
0.0
  0
LINE
  5
2C4
100
AcDbEntity
  8
0
  6
CONTINUOUS
 62
               4
100
AcDbLine
 10
-1.9993132637865401
 20
-2.6000704561541426
 30
0.0
 11
2.0006867337298324
 21
-2.599929498674399
 31
0.0
  0
LINE
  5
2C5
100
AcDbEntity
  8
0
  6
CONTINUOUS
 62
               4
100
AcDbLine
 10
-1.3002078401590715
 20
5.897930414823179
 30
0.0
 11
-1.3002870066651013
 21
8.1444662101950058
 31
0.0
  0
LINE
  5
2C6
100
AcDbEntity
  8
0
  6
CONTINUOUS
 62
               4
100
AcDbLine
 10
1.2997921582265661
 20
5.8980220371850294
 30
0.0
 11
1.299660091973518
 21
9.6457125660358827
 31
0.0
  0
LINE
  5
2C7
100
AcDbEntity
  8
0
  6
CONTINUOUS
 62
             200
100
AcDbLine
 10
-1.0248546663331375
 20
-4.1242026589750793
 30
0.0
 11
-1.0249083770017293
 21
-2.6000361187398369
 31
0.0
  0
LINE
  5
2C8
100
AcDbEntity
  8
0
  6
CONTINUOUS
 62
             200
100
AcDbLine
 10
1.0251453323940147
 20
-4.124130418266688
 30
0.0
 11
1.0250916217254193
 21
-2.5999638780314598
 31
0.0
  0
LINE
  5
2C9
100
AcDbEntity
  8
0
  6
CONTINUOUS
 62
             200
100
AcDbLine
 10
1.0249999993636294
 20
0.0000361189097333
 30
0.0
 11
1.0249789270549705
 21
0.5980124359441561
 31
0.0
  0
LINE
  5
2CA
100
AcDbEntity
  8
0
  6
CONTINUOUS
 62
             200
100
AcDbLine
 10
-1.0249999993635228
 20
-0.0000361217986296
 30
0.0
 11
-1.0250210716721888
 21
0.5979401952357648
 31
0.0
  0
ENDBLK
  5
2CB
100
AcDbEntity
  8
0
100
AcDbBlockEnd
  0
BLOCK
  5
2CC
100
AcDbEntity
  8
0
100
AcDbBlockBegin
  2
AFDPGL-14-JA-11
 70
               0
 10
0.0
 20
0.0
 30
0.0
  3
AFDPGL-14-JA-11
  1

  0
CIRCLE
  5
2CD
100
AcDbEntity
  8
0
  6
CONTINUOUS
 62
               4
100
AcDbCircle
 10
12.5
 20
0.0
 30
0.0
 40
1.3
  0
ARC
  5
2CE
100
AcDbEntity
  8
0
  6
CONTINUOUS
 62
               4
100
AcDbCircle
 10
12.5
 20
0.0
 30
0.0
 40
2.1000000000000001
100
AcDbArc
 50
282.34693236741293
 51
77.293658161570576
  0
ARC
  5
2CF
100
AcDbEntity
  8
0
  6
CONTINUOUS
 62
               4
100
AcDbCircle
 10
12.5
 20
0.0
 30
0.0
 40
2.1000000000000001
100
AcDbArc
 50
102.70634183842961
 51
257.65306763258729
  0
LINE
  5
2D0
100
AcDbEntity
  8
0
  6
CONTINUOUS
 62
               4
100
AcDbLine
 10
0.0
 20
1.5
 30
0.0
 11
11.030306154330106
 21
1.5000000000000426
 31
0.0
  0
LINE
  5
2D1
100
AcDbEntity
  8
0
  6
CONTINUOUS
 62
               4
100
AcDbLine
 10
0.0
 20
2.0499999999999972
 30
0.0
 11
0.0
 21
-2.0499999999999972
 31
0.0
  0
LINE
  5
2D2
100
AcDbEntity
  8
0
  6
CONTINUOUS
 62
               4
100
AcDbLine
 10
15.0
 20
2.0500000000000398
 30
0.0
 11
15.0
 21
-2.0499999999999972
 31
0.0
  0
LINE
  5
2D3
100
AcDbEntity
  8
0
  6
CONTINUOUS
 62
               4
100
AcDbLine
 10
0.9571428571428555
 20
-0.7142857142857082
 30
0.0
 11
2.6885714285714357
 21
1.019999999999996
 31
0.0
  0
LINE
  5
2D4
100
AcDbEntity
  8
0
  6
CONTINUOUS
 62
               4
100
AcDbLine
 10
1.3085714285714403
 20
-1.068571428571417
 30
0.0
 11
3.0519930369714814
 21
0.6748501798286242
 31
0.0
  0
LINE
  5
2D5
100
AcDbEntity
  8
0
  6
CONTINUOUS
 62
               4
100
AcDbLine
 10
3.9000000000000057
 20
-1.5028571503502945
 30
0.0
 11
3.9000000000000057
 21
1.500000006811959
 31
0.0
  0
LINE
  5
2D6
100
AcDbEntity
  8
0
  6
CONTINUOUS
 62
               4
100
AcDbLine
 10
10.400000000000006
 20
-1.5028571503502519
 30
0.0
 11
10.400000000000006
 21
1.500000006811959
 31
0.0
  0
LINE
  5
2D7
100
AcDbEntity
  8
0
  6
CONTINUOUS
 62
               4
100
AcDbLine
 10
8.0
 20
-0.7000000068119476
 30
0.0
 11
8.0
 21
0.9000000000000057
 31
0.0
  0
LINE
  5
2D8
100
AcDbEntity
  8
0
  6
CONTINUOUS
 62
               4
100
AcDbLine
 10
9.6000000000000227
 20
-0.7000000068119476
 30
0.0
 11
9.6000000000000227
 21
0.9000000000000057
 31
0.0
  0
LINE
  5
2D9
100
AcDbEntity
  8
0
  6
CONTINUOUS
 62
               4
100
AcDbLine
 10
8.0
 20
0.9000000000000057
 30
0.0
 11
9.6000000000000227
 21
0.9000000000000057
 31
0.0
  0
LINE
  5
2DA
100
AcDbEntity
  8
0
  6
CONTINUOUS
 62
               4
100
AcDbLine
 10
8.0
 20
-0.7000000000000028
 30
0.0
 11
9.6000000000000227
 21
-0.7000000000000028
 31
0.0
  0
LINE
  5
2DB
100
AcDbEntity
  8
0
  6
CONTINUOUS
 62
               4
100
AcDbLine
 10
0.0
 20
2.0499999999999972
 30
0.0
 11
15.0
 21
2.0500000000000398
 31
0.0
  0
LINE
  5
2DC
100
AcDbEntity
  8
0
  6
CONTINUOUS
 62
               4
100
AcDbLine
 10
0.0
 20
-2.0499999999999972
 30
0.0
 11
15.0
 21
-2.0499999999999972
 31
0.0
  0
LINE
  5
2DD
100
AcDbEntity
  8
0
  6
CONTINUOUS
 62
               4
100
AcDbLine
 10
0.0
 20
-1.5
 30
0.0
 11
11.030306154330106
 21
-1.5
 31
0.0
  0
CIRCLE
  5
2DE
100
AcDbEntity
  8
0
  6
CONTINUOUS
 62
               4
100
AcDbCircle
 10
2.0
 20
0.0
 30
0.0
 40
1.3999999999999997
  0
CIRCLE
  5
2DF
100
AcDbEntity
  8
0
  6
CONTINUOUS
 62
             200
100
AcDbCircle
 10
2.0
 20
0.0
 30
0.0
 40
1.05
  0
CIRCLE
  5
2E0
100
AcDbEntity
  8
0
  6
CONTINUOUS
 62
               4
100
AcDbCircle
 10
2.0
 20
0.0
 30
0.0
 40
1.25
  0
CIRCLE
  5
2E1
100
AcDbEntity
  8
0
  6
CONTINUOUS
 62
               4
100
AcDbCircle
 10
13.150000002724795
 20
0.0
 30
0.0
 40
0.5
  0
CIRCLE
  5
2E2
100
AcDbEntity
  8
0
  6
CONTINUOUS
 62
               4
100
AcDbCircle
 10
11.849999997275233
 20
0.0000000000000426
 30
0.0
 40
0.5
  0
CIRCLE
  5
2E3
100
AcDbEntity
  8
0
  6
CONTINUOUS
 62
               4
100
AcDbCircle
 10
13.150000002724795
 20
0.0
 30
0.0
 40
0.29
  0
CIRCLE
  5
2E4
100
AcDbEntity
  8
0
  6
CONTINUOUS
 62
               4
100
AcDbCircle
 10
11.849999997275233
 20
0.0000000000000426
 30
0.0
 40
0.29
  0
LINE
  5
2E5
100
AcDbEntity
  8
0
  6
CENTER
 62
             200
100
AcDbLine
 10
-1.3247205773654969
 20
0.0
 30
0.0
 11
16.237619114850219
 21
0.0
 31
0.0
  0
LINE
  5
2E6
100
AcDbEntity
  8
0
  6
CONTINUOUS
 62
             200
100
AcDbLine
 10
2.0
 20
2.8342857142857127
 30
0.0
 11
2.0000000000000426
 21
-3.3514132448520257
 31
0.0
  0
ENDBLK
  5
2E7
100
AcDbEntity
  8
0
100
AcDbBlockEnd
  0
ENDSEC
  0
SECTION
  2
ENTITIES
  0
INSERT
  5
2E8
100
AcDbEntity
  8
0
  6
ByBlock
100
AcDbBlockReference
  2
AFDPGL-14-JA-11
 10
60.0
 20
-90.0
 30
0.0
  0
INSERT
  5
2E9
100
AcDbEntity
  8
0
  6
ByBlock
100
AcDbBlockReference
  2
AFDPGL-14-JA-10
 10
10.0
 20
-120.0
 30
0.0
 50
359.99798093282908
  0
INSERT
  5
2EA
100
AcDbEntity
  8
0
  6
ByBlock
100
AcDbBlockReference
  2
AFDPGL-14-JA-9
 10
60.0
 20
-120.0
 30
0.0
  0
INSERT
  5
2EB
100
AcDbEntity
  8
0
  6
ByBlock
100
AcDbBlockReference
  2
AFDPGL-14-JA-8
 10
-90.0
 20
-90.0
 30
0.0
 50
0.0001128082386941
  0
INSERT
  5
2EC
100
AcDbEntity
  8
0
  6
ByBlock
100
AcDbBlockReference
  2
AFDPGL-14-JA-7
 10
-140.0
 20
-120.0
 30
0.0
 50
0.0005826972317193
  0
INSERT
  5
2ED
100
AcDbEntity
  8
0
  6
ByBlock
100
AcDbBlockReference
  2
AFDPGL-14-JA-6
 10
-90.0
 20
-120.0
 30
0.0
  0
INSERT
  5
2EE
100
AcDbEntity
  8
0
  6
ByBlock
100
AcDbBlockReference
  2
AFDPGL-14-JA-5
 10
0.0
 20
-30.0
 30
0.0
  0
INSERT
  5
2EF
100
AcDbEntity
  8
0
  6
ByBlock
100
AcDbBlockReference
  2
AFDPGL-14-JA-4
 10
0.0
 20
100.0
 30
0.0
  0
INSERT
  5
2F0
100
AcDbEntity
  8
0
  6
ByBlock
100
AcDbBlockReference
  2
AFDPGL-14-JA-3
 10
120.0
 20
20.0
 30
0.0
  0
INSERT
  5
2F1
100
AcDbEntity
  8
0
  6
ByBlock
100
AcDbBlockReference
  2
AFDPGL-14-JA-2
 10
-120.0
 20
20.0
 30
0.0
  0
INSERT
  5
2F2
100
AcDbEntity
  8
0
  6
ByBlock
100
AcDbBlockReference
  2
AFDPGL-14-JA-1
 10
0.0
 20
20.0
 30
0.0
  0
LINE
  5
2F3
100
AcDbEntity
  8
0
  6
CONTINUOUS
 62
               7
100
AcDbLine
 10
-104.25
 20
132.60000610351562
 30
0.0
 11
-104.25
 21
117.60000610351562
 31
0.0
  0
MTEXT
  5
2F4
100
AcDbEntity
  8
0
  6
CONTINUOUS
 62
               7
100
AcDbMText
 10
-191.18416030627154
 20
125.10000610351562
 30
0.0
 40
4.5
 41
0.0
 71
               4
 72
               1
  1
\W1.088;\A1;FLAT TYPE AIR HANDS
  0
LINE
  5
2F5
100
AcDbEntity
  8
0
  6
CONTINUOUS
 62
               7
100
AcDbLine
 10
-194.25
 20
117.60000610351562
 30
0.0
 11
-104.25
 21
117.60000610351562
 31
0.0
  0
MTEXT
  5
2F6
100
AcDbEntity
  8
0
  6
CONTINUOUS
 62
               7
100
AcDbMText
 10
-16.60666195310813
 20
-70.764396550855338
 30
0.0
 40
4.5
 41
0.0
 71
               1
 72
               1
  1
\A1;ZE235
  0
MTEXT
  5
2F7
100
AcDbEntity
  8
0
  6
CONTINUOUS
 62
               7
100
AcDbMText
 10
-16.60666195310813
 20
-77.707459252403439
 30
0.0
 40
4.5
 41
0.0
 71
               1
 72
               1
  1
\A1;ZE255
  0
LINE
  5
2F8
100
AcDbEntity
  8
0
  6
CONTINUOUS
 62
               7
100
AcDbLine
 10
-20.198768460575707
 20
-66.975000000000023
 30
0.0
 11
-20.198768460575707
 21
-133.4267309136421
 31
0.0
  0
MTEXT
  5
2F9
100
AcDbEntity
  8
0
  6
CONTINUOUS
 62
               7
100
AcDbMText
 10
-189.97646052993406
 20
-70.764396550855338
 30
0.0
 40
4.5
 41
0.0
 71
               1
 72
               1
  1
\W1.071;\A1;ZE135
  0
MTEXT
  5
2FA
100
AcDbEntity
  8
0
  6
CONTINUOUS
 62
               7
100
AcDbMText
 10
-189.97646052993406
 20
-77.707459252403439
 30
0.0
 40
4.5
 41
0.0
 71
               1
 72
               1
  1
\W1.071;\A1;ZE155
  0
LINE
  5
2FB
100
AcDbEntity
  8
0
  6
CONTINUOUS
 62
               7
100
AcDbLine
 10
-194.25
 20
-66.975000000000023
 30
0.0
 11
194.80000001192093
 21
-66.975000000000023
 31
0.0
  0
MTEXT
  5
2FC
100
AcDbEntity
  8
0
  6
CONTINUOUS
 62
               7
100
AcDbMText
 10
-185.70588235433334
 20
107.60000610351562
 30
0.0
 40
4.5
 41
0.0
 71
               4
 72
               1
  1
\W1.059;\A1;MODEL:AFDPGL-14-JA
  0
LINE
  5
2FD
100
AcDbEntity
  8
0
  6
CONTINUOUS
 62
               7
100
AcDbLine
 10
-194.25
 20
132.60000610351562
 30
0.0
 11
194.80000305175781
 21
132.60000610351562
 31
0.0
  0
LINE
  5
2FE
100
AcDbEntity
  8
0
  6
CONTINUOUS
 62
               7
100
AcDbLine
 10
194.80000305175781
 20
132.60000610351562
 30
0.0
 11
194.80000305175781
 21
-133.5
 31
0.0
  0
LINE
  5
2FF
100
AcDbEntity
  8
0
  6
CONTINUOUS
 62
               7
100
AcDbLine
 10
-194.25
 20
132.60000610351562
 30
0.0
 11
-194.25
 21
-133.5
 31
0.0
  0
LINE
  5
300
100
AcDbEntity
  8
0
  6
CONTINUOUS
 62
               7
100
AcDbLine
 10
-194.25
 20
-133.5
 30
0.0
 11
194.80000305175781
 21
-133.5
 31
0.0
  0
LINE
  5
301
100
AcDbEntity
  8
0
  6
CONTINUOUS
 62
               7
100
AcDbLine
 10
109.80000305175781
 20
-118.5
 30
0.0
 11
109.80000305175781
 21
-133.5
 31
0.0
  0
LINE
  5
302
100
AcDbEntity
  8
0
  6
CONTINUOUS
 62
               7
100
AcDbLine
 10
109.80000305175781
 20
-118.5
 30
0.0
 11
194.80000305175781
 21
-118.5
 31
0.0
  0
LINE
  5
303
100
AcDbEntity
  8
0
  6
CONTINUOUS
 62
               7
100
AcDbLine
 10
109.80000305175781
 20
132.60000610351562
 30
0.0
 11
109.80000305175781
 21
117.60000610351562
 31
0.0
  0
LINE
  5
304
100
AcDbEntity
  8
0
  6
CONTINUOUS
 62
               7
100
AcDbLine
 10
109.80000305175781
 20
117.60000610351562
 30
0.0
 11
194.80000305175781
 21
117.60000610351562
 31
0.0
  0
MTEXT
  5
305
100
AcDbEntity
  8
0
  6
CONTINUOUS
 62
               7
100
AcDbMText
 10
135.31123898988298
 20
125.10000610351562
 30
0.0
 40
4.5
 41
0.0
 71
               4
 72
               1
  1
\W1.348;\A1;Ver. 1.1
  0
MTEXT
  5
306
100
AcDbEntity
  8
0
  6
CONTINUOUS
 62
               7
100
AcDbMText
 10
115.5267259825148
 20
-126.0
 30
0.0
 40
6.3000001907348633
 41
0.0
 71
               4
 72
               1
  1
\W1.121;\A1;KOGANEI CORP.
  0
ENDSEC
  0
SECTION
  2
OBJECTS
  0
DICTIONARY
  5
19
100
AcDbDictionary
  3
ACAD_GROUP
350
1A
  3
ACAD_MLINESTYLE
350
1B
  0
DICTIONARY
  5
1A
102
{ACAD_REACTORS
330
19
102
}
100
AcDbDictionary
  0
DICTIONARY
  5
1B
102
{ACAD_REACTORS
330
19
102
}
100
AcDbDictionary
  3
STANDARD
350
1C
  0
MLINESTYLE
  5
1C
102
{ACAD_REACTORS
330
1B
102
}
100
AcDbMlineStyle
  2
Standard
 70
               0
  3

 62
               0
 51
90.0
 52
90.0
 71
               2
 49
0.5
 62
             256
  6
ByLayer
 49
-0.5
 62
             256
  6
ByLayer
  0
ENDSEC
  0
EOF
