  0
SECTION
  2
HEADER
  9
$ACADVER
  1
AC1015
  9
$ACADMAINTVER
 70
    20
  9
$DWGCODEPAGE
  3
ANSI_932
  9
$INSBASE
 10
0.0
 20
0.0
 30
0.0
  9
$EXTMIN
 10
-194.25
 20
-133.5
 30
0.0
  9
$EXTMAX
 10
195.0953083914834
 20
132.6000061035156
 30
0.0
  9
$LIMMIN
 10
-194.25
 20
-133.5
  9
$LIMMAX
 10
196.2500042915344
 20
132.6000061035156
  9
$ORTHOMODE
 70
     0
  9
$REGENMODE
 70
     1
  9
$FILLMODE
 70
     1
  9
$QTEXTMODE
 70
     0
  9
$MIRRTEXT
 70
     1
  9
$LTSCALE
 40
1.0
  9
$ATTMODE
 70
     1
  9
$TEXTSIZE
 40
3.200000047683715
  9
$TRACEWID
 40
0.05
  9
$TEXTSTYLE
  7
MX_NOTE_STANDARD
  9
$CLAYER
  8
0
  9
$CELTYPE
  6
CONTINUOUS
  9
$CECOLOR
 62
   256
  9
$CELTSCALE
 40
1.0
  9
$DISPSILH
 70
     0
  9
$DIMSCALE
 40
1.0
  9
$DIMASZ
 40
2.5
  9
$DIMEXO
 40
1.5
  9
$DIMDLI
 40
3.75
  9
$DIMRND
 40
0.0
  9
$DIMDLE
 40
0.0
  9
$DIMEXE
 40
1.5
  9
$DIMTP
 40
0.0
  9
$DIMTM
 40
0.0
  9
$DIMTXT
 40
3.200000047683715
  9
$DIMCEN
 40
2.5
  9
$DIMTSZ
 40
0.0
  9
$DIMTOL
 70
     0
  9
$DIMLIM
 70
     0
  9
$DIMTIH
 70
     0
  9
$DIMTOH
 70
     0
  9
$DIMSE1
 70
     0
  9
$DIMSE2
 70
     0
  9
$DIMTAD
 70
     1
  9
$DIMZIN
 70
     8
  9
$DIMBLK
  1

  9
$DIMASO
 70
     1
  9
$DIMSHO
 70
     1
  9
$DIMPOST
  1

  9
$DIMAPOST
  1

  9
$DIMALT
 70
     0
  9
$DIMALTD
 70
     4
  9
$DIMALTF
 40
0.03937007874016
  9
$DIMLFAC
 40
1.0
  9
$DIMTOFL
 70
     1
  9
$DIMTVP
 40
0.0
  9
$DIMTIX
 70
     0
  9
$DIMSOXD
 70
     0
  9
$DIMSAH
 70
     0
  9
$DIMBLK1
  1

  9
$DIMBLK2
  1

  9
$DIMSTYLE
  2
MXDIMSTYLE
  9
$DIMCLRD
 70
     0
  9
$DIMCLRE
 70
     0
  9
$DIMCLRT
 70
     0
  9
$DIMTFAC
 40
1.0
  9
$DIMGAP
 40
1.0
  9
$DIMJUST
 70
     0
  9
$DIMSD1
 70
     0
  9
$DIMSD2
 70
     0
  9
$DIMTOLJ
 70
     1
  9
$DIMTZIN
 70
     0
  9
$DIMALTZ
 70
     0
  9
$DIMALTTZ
 70
     0
  9
$DIMUPT
 70
     1
  9
$DIMDEC
 70
     4
  9
$DIMTDEC
 70
     4
  9
$DIMALTU
 70
     2
  9
$DIMALTTD
 70
     4
  9
$DIMTXSTY
  7
MX_NOTE_STANDARD
  9
$DIMAUNIT
 70
     0
  9
$DIMADEC
 70
     0
  9
$DIMALTRND
 40
0.0
  9
$DIMAZIN
 70
     0
  9
$DIMDSEP
 70
    46
  9
$DIMATFIT
 70
     3
  9
$DIMFRAC
 70
     0
  9
$DIMLDRBLK
  1

  9
$DIMLUNIT
 70
     2
  9
$DIMLWD
 70
    -2
  9
$DIMLWE
 70
    -2
  9
$DIMTMOVE
 70
     0
  9
$LUNITS
 70
     2
  9
$LUPREC
 70
     4
  9
$SKETCHINC
 40
0.1
  9
$FILLETRAD
 40
0.0
  9
$AUNITS
 70
     0
  9
$AUPREC
 70
     0
  9
$MENU
  1
acad
  9
$ELEVATION
 40
0.0
  9
$PELEVATION
 40
0.0
  9
$THICKNESS
 40
0.0
  9
$LIMCHECK
 70
     0
  9
$CHAMFERA
 40
0.0
  9
$CHAMFERB
 40
0.0
  9
$CHAMFERC
 40
0.0
  9
$CHAMFERD
 40
0.0
  9
$SKPOLY
 70
     0
  9
$TDCREATE
 40
2453690.590775463
  9
$TDUCREATE
 40
2453690.215775463
  9
$TDUPDATE
 40
2454159.477035660
  9
$TDUUPDATE
 40
2454159.102035660
  9
$TDINDWG
 40
0.0004045370
  9
$TDUSRTIMER
 40
0.0004045370
  9
$USRTIMER
 70
     1
  9
$ANGBASE
 50
0.0
  9
$ANGDIR
 70
     0
  9
$PDMODE
 70
     0
  9
$PDSIZE
 40
0.0
  9
$PLINEWID
 40
0.0
  9
$SPLFRAME
 70
     0
  9
$SPLINETYPE
 70
     6
  9
$SPLINESEGS
 70
     8
  9
$HANDSEED
  5
2B3
  9
$SURFTAB1
 70
     6
  9
$SURFTAB2
 70
     6
  9
$SURFTYPE
 70
     6
  9
$SURFU
 70
     6
  9
$SURFV
 70
     6
  9
$UCSBASE
  2

  9
$UCSNAME
  2

  9
$UCSORG
 10
0.0
 20
0.0
 30
0.0
  9
$UCSXDIR
 10
1.0
 20
0.0
 30
0.0
  9
$UCSYDIR
 10
0.0
 20
1.0
 30
0.0
  9
$UCSORTHOREF
  2

  9
$UCSORTHOVIEW
 70
     0
  9
$UCSORGTOP
 10
0.0
 20
0.0
 30
0.0
  9
$UCSORGBOTTOM
 10
0.0
 20
0.0
 30
0.0
  9
$UCSORGLEFT
 10
0.0
 20
0.0
 30
0.0
  9
$UCSORGRIGHT
 10
0.0
 20
0.0
 30
0.0
  9
$UCSORGFRONT
 10
0.0
 20
0.0
 30
0.0
  9
$UCSORGBACK
 10
0.0
 20
0.0
 30
0.0
  9
$PUCSBASE
  2

  9
$PUCSNAME
  2

  9
$PUCSORG
 10
0.0
 20
0.0
 30
0.0
  9
$PUCSXDIR
 10
1.0
 20
0.0
 30
0.0
  9
$PUCSYDIR
 10
0.0
 20
1.0
 30
0.0
  9
$PUCSORTHOREF
  2

  9
$PUCSORTHOVIEW
 70
     0
  9
$PUCSORGTOP
 10
0.0
 20
0.0
 30
0.0
  9
$PUCSORGBOTTOM
 10
0.0
 20
0.0
 30
0.0
  9
$PUCSORGLEFT
 10
0.0
 20
0.0
 30
0.0
  9
$PUCSORGRIGHT
 10
0.0
 20
0.0
 30
0.0
  9
$PUCSORGFRONT
 10
0.0
 20
0.0
 30
0.0
  9
$PUCSORGBACK
 10
0.0
 20
0.0
 30
0.0
  9
$USERI1
 70
     0
  9
$USERI2
 70
     0
  9
$USERI3
 70
     0
  9
$USERI4
 70
     0
  9
$USERI5
 70
     0
  9
$USERR1
 40
0.0
  9
$USERR2
 40
0.0
  9
$USERR3
 40
0.0
  9
$USERR4
 40
0.0
  9
$USERR5
 40
0.0
  9
$WORLDVIEW
 70
     1
  9
$SHADEDGE
 70
     3
  9
$SHADEDIF
 70
    70
  9
$TILEMODE
 70
     1
  9
$MAXACTVP
 70
    16
  9
$PINSBASE
 10
0.0
 20
0.0
 30
0.0
  9
$PLIMCHECK
 70
     0
  9
$PEXTMIN
 10
1.000000000000000E+20
 20
1.000000000000000E+20
 30
1.000000000000000E+20
  9
$PEXTMAX
 10
-1.000000000000000E+20
 20
-1.000000000000000E+20
 30
-1.000000000000000E+20
  9
$PLIMMIN
 10
0.0
 20
0.0
  9
$PLIMMAX
 10
12.0
 20
9.0
  9
$UNITMODE
 70
     0
  9
$VISRETAIN
 70
     0
  9
$PLINEGEN
 70
     1
  9
$PSLTSCALE
 70
     0
  9
$TREEDEPTH
 70
  3020
  9
$CMLSTYLE
  2
STANDARD
  9
$CMLJUST
 70
     0
  9
$CMLSCALE
 40
1.0
  9
$PROXYGRAPHICS
 70
     1
  9
$MEASUREMENT
 70
     0
  9
$CELWEIGHT
370
    -1
  9
$ENDCAPS
280
     0
  9
$JOINSTYLE
280
     0
  9
$LWDISPLAY
290
     0
  9
$INSUNITS
 70
     0
  9
$HYPERLINKBASE
  1

  9
$STYLESHEET
  1

  9
$XEDIT
290
     1
  9
$CEPSNTYPE
380
     0
  9
$PSTYLEMODE
290
     1
  9
$FINGERPRINTGUID
  2
{7F88C008-1F96-4A08-9C8B-E3F32B8CD189}
  9
$VERSIONGUID
  2
{ADF2762E-27D4-4250-881E-1C9F29B28C7B}
  9
$EXTNAMES
290
     1
  9
$PSVPSCALE
 40
0.0
  9
$OLESTARTUP
290
     0
  0
ENDSEC
  0
SECTION
  2
CLASSES
  0
CLASS
  1
IMAGE
  2
AcDbRasterImage
  3
ISM
 90
    32895
280
     0
281
     1
  0
CLASS
  1
DICTIONARYVAR
  2
AcDbDictionaryVar
  3
ObjectDBX Classes
 90
        0
280
     0
281
     0
  0
CLASS
  1
RASTERVARIABLES
  2
AcDbRasterVariables
  3
ISM
 90
    32768
280
     0
281
     0
  0
CLASS
  1
IMAGEDEF
  2
AcDbRasterImageDef
  3
ISM
 90
    32768
280
     0
281
     0
  0
CLASS
  1
IMAGEDEF_REACTOR
  2
AcDbRasterImageDefReactor
  3
ISM
 90
    32769
280
     0
281
     0
  0
CLASS
  1
IDBUFFER
  2
AcDbIdBuffer
  3
ObjectDBX Classes
 90
    32768
280
     0
281
     0
  0
CLASS
  1
SPATIAL_FILTER
  2
AcDbSpatialFilter
  3
ObjectDBX Classes
 90
    32768
280
     0
281
     0
  0
CLASS
  1
SORTENTSTABLE
  2
AcDbSortentsTable
  3
ObjectDBX Classes
 90
    32768
280
     0
281
     0
  0
CLASS
  1
LAYER_INDEX
  2
AcDbLayerIndex
  3
ObjectDBX Classes
 90
    32768
280
     0
281
     0
  0
CLASS
  1
SPATIAL_INDEX
  2
AcDbSpatialIndex
  3
ObjectDBX Classes
 90
    32768
280
     0
281
     0
  0
CLASS
  1
OBJECT_PTR
  2
CAseDLPNTableRecord
  3
"ASE-LPNTableRecord"
 90
    32768
280
     0
281
     0
  0
CLASS
  1
LAYOUT
  2
AcDbLayout
  3
ObjectDBX Classes
 90
        0
280
     0
281
     0
  0
CLASS
  1
PLOTSETTINGS
  2
AcDbPlotSettings
  3
ObjectDBX Classes
 90
    32768
280
     0
281
     0
  0
CLASS
  1
ACDBDICTIONARYWDFLT
  2
AcDbDictionaryWithDefault
  3
ObjectDBX Classes
 90
        0
280
     0
281
     0
  0
CLASS
  1
ACDBPLACEHOLDER
  2
AcDbPlaceHolder
  3
ObjectDBX Classes
 90
        0
280
     0
281
     0
  0
CLASS
  1
TABLESTYLE
  2
AcDbTableStyle
  3
ObjectDBX Classes
 90
     2047
280
     0
281
     0
  0
ENDSEC
  0
SECTION
  2
TABLES
  0
TABLE
  2
VPORT
  5
7
330
0
100
AcDbSymbolTable
 70
     2
  0
VPORT
  5
2AD
330
7
100
AcDbSymbolTableRecord
100
AcDbViewportTableRecord
  2
*Active
 70
     0
 10
0.0
 20
0.0
 11
1.0
 21
1.0
 12
1.000002145767183
 22
62.64952490190316
 13
0.0
 23
0.0
 14
1.0
 24
1.0
 15
0.0
 25
0.0
 16
0.0
 26
0.0
 36
1.0
 17
0.0
 27
0.0
 37
0.0
 40
394.9600498648415
 41
1.178619756427604
 42
50.0
 43
0.0
 44
0.0
 50
0.0
 51
0.0
 71
     0
 72
   100
 73
     1
 74
     1
 75
     0
 76
     0
 77
     0
 78
     0
281
     0
 65
     1
110
0.0
120
0.0
130
0.0
111
1.0
121
0.0
131
0.0
112
0.0
122
1.0
132
0.0
 79
     0
146
0.0
  0
ENDTAB
  0
TABLE
  2
LTYPE
  5
4
330
0
100
AcDbSymbolTable
 70
     3
  0
LTYPE
  5
11
330
4
100
AcDbSymbolTableRecord
100
AcDbLinetypeTableRecord
  2
BYBLOCK
 70
     0
  3

 72
    65
 73
     0
 40
0.0
  0
LTYPE
  5
12
330
4
100
AcDbSymbolTableRecord
100
AcDbLinetypeTableRecord
  2
BYLAYER
 70
     0
  3

 72
    65
 73
     0
 40
0.0
  0
LTYPE
  5
13
330
4
100
AcDbSymbolTableRecord
100
AcDbLinetypeTableRecord
  2
CONTINUOUS
 70
     0
  3
Solid line
 72
    65
 73
     0
 40
0.0
  0
LTYPE
  5
32
330
4
100
AcDbSymbolTableRecord
100
AcDbLinetypeTableRecord
  2
PHANTOM
 70
     0
  3
Phantom ______  __  __  ______  __  __  ______
 72
    65
 73
     6
 40
30.0
 49
20.0
 74
     0
 49
-2.0
 74
     0
 49
2.0
 74
     0
 49
-2.0
 74
     0
 49
2.0
 74
     0
 49
-2.0
 74
     0
  0
LTYPE
  5
5D
330
4
100
AcDbSymbolTableRecord
100
AcDbLinetypeTableRecord
  2
CENTER
 70
     0
  3
Center ____ _ ____ _ ____ _ ____ _ ____ _ ____
 72
    65
 73
     4
 40
26.0
 49
20.0
 74
     0
 49
-2.0
 74
     0
 49
2.0
 74
     0
 49
-2.0
 74
     0
  0
ENDTAB
  0
TABLE
  2
LAYER
  5
2
330
0
100
AcDbSymbolTable
 70
     2
  0
LAYER
  5
14
330
2
100
AcDbSymbolTableRecord
100
AcDbLayerTableRecord
  2
0
 70
     0
 62
     7
  6
CONTINUOUS
370
    -3
390
29D
  0
LAYER
  5
1D
330
2
100
AcDbSymbolTableRecord
100
AcDbLayerTableRecord
  2
DEFPOINTS
 70
     0
 62
     7
  6
CONTINUOUS
290
     0
370
    -3
390
29D
  0
ENDTAB
  0
TABLE
  2
STYLE
  5
3
330
0
100
AcDbSymbolTable
 70
     2
  0
STYLE
  5
17
330
3
100
AcDbSymbolTableRecord
100
AcDbTextStyleTableRecord
  2
MX_NOTE_STANDARD
 70
     0
 40
0.0
 41
1.0
 50
0.0
 71
     0
 42
3.200000047683715
  3
txt.shx
  4
extfont.shx
  0
STYLE
  5
29B
330
3
100
AcDbSymbolTableRecord
100
AcDbTextStyleTableRecord
  2
Standard
 70
     0
 40
0.0
 41
1.0
 50
0.0
 71
     0
 42
0.2
  3

  4

  0
ENDTAB
  0
TABLE
  2
VIEW
  5
5
330
0
100
AcDbSymbolTable
 70
     0
  0
ENDTAB
  0
TABLE
  2
UCS
  5
6
330
0
100
AcDbSymbolTable
 70
     0
  0
ENDTAB
  0
TABLE
  2
APPID
  5
8
330
0
100
AcDbSymbolTable
 70
     1
  0
APPID
  5
16
330
8
100
AcDbSymbolTableRecord
100
AcDbRegAppTableRecord
  2
ACAD
 70
     0
  0
ENDTAB
  0
TABLE
  2
DIMSTYLE
  5
9
330
0
100
AcDbSymbolTable
 70
     1
100
AcDbDimStyleTable
 71
     0
  0
DIMSTYLE
105
18
330
9
100
AcDbSymbolTableRecord
100
AcDbDimStyleTableRecord
  2
MXDIMSTYLE
 70
     0
 41
2.5
 42
1.5
 43
3.75
 44
1.5
 73
     0
 74
     0
 77
     1
 78
     8
140
3.200000047683715
141
2.5
143
0.03937007874016
147
1.0
171
     4
172
     1
274
     4
288
     1
340
17
  0
ENDTAB
  0
TABLE
  2
BLOCK_RECORD
  5
1
330
0
100
AcDbSymbolTable
 70
    11
  0
BLOCK_RECORD
  5
A
330
1
100
AcDbSymbolTableRecord
100
AcDbBlockTableRecord
  2
*MODEL_SPACE
340
2A4
  0
BLOCK_RECORD
  5
B
330
1
100
AcDbSymbolTableRecord
100
AcDbBlockTableRecord
  2
*PAPER_SPACE
340
2A5
  0
BLOCK_RECORD
  5
1E
330
1
100
AcDbSymbolTableRecord
100
AcDbBlockTableRecord
  2
AFDPGH-8-JA-1
340
0
102
{BLKREFS
331
281
102
}
  0
BLOCK_RECORD
  5
1F
330
1
100
AcDbSymbolTableRecord
100
AcDbBlockTableRecord
  2
AFDPGH-8-JA-2
340
0
102
{BLKREFS
331
280
102
}
  0
BLOCK_RECORD
  5
20
330
1
100
AcDbSymbolTableRecord
100
AcDbBlockTableRecord
  2
AFDPGH-8-JA-3
340
0
102
{BLKREFS
331
27F
102
}
  0
BLOCK_RECORD
  5
21
330
1
100
AcDbSymbolTableRecord
100
AcDbBlockTableRecord
  2
AFDPGH-8-JA-4
340
0
102
{BLKREFS
331
27E
102
}
  0
BLOCK_RECORD
  5
22
330
1
100
AcDbSymbolTableRecord
100
AcDbBlockTableRecord
  2
AFDPGH-8-JA-5
340
0
102
{BLKREFS
331
27D
102
}
  0
BLOCK_RECORD
  5
23
330
1
100
AcDbSymbolTableRecord
100
AcDbBlockTableRecord
  2
AFDPGH-8-JA-6
340
0
102
{BLKREFS
331
27C
102
}
  0
BLOCK_RECORD
  5
24
330
1
100
AcDbSymbolTableRecord
100
AcDbBlockTableRecord
  2
AFDPGH-8-JA-7
340
0
102
{BLKREFS
331
27B
102
}
  0
BLOCK_RECORD
  5
25
330
1
100
AcDbSymbolTableRecord
100
AcDbBlockTableRecord
  2
AFDPGH-8-JA-8
340
0
102
{BLKREFS
331
27A
102
}
  0
BLOCK_RECORD
  5
26
330
1
100
AcDbSymbolTableRecord
100
AcDbBlockTableRecord
  2
AFDPGH-8-JA-9
340
0
102
{BLKREFS
331
279
102
}
  0
BLOCK_RECORD
  5
27
330
1
100
AcDbSymbolTableRecord
100
AcDbBlockTableRecord
  2
AFDPGH-8-JA-10
340
0
102
{BLKREFS
331
278
102
}
  0
BLOCK_RECORD
  5
28
330
1
100
AcDbSymbolTableRecord
100
AcDbBlockTableRecord
  2
AFDPGH-8-JA-11
340
0
102
{BLKREFS
331
277
102
}
  0
ENDTAB
  0
ENDSEC
  0
SECTION
  2
BLOCKS
  0
BLOCK
  5
D
330
A
100
AcDbEntity
  8
0
100
AcDbBlockBegin
  2
*MODEL_SPACE
 70
     0
 10
0.0
 20
0.0
 30
0.0
  3
*MODEL_SPACE
  1

  0
ENDBLK
  5
E
330
A
100
AcDbEntity
  8
0
100
AcDbBlockEnd
  0
BLOCK
  5
F
330
B
100
AcDbEntity
 67
     1
  8
0
100
AcDbBlockBegin
  2
*PAPER_SPACE
 70
     0
 10
0.0
 20
0.0
 30
0.0
  3
*PAPER_SPACE
  1

  0
ENDBLK
  5
10
330
B
100
AcDbEntity
 67
     1
  8
0
100
AcDbBlockEnd
  0
BLOCK
  5
29
330
1E
100
AcDbEntity
  8
0
100
AcDbBlockBegin
  2
AFDPGH-8-JA-1
 70
     0
 10
0.0
 20
0.0
 30
0.0
  3
AFDPGH-8-JA-1
  1

  0
LINE
  5
2A
330
1E
100
AcDbEntity
  8
0
  6
Continuous
 62
     7
100
AcDbLine
 10
-8.999999523523115
 20
23.49999898672104
 30
0.0
 11
-8.999999523523115
 21
17.50000470876693
 31
0.0
  0
LINE
  5
2B
330
1E
100
AcDbEntity
  8
0
  6
Continuous
 62
     7
100
AcDbLine
 10
-7.999999523523115
 20
23.49999898672104
 30
0.0
 11
-7.999999523523115
 21
17.50000470876693
 31
0.0
  0
LINE
  5
2C
330
1E
100
AcDbEntity
  8
0
  6
Continuous
 62
     7
100
AcDbLine
 10
20.29999637567732
 20
23.50001043081284
 30
0.0
 11
20.29999637567732
 21
17.50000470876693
 31
0.0
  0
LINE
  5
2D
330
1E
100
AcDbEntity
  8
0
  6
Continuous
 62
     7
100
AcDbLine
 10
21.29999637567733
 20
23.49999898672104
 30
0.0
 11
21.29999637567733
 21
17.50000470876693
 31
0.0
  0
LINE
  5
2E
330
1E
100
AcDbEntity
  8
0
  6
Continuous
 62
     7
100
AcDbLine
 10
-23.29999876022339
 20
23.49999898672104
 30
0.0
 11
-23.29999876022339
 21
17.50000470876693
 31
0.0
  0
LINE
  5
2F
330
1E
100
AcDbEntity
  8
0
  6
Continuous
 62
     7
100
AcDbLine
 10
-24.29999876022339
 20
23.49999898672104
 30
0.0
 11
-24.29999876022339
 21
17.50000470876693
 31
0.0
  0
LINE
  5
30
330
1E
100
AcDbEntity
  8
0
  6
Continuous
 62
     7
100
AcDbLine
 10
5.999997138977052
 20
23.50001043081284
 30
0.0
 11
5.999997138977052
 21
17.50000470876693
 31
0.0
  0
LINE
  5
31
330
1E
100
AcDbEntity
  8
0
  6
Continuous
 62
     7
100
AcDbLine
 10
4.999997138977052
 20
23.49999898672104
 30
0.0
 11
4.999997138977052
 21
17.50000470876693
 31
0.0
  0
LINE
  5
33
330
1E
100
AcDbEntity
  8
0
  6
PHANTOM
 62
     2
100
AcDbLine
 10
24.2999906539917
 20
23.50001043081284
 30
0.0
 11
24.2999906539917
 21
17.50000470876693
 31
0.0
  0
CIRCLE
  5
34
330
1E
100
AcDbEntity
  8
0
  6
Continuous
 62
     2
100
AcDbCircle
 10
18.14999675750732
 20
21.49999898672104
 30
0.0
 40
1.25
  0
CIRCLE
  5
35
330
1E
100
AcDbEntity
  8
0
  6
Continuous
 62
     2
100
AcDbCircle
 10
-11.14999949932098
 20
21.49999898672104
 30
0.0
 40
1.25
  0
CIRCLE
  5
36
330
1E
100
AcDbEntity
  8
0
  6
Continuous
 62
     2
100
AcDbCircle
 10
-21.14999723434448
 20
21.49999898672104
 30
0.0
 40
1.25
  0
CIRCLE
  5
37
330
1E
100
AcDbEntity
  8
0
  6
Continuous
 62
     2
100
AcDbCircle
 10
8.150000572204589
 20
21.49999898672104
 30
0.0
 40
1.25
  0
LINE
  5
38
330
1E
100
AcDbEntity
  8
0
  6
Continuous
 62
     7
100
AcDbLine
 10
4.999997138977052
 20
23.49999898672104
 30
0.0
 11
21.29999637567733
 21
23.49999898672104
 31
0.0
  0
LINE
  5
39
330
1E
100
AcDbEntity
  8
0
  6
PHANTOM
 62
     2
100
AcDbLine
 10
18.67798137664795
 20
23.49999898672104
 30
0.0
 11
24.29997920989991
 21
23.49999898672104
 31
0.0
  0
LINE
  5
3A
330
1E
100
AcDbEntity
  8
0
  6
Continuous
 62
     7
100
AcDbLine
 10
-24.29999876022339
 20
23.49999898672104
 30
0.0
 11
-7.999999523523115
 21
23.49999898672104
 31
0.0
  0
LINE
  5
3B
330
1E
100
AcDbEntity
  8
0
  6
Continuous
 62
     7
100
AcDbLine
 10
26.5
 20
12.03110784292221
 30
0.0
 11
-26.5
 21
12.03110784292221
 31
0.0
  0
LINE
  5
3C
330
1E
100
AcDbEntity
  8
0
  6
Continuous
 62
     7
100
AcDbLine
 10
26.5
 20
7.031107366085052
 30
0.0
 11
-26.5
 21
7.031107366085052
 31
0.0
  0
LINE
  5
3D
330
1E
100
AcDbEntity
  8
0
  6
Continuous
 62
     7
100
AcDbLine
 10
26.49998092651367
 20
11.13110822439193
 30
0.0
 11
-26.5000228881836
 21
11.13110822439193
 31
0.0
  0
LINE
  5
3E
330
1E
100
AcDbEntity
  8
0
  6
Continuous
 62
     7
100
AcDbLine
 10
26.49998092651367
 20
7.93112176656723
 30
0.0
 11
-26.5000228881836
 21
7.93112176656723
 31
0.0
  0
LINE
  5
3F
330
1E
100
AcDbEntity
  8
0
  6
Continuous
 62
     7
100
AcDbLine
 10
26.5
 20
17.50000470876693
 30
0.0
 11
-26.5000228881836
 21
17.50000470876693
 31
0.0
  0
LINE
  5
40
330
1E
100
AcDbEntity
  8
0
  6
Continuous
 62
     7
100
AcDbLine
 10
26.5
 20
0.0
 30
0.0
 11
-26.5
 21
0.0
 31
0.0
  0
CIRCLE
  5
41
330
1E
100
AcDbEntity
  8
0
  6
Continuous
 62
     2
100
AcDbCircle
 10
-11.99999997231123
 20
14.50000353467421
 30
0.0
 40
1.5
  0
LINE
  5
42
330
1E
100
AcDbEntity
  8
0
  6
Continuous
 62
     7
100
AcDbLine
 10
-26.5
 20
17.50000470876693
 30
0.0
 11
-26.5
 21
0.0
 31
0.0
  0
LINE
  5
43
330
1E
100
AcDbEntity
  8
0
  6
Continuous
 62
     7
100
AcDbLine
 10
27.99999618530273
 20
7.159059273288527
 30
0.0
 11
27.99999618530273
 21
2.500005185604095
 31
0.0
  0
LINE
  5
44
330
1E
100
AcDbEntity
  8
0
  6
Continuous
 62
     7
100
AcDbLine
 10
26.5
 20
17.50000470876693
 30
0.0
 11
26.5
 21
0.0
 31
0.0
  0
LINE
  5
45
330
1E
100
AcDbEntity
  8
0
  6
Continuous
 62
     7
100
AcDbLine
 10
31.99999618530273
 20
12.50000566244125
 30
0.0
 11
31.99999618530273
 21
3.500005185604095
 31
0.0
  0
ARC
  5
46
330
1E
100
AcDbEntity
  8
0
  6
Continuous
 62
     7
100
AcDbCircle
 10
26.68748474121093
 20
5.750009953975677
 30
0.0
 40
5.312494754791259
100
AcDbArc
 50
334.9423445391626
 51
25.05754617781061
  0
LINE
  5
47
330
1E
100
AcDbEntity
  8
0
  6
Continuous
 62
     7
100
AcDbLine
 10
31.99998474121093
 20
3.500005185604095
 30
0.0
 11
27.99999618530273
 21
3.500005185604095
 31
0.0
  0
LINE
  5
48
330
1E
100
AcDbEntity
  8
0
  6
Continuous
 62
     7
100
AcDbLine
 10
27.99999618530273
 20
2.500005185604095
 30
0.0
 11
26.49998474121094
 21
2.500005185604095
 31
0.0
  0
ARC
  5
49
330
1E
100
AcDbEntity
  8
0
  6
Continuous
 62
     7
100
AcDbCircle
 10
26.68747711181641
 20
10.25001043081283
 30
0.0
 40
5.31250524520874
100
AcDbArc
 50
334.9423718599194
 51
25.05751885705393
  0
CIRCLE
  5
4A
330
1E
100
AcDbEntity
  8
0
  6
Continuous
 62
     2
100
AcDbCircle
 10
12.0
 20
14.50000470876693
 30
0.0
 40
1.5
  0
LINE
  5
4B
330
1E
100
AcDbEntity
  8
0
  6
Continuous
 62
     2
100
AcDbLine
 10
40.86971664410697
 20
8.000004708766937
 30
0.0
 11
28.33740600149504
 21
8.000004708766937
 31
0.0
  0
LINE
  5
4C
330
1E
100
AcDbEntity
  8
0
  6
Continuous
 62
     7
100
AcDbLine
 10
38.09996972543119
 20
10.50000470876693
 30
0.0
 11
31.99998092651367
 21
10.50000470876693
 31
0.0
  0
LINE
  5
4D
330
1E
100
AcDbEntity
  8
0
  6
Continuous
 62
     7
100
AcDbLine
 10
38.10000034196738
 20
5.500005185604096
 30
0.0
 11
31.99998092651367
 21
5.500005185604096
 31
0.0
  0
LINE
  5
4E
330
1E
100
AcDbEntity
  8
0
  6
Continuous
 62
     7
100
AcDbLine
 10
38.5
 20
10.09998245948508
 30
0.0
 11
38.5
 21
5.900004708766935
 31
0.0
  0
LINE
  5
4F
330
1E
100
AcDbEntity
  8
0
  6
Continuous
 62
     2
100
AcDbLine
 10
38.49999237060547
 20
10.06700470876693
 30
0.0
 11
31.99999618530273
 21
10.06700470876693
 31
0.0
  0
LINE
  5
50
330
1E
100
AcDbEntity
  8
0
  6
Continuous
 62
     7
100
AcDbLine
 10
31.99999618530273
 20
12.50000566244125
 30
0.0
 11
27.99999618530273
 21
12.50000566244125
 31
0.0
  0
LINE
  5
51
330
1E
100
AcDbEntity
  8
0
  6
Continuous
 62
     2
100
AcDbLine
 10
38.50001258043255
 20
5.933004708766937
 30
0.0
 11
31.99999618530273
 21
5.933004708766937
 31
0.0
  0
LINE
  5
52
330
1E
100
AcDbEntity
  8
0
  6
Continuous
 62
     7
100
AcDbLine
 10
27.99998474121093
 20
13.50000566244125
 30
0.0
 11
26.49998474121094
 21
13.50000566244125
 31
0.0
  0
LINE
  5
53
330
1E
100
AcDbEntity
  8
0
  6
Continuous
 62
     7
100
AcDbLine
 10
38.5
 20
5.900004708766935
 30
0.0
 11
38.10000034196738
 21
5.500005185604096
 31
0.0
  0
LINE
  5
54
330
1E
100
AcDbEntity
  8
0
  6
Continuous
 62
     7
100
AcDbLine
 10
38.5
 20
10.09998245948508
 30
0.0
 11
38.09996972543119
 21
10.50000470876693
 31
0.0
  0
LINE
  5
55
330
1E
100
AcDbEntity
  8
0
  6
Continuous
 62
     7
100
AcDbLine
 10
28.33740600149504
 20
8.000004708766937
 30
0.0
 11
31.49998462972793
 21
8.000004708766937
 31
0.0
  0
LINE
  5
56
330
1E
100
AcDbEntity
  8
0
  6
Continuous
 62
     7
100
AcDbLine
 10
27.99999618530273
 20
13.50000470876693
 30
0.0
 11
27.99999618530273
 21
11.84090484471532
 31
0.0
  0
LINE
  5
57
330
1E
100
AcDbEntity
  8
0
  6
Continuous
 62
     7
100
AcDbLine
 10
38.09996972543119
 20
10.50000470876693
 30
0.0
 11
38.09996972543119
 21
5.500005185604096
 31
0.0
  0
ARC
  5
58
330
1E
100
AcDbEntity
  8
0
  6
Continuous
 62
     7
100
AcDbCircle
 10
27.17520529031753
 20
7.886877954006195
 30
0.0
 40
1.100000023841857
100
AcDbArc
 50
273.0000606445687
 51
344.1328881707481
  0
ARC
  5
59
330
1E
100
AcDbEntity
  8
0
  6
Continuous
 62
     7
100
AcDbCircle
 10
27.17520529031753
 20
11.11308616399765
 30
0.0
 40
1.100000023841857
100
AcDbArc
 50
15.86711182925191
 51
86.99995301580964
  0
LINE
  5
5A
330
1E
100
AcDbEntity
  8
0
  6
Continuous
 62
     7
100
AcDbLine
 10
26.5
 20
12.24998182185187
 30
0.0
 11
27.23277328005337
 21
12.21157839952295
 31
0.0
  0
ARC
  5
5B
330
1E
100
AcDbEntity
  8
0
  6
Continuous
 62
     7
100
AcDbCircle
 10
21.50000381469727
 20
9.499981820583343
 30
0.0
 40
7.0
100
AcDbArc
 50
344.1328881707481
 51
15.86711182925191
  0
LINE
  5
5C
330
1E
100
AcDbEntity
  8
0
  6
Continuous
 62
     7
100
AcDbLine
 10
26.5
 20
6.74998183764189
 30
0.0
 11
27.23277483705534
 21
6.788385568454941
 31
0.0
  0
LINE
  5
5E
330
1E
100
AcDbEntity
  8
0
  6
CENTER
 62
     2
100
AcDbLine
 10
-30.00002956390381
 20
9.531107842922208
 30
0.0
 11
29.99999332427979
 21
9.531107842922208
 31
0.0
  0
CIRCLE
  5
5F
330
1E
100
AcDbEntity
  8
0
  6
Continuous
 62
     7
100
AcDbCircle
 10
18.14999675750732
 20
21.49999898672104
 30
0.0
 40
1.006499999999999
  0
CIRCLE
  5
60
330
1E
100
AcDbEntity
  8
0
  6
Continuous
 62
     7
100
AcDbCircle
 10
8.150000572204589
 20
21.49999898672104
 30
0.0
 40
1.006499999999999
  0
CIRCLE
  5
61
330
1E
100
AcDbEntity
  8
0
  6
Continuous
 62
     7
100
AcDbCircle
 10
-11.14999949932098
 20
21.49999898672104
 30
0.0
 40
1.006499999999999
  0
CIRCLE
  5
62
330
1E
100
AcDbEntity
  8
0
  6
Continuous
 62
     7
100
AcDbCircle
 10
-21.14999723434448
 20
21.49999898672104
 30
0.0
 40
1.006499999999999
  0
CIRCLE
  5
63
330
1E
100
AcDbEntity
  8
0
  6
Continuous
 62
     7
100
AcDbCircle
 10
12.0
 20
14.50000470876693
 30
0.0
 40
1.2295
  0
CIRCLE
  5
64
330
1E
100
AcDbEntity
  8
0
  6
Continuous
 62
     7
100
AcDbCircle
 10
-12.0
 20
14.50000470876693
 30
0.0
 40
1.2295
  0
LINE
  5
65
330
1E
100
AcDbEntity
  8
0
  6
Continuous
 62
     2
100
AcDbLine
 10
18.14999675750732
 20
19.49999898672104
 30
0.0
 11
18.14999675750732
 21
23.49999898672104
 31
0.0
  0
LINE
  5
66
330
1E
100
AcDbEntity
  8
0
  6
Continuous
 62
     2
100
AcDbLine
 10
16.14999675750732
 20
21.49999898672104
 30
0.0
 11
20.14999675750733
 21
21.49999898672104
 31
0.0
  0
LINE
  5
67
330
1E
100
AcDbEntity
  8
0
  6
Continuous
 62
     2
100
AcDbLine
 10
8.150000572204589
 20
19.49999898672104
 30
0.0
 11
8.150000572204589
 21
23.49999898672104
 31
0.0
  0
LINE
  5
68
330
1E
100
AcDbEntity
  8
0
  6
Continuous
 62
     2
100
AcDbLine
 10
6.150000572204591
 20
21.49999898672104
 30
0.0
 11
10.15000057220459
 21
21.49999898672104
 31
0.0
  0
LINE
  5
69
330
1E
100
AcDbEntity
  8
0
  6
Continuous
 62
     2
100
AcDbLine
 10
-11.14999949932098
 20
19.49999898672104
 30
0.0
 11
-11.14999949932098
 21
23.49999898672104
 31
0.0
  0
LINE
  5
6A
330
1E
100
AcDbEntity
  8
0
  6
Continuous
 62
     2
100
AcDbLine
 10
-13.14999949932098
 20
21.49999898672104
 30
0.0
 11
-9.149999499320982
 21
21.49999898672104
 31
0.0
  0
LINE
  5
6B
330
1E
100
AcDbEntity
  8
0
  6
Continuous
 62
     2
100
AcDbLine
 10
-21.14999723434448
 20
19.49999898672104
 30
0.0
 11
-21.14999723434448
 21
23.49999898672104
 31
0.0
  0
LINE
  5
6C
330
1E
100
AcDbEntity
  8
0
  6
Continuous
 62
     2
100
AcDbLine
 10
-23.14999723434448
 20
21.49999898672104
 30
0.0
 11
-19.14999723434448
 21
21.49999898672104
 31
0.0
  0
LINE
  5
6D
330
1E
100
AcDbEntity
  8
0
  6
Continuous
 62
     2
100
AcDbLine
 10
9.5
 20
14.50000470876693
 30
0.0
 11
14.5
 21
14.50000470876693
 31
0.0
  0
LINE
  5
6E
330
1E
100
AcDbEntity
  8
0
  6
Continuous
 62
     2
100
AcDbLine
 10
12.0
 20
12.00000470876693
 30
0.0
 11
12.0
 21
17.00000470876693
 31
0.0
  0
LINE
  5
6F
330
1E
100
AcDbEntity
  8
0
  6
Continuous
 62
     2
100
AcDbLine
 10
-14.5
 20
14.50000470876693
 30
0.0
 11
-9.499999999999998
 21
14.50000470876693
 31
0.0
  0
LINE
  5
70
330
1E
100
AcDbEntity
  8
0
  6
Continuous
 62
     2
100
AcDbLine
 10
-12.0
 20
12.00000470876693
 30
0.0
 11
-12.0
 21
17.00000470876693
 31
0.0
  0
LINE
  5
71
330
1E
100
AcDbEntity
  8
0
  6
Continuous
 62
     2
100
AcDbLine
 10
-16.14999914187325
 20
21.99999898672104
 30
0.0
 11
-16.14999914187325
 21
24.99999898672104
 31
0.0
  0
LINE
  5
72
330
1E
100
AcDbEntity
  8
0
  6
Continuous
 62
     2
100
AcDbLine
 10
13.14999675732719
 20
21.99999898672104
 30
0.0
 11
13.14999675732719
 21
24.99999898672104
 31
0.0
  0
LINE
  5
73
330
1E
100
AcDbEntity
  8
0
  6
Continuous
 62
     2
100
AcDbLine
 10
16.00000095349418
 20
16.00000470876693
 30
0.0
 11
16.00000095349418
 21
19.00000470876693
 31
0.0
  0
LINE
  5
74
330
1E
100
AcDbEntity
  8
0
  6
Continuous
 62
     2
100
AcDbLine
 10
-16.00000333804024
 20
16.00000470876693
 30
0.0
 11
-16.00000333804024
 21
19.00000470876693
 31
0.0
  0
LINE
  5
75
330
1E
100
AcDbEntity
  8
0
  6
Continuous
 62
     2
100
AcDbLine
 10
-19.99999155026625
 20
-1.5
 30
0.0
 11
-19.99999155026625
 21
1.5
 31
0.0
  0
LINE
  5
76
330
1E
100
AcDbEntity
  8
0
  6
Continuous
 62
     2
100
AcDbLine
 10
19.99999891299059
 20
-1.5
 30
0.0
 11
19.99999891299059
 21
1.5
 31
0.0
  0
LINE
  5
77
330
1E
100
AcDbEntity
  8
0
  6
Continuous
 62
     2
100
AcDbLine
 10
-15.99999155026624
 20
-1.5
 30
0.0
 11
-15.99999155026624
 21
1.5
 31
0.0
  0
LINE
  5
78
330
1E
100
AcDbEntity
  8
0
  6
Continuous
 62
     2
100
AcDbLine
 10
15.99999155026624
 20
-1.5
 30
0.0
 11
15.99999155026624
 21
1.5
 31
0.0
  0
LINE
  5
79
330
1E
100
AcDbEntity
  8
0
  6
CENTER
 62
     2
100
AcDbLine
 10
0.0
 20
-3.499999582767486
 30
0.0
 11
0.0
 21
26.50000041723251
 31
0.0
  0
ENDBLK
  5
7A
330
1E
100
AcDbEntity
  8
0
100
AcDbBlockEnd
  0
BLOCK
  5
7B
330
1F
100
AcDbEntity
  8
0
100
AcDbBlockBegin
  2
AFDPGH-8-JA-2
 70
     0
 10
0.0
 20
0.0
 30
0.0
  3
AFDPGH-8-JA-2
  1

  0
LINE
  5
7C
330
1F
100
AcDbEntity
  8
0
  6
Continuous
 62
     7
100
AcDbLine
 10
4.0
 20
20.9999994635582
 30
0.0
 11
-4.0
 21
20.9999994635582
 31
0.0
  0
LINE
  5
7D
330
1F
100
AcDbEntity
  8
0
  6
Continuous
 62
     7
100
AcDbLine
 10
4.0
 20
20.9999994635582
 30
0.0
 11
4.0
 21
17.00000900030136
 31
0.0
  0
LINE
  5
7E
330
1F
100
AcDbEntity
  8
0
  6
Continuous
 62
     7
100
AcDbLine
 10
3.5
 20
20.4999994635582
 30
0.0
 11
-3.5
 21
20.4999994635582
 31
0.0
  0
LINE
  5
7F
330
1F
100
AcDbEntity
  8
0
  6
Continuous
 62
     7
100
AcDbLine
 10
3.5
 20
20.4999994635582
 30
0.0
 11
3.5
 21
14.50002044439315
 31
0.0
  0
LINE
  5
80
330
1F
100
AcDbEntity
  8
0
  6
Continuous
 62
     7
100
AcDbLine
 10
8.5
 20
23.4999937415123
 30
0.0
 11
8.5
 21
16.99999946355819
 31
0.0
  0
LINE
  5
81
330
1F
100
AcDbEntity
  8
0
  6
Continuous
 62
     7
100
AcDbLine
 10
8.5
 20
23.4999937415123
 30
0.0
 11
-8.5
 21
23.4999937415123
 31
0.0
  0
CIRCLE
  5
82
330
1F
100
AcDbEntity
  8
0
  6
Continuous
 62
     2
100
AcDbCircle
 10
6.5
 20
9.500000417232511
 30
0.0
 40
1.5
  0
ARC
  5
83
330
1F
100
AcDbEntity
  8
0
  6
Continuous
 62
     7
100
AcDbCircle
 10
14.00000381469726
 20
9.500009953975677
 30
0.0
 40
2.5
100
AcDbArc
 50
39.79140420037031
 51
179.999991348578
  0
ARC
  5
84
330
1F
100
AcDbEntity
  8
0
  6
Continuous
 62
     7
100
AcDbCircle
 10
14.00000381469726
 20
9.500009953975677
 30
0.0
 40
2.5
100
AcDbArc
 50
180.0000359721787
 51
320.2078562239919
  0
ARC
  5
85
330
1F
100
AcDbEntity
  8
0
  6
Continuous
 62
     7
100
AcDbCircle
 10
-16.0
 20
9.500000417232511
 30
0.0
 40
2.5
100
AcDbArc
 50
219.7918593228986
 51
140.2083113484024
  0
CIRCLE
  5
86
330
1F
100
AcDbEntity
  8
0
  6
Continuous
 62
     7
100
AcDbCircle
 10
-7.0
 20
7.499999463558197
 30
0.0
 40
6.5
  0
CIRCLE
  5
87
330
1F
100
AcDbEntity
  8
0
  6
Continuous
 62
     7
100
AcDbCircle
 10
6.5
 20
9.500000417232511
 30
0.0
 40
4.5
  0
CIRCLE
  5
88
330
1F
100
AcDbEntity
  8
0
  6
Continuous
 62
     2
100
AcDbCircle
 10
-7.0
 20
7.499999463558197
 30
0.0
 40
1.5
  0
CIRCLE
  5
89
330
1F
100
AcDbEntity
  8
0
  6
Continuous
 62
     7
100
AcDbCircle
 10
6.5
 20
9.500000417232511
 30
0.0
 40
2.600000143051147
  0
CIRCLE
  5
8A
330
1F
100
AcDbEntity
  8
0
  6
Continuous
 62
     7
100
AcDbCircle
 10
-6.999984741210937
 20
7.500009953975676
 30
0.0
 40
3.5
  0
LINE
  5
8B
330
1F
100
AcDbEntity
  8
0
  6
Continuous
 62
     7
100
AcDbLine
 10
19.00000381469726
 20
17.49999946355819
 30
0.0
 11
9.5
 21
17.49999946355819
 31
0.0
  0
LINE
  5
8C
330
1F
100
AcDbEntity
  8
0
  6
Continuous
 62
     7
100
AcDbLine
 10
-8.5
 20
23.4999937415123
 30
0.0
 11
-8.5
 21
16.99999946355819
 31
0.0
  0
LINE
  5
8D
330
1F
100
AcDbEntity
  8
0
  6
Continuous
 62
     7
100
AcDbLine
 10
19.00000381469726
 20
17.49999946355819
 30
0.0
 11
19.00000381469726
 21
12.00000041723251
 31
0.0
  0
LINE
  5
8E
330
1F
100
AcDbEntity
  8
0
  6
Continuous
 62
     7
100
AcDbLine
 10
-19.0
 20
17.49999946355819
 30
0.0
 11
-19.0
 21
11.09999603033066
 31
0.0
  0
LINE
  5
8F
330
1F
100
AcDbEntity
  8
0
  6
Continuous
 62
     7
100
AcDbLine
 10
19.00000381469726
 20
6.999999940395355
 30
0.0
 11
19.00000381469726
 21
0.0
 31
0.0
  0
LINE
  5
90
330
1F
100
AcDbEntity
  8
0
  6
Continuous
 62
     7
100
AcDbLine
 10
19.00000381469726
 20
0.0
 30
0.0
 11
-19.0
 21
0.0
 31
0.0
  0
LINE
  5
91
330
1F
100
AcDbEntity
  8
0
  6
Continuous
 62
     2
100
AcDbLine
 10
18.75458908081055
 20
9.500000417232511
 30
0.0
 11
-2.392317898161294
 21
9.500000417232511
 31
0.0
  0
LINE
  5
92
330
1F
100
AcDbEntity
  8
0
  6
Continuous
 62
     7
100
AcDbLine
 10
17.00000381469726
 20
11.09999603033066
 30
0.0
 11
15.92095268321777
 21
11.09999603033066
 31
0.0
  0
LINE
  5
93
330
1F
100
AcDbEntity
  8
0
  6
Continuous
 62
     7
100
AcDbLine
 10
-19.0
 20
11.09999603033066
 30
0.0
 11
-17.92094092518918
 21
11.09999603033066
 31
0.0
  0
LINE
  5
94
330
1F
100
AcDbEntity
  8
0
  6
Continuous
 62
     7
100
AcDbLine
 10
17.00000381469726
 20
7.89999908208847
 30
0.0
 11
15.92093203038954
 21
7.89999908208847
 31
0.0
  0
LINE
  5
95
330
1F
100
AcDbEntity
  8
0
  6
Continuous
 62
     7
100
AcDbLine
 10
-19.0
 20
7.89999908208847
 30
0.0
 11
-17.92093328374886
 21
7.89999908208847
 31
0.0
  0
LINE
  5
96
330
1F
100
AcDbEntity
  8
0
  6
Continuous
 62
     7
100
AcDbLine
 10
-19.0
 20
7.89999908208847
 30
0.0
 11
-19.0
 21
0.0
 31
0.0
  0
LINE
  5
97
330
1F
100
AcDbEntity
  8
0
  6
Continuous
 62
     7
100
AcDbLine
 10
9.5
 20
14.50000041723251
 30
0.0
 11
3.500015258789062
 21
14.50000041723251
 31
0.0
  0
LINE
  5
98
330
1F
100
AcDbEntity
  8
0
  6
Continuous
 62
     7
100
AcDbLine
 10
-3.5
 20
20.4999994635582
 30
0.0
 11
-3.5
 21
14.50000041723251
 31
0.0
  0
LINE
  5
99
330
1F
100
AcDbEntity
  8
0
  6
Continuous
 62
     7
100
AcDbLine
 10
9.5
 20
17.49999946355819
 30
0.0
 11
9.5
 21
14.50000041723251
 31
0.0
  0
LINE
  5
9A
330
1F
100
AcDbEntity
  8
0
  6
Continuous
 62
     7
100
AcDbLine
 10
-9.5
 20
17.49999946355819
 30
0.0
 11
-19.0
 21
17.49999946355819
 31
0.0
  0
LINE
  5
9B
330
1F
100
AcDbEntity
  8
0
  6
Continuous
 62
     7
100
AcDbLine
 10
-3.5
 20
14.50000041723251
 30
0.0
 11
-9.5
 21
14.50000041723251
 31
0.0
  0
LINE
  5
9C
330
1F
100
AcDbEntity
  8
0
  6
Continuous
 62
     7
100
AcDbLine
 10
-9.5
 20
17.49999946355819
 30
0.0
 11
-9.5
 21
14.50000041723251
 31
0.0
  0
LINE
  5
9D
330
1F
100
AcDbEntity
  8
0
  6
Continuous
 62
     7
100
AcDbLine
 10
3.500015258789062
 20
15.49999946355819
 30
0.0
 11
-3.5
 21
15.49999946355819
 31
0.0
  0
LINE
  5
9E
330
1F
100
AcDbEntity
  8
0
  6
Continuous
 62
     7
100
AcDbLine
 10
9.0
 20
16.99999946355819
 30
0.0
 11
4.000015258789063
 21
16.99999946355819
 31
0.0
  0
LINE
  5
9F
330
1F
100
AcDbEntity
  8
0
  6
Continuous
 62
     7
100
AcDbLine
 10
-4.0
 20
16.99999946355819
 30
0.0
 11
-9.0
 21
16.99999946355819
 31
0.0
  0
LINE
  5
A0
330
1F
100
AcDbEntity
  8
0
  6
Continuous
 62
     7
100
AcDbLine
 10
-4.0
 20
20.9999994635582
 30
0.0
 11
-4.0
 21
16.99999946355819
 31
0.0
  0
LINE
  5
A1
330
1F
100
AcDbEntity
  8
0
  6
Continuous
 62
     7
100
AcDbLine
 10
-4.0
 20
14.59999603033066
 30
0.0
 11
-9.0
 21
14.59999603033066
 31
0.0
  0
LINE
  5
A2
330
1F
100
AcDbEntity
  8
0
  6
Continuous
 62
     7
100
AcDbLine
 10
9.0
 20
16.99999946355819
 30
0.0
 11
9.0
 21
14.59999603033066
 31
0.0
  0
LINE
  5
A3
330
1F
100
AcDbEntity
  8
0
  6
Continuous
 62
     7
100
AcDbLine
 10
4.0
 20
17.00000900030136
 30
0.0
 11
4.0
 21
14.50000995397567
 31
0.0
  0
LINE
  5
A4
330
1F
100
AcDbEntity
  8
0
  6
Continuous
 62
     7
100
AcDbLine
 10
-9.0
 20
16.99999946355819
 30
0.0
 11
-9.0
 21
14.59999603033066
 31
0.0
  0
LINE
  5
A5
330
1F
100
AcDbEntity
  8
0
  6
Continuous
 62
     7
100
AcDbLine
 10
4.000015258789063
 20
14.59999603033066
 30
0.0
 11
9.0
 21
14.59999603033066
 31
0.0
  0
LINE
  5
A6
330
1F
100
AcDbEntity
  8
0
  6
Continuous
 62
     7
100
AcDbLine
 10
2.071679657369432
 20
10.29998725652695
 30
0.0
 11
-1.133990422849107
 21
10.29998725652695
 31
0.0
  0
LINE
  5
A7
330
1F
100
AcDbEntity
  8
0
  6
Continuous
 62
     7
100
AcDbLine
 10
2.071684481392937
 20
8.699986875057218
 30
0.0
 11
-0.6117271338613071
 21
8.699986875057218
 31
0.0
  0
LINE
  5
A8
330
1F
100
AcDbEntity
  8
0
  6
Continuous
 62
     2
100
AcDbLine
 10
-13.05922698974609
 20
9.500000417232511
 30
0.0
 11
-19.0
 21
9.500000417232511
 31
0.0
  0
LINE
  5
A9
330
1F
100
AcDbEntity
  8
0
  6
Continuous
 62
     7
100
AcDbLine
 10
19.00000381469726
 20
12.00000041723251
 30
0.0
 11
17.00000381469726
 21
12.00000041723251
 31
0.0
  0
LINE
  5
AA
330
1F
100
AcDbEntity
  8
0
  6
Continuous
 62
     7
100
AcDbLine
 10
19.00000381469726
 20
6.999999940395355
 30
0.0
 11
17.00000381469726
 21
6.999999940395355
 31
0.0
  0
LINE
  5
AB
330
1F
100
AcDbEntity
  8
0
  6
Continuous
 62
     7
100
AcDbLine
 10
17.00000381469726
 20
7.89999908208847
 30
0.0
 11
17.00000381469726
 21
6.999999940395355
 31
0.0
  0
LINE
  5
AC
330
1F
100
AcDbEntity
  8
0
  6
Continuous
 62
     7
100
AcDbLine
 10
17.00000381469726
 20
12.00000041723251
 30
0.0
 11
17.00000381469726
 21
11.09999603033066
 31
0.0
  0
LINE
  5
AD
330
1F
100
AcDbEntity
  8
0
  6
Continuous
 62
     7
100
AcDbLine
 10
-4.0
 20
16.99999946355819
 30
0.0
 11
-4.0
 21
14.59999603033066
 31
0.0
  0
LINE
  5
AE
330
1F
100
AcDbEntity
  8
0
  6
CENTER
 62
     2
100
AcDbLine
 10
0.0
 20
-3.499999582767486
 30
0.0
 11
0.0
 21
26.50000041723251
 31
0.0
  0
CIRCLE
  5
AF
330
1F
100
AcDbEntity
  8
0
  6
Continuous
 62
     7
100
AcDbCircle
 10
6.5
 20
9.500000417232511
 30
0.0
 40
1.2295
  0
CIRCLE
  5
B0
330
1F
100
AcDbEntity
  8
0
  6
Continuous
 62
     7
100
AcDbCircle
 10
-7.0
 20
7.499999463558197
 30
0.0
 40
1.2295
  0
LINE
  5
B1
330
1F
100
AcDbEntity
  8
0
  6
Continuous
 62
     2
100
AcDbLine
 10
-14.0
 20
7.499999463558197
 30
0.0
 11
0.0
 21
7.499999463558197
 31
0.0
  0
LINE
  5
B2
330
1F
100
AcDbEntity
  8
0
  6
Continuous
 62
     2
100
AcDbLine
 10
-7.0
 20
0.4999994635581971
 30
0.0
 11
-7.0
 21
14.49999946355819
 31
0.0
  0
LINE
  5
B3
330
1F
100
AcDbEntity
  8
0
  6
Continuous
 62
     2
100
AcDbLine
 10
6.5
 20
4.500000417232513
 30
0.0
 11
6.5
 21
14.50000041723251
 31
0.0
  0
LINE
  5
B4
330
1F
100
AcDbEntity
  8
0
  6
Continuous
 62
     2
100
AcDbLine
 10
14.00000381469726
 20
6.250009953975677
 30
0.0
 11
14.00000381469726
 21
12.75000995397567
 31
0.0
  0
LINE
  5
B5
330
1F
100
AcDbEntity
  8
0
  6
Continuous
 62
     2
100
AcDbLine
 10
-16.0
 20
6.250000417232513
 30
0.0
 11
-16.0
 21
12.75000041723251
 31
0.0
  0
LINE
  5
B6
330
1F
100
AcDbEntity
  8
0
  6
Continuous
 62
     2
100
AcDbLine
 10
-20.50000762939453
 20
14.49999946355819
 30
0.0
 11
-17.50000762939453
 21
14.49999946355819
 31
0.0
  0
LINE
  5
B7
330
1F
100
AcDbEntity
  8
0
  6
Continuous
 62
     2
100
AcDbLine
 10
-14.0
 20
15.99999946355819
 30
0.0
 11
-14.0
 21
18.9999994635582
 31
0.0
  0
LINE
  5
B8
330
1F
100
AcDbEntity
  8
0
  6
Continuous
 62
     2
100
AcDbLine
 10
-6.5
 20
21.9999937415123
 30
0.0
 11
-6.5
 21
24.9999937415123
 31
0.0
  0
LINE
  5
B9
330
1F
100
AcDbEntity
  8
0
  6
Continuous
 62
     2
100
AcDbLine
 10
6.5
 20
21.9999937415123
 30
0.0
 11
6.5
 21
24.9999937415123
 31
0.0
  0
LINE
  5
BA
330
1F
100
AcDbEntity
  8
0
  6
Continuous
 62
     2
100
AcDbLine
 10
14.0
 20
15.99999946355819
 30
0.0
 11
14.0
 21
18.9999994635582
 31
0.0
  0
LINE
  5
BB
330
1F
100
AcDbEntity
  8
0
  6
Continuous
 62
     2
100
AcDbLine
 10
20.50000762939453
 20
14.49999946355819
 30
0.0
 11
17.50000762939453
 21
14.49999946355819
 31
0.0
  0
LINE
  5
BC
330
1F
100
AcDbEntity
  8
0
  6
Continuous
 62
     2
100
AcDbLine
 10
7.0
 20
21.4999937415123
 30
0.0
 11
10.0
 21
21.4999937415123
 31
0.0
  0
LINE
  5
BD
330
1F
100
AcDbEntity
  8
0
  6
Continuous
 62
     2
100
AcDbLine
 10
-7.0
 20
21.4999937415123
 30
0.0
 11
-10.0
 21
21.4999937415123
 31
0.0
  0
ENDBLK
  5
BE
330
1F
100
AcDbEntity
  8
0
100
AcDbBlockEnd
  0
BLOCK
  5
BF
330
20
100
AcDbEntity
  8
0
100
AcDbBlockBegin
  2
AFDPGH-8-JA-3
 70
     0
 10
0.0
 20
0.0
 30
0.0
  3
AFDPGH-8-JA-3
  1

  0
CIRCLE
  5
C0
330
20
100
AcDbEntity
  8
0
  6
Continuous
 62
     7
100
AcDbCircle
 10
7.000007629394531
 20
7.499994695186614
 30
0.0
 40
2.5
  0
CIRCLE
  5
C1
330
20
100
AcDbEntity
  8
0
  6
Continuous
 62
     7
100
AcDbCircle
 10
7.0
 20
7.499999463558197
 30
0.0
 40
1.5
  0
ARC
  5
C2
330
20
100
AcDbEntity
  8
0
  6
Continuous
 62
     7
100
AcDbCircle
 10
16.00000762939453
 20
9.500000417232511
 30
0.0
 40
2.5
100
AcDbArc
 50
39.79168865159765
 51
320.2081406771013
  0
CIRCLE
  5
C3
330
20
100
AcDbEntity
  8
0
  6
Continuous
 62
     7
100
AcDbCircle
 10
-6.5
 20
9.500000417232511
 30
0.0
 40
4.5
  0
CIRCLE
  5
C4
330
20
100
AcDbEntity
  8
0
  6
Continuous
 62
     7
100
AcDbCircle
 10
7.0
 20
7.499999463558197
 30
0.0
 40
6.5
  0
CIRCLE
  5
C5
330
20
100
AcDbEntity
  8
0
  6
Continuous
 62
     7
100
AcDbCircle
 10
7.0
 20
7.499999463558197
 30
0.0
 40
4.5
  0
LINE
  5
C6
330
20
100
AcDbEntity
  8
0
  6
Continuous
 62
     7
100
AcDbLine
 10
19.00000762939453
 20
17.49999946355819
 30
0.0
 11
19.00000762939453
 21
11.09999603033066
 31
0.0
  0
LINE
  5
C7
330
20
100
AcDbEntity
  8
0
  6
Continuous
 62
     7
100
AcDbLine
 10
-19.00000762939453
 20
17.49999946355819
 30
0.0
 11
-19.00000762939453
 21
12.00000041723251
 31
0.0
  0
LINE
  5
C8
330
20
100
AcDbEntity
  8
0
  6
Continuous
 62
     7
100
AcDbLine
 10
12.19618158870958
 20
7.500008551830434
 30
0.0
 11
9.598099070818079
 21
12.00001747526357
 31
0.0
  0
LINE
  5
C9
330
20
100
AcDbEntity
  8
0
  6
Continuous
 62
     7
100
AcDbLine
 10
-19.00000762939453
 20
17.49999946355819
 30
0.0
 11
-9.5
 21
17.49999946355819
 31
0.0
  0
LINE
  5
CA
330
20
100
AcDbEntity
  8
0
  6
Continuous
 62
     7
100
AcDbLine
 10
-17.00000762939453
 20
7.89999908208847
 30
0.0
 11
-15.92094092518919
 21
7.89999908208847
 31
0.0
  0
LINE
  5
CB
330
20
100
AcDbEntity
  8
0
  6
Continuous
 62
     7
100
AcDbLine
 10
-17.00000762939453
 20
11.09999603033066
 30
0.0
 11
-15.92093615915191
 21
11.09999603033066
 31
0.0
  0
LINE
  5
CC
330
20
100
AcDbEntity
  8
0
  6
Continuous
 62
     2
100
AcDbLine
 10
-18.42967987060547
 20
9.500000417232511
 30
0.0
 11
2.209732055664062
 21
9.500000417232511
 31
0.0
  0
LINE
  5
CD
330
20
100
AcDbEntity
  8
0
  6
Continuous
 62
     7
100
AcDbLine
 10
8.5
 20
23.49998992681503
 30
0.0
 11
8.5
 21
16.99999946355819
 31
0.0
  0
LINE
  5
CE
330
20
100
AcDbEntity
  8
0
  6
Continuous
 62
     7
100
AcDbLine
 10
-8.5
 20
23.4999937415123
 30
0.0
 11
-8.5
 21
16.99999946355819
 31
0.0
  0
LINE
  5
CF
330
20
100
AcDbEntity
  8
0
  6
Continuous
 62
     7
100
AcDbLine
 10
19.00000762939453
 20
7.89999908208847
 30
0.0
 11
17.92094378854644
 21
7.89999908208847
 31
0.0
  0
LINE
  5
D0
330
20
100
AcDbEntity
  8
0
  6
Continuous
 62
     7
100
AcDbLine
 10
19.00000762939453
 20
11.09999603033066
 30
0.0
 11
17.92094855458372
 21
11.09999603033066
 31
0.0
  0
LINE
  5
D1
330
20
100
AcDbEntity
  8
0
  6
Continuous
 62
     7
100
AcDbLine
 10
-19.00000762939453
 20
6.999999940395355
 30
0.0
 11
-19.00000762939453
 21
0.0
 31
0.0
  0
LINE
  5
D2
330
20
100
AcDbEntity
  8
0
  6
Continuous
 62
     7
100
AcDbLine
 10
-4.0
 20
14.59999603033066
 30
0.0
 11
-9.0
 21
14.59999603033066
 31
0.0
  0
LINE
  5
D3
330
20
100
AcDbEntity
  8
0
  6
Continuous
 62
     7
100
AcDbLine
 10
9.0
 20
16.99999946355819
 30
0.0
 11
9.0
 21
14.59999603033066
 31
0.0
  0
LINE
  5
D4
330
20
100
AcDbEntity
  8
0
  6
Continuous
 62
     7
100
AcDbLine
 10
-9.0
 20
16.99999946355819
 30
0.0
 11
-9.0
 21
14.59999603033066
 31
0.0
  0
LINE
  5
D5
330
20
100
AcDbEntity
  8
0
  6
Continuous
 62
     7
100
AcDbLine
 10
-19.00000762939453
 20
0.0
 30
0.0
 11
19.00000762939453
 21
0.0
 31
0.0
  0
LINE
  5
D6
330
20
100
AcDbEntity
  8
0
  6
Continuous
 62
     7
100
AcDbLine
 10
-9.0
 20
16.99999946355819
 30
0.0
 11
-4.0
 21
16.99999946355819
 31
0.0
  0
LINE
  5
D7
330
20
100
AcDbEntity
  8
0
  6
Continuous
 62
     7
100
AcDbLine
 10
-3.499992370605468
 20
15.49999946355819
 30
0.0
 11
3.5
 21
15.49999946355819
 31
0.0
  0
LINE
  5
D8
330
20
100
AcDbEntity
  8
0
  6
Continuous
 62
     7
100
AcDbLine
 10
3.5
 20
14.50000041723251
 30
0.0
 11
9.5
 21
14.50000041723251
 31
0.0
  0
LINE
  5
D9
330
20
100
AcDbEntity
  8
0
  6
Continuous
 62
     7
100
AcDbLine
 10
-3.499992370605468
 20
20.4999994635582
 30
0.0
 11
3.5
 21
20.4999994635582
 31
0.0
  0
LINE
  5
DA
330
20
100
AcDbEntity
  8
0
  6
Continuous
 62
     7
100
AcDbLine
 10
4.0
 20
16.99999946355819
 30
0.0
 11
9.0
 21
16.99999946355819
 31
0.0
  0
LINE
  5
DB
330
20
100
AcDbEntity
  8
0
  6
Continuous
 62
     7
100
AcDbLine
 10
-9.5
 20
17.49999946355819
 30
0.0
 11
-9.5
 21
14.50000041723251
 31
0.0
  0
LINE
  5
DC
330
20
100
AcDbEntity
  8
0
  6
Continuous
 62
     7
100
AcDbLine
 10
3.5
 20
20.4999994635582
 30
0.0
 11
3.5
 21
14.50000041723251
 31
0.0
  0
LINE
  5
DD
330
20
100
AcDbEntity
  8
0
  6
Continuous
 62
     7
100
AcDbLine
 10
-9.5
 20
14.50000041723251
 30
0.0
 11
-3.5
 21
14.50000041723251
 31
0.0
  0
LINE
  5
DE
330
20
100
AcDbEntity
  8
0
  6
Continuous
 62
     7
100
AcDbLine
 10
-3.5
 20
20.49998992681504
 30
0.0
 11
-3.5
 21
14.50000041723251
 31
0.0
  0
LINE
  5
DF
330
20
100
AcDbEntity
  8
0
  6
Continuous
 62
     7
100
AcDbLine
 10
9.5
 20
17.49999946355819
 30
0.0
 11
9.5
 21
14.50000041723251
 31
0.0
  0
LINE
  5
E0
330
20
100
AcDbEntity
  8
0
  6
Continuous
 62
     7
100
AcDbLine
 10
9.5
 20
17.49999946355819
 30
0.0
 11
19.00000762939453
 21
17.49999946355819
 31
0.0
  0
LINE
  5
E1
330
20
100
AcDbEntity
  8
0
  6
Continuous
 62
     7
100
AcDbLine
 10
-4.0
 20
20.9999994635582
 30
0.0
 11
4.000007629394531
 21
20.9999994635582
 31
0.0
  0
LINE
  5
E2
330
20
100
AcDbEntity
  8
0
  6
Continuous
 62
     7
100
AcDbLine
 10
-4.0
 20
14.50000041723251
 30
0.0
 11
-4.0
 21
20.9999994635582
 31
0.0
  0
LINE
  5
E3
330
20
100
AcDbEntity
  8
0
  6
Continuous
 62
     7
100
AcDbLine
 10
4.0
 20
20.99998992681504
 30
0.0
 11
4.0
 21
16.99999946355819
 31
0.0
  0
LINE
  5
E4
330
20
100
AcDbEntity
  8
0
  6
Continuous
 62
     7
100
AcDbLine
 10
4.0
 20
14.59999603033066
 30
0.0
 11
9.0
 21
14.59999603033066
 31
0.0
  0
LINE
  5
E5
330
20
100
AcDbEntity
  8
0
  6
Continuous
 62
     7
100
AcDbLine
 10
-8.5
 20
23.4999937415123
 30
0.0
 11
8.500007629394531
 21
23.4999937415123
 31
0.0
  0
LINE
  5
E6
330
20
100
AcDbEntity
  8
0
  6
Continuous
 62
     7
100
AcDbLine
 10
19.00000762939453
 20
7.89999908208847
 30
0.0
 11
19.00000762939453
 21
0.0
 31
0.0
  0
LINE
  5
E7
330
20
100
AcDbEntity
  8
0
  6
Continuous
 62
     7
100
AcDbLine
 10
-2.071679657369432
 20
10.29998725652695
 30
0.0
 11
1.133990422849108
 21
10.29998725652695
 31
0.0
  0
LINE
  5
E8
330
20
100
AcDbEntity
  8
0
  6
Continuous
 62
     7
100
AcDbLine
 10
-2.071684481392937
 20
8.699986875057218
 30
0.0
 11
0.6117271338613067
 21
8.699986875057218
 31
0.0
  0
LINE
  5
E9
330
20
100
AcDbEntity
  8
0
  6
Continuous
 62
     7
100
AcDbLine
 10
9.598094206705127
 20
2.999994085967955
 30
0.0
 11
12.19617692850966
 21
7.500007242172614
 31
0.0
  0
LINE
  5
EA
330
20
100
AcDbEntity
  8
0
  6
Continuous
 62
     7
100
AcDbLine
 10
4.40192413330078
 20
12.00000518560409
 30
0.0
 11
9.598075866699216
 21
12.00000518560409
 31
0.0
  0
LINE
  5
EB
330
20
100
AcDbEntity
  8
0
  6
Continuous
 62
     7
100
AcDbLine
 10
4.40192413330078
 20
3.000004708766937
 30
0.0
 11
9.598075866699216
 21
3.000004708766937
 31
0.0
  0
LINE
  5
EC
330
20
100
AcDbEntity
  8
0
  6
Continuous
 62
     7
100
AcDbLine
 10
1.803876083742579
 20
7.500012566614259
 30
0.0
 11
4.401943546762595
 21
11.99999929381783
 31
0.0
  0
LINE
  5
ED
330
20
100
AcDbEntity
  8
0
  6
Continuous
 62
     7
100
AcDbLine
 10
1.803857898594742
 20
7.500008236540907
 30
0.0
 11
4.40193660178761
 21
3.00000592035667
 31
0.0
  0
LINE
  5
EE
330
20
100
AcDbEntity
  8
0
  6
Continuous
 62
     7
100
AcDbLine
 10
6.25
 20
8.799041211605072
 30
0.0
 11
7.75
 21
8.799041211605072
 31
0.0
  0
LINE
  5
EF
330
20
100
AcDbEntity
  8
0
  6
Continuous
 62
     7
100
AcDbLine
 10
5.500027006593881
 20
7.499987306739057
 30
0.0
 11
6.250030597772592
 21
8.799032175164482
 31
0.0
  0
LINE
  5
F0
330
20
100
AcDbEntity
  8
0
  6
Continuous
 62
     7
100
AcDbLine
 10
8.50005324669496
 20
7.500003778180143
 30
0.0
 11
7.750052978474059
 21
8.799041771134398
 31
0.0
  0
LINE
  5
F1
330
20
100
AcDbEntity
  8
0
  6
Continuous
 62
     7
100
AcDbLine
 10
7.750019348053683
 20
6.20093654603238
 30
0.0
 11
8.500026753928523
 21
7.499988021708077
 31
0.0
  0
LINE
  5
F2
330
20
100
AcDbEntity
  8
0
  6
Continuous
 62
     7
100
AcDbLine
 10
6.25
 20
6.200957715511322
 30
0.0
 11
7.75
 21
6.200957715511322
 31
0.0
  0
LINE
  5
F3
330
20
100
AcDbEntity
  8
0
  6
Continuous
 62
     7
100
AcDbLine
 10
5.500019413801283
 20
7.500001328915913
 30
0.0
 11
6.250019682022184
 21
6.20096333596166
 31
0.0
  0
LINE
  5
F4
330
20
100
AcDbEntity
  8
0
  6
Continuous
 62
     2
100
AcDbLine
 10
20.00788116455078
 20
9.500000417232511
 30
0.0
 11
13.2295913696289
 21
9.500000417232511
 31
0.0
  0
LINE
  5
F5
330
20
100
AcDbEntity
  8
0
  6
Continuous
 62
     7
100
AcDbLine
 10
-19.00000762939453
 20
12.00000041723251
 30
0.0
 11
-17.00000762939453
 21
12.00000041723251
 31
0.0
  0
LINE
  5
F6
330
20
100
AcDbEntity
  8
0
  6
Continuous
 62
     7
100
AcDbLine
 10
-19.00000762939453
 20
6.999999940395355
 30
0.0
 11
-17.00000762939453
 21
6.999999940395355
 31
0.0
  0
LINE
  5
F7
330
20
100
AcDbEntity
  8
0
  6
Continuous
 62
     7
100
AcDbLine
 10
-17.00000762939453
 20
12.00000041723251
 30
0.0
 11
-17.00000762939453
 21
11.09999603033066
 31
0.0
  0
LINE
  5
F8
330
20
100
AcDbEntity
  8
0
  6
Continuous
 62
     7
100
AcDbLine
 10
-17.00000762939453
 20
7.89999908208847
 30
0.0
 11
-17.00000762939453
 21
6.999999940395355
 31
0.0
  0
LINE
  5
F9
330
20
100
AcDbEntity
  8
0
  6
Continuous
 62
     2
100
AcDbLine
 10
-6.5
 20
14.57378906011581
 30
0.0
 11
-6.5
 21
4.298889100551605
 31
0.0
  0
ARC
  5
FA
330
20
100
AcDbEntity
  8
0
  6
Continuous
 62
     7
100
AcDbCircle
 10
-14.0
 20
9.499994695186616
 30
0.0
 40
2.5
100
AcDbArc
 50
219.7916886515977
 51
140.2081406771012
  0
LINE
  5
FB
330
20
100
AcDbEntity
  8
0
  6
Continuous
 62
     7
100
AcDbLine
 10
4.0
 20
16.99999946355819
 30
0.0
 11
4.0
 21
14.59999603033066
 31
0.0
  0
CIRCLE
  5
FC
330
20
100
AcDbEntity
  8
0
  6
Continuous
 62
     7
100
AcDbCircle
 10
-6.5
 20
9.500000417232511
 30
0.0
 40
2.75
  0
LINE
  5
FD
330
20
100
AcDbEntity
  8
0
  6
Continuous
 62
     7
100
AcDbLine
 10
-7.914213562373091
 20
8.085786854859421
 30
0.0
 11
-5.085786437626907
 21
10.9142139796056
 31
0.0
  0
LINE
  5
FE
330
20
100
AcDbEntity
  8
0
  6
Continuous
 62
     7
100
AcDbLine
 10
-5.085786437626907
 20
8.085786854859421
 30
0.0
 11
-7.914213562373091
 21
10.9142139796056
 31
0.0
  0
LINE
  5
FF
330
20
100
AcDbEntity
  8
0
  6
CENTER
 62
     2
100
AcDbLine
 10
0.0
 20
-3.499999582767486
 30
0.0
 11
0.0
 21
26.50000041723251
 31
0.0
  0
CIRCLE
  5
100
330
20
100
AcDbEntity
  8
0
  6
Continuous
 62
     2
100
AcDbCircle
 10
7.0
 20
7.499999463558197
 30
0.0
 40
2.067
  0
LINE
  5
101
330
20
100
AcDbEntity
  8
0
  6
Continuous
 62
     2
100
AcDbLine
 10
6.999984741210937
 20
0.4999889731407167
 30
0.0
 11
6.999984741210937
 21
14.49998897314071
 31
0.0
  0
LINE
  5
102
330
20
100
AcDbEntity
  8
0
  6
Continuous
 62
     2
100
AcDbLine
 10
-0.0000152587890625
 20
7.499988973140716
 30
0.0
 11
13.99998474121094
 21
7.499988973140716
 31
0.0
  0
LINE
  5
103
330
20
100
AcDbEntity
  8
0
  6
Continuous
 62
     2
100
AcDbLine
 10
-14.0
 20
6.249994695186614
 30
0.0
 11
-14.0
 21
12.74999469518661
 31
0.0
  0
LINE
  5
104
330
20
100
AcDbEntity
  8
0
  6
Continuous
 62
     2
100
AcDbLine
 10
16.00000762939453
 20
6.250000417232513
 30
0.0
 11
16.00000762939453
 21
12.75000041723251
 31
0.0
  0
LINE
  5
105
330
20
100
AcDbEntity
  8
0
  6
Continuous
 62
     2
100
AcDbLine
 10
-14.0
 20
15.99999946355819
 30
0.0
 11
-14.0
 21
18.9999994635582
 31
0.0
  0
LINE
  5
106
330
20
100
AcDbEntity
  8
0
  6
Continuous
 62
     2
100
AcDbLine
 10
-6.5
 20
21.9999937415123
 30
0.0
 11
-6.5
 21
24.9999937415123
 31
0.0
  0
LINE
  5
107
330
20
100
AcDbEntity
  8
0
  6
Continuous
 62
     2
100
AcDbLine
 10
6.5
 20
21.9999937415123
 30
0.0
 11
6.5
 21
24.9999937415123
 31
0.0
  0
LINE
  5
108
330
20
100
AcDbEntity
  8
0
  6
Continuous
 62
     2
100
AcDbLine
 10
14.0
 20
15.99999946355819
 30
0.0
 11
14.0
 21
18.9999994635582
 31
0.0
  0
LINE
  5
109
330
20
100
AcDbEntity
  8
0
  6
Continuous
 62
     2
100
AcDbLine
 10
-20.50000762939453
 20
14.49999946355819
 30
0.0
 11
-17.50000762939453
 21
14.49999946355819
 31
0.0
  0
LINE
  5
10A
330
20
100
AcDbEntity
  8
0
  6
Continuous
 62
     2
100
AcDbLine
 10
-7.0
 20
21.4999937415123
 30
0.0
 11
-10.0
 21
21.4999937415123
 31
0.0
  0
LINE
  5
10B
330
20
100
AcDbEntity
  8
0
  6
Continuous
 62
     2
100
AcDbLine
 10
7.0
 20
21.4999937415123
 30
0.0
 11
10.0
 21
21.4999937415123
 31
0.0
  0
LINE
  5
10C
330
20
100
AcDbEntity
  8
0
  6
Continuous
 62
     2
100
AcDbLine
 10
20.50000762939453
 20
14.49999946355819
 30
0.0
 11
17.50000762939453
 21
14.49999946355819
 31
0.0
  0
ENDBLK
  5
10D
330
20
100
AcDbEntity
  8
0
100
AcDbBlockEnd
  0
BLOCK
  5
10E
330
21
100
AcDbEntity
  8
0
100
AcDbBlockBegin
  2
AFDPGH-8-JA-4
 70
     0
 10
0.0
 20
0.0
 30
0.0
  3
AFDPGH-8-JA-4
  1

  0
LINE
  5
10F
330
21
100
AcDbEntity
  8
0
  6
Continuous
 62
     7
100
AcDbLine
 10
-23.29999914169311
 20
-8.5
 30
0.0
 11
-23.29999914169311
 21
8.5
 31
0.0
  0
LINE
  5
110
330
21
100
AcDbEntity
  8
0
  6
Continuous
 62
     7
100
AcDbLine
 10
-24.29999914169311
 20
-8.5
 30
0.0
 11
-24.29999914169311
 21
8.5
 31
0.0
  0
LINE
  5
111
330
21
100
AcDbEntity
  8
0
  6
Continuous
 62
     7
100
AcDbLine
 10
-8.999999141693123
 20
-8.5
 30
0.0
 11
-8.999999141693123
 21
8.5
 31
0.0
  0
LINE
  5
112
330
21
100
AcDbEntity
  8
0
  6
Continuous
 62
     7
100
AcDbLine
 10
-7.999999141693116
 20
-8.5
 30
0.0
 11
-7.999999141693116
 21
8.5
 31
0.0
  0
LINE
  5
113
330
21
100
AcDbEntity
  8
0
  6
Continuous
 62
     7
100
AcDbLine
 10
20.29999675750732
 20
-8.5
 30
0.0
 11
20.29999675750732
 21
8.5
 31
0.0
  0
LINE
  5
114
330
21
100
AcDbEntity
  8
0
  6
Continuous
 62
     7
100
AcDbLine
 10
21.29999675750732
 20
-8.5
 30
0.0
 11
21.29999675750732
 21
8.5
 31
0.0
  0
LINE
  5
115
330
21
100
AcDbEntity
  8
0
  6
Continuous
 62
     7
100
AcDbLine
 10
5.999996757507332
 20
-8.5
 30
0.0
 11
5.999996757507332
 21
8.5
 31
0.0
  0
LINE
  5
116
330
21
100
AcDbEntity
  8
0
  6
Continuous
 62
     7
100
AcDbLine
 10
4.999996757507325
 20
-8.5
 30
0.0
 11
4.999996757507325
 21
8.5
 31
0.0
  0
CIRCLE
  5
117
330
21
100
AcDbEntity
  8
0
  6
Continuous
 62
     2
100
AcDbCircle
 10
-15.99999999999999
 20
-14.0
 30
0.0
 40
1.5
  0
CIRCLE
  5
118
330
21
100
AcDbEntity
  8
0
  6
Continuous
 62
     7
100
AcDbCircle
 10
-15.99999999999999
 20
-14.0
 30
0.0
 40
1.2295
  0
LINE
  5
119
330
21
100
AcDbEntity
  8
0
  6
Continuous
 62
     2
100
AcDbLine
 10
-13.49999999999999
 20
-14.0
 30
0.0
 11
-18.5
 21
-14.0
 31
0.0
  0
LINE
  5
11A
330
21
100
AcDbEntity
  8
0
  6
Continuous
 62
     2
100
AcDbLine
 10
-15.99999999999999
 20
-16.5
 30
0.0
 11
-15.99999999999999
 21
-11.5
 31
0.0
  0
CIRCLE
  5
11B
330
21
100
AcDbEntity
  8
0
  6
Continuous
 62
     2
100
AcDbCircle
 10
-15.99999999999999
 20
14.0
 30
0.0
 40
1.5
  0
CIRCLE
  5
11C
330
21
100
AcDbEntity
  8
0
  6
Continuous
 62
     7
100
AcDbCircle
 10
-15.99999999999999
 20
14.0
 30
0.0
 40
1.2295
  0
LINE
  5
11D
330
21
100
AcDbEntity
  8
0
  6
Continuous
 62
     2
100
AcDbLine
 10
-13.49999999999999
 20
14.0
 30
0.0
 11
-18.5
 21
14.0
 31
0.0
  0
LINE
  5
11E
330
21
100
AcDbEntity
  8
0
  6
Continuous
 62
     2
100
AcDbLine
 10
-15.99999999999999
 20
11.5
 30
0.0
 11
-15.99999999999999
 21
16.5
 31
0.0
  0
CIRCLE
  5
11F
330
21
100
AcDbEntity
  8
0
  6
Continuous
 62
     2
100
AcDbCircle
 10
16.0
 20
-14.0
 30
0.0
 40
1.5
  0
CIRCLE
  5
120
330
21
100
AcDbEntity
  8
0
  6
Continuous
 62
     2
100
AcDbCircle
 10
16.0
 20
14.0
 30
0.0
 40
1.5
  0
CIRCLE
  5
121
330
21
100
AcDbEntity
  8
0
  6
Continuous
 62
     2
100
AcDbCircle
 10
13.14999675750732
 20
-6.5
 30
0.0
 40
1.25
  0
CIRCLE
  5
122
330
21
100
AcDbEntity
  8
0
  6
Continuous
 62
     2
100
AcDbCircle
 10
-16.14999914169311
 20
6.5
 30
0.0
 40
1.25
  0
CIRCLE
  5
123
330
21
100
AcDbEntity
  8
0
  6
Continuous
 62
     2
100
AcDbCircle
 10
-16.14999914169311
 20
-6.5
 30
0.0
 40
1.25
  0
CIRCLE
  5
124
330
21
100
AcDbEntity
  8
0
  6
Continuous
 62
     2
100
AcDbCircle
 10
13.14999675750732
 20
6.5
 30
0.0
 40
1.25
  0
ARC
  5
125
330
21
100
AcDbEntity
  8
0
  6
Continuous
 62
     7
100
AcDbCircle
 10
30.7499885559082
 20
3.5
 30
0.0
 40
1.25
100
AcDbArc
 50
306.869897645844
 51
53.13003347791322
  0
ARC
  5
126
330
21
100
AcDbEntity
  8
0
  6
Continuous
 62
     7
100
AcDbCircle
 10
30.7499885559082
 20
10.5
 30
0.0
 40
1.25
100
AcDbArc
 50
306.8698708994384
 51
53.13010235415599
  0
ARC
  5
127
330
21
100
AcDbEntity
  8
0
  6
Continuous
 62
     7
100
AcDbCircle
 10
25.49998474121093
 20
7.0
 30
0.0
 40
6.500006198883056
100
AcDbArc
 50
337.3801210162103
 51
22.61974238000633
  0
LINE
  5
128
330
21
100
AcDbEntity
  8
0
  6
Continuous
 62
     7
100
AcDbLine
 10
-24.29999914169311
 20
8.5
 30
0.0
 11
-7.999999141693116
 21
8.5
 31
0.0
  0
LINE
  5
129
330
21
100
AcDbEntity
  8
0
  6
Continuous
 62
     7
100
AcDbLine
 10
-26.5
 20
19.0
 30
0.0
 11
-26.5
 21
-19.0
 31
0.0
  0
LINE
  5
12A
330
21
100
AcDbEntity
  8
0
  6
Continuous
 62
     7
100
AcDbLine
 10
26.5
 20
-19.0
 30
0.0
 11
-26.5
 21
-19.0
 31
0.0
  0
LINE
  5
12B
330
21
100
AcDbEntity
  8
0
  6
Continuous
 62
     7
100
AcDbLine
 10
-24.29999914169311
 20
-8.5
 30
0.0
 11
-7.999999141693116
 21
-8.5
 31
0.0
  0
LINE
  5
12C
330
21
100
AcDbEntity
  8
0
  6
Continuous
 62
     7
100
AcDbLine
 10
21.2999963760376
 20
3.5
 30
0.0
 11
26.5000114440918
 21
3.5
 31
0.0
  0
LINE
  5
12D
330
21
100
AcDbEntity
  8
0
  6
Continuous
 62
     7
100
AcDbLine
 10
21.2999963760376
 20
-3.5
 30
0.0
 11
26.5000114440918
 21
-3.5
 31
0.0
  0
LINE
  5
12E
330
21
100
AcDbEntity
  8
0
  6
Continuous
 62
     7
100
AcDbLine
 10
-7.999999141693116
 20
-3.5
 30
0.0
 11
5.000012397766112
 21
-3.5
 31
0.0
  0
LINE
  5
12F
330
21
100
AcDbEntity
  8
0
  6
Continuous
 62
     7
100
AcDbLine
 10
-7.999999141693116
 20
3.5
 30
0.0
 11
5.000012397766112
 21
3.5
 31
0.0
  0
LINE
  5
130
330
21
100
AcDbEntity
  8
0
  6
Continuous
 62
     7
100
AcDbLine
 10
4.999996757507325
 20
8.5
 30
0.0
 11
21.29999675750732
 21
8.5
 31
0.0
  0
LINE
  5
131
330
21
100
AcDbEntity
  8
0
  6
Continuous
 62
     7
100
AcDbLine
 10
4.999996757507325
 20
-8.5
 30
0.0
 11
21.29999675750732
 21
-8.5
 31
0.0
  0
LINE
  5
132
330
21
100
AcDbEntity
  8
0
  6
Continuous
 62
     7
100
AcDbLine
 10
26.49998474121094
 20
9.5
 30
0.0
 11
-26.50001525878907
 21
9.5
 31
0.0
  0
LINE
  5
133
330
21
100
AcDbEntity
  8
0
  6
Continuous
 62
     7
100
AcDbLine
 10
26.5
 20
19.0
 30
0.0
 11
26.5
 21
-19.0
 31
0.0
  0
LINE
  5
134
330
21
100
AcDbEntity
  8
0
  6
Continuous
 62
     7
100
AcDbLine
 10
26.49998474121094
 20
-9.5
 30
0.0
 11
-26.50001525878907
 21
-9.5
 31
0.0
  0
LINE
  5
135
330
21
100
AcDbEntity
  8
0
  6
Continuous
 62
     2
100
AcDbLine
 10
30.38791275024414
 20
-6.5
 30
0.0
 11
25.19915659811953
 21
-6.5
 31
0.0
  0
LINE
  5
136
330
21
100
AcDbEntity
  8
0
  6
Continuous
 62
     7
100
AcDbLine
 10
38.09999197515941
 20
9.5
 30
0.0
 11
31.99999618530273
 21
9.5
 31
0.0
  0
LINE
  5
137
330
21
100
AcDbEntity
  8
0
  6
Continuous
 62
     7
100
AcDbLine
 10
38.5
 20
9.099999999999994
 30
0.0
 11
38.5
 21
4.900000000000005
 31
0.0
  0
LINE
  5
138
330
21
100
AcDbEntity
  8
0
  6
Continuous
 62
     7
100
AcDbLine
 10
38.09999986513004
 20
4.5
 30
0.0
 11
31.99999618530273
 21
4.5
 31
0.0
  0
LINE
  5
139
330
21
100
AcDbEntity
  8
0
  6
Continuous
 62
     7
100
AcDbLine
 10
27.99999618530273
 20
12.5
 30
0.0
 11
27.99999618530273
 21
1.5
 31
0.0
  0
LINE
  5
13A
330
21
100
AcDbEntity
  8
0
  6
Continuous
 62
     7
100
AcDbLine
 10
31.99999618530273
 20
10.5
 30
0.0
 11
31.99999618530273
 21
3.5
 31
0.0
  0
LINE
  5
13B
330
21
100
AcDbEntity
  8
0
  6
Continuous
 62
     7
100
AcDbLine
 10
31.4999885559082
 20
2.5
 30
0.0
 11
27.99999618530273
 21
2.5
 31
0.0
  0
LINE
  5
13C
330
21
100
AcDbEntity
  8
0
  6
Continuous
 62
     7
100
AcDbLine
 10
31.4999885559082
 20
11.5
 30
0.0
 11
27.99999618530273
 21
11.5
 31
0.0
  0
LINE
  5
13D
330
21
100
AcDbEntity
  8
0
  6
Continuous
 62
     7
100
AcDbLine
 10
27.99999618530273
 20
12.5
 30
0.0
 11
26.5
 21
12.5
 31
0.0
  0
LINE
  5
13E
330
21
100
AcDbEntity
  8
0
  6
Continuous
 62
     7
100
AcDbLine
 10
27.99999618530273
 20
1.5
 30
0.0
 11
26.5
 21
1.5
 31
0.0
  0
LINE
  5
13F
330
21
100
AcDbEntity
  8
0
  6
Continuous
 62
     2
100
AcDbLine
 10
40.86971664428711
 20
7.0
 30
0.0
 11
24.0348014831543
 21
7.0
 31
0.0
  0
LINE
  5
140
330
21
100
AcDbEntity
  8
0
  6
Continuous
 62
     7
100
AcDbLine
 10
31.49998474121094
 20
9.5
 30
0.0
 11
27.99999618530273
 21
9.5
 31
0.0
  0
LINE
  5
141
330
21
100
AcDbEntity
  8
0
  6
Continuous
 62
     7
100
AcDbLine
 10
31.49998474121094
 20
4.5
 30
0.0
 11
27.99999618530273
 21
4.5
 31
0.0
  0
LINE
  5
142
330
21
100
AcDbEntity
  8
0
  6
Continuous
 62
     2
100
AcDbLine
 10
38.5
 20
9.067000000000007
 30
0.0
 11
31.99999618530273
 21
9.067000000000007
 31
0.0
  0
LINE
  5
143
330
21
100
AcDbEntity
  8
0
  6
Continuous
 62
     2
100
AcDbLine
 10
38.5
 20
4.932999999999992
 30
0.0
 11
31.99999618530273
 21
4.932999999999992
 31
0.0
  0
LINE
  5
144
330
21
100
AcDbEntity
  8
0
  6
Continuous
 62
     7
100
AcDbLine
 10
38.5
 20
9.099999999999994
 30
0.0
 11
38.09999197515941
 21
9.5
 31
0.0
  0
LINE
  5
145
330
21
100
AcDbEntity
  8
0
  6
Continuous
 62
     7
100
AcDbLine
 10
38.5
 20
4.900000000000005
 30
0.0
 11
38.09999986513004
 21
4.5
 31
0.0
  0
LINE
  5
146
330
21
100
AcDbEntity
  8
0
  6
Continuous
 62
     7
100
AcDbLine
 10
38.09999197515941
 20
9.5
 30
0.0
 11
38.09999197515941
 21
4.5
 31
0.0
  0
LINE
  5
147
330
21
100
AcDbEntity
  8
0
  6
Continuous
 62
     7
100
AcDbLine
 10
-26.5
 20
19.0
 30
0.0
 11
26.5
 21
19.0
 31
0.0
  0
LINE
  5
148
330
21
100
AcDbEntity
  8
0
  6
Continuous
 62
     7
100
AcDbLine
 10
26.5
 20
-3.749999998731472
 30
0.0
 11
27.23277328005337
 21
-3.788403421060393
 31
0.0
  0
LINE
  5
149
330
21
100
AcDbEntity
  8
0
  6
Continuous
 62
     7
100
AcDbLine
 10
26.5
 20
-9.249999982941453
 30
0.0
 11
27.23277483705534
 21
-9.2115962521284
 31
0.0
  0
ARC
  5
14A
330
21
100
AcDbEntity
  8
0
  6
Continuous
 62
     7
100
AcDbCircle
 10
27.17520529031753
 20
-8.113103866577148
 30
0.0
 40
1.100000023841857
100
AcDbArc
 50
273.0000606445687
 51
344.1328881707481
  0
ARC
  5
14B
330
21
100
AcDbEntity
  8
0
  6
Continuous
 62
     7
100
AcDbCircle
 10
27.17520529031753
 20
-4.886895656585692
 30
0.0
 40
1.100000023841857
100
AcDbArc
 50
15.86711182925191
 51
86.99995301580964
  0
ARC
  5
14C
330
21
100
AcDbEntity
  8
0
  6
Continuous
 62
     7
100
AcDbCircle
 10
21.50000381469727
 20
-6.5
 30
0.0
 40
7.0
100
AcDbArc
 50
344.1328881707481
 51
15.86711182925191
  0
LINE
  5
14D
330
21
100
AcDbEntity
  8
0
  6
CENTER
 62
     2
100
AcDbLine
 10
-29.99999904632569
 20
0.0
 30
0.0
 11
29.99999332427979
 21
0.0
 31
0.0
  0
CIRCLE
  5
14E
330
21
100
AcDbEntity
  8
0
  6
Continuous
 62
     7
100
AcDbCircle
 10
16.0
 20
14.0
 30
0.0
 40
1.2295
  0
CIRCLE
  5
14F
330
21
100
AcDbEntity
  8
0
  6
Continuous
 62
     7
100
AcDbCircle
 10
16.0
 20
-14.0
 30
0.0
 40
1.2295
  0
CIRCLE
  5
150
330
21
100
AcDbEntity
  8
0
  6
Continuous
 62
     7
100
AcDbCircle
 10
13.14999675750732
 20
6.5
 30
0.0
 40
1.006499999999999
  0
CIRCLE
  5
151
330
21
100
AcDbEntity
  8
0
  6
Continuous
 62
     7
100
AcDbCircle
 10
13.14999675750732
 20
-6.5
 30
0.0
 40
1.006499999999999
  0
CIRCLE
  5
152
330
21
100
AcDbEntity
  8
0
  6
Continuous
 62
     7
100
AcDbCircle
 10
-16.14999914169311
 20
6.5
 30
0.0
 40
1.006499999999999
  0
CIRCLE
  5
153
330
21
100
AcDbEntity
  8
0
  6
Continuous
 62
     7
100
AcDbCircle
 10
-16.14999914169311
 20
-6.5
 30
0.0
 40
1.006499999999999
  0
LINE
  5
154
330
21
100
AcDbEntity
  8
0
  6
Continuous
 62
     2
100
AcDbLine
 10
13.5
 20
14.0
 30
0.0
 11
18.5
 21
14.0
 31
0.0
  0
LINE
  5
155
330
21
100
AcDbEntity
  8
0
  6
Continuous
 62
     2
100
AcDbLine
 10
16.0
 20
11.5
 30
0.0
 11
16.0
 21
16.5
 31
0.0
  0
LINE
  5
156
330
21
100
AcDbEntity
  8
0
  6
Continuous
 62
     2
100
AcDbLine
 10
13.5
 20
-14.0
 30
0.0
 11
18.5
 21
-14.0
 31
0.0
  0
LINE
  5
157
330
21
100
AcDbEntity
  8
0
  6
Continuous
 62
     2
100
AcDbLine
 10
16.0
 20
-16.5
 30
0.0
 11
16.0
 21
-11.5
 31
0.0
  0
LINE
  5
158
330
21
100
AcDbEntity
  8
0
  6
Continuous
 62
     2
100
AcDbLine
 10
13.14999675750732
 20
4.5
 30
0.0
 11
13.14999675750732
 21
8.5
 31
0.0
  0
LINE
  5
159
330
21
100
AcDbEntity
  8
0
  6
Continuous
 62
     2
100
AcDbLine
 10
11.14999675750732
 20
6.5
 30
0.0
 11
15.14999675750732
 21
6.5
 31
0.0
  0
LINE
  5
15A
330
21
100
AcDbEntity
  8
0
  6
Continuous
 62
     2
100
AcDbLine
 10
-16.14999914169311
 20
4.5
 30
0.0
 11
-16.14999914169311
 21
8.5
 31
0.0
  0
LINE
  5
15B
330
21
100
AcDbEntity
  8
0
  6
Continuous
 62
     2
100
AcDbLine
 10
-18.14999914169311
 20
6.5
 30
0.0
 11
-14.14999914169311
 21
6.5
 31
0.0
  0
LINE
  5
15C
330
21
100
AcDbEntity
  8
0
  6
Continuous
 62
     2
100
AcDbLine
 10
-16.14999914169311
 20
-8.5
 30
0.0
 11
-16.14999914169311
 21
-4.5
 31
0.0
  0
LINE
  5
15D
330
21
100
AcDbEntity
  8
0
  6
Continuous
 62
     2
100
AcDbLine
 10
-18.14999914169311
 20
-6.5
 30
0.0
 11
-14.14999914169311
 21
-6.5
 31
0.0
  0
LINE
  5
15E
330
21
100
AcDbEntity
  8
0
  6
Continuous
 62
     2
100
AcDbLine
 10
13.14999675750732
 20
-8.5
 30
0.0
 11
13.14999675750732
 21
-4.5
 31
0.0
  0
LINE
  5
15F
330
21
100
AcDbEntity
  8
0
  6
Continuous
 62
     2
100
AcDbLine
 10
11.14999675750732
 20
-6.5
 30
0.0
 11
15.14999675750732
 21
-6.5
 31
0.0
  0
LINE
  5
160
330
21
100
AcDbEntity
  8
0
  6
Continuous
 62
     2
100
AcDbLine
 10
12.00000000018013
 20
-20.5
 30
0.0
 11
12.00000000018013
 21
-17.5
 31
0.0
  0
LINE
  5
161
330
21
100
AcDbEntity
  8
0
  6
Continuous
 62
     2
100
AcDbLine
 10
-11.99999999981987
 20
-20.5
 30
0.0
 11
-11.99999999981987
 21
-17.5
 31
0.0
  0
LINE
  5
162
330
21
100
AcDbEntity
  8
0
  6
Continuous
 62
     2
100
AcDbLine
 10
-21.14999723416434
 20
-11.0
 30
0.0
 11
-21.14999723416434
 21
-8.0
 31
0.0
  0
LINE
  5
163
330
21
100
AcDbEntity
  8
0
  6
Continuous
 62
     2
100
AcDbLine
 10
-11.14999949914085
 20
-11.0
 30
0.0
 11
-11.14999949914085
 21
-8.0
 31
0.0
  0
LINE
  5
164
330
21
100
AcDbEntity
  8
0
  6
Continuous
 62
     2
100
AcDbLine
 10
8.150000572384726
 20
-11.0
 30
0.0
 11
8.150000572384726
 21
-8.0
 31
0.0
  0
LINE
  5
165
330
21
100
AcDbEntity
  8
0
  6
Continuous
 62
     2
100
AcDbLine
 10
18.14999675768746
 20
-11.0
 30
0.0
 11
18.14999675768746
 21
-8.0
 31
0.0
  0
LINE
  5
166
330
21
100
AcDbEntity
  8
0
  6
Continuous
 62
     2
100
AcDbLine
 10
-11.99999999981987
 20
20.5
 30
0.0
 11
-11.99999999981987
 21
17.5
 31
0.0
  0
LINE
  5
167
330
21
100
AcDbEntity
  8
0
  6
Continuous
 62
     2
100
AcDbLine
 10
12.00000000018013
 20
20.5
 30
0.0
 11
12.00000000018013
 21
17.5
 31
0.0
  0
LINE
  5
168
330
21
100
AcDbEntity
  8
0
  6
Continuous
 62
     2
100
AcDbLine
 10
-28.0
 20
6.75
 30
0.0
 11
-25.0
 21
6.75
 31
0.0
  0
LINE
  5
169
330
21
100
AcDbEntity
  8
0
  6
Continuous
 62
     2
100
AcDbLine
 10
-28.0
 20
-6.75
 30
0.0
 11
-25.0
 21
-6.75
 31
0.0
  0
LINE
  5
16A
330
21
100
AcDbEntity
  8
0
  6
Continuous
 62
     2
100
AcDbLine
 10
-16.14999914169311
 20
-2.5
 30
0.0
 11
-16.14999914169311
 21
2.5
 31
0.0
  0
LINE
  5
16B
330
21
100
AcDbEntity
  8
0
  6
Continuous
 62
     2
100
AcDbLine
 10
13.14999675750732
 20
-2.5
 30
0.0
 11
13.14999675750732
 21
2.5
 31
0.0
  0
CIRCLE
  5
16C
330
21
100
AcDbEntity
  8
0
  6
Continuous
 62
     7
100
AcDbCircle
 10
13.14999675750732
 20
0.0
 30
0.0
 40
1.5
  0
CIRCLE
  5
16D
330
21
100
AcDbEntity
  8
0
  6
Continuous
 62
     7
100
AcDbCircle
 10
-16.14999914169311
 20
0.0
 30
0.0
 40
1.5
  0
LINE
  5
16E
330
21
100
AcDbEntity
  8
0
  6
CENTER
 62
     2
100
AcDbLine
 10
0.0000000000000018
 20
-22.5
 30
0.0
 11
0.0000000000000018
 21
22.5
 31
0.0
  0
ENDBLK
  5
16F
330
21
100
AcDbEntity
  8
0
100
AcDbBlockEnd
  0
BLOCK
  5
170
330
22
100
AcDbEntity
  8
0
100
AcDbBlockBegin
  2
AFDPGH-8-JA-5
 70
     0
 10
0.0
 20
0.0
 30
0.0
  3
AFDPGH-8-JA-5
  1

  0
ARC
  5
171
330
22
100
AcDbEntity
  8
0
  6
Continuous
 62
     7
100
AcDbCircle
 10
25.49996948242188
 20
-7.000015258789063
 30
0.0
 40
6.500006198883056
100
AcDbArc
 50
337.3802029784804
 51
22.61982434227638
  0
ARC
  5
172
330
22
100
AcDbEntity
  8
0
  6
Continuous
 62
     7
100
AcDbCircle
 10
30.74997329711914
 20
-10.50003051757812
 30
0.0
 40
1.25
100
AcDbArc
 50
306.8699118805734
 51
53.13007445904823
  0
CIRCLE
  5
173
330
22
100
AcDbEntity
  8
0
  6
Continuous
 62
     7
100
AcDbCircle
 10
20.0
 20
0.0
 30
0.0
 40
1.25
  0
ARC
  5
174
330
22
100
AcDbEntity
  8
0
  6
Continuous
 62
     7
100
AcDbCircle
 10
-19.00000047683716
 20
0.0
 30
0.0
 40
1.25
100
AcDbArc
 50
270.0000179860893
 51
90.00000933466735
  0
ARC
  5
175
330
22
100
AcDbEntity
  8
0
  6
Continuous
 62
     7
100
AcDbCircle
 10
-21.0
 20
0.0
 30
0.0
 40
1.25
100
AcDbArc
 50
89.99998201391065
 51
270.0000006832453
  0
CIRCLE
  5
176
330
22
100
AcDbEntity
  8
0
  6
Continuous
 62
     2
100
AcDbCircle
 10
-16.0
 20
16.0
 30
0.0
 40
1.5
  0
CIRCLE
  5
177
330
22
100
AcDbEntity
  8
0
  6
Continuous
 62
     2
100
AcDbCircle
 10
-15.99998092651367
 20
-15.99999237060546
 30
0.0
 40
1.5
  0
CIRCLE
  5
178
330
22
100
AcDbEntity
  8
0
  6
Continuous
 62
     2
100
AcDbCircle
 10
16.00002670288086
 20
-15.99999237060546
 30
0.0
 40
1.5
  0
CIRCLE
  5
179
330
22
100
AcDbEntity
  8
0
  6
Continuous
 62
     2
100
AcDbCircle
 10
16.0
 20
16.0
 30
0.0
 40
1.5
  0
LINE
  5
17A
330
22
100
AcDbEntity
  8
0
  6
Continuous
 62
     2
100
AcDbLine
 10
40.86970520019531
 20
-7.0
 30
0.0
 11
24.0347900390625
 21
-7.0
 31
0.0
  0
LINE
  5
17B
330
22
100
AcDbEntity
  8
0
  6
Continuous
 62
     7
100
AcDbLine
 10
31.49997329711914
 20
-4.5
 30
0.0
 11
27.99999618530273
 21
-4.5
 31
0.0
  0
LINE
  5
17C
330
22
100
AcDbEntity
  8
0
  6
Continuous
 62
     7
100
AcDbLine
 10
31.49997329711914
 20
-9.500022888183593
 30
0.0
 11
27.99999618530273
 21
-9.500022888183593
 31
0.0
  0
LINE
  5
17D
330
22
100
AcDbEntity
  8
0
  6
Continuous
 62
     7
100
AcDbLine
 10
38.09997724669401
 20
-9.500022888183593
 30
0.0
 11
31.99999618530273
 21
-9.500022888183593
 31
0.0
  0
LINE
  5
17E
330
22
100
AcDbEntity
  8
0
  6
Continuous
 62
     7
100
AcDbLine
 10
38.09999170541408
 20
-4.5
 30
0.0
 11
31.99999618530273
 21
-4.5
 31
0.0
  0
LINE
  5
17F
330
22
100
AcDbEntity
  8
0
  6
Continuous
 62
     7
100
AcDbLine
 10
38.5
 20
-4.899999999999999
 30
0.0
 11
38.5
 21
-9.099999999999994
 31
0.0
  0
LINE
  5
180
330
22
100
AcDbEntity
  8
0
  6
Continuous
 62
     7
100
AcDbLine
 10
31.99999618530273
 20
-3.500015258789062
 30
0.0
 11
31.99999618530273
 21
-10.50003051757812
 31
0.0
  0
LINE
  5
181
330
22
100
AcDbEntity
  8
0
  6
Continuous
 62
     7
100
AcDbLine
 10
31.49998092651367
 20
-11.50002288818359
 30
0.0
 11
27.99999618530273
 21
-11.50002288818359
 31
0.0
  0
LINE
  5
182
330
22
100
AcDbEntity
  8
0
  6
Continuous
 62
     7
100
AcDbLine
 10
31.49997329711914
 20
-2.5
 30
0.0
 11
27.99999618530273
 21
-2.5
 31
0.0
  0
LINE
  5
183
330
22
100
AcDbEntity
  8
0
  6
Continuous
 62
     7
100
AcDbLine
 10
27.99999618530273
 20
-1.5
 30
0.0
 11
27.99999618530273
 21
-12.50002288818359
 31
0.0
  0
LINE
  5
184
330
22
100
AcDbEntity
  8
0
  6
Continuous
 62
     7
100
AcDbLine
 10
27.99999618530273
 20
-1.5
 30
0.0
 11
26.5
 21
-1.5
 31
0.0
  0
LINE
  5
185
330
22
100
AcDbEntity
  8
0
  6
Continuous
 62
     7
100
AcDbLine
 10
27.99999618530273
 20
-12.50002288818359
 30
0.0
 11
26.5
 21
-12.50002288818359
 31
0.0
  0
LINE
  5
186
330
22
100
AcDbEntity
  8
0
  6
CENTER
 62
     2
100
AcDbLine
 10
-29.99999986666491
 20
0.0
 30
0.0
 11
30.25000013315496
 21
0.0
 31
0.0
  0
LINE
  5
187
330
22
100
AcDbEntity
  8
0
  6
Continuous
 62
     7
100
AcDbLine
 10
-26.5
 20
-19.0
 30
0.0
 11
-26.5
 21
19.0
 31
0.0
  0
LINE
  5
188
330
22
100
AcDbEntity
  8
0
  6
Continuous
 62
     7
100
AcDbLine
 10
26.5
 20
-19.0
 30
0.0
 11
26.5
 21
19.0
 31
0.0
  0
LINE
  5
189
330
22
100
AcDbEntity
  8
0
  6
Continuous
 62
     2
100
AcDbLine
 10
20.0
 20
2.536529541015625
 30
0.0
 11
20.0
 21
-2.551651000976562
 31
0.0
  0
LINE
  5
18A
330
22
100
AcDbEntity
  8
0
  6
Continuous
 62
     2
100
AcDbLine
 10
-20.0
 20
2.536518096923828
 30
0.0
 11
-20.0
 21
-2.536518096923828
 31
0.0
  0
LINE
  5
18B
330
22
100
AcDbEntity
  8
0
  6
Continuous
 62
     7
100
AcDbLine
 10
-19.00003671646118
 20
1.25
 30
0.0
 11
-21.00003623962402
 21
1.25
 31
0.0
  0
LINE
  5
18C
330
22
100
AcDbEntity
  8
0
  6
Continuous
 62
     7
100
AcDbLine
 10
-19.00003671646118
 20
-1.25
 30
0.0
 11
-21.00003623962402
 21
-1.25
 31
0.0
  0
LINE
  5
18D
330
22
100
AcDbEntity
  8
0
  6
Continuous
 62
     2
100
AcDbLine
 10
-19.00000047683716
 20
1.919757843017577
 30
0.0
 11
-19.00000047683716
 21
-1.919757843017577
 31
0.0
  0
LINE
  5
18E
330
22
100
AcDbEntity
  8
0
  6
Continuous
 62
     2
100
AcDbLine
 10
-21.0
 20
1.919757843017577
 30
0.0
 11
-21.0
 21
-1.919757843017577
 31
0.0
  0
LINE
  5
18F
330
22
100
AcDbEntity
  8
0
  6
Continuous
 62
     7
100
AcDbLine
 10
28.50000762939453
 20
6.299976348876953
 30
0.0
 11
28.50000762939453
 21
6.699981689453125
 31
0.0
  0
LINE
  5
190
330
22
100
AcDbEntity
  8
0
  6
Continuous
 62
     2
100
AcDbLine
 10
29.72160339692663
 20
6.5
 30
0.0
 11
25.44915673127448
 21
6.5
 31
0.0
  0
LINE
  5
191
330
22
100
AcDbEntity
  8
0
  6
Continuous
 62
     7
100
AcDbLine
 10
-26.5
 20
19.0
 30
0.0
 11
26.5
 21
19.0
 31
0.0
  0
LINE
  5
192
330
22
100
AcDbEntity
  8
0
  6
Continuous
 62
     7
100
AcDbLine
 10
-26.5
 20
-19.0
 30
0.0
 11
26.5
 21
-19.0
 31
0.0
  0
LINE
  5
193
330
22
100
AcDbEntity
  8
0
  6
Continuous
 62
     2
100
AcDbLine
 10
38.5
 20
-4.932999999999999
 30
0.0
 11
31.99999618530273
 21
-4.932999999999999
 31
0.0
  0
LINE
  5
194
330
22
100
AcDbEntity
  8
0
  6
Continuous
 62
     2
100
AcDbLine
 10
38.5
 20
-9.067
 30
0.0
 11
31.99999618530273
 21
-9.067
 31
0.0
  0
LINE
  5
195
330
22
100
AcDbEntity
  8
0
  6
Continuous
 62
     7
100
AcDbLine
 10
38.50000000000001
 20
-4.899999999999999
 30
0.0
 11
38.09999170541408
 21
-4.5
 31
0.0
  0
LINE
  5
196
330
22
100
AcDbEntity
  8
0
  6
Continuous
 62
     7
100
AcDbLine
 10
38.5
 20
-9.099999999999994
 30
0.0
 11
38.09997724669401
 21
-9.500022888183593
 31
0.0
  0
LINE
  5
197
330
22
100
AcDbEntity
  8
0
  6
Continuous
 62
     7
100
AcDbLine
 10
38.09999170541408
 20
-4.5
 30
0.0
 11
38.09999170541408
 21
-9.500022888183593
 31
0.0
  0
ARC
  5
198
330
22
100
AcDbEntity
  8
0
  6
Continuous
 62
     7
100
AcDbCircle
 10
27.17520529031753
 20
8.113104343414304
 30
0.0
 40
1.100000023841857
100
AcDbArc
 50
15.86711182925191
 51
86.99995301580964
  0
LINE
  5
199
330
22
100
AcDbEntity
  8
0
  6
Continuous
 62
     7
100
AcDbLine
 10
26.5
 20
9.250000001268528
 30
0.0
 11
27.23277328005337
 21
9.211596578939603
 31
0.0
  0
ARC
  5
19A
330
22
100
AcDbEntity
  8
0
  6
Continuous
 62
     7
100
AcDbCircle
 10
21.50000381469727
 20
6.5
 30
0.0
 40
7.0
100
AcDbArc
 50
344.1328881707481
 51
15.86711182925191
  0
ARC
  5
19B
330
22
100
AcDbEntity
  8
0
  6
Continuous
 62
     7
100
AcDbCircle
 10
27.17520529031753
 20
4.886896133422851
 30
0.0
 40
1.100000023841857
100
AcDbArc
 50
273.0000606445687
 51
344.1328881707481
  0
LINE
  5
19C
330
22
100
AcDbEntity
  8
0
  6
Continuous
 62
     7
100
AcDbLine
 10
26.5
 20
3.750000017058547
 30
0.0
 11
27.23277483705534
 21
3.788403747871598
 31
0.0
  0
CIRCLE
  5
19D
330
22
100
AcDbEntity
  8
0
  6
Continuous
 62
     7
100
AcDbCircle
 10
16.0
 20
16.0
 30
0.0
 40
1.2295
  0
CIRCLE
  5
19E
330
22
100
AcDbEntity
  8
0
  6
Continuous
 62
     7
100
AcDbCircle
 10
-16.0
 20
16.0
 30
0.0
 40
1.2295
  0
CIRCLE
  5
19F
330
22
100
AcDbEntity
  8
0
  6
Continuous
 62
     7
100
AcDbCircle
 10
-16.0
 20
-16.0
 30
0.0
 40
1.2295
  0
CIRCLE
  5
1A0
330
22
100
AcDbEntity
  8
0
  6
Continuous
 62
     7
100
AcDbCircle
 10
16.0
 20
-16.0
 30
0.0
 40
1.2295
  0
LINE
  5
1A1
330
22
100
AcDbEntity
  8
0
  6
Continuous
 62
     2
100
AcDbLine
 10
13.5
 20
16.0
 30
0.0
 11
18.5
 21
16.0
 31
0.0
  0
LINE
  5
1A2
330
22
100
AcDbEntity
  8
0
  6
Continuous
 62
     2
100
AcDbLine
 10
16.0
 20
13.5
 30
0.0
 11
16.0
 21
18.5
 31
0.0
  0
LINE
  5
1A3
330
22
100
AcDbEntity
  8
0
  6
Continuous
 62
     2
100
AcDbLine
 10
-18.5
 20
16.0
 30
0.0
 11
-13.5
 21
16.0
 31
0.0
  0
LINE
  5
1A4
330
22
100
AcDbEntity
  8
0
  6
Continuous
 62
     2
100
AcDbLine
 10
-16.0
 20
13.5
 30
0.0
 11
-16.0
 21
18.5
 31
0.0
  0
LINE
  5
1A5
330
22
100
AcDbEntity
  8
0
  6
Continuous
 62
     2
100
AcDbLine
 10
13.5
 20
-16.0
 30
0.0
 11
18.5
 21
-16.0
 31
0.0
  0
LINE
  5
1A6
330
22
100
AcDbEntity
  8
0
  6
Continuous
 62
     2
100
AcDbLine
 10
16.0
 20
-18.5
 30
0.0
 11
16.0
 21
-13.5
 31
0.0
  0
LINE
  5
1A7
330
22
100
AcDbEntity
  8
0
  6
Continuous
 62
     2
100
AcDbLine
 10
-18.5
 20
-16.0
 30
0.0
 11
-13.5
 21
-16.0
 31
0.0
  0
LINE
  5
1A8
330
22
100
AcDbEntity
  8
0
  6
Continuous
 62
     2
100
AcDbLine
 10
-16.0
 20
-18.5
 30
0.0
 11
-16.0
 21
-13.5
 31
0.0
  0
ARC
  5
1A9
330
22
100
AcDbEntity
  8
0
  6
Continuous
 62
     7
100
AcDbCircle
 10
30.74997329711914
 20
-3.499969482421875
 30
0.0
 40
1.25
100
AcDbArc
 50
306.8699255409518
 51
53.13008811942657
  0
LINE
  5
1AA
330
22
100
AcDbEntity
  8
0
  6
Continuous
 62
     2
100
AcDbLine
 10
-11.99999999981987
 20
20.5
 30
0.0
 11
-11.99999999981987
 21
17.5
 31
0.0
  0
LINE
  5
1AB
330
22
100
AcDbEntity
  8
0
  6
Continuous
 62
     2
100
AcDbLine
 10
12.00000000018013
 20
20.5
 30
0.0
 11
12.00000000018013
 21
17.5
 31
0.0
  0
LINE
  5
1AC
330
22
100
AcDbEntity
  8
0
  6
Continuous
 62
     2
100
AcDbLine
 10
12.00000000018013
 20
-20.5
 30
0.0
 11
12.00000000018013
 21
-17.5
 31
0.0
  0
LINE
  5
1AD
330
22
100
AcDbEntity
  8
0
  6
Continuous
 62
     2
100
AcDbLine
 10
-11.99999999981987
 20
-20.5
 30
0.0
 11
-11.99999999981987
 21
-17.5
 31
0.0
  0
LINE
  5
1AE
330
22
100
AcDbEntity
  8
0
  6
Continuous
 62
     2
100
AcDbLine
 10
-28.0
 20
6.5
 30
0.0
 11
-25.0
 21
6.5
 31
0.0
  0
LINE
  5
1AF
330
22
100
AcDbEntity
  8
0
  6
Continuous
 62
     2
100
AcDbLine
 10
-28.0
 20
-7.0
 30
0.0
 11
-25.0
 21
-7.0
 31
0.0
  0
LINE
  5
1B0
330
22
100
AcDbEntity
  8
0
  6
CENTER
 62
     2
100
AcDbLine
 10
0.0
 20
-22.5
 30
0.0
 11
0.0
 21
22.5
 31
0.0
  0
ENDBLK
  5
1B1
330
22
100
AcDbEntity
  8
0
100
AcDbBlockEnd
  0
BLOCK
  5
1B2
330
23
100
AcDbEntity
  8
0
100
AcDbBlockBegin
  2
AFDPGH-8-JA-6
 70
     0
 10
0.0
 20
0.0
 30
0.0
  3
AFDPGH-8-JA-6
  1

  0
LINE
  5
1B3
330
23
100
AcDbEntity
  8
0
  6
Continuous
 62
     4
100
AcDbLine
 10
15.5
 20
-3.799999522346453
 30
0.0
 11
19.25346420323327
 21
-3.799999522346481
 31
0.0
  0
LINE
  5
1B4
330
23
100
AcDbEntity
  8
0
  6
Continuous
 62
     4
100
AcDbLine
 10
15.50000000000001
 20
-1.199999522346445
 30
0.0
 11
17.75230946882216
 21
-1.199999522346473
 31
0.0
  0
LINE
  5
1B5
330
23
100
AcDbEntity
  8
0
  6
Continuous
 62
     4
100
AcDbLine
 10
-0.000000004768367
 20
0.0
 30
0.0
 11
15.50000000000001
 21
0.0
 31
0.0
  0
LINE
  5
1B6
330
23
100
AcDbEntity
  8
0
  6
Continuous
 62
     4
100
AcDbLine
 10
-0.000000004768367
 20
-0.5499999965940106
 30
0.0
 11
15.50000000000001
 21
-0.5499999965940106
 31
0.0
  0
LINE
  5
1B7
330
23
100
AcDbEntity
  8
0
  6
Continuous
 62
     4
100
AcDbLine
 10
-0.000000004768367
 20
-1.100000002724783
 30
0.0
 11
15.50000000000001
 21
-1.100000002724783
 31
0.0
  0
LINE
  5
1B8
330
23
100
AcDbEntity
  8
0
  6
Continuous
 62
     4
100
AcDbLine
 10
-0.000000004768367
 20
-2.600000002724784
 30
0.0
 11
3.999999995231647
 21
-2.600000002724797
 31
0.0
  0
LINE
  5
1B9
330
23
100
AcDbEntity
  8
0
  6
Continuous
 62
     4
100
AcDbLine
 10
-0.000000004768367
 20
-1.800000002724772
 30
0.0
 11
4.299999998637602
 21
-1.800000002724772
 31
0.0
  0
LINE
  5
1BA
330
23
100
AcDbEntity
  8
0
  6
Continuous
 62
     4
100
AcDbLine
 10
4.299999998637588
 20
-4.59999952234645
 30
0.0
 11
15.49999999523163
 21
-4.59999952234645
 31
0.0
  0
LINE
  5
1BB
330
23
100
AcDbEntity
  8
0
  6
Continuous
 62
     4
100
AcDbLine
 10
15.5
 20
-4.59999952234645
 30
0.0
 11
15.50000000000001
 21
0.0
 31
0.0
  0
LINE
  5
1BC
330
23
100
AcDbEntity
  8
0
  6
Continuous
 62
     4
100
AcDbLine
 10
4.300000000000025
 20
-1.800000002724772
 30
0.0
 11
4.300000000000011
 21
-4.59999952234645
 31
0.0
  0
LINE
  5
1BD
330
23
100
AcDbEntity
  8
0
  6
Continuous
 62
     4
100
AcDbLine
 10
3.251428571428576
 20
-2.599864002724772
 30
0.0
 11
3.251428571428547
 21
-3.899864002724768
 31
0.0
  0
LINE
  5
1BE
330
23
100
AcDbEntity
  8
0
  6
Continuous
 62
     4
100
AcDbLine
 10
3.251428571428547
 20
-3.899864002724768
 30
0.0
 11
2.751428571428562
 21
-4.399864002724768
 31
0.0
  0
LINE
  5
1BF
330
23
100
AcDbEntity
  8
0
  6
Continuous
 62
     4
100
AcDbLine
 10
1.251428571428562
 20
-4.399864002724783
 30
0.0
 11
2.751428571428562
 21
-4.399864002724768
 31
0.0
  0
LINE
  5
1C0
330
23
100
AcDbEntity
  8
0
  6
Continuous
 62
     4
100
AcDbLine
 10
1.251428571428562
 20
-4.399864002724783
 30
0.0
 11
0.7514285714285478
 21
-3.899864002724783
 31
0.0
  0
LINE
  5
1C1
330
23
100
AcDbEntity
  8
0
  6
Continuous
 62
   200
100
AcDbLine
 10
0.7514285714285478
 20
-3.899864002724783
 30
0.0
 11
3.251428571428547
 21
-3.899864002724768
 31
0.0
  0
LINE
  5
1C2
330
23
100
AcDbEntity
  8
0
  6
Continuous
 62
     4
100
AcDbLine
 10
0.7514285714285763
 20
-2.599864002724785
 30
0.0
 11
0.7514285714285478
 21
-3.899864002724783
 31
0.0
  0
LINE
  5
1C3
330
23
100
AcDbEntity
  8
0
  6
Continuous
 62
     4
100
AcDbLine
 10
0.0
 20
-1.799864002724774
 30
0.0
 11
0.0
 21
-2.600000002724784
 31
0.0
  0
LINE
  5
1C4
330
23
100
AcDbEntity
  8
0
  6
Continuous
 62
     4
100
AcDbLine
 10
4.000000000000014
 20
-1.800000002724786
 30
0.0
 11
4.000000000000014
 21
-2.600000002724797
 31
0.0
  0
LINE
  5
1C5
330
23
100
AcDbEntity
  8
0
  6
Continuous
 62
   200
100
AcDbLine
 10
1.999999999999985
 20
1.286482308440184
 30
0.0
 11
1.999999999999985
 21
-5.067036249354088
 31
0.0
  0
LINE
  5
1C6
330
23
100
AcDbEntity
  8
0
  6
Continuous
 62
     4
100
AcDbLine
 10
0.0
 20
-1.799864002724774
 30
0.0
 11
0.0
 21
0.0
 31
0.0
  0
LINE
  5
1C7
330
23
100
AcDbEntity
  8
0
  6
Continuous
 62
     4
100
AcDbLine
 10
0.9514285714285648
 20
0.6001359972752454
 30
0.0
 11
3.051428571428573
 21
0.6001359972752454
 31
0.0
  0
LINE
  5
1C8
330
23
100
AcDbEntity
  8
0
  6
Continuous
 62
   200
100
AcDbLine
 10
3.050000000000025
 20
-2.599864002724785
 30
0.0
 11
3.050000000000011
 21
-4.101292574153347
 31
0.0
  0
LINE
  5
1C9
330
23
100
AcDbEntity
  8
0
  6
Continuous
 62
   200
100
AcDbLine
 10
0.9500000000000028
 20
-2.599864002724785
 30
0.0
 11
0.9500000000000028
 21
-4.098435431296209
 31
0.0
  0
LINE
  5
1CA
330
23
100
AcDbEntity
  8
0
  6
Continuous
 62
     4
100
AcDbLine
 10
0.7514285714285763
 20
0.0
 30
0.0
 11
0.7514285714285763
 21
0.4001359972752141
 31
0.0
  0
LINE
  5
1CB
330
23
100
AcDbEntity
  8
0
  6
Continuous
 62
     4
100
AcDbLine
 10
3.251428571428576
 20
0.4001359972752283
 30
0.0
 11
3.251428571428576
 21
0.0000000000000142
 31
0.0
  0
LINE
  5
1CC
330
23
100
AcDbEntity
  8
0
  6
Continuous
 62
     4
100
AcDbLine
 10
0.7514285714285763
 20
0.4001359972752141
 30
0.0
 11
0.9514285714285648
 21
0.6001359972752454
 31
0.0
  0
LINE
  5
1CD
330
23
100
AcDbEntity
  8
0
  6
Continuous
 62
     4
100
AcDbLine
 10
3.051428571428573
 20
0.6001359972752454
 30
0.0
 11
3.251428571428576
 21
0.4001359972752283
 31
0.0
  0
LINE
  5
1CE
330
23
100
AcDbEntity
  8
0
  6
Continuous
 62
     4
100
AcDbLine
 10
0.7514285714285763
 20
0.4001359972752141
 30
0.0
 11
3.251428571428576
 21
0.4001359972752283
 31
0.0
  0
LINE
  5
1CF
330
23
100
AcDbEntity
  8
0
  6
Continuous
 62
   200
100
AcDbLine
 10
3.050000000000011
 20
0.6001359972752312
 30
0.0
 11
3.050000000000025
 21
0.0
 31
0.0
  0
LINE
  5
1D0
330
23
100
AcDbEntity
  8
0
  6
Continuous
 62
   200
100
AcDbLine
 10
0.9499999999999886
 20
0.6001359972752312
 30
0.0
 11
0.9500000000000028
 21
0.0
 31
0.0
  0
LINE
  5
1D1
330
23
100
AcDbEntity
  8
0
  6
Continuous
 62
   200
100
AcDbLine
 10
17.7523094688222
 20
-1.199999522346473
 30
0.0
 11
19.25346420323328
 21
-3.799999522346481
 31
0.0
  0
ENDBLK
  5
1D2
330
23
100
AcDbEntity
  8
0
100
AcDbBlockEnd
  0
BLOCK
  5
1D3
330
24
100
AcDbEntity
  8
0
100
AcDbBlockBegin
  2
AFDPGH-8-JA-7
 70
     0
 10
0.0
 20
0.0
 30
0.0
  3
AFDPGH-8-JA-7
  1

  0
LINE
  5
1D4
330
24
100
AcDbEntity
  8
0
  6
Continuous
 62
     4
100
AcDbLine
 10
-1.050000000000011
 20
0.6001360000000347
 30
0.0
 11
1.050000000000011
 21
0.6001360000000063
 31
0.0
  0
LINE
  5
1D5
330
24
100
AcDbEntity
  8
0
  6
Continuous
 62
     4
100
AcDbLine
 10
-1.250000000000028
 20
0.4001360000000034
 30
0.0
 11
1.249999999999971
 21
0.4001359999999893
 31
0.0
  0
LINE
  5
1D6
330
24
100
AcDbEntity
  8
0
  6
Continuous
 62
     4
100
AcDbLine
 10
-1.50142857142859
 20
0.0000000000000142
 30
0.0
 11
1.499999999999971
 21
0.0
 31
0.0
  0
LINE
  5
1D7
330
24
100
AcDbEntity
  8
0
  6
Continuous
 62
     4
100
AcDbLine
 10
-1.250000000000056
 20
-3.89700685714284
 30
0.0
 11
1.249999999999943
 21
-3.897006857142869
 31
0.0
  0
LINE
  5
1D8
330
24
100
AcDbEntity
  8
0
  6
Continuous
 62
     4
100
AcDbLine
 10
1.249999999999943
 20
-3.897006857142869
 30
0.0
 11
0.7471428571428192
 21
-4.399864000000007
 31
0.0
  0
ARC
  5
1D9
330
24
100
AcDbEntity
  8
0
  6
Continuous
 62
     4
100
AcDbCircle
 10
-0.0000000000000568
 20
-2.549998923398319
 30
0.0
 40
2.050000596223346
100
AcDbArc
 50
179.9563016403132
 51
359.9999999999997
  0
LINE
  5
1DA
330
24
100
AcDbEntity
  8
0
  6
Continuous
 62
     4
100
AcDbLine
 10
-2.050000000000068
 20
-1.799999999999968
 30
0.0
 11
2.049999999999982
 21
-1.799999999999997
 31
0.0
  0
LINE
  5
1DB
330
24
100
AcDbEntity
  8
0
  6
Continuous
 62
     4
100
AcDbLine
 10
-2.050000000000039
 20
-2.59999999999998
 30
0.0
 11
2.049390723326012
 21
-2.600000000000008
 31
0.0
  0
LINE
  5
1DC
330
24
100
AcDbEntity
  8
0
  6
Continuous
 62
     4
100
AcDbLine
 10
1.499999993869209
 20
-0.5499999938692355
 30
0.0
 11
2.049999999999982
 21
-1.100000000000008
 31
0.0
  0
LINE
  5
1DD
330
24
100
AcDbEntity
  8
0
  6
Continuous
 62
     4
100
AcDbLine
 10
1.499999999999943
 20
-0.5499999999999972
 30
0.0
 11
1.499999999999971
 21
0.0000000027247751
 31
0.0
  0
LINE
  5
1DE
330
24
100
AcDbEntity
  8
0
  6
Continuous
 62
     4
100
AcDbLine
 10
1.25
 20
-2.59986400000001
 30
0.0
 11
1.249999999999943
 21
-3.897006857142869
 31
0.0
  0
LINE
  5
1DF
330
24
100
AcDbEntity
  8
0
  6
Continuous
 62
     4
100
AcDbLine
 10
2.049999999999982
 20
-1.100000000000008
 30
0.0
 11
2.050000000000011
 21
-2.548435428571437
 31
0.0
  0
LINE
  5
1E0
330
24
100
AcDbEntity
  8
0
  6
Continuous
 62
     4
100
AcDbLine
 10
1.249999999999971
 20
0.4001359999999893
 30
0.0
 11
1.249999999999971
 21
0.0000000000000142
 31
0.0
  0
LINE
  5
1E1
330
24
100
AcDbEntity
  8
0
  6
Continuous
 62
     4
100
AcDbLine
 10
1.050000000000011
 20
0.6001360000000063
 30
0.0
 11
1.249999999999971
 21
0.4001359999999893
 31
0.0
  0
LINE
  5
1E2
330
24
100
AcDbEntity
  8
0
  6
Continuous
 62
     4
100
AcDbLine
 10
-1.500000000000028
 20
-0.5471354166666629
 30
0.0
 11
-1.500000000000028
 21
0.0000000027248035
 31
0.0
  0
LINE
  5
1E3
330
24
100
AcDbEntity
  8
0
  6
Continuous
 62
     4
100
AcDbLine
 10
-0.747142857142876
 20
-4.399863999999979
 30
0.0
 11
0.7471428571428192
 21
-4.399864000000007
 31
0.0
  0
LINE
  5
1E4
330
24
100
AcDbEntity
  8
0
  6
Continuous
 62
     4
100
AcDbLine
 10
-0.747142857142876
 20
-4.399863999999979
 30
0.0
 11
-1.250000000000056
 21
-3.89700685714284
 31
0.0
  0
LINE
  5
1E5
330
24
100
AcDbEntity
  8
0
  6
Continuous
 62
     4
100
AcDbLine
 10
-1.250000000000056
 20
-2.59999999999998
 30
0.0
 11
-1.250000000000056
 21
-3.89700685714284
 31
0.0
  0
LINE
  5
1E6
330
24
100
AcDbEntity
  8
0
  6
Continuous
 62
     4
100
AcDbLine
 10
-2.050000000000068
 20
-1.09999999999998
 30
0.0
 11
-1.50142857142859
 21
-0.548571428571421
 31
0.0
  0
LINE
  5
1E7
330
24
100
AcDbEntity
  8
0
  6
Continuous
 62
     4
100
AcDbLine
 10
-2.050000000000068
 20
-1.09999999999998
 30
0.0
 11
-2.050000000000068
 21
-2.548435428571409
 31
0.0
  0
LINE
  5
1E8
330
24
100
AcDbEntity
  8
0
  6
Continuous
 62
     4
100
AcDbLine
 10
-1.250000000000028
 20
0.0000000000000142
 30
0.0
 11
-1.250000000000028
 21
0.4001360000000034
 31
0.0
  0
LINE
  5
1E9
330
24
100
AcDbEntity
  8
0
  6
Continuous
 62
     4
100
AcDbLine
 10
-1.250000000000028
 20
0.4001360000000034
 30
0.0
 11
-1.050000000000011
 21
0.6001360000000347
 31
0.0
  0
LINE
  5
1EA
330
24
100
AcDbEntity
  8
0
  6
Continuous
 62
   200
100
AcDbLine
 10
-1.050000000000039
 20
-4.097006857142829
 30
0.0
 11
-1.050000000000039
 21
-2.599999999999994
 31
0.0
  0
LINE
  5
1EB
330
24
100
AcDbEntity
  8
0
  6
Continuous
 62
   200
100
AcDbLine
 10
1.049999999999982
 20
-4.097006857142857
 30
0.0
 11
1.049999999999982
 21
-2.600000000000008
 31
0.0
  0
LINE
  5
1EC
330
24
100
AcDbEntity
  8
0
  6
Continuous
 62
   200
100
AcDbLine
 10
-1.050000000000011
 20
0.0000000000000284
 30
0.0
 11
-1.050000000000011
 21
0.6001360000000347
 31
0.0
  0
LINE
  5
1ED
330
24
100
AcDbEntity
  8
0
  6
Continuous
 62
   200
100
AcDbLine
 10
1.049999999999982
 20
0.0
 30
0.0
 11
1.050000000000011
 21
0.6001360000000063
 31
0.0
  0
LINE
  5
1EE
330
24
100
AcDbEntity
  8
0
  6
Continuous
 62
   200
100
AcDbLine
 10
-0.0000000000000568
 20
-5.067036246629299
 30
0.0
 11
0.0
 21
1.286482311164973
 31
0.0
  0
ENDBLK
  5
1EF
330
24
100
AcDbEntity
  8
0
100
AcDbBlockEnd
  0
BLOCK
  5
1F0
330
25
100
AcDbEntity
  8
0
100
AcDbBlockBegin
  2
AFDPGH-8-JA-8
 70
     0
 10
0.0
 20
0.0
 30
0.0
  3
AFDPGH-8-JA-8
  1

  0
LINE
  5
1F1
330
25
100
AcDbEntity
  8
0
  6
Continuous
 62
     4
100
AcDbLine
 10
-0.0000020180970637
 20
-2.049999999999002
 30
0.0
 11
15.4999979866638
 21
-2.050015258781726
 31
0.0
  0
LINE
  5
1F2
330
25
100
AcDbEntity
  8
0
  6
Continuous
 62
     4
100
AcDbLine
 10
0.0000020180970637
 20
2.049999999999016
 30
0.0
 11
15.50000202285794
 21
2.049984741216292
 31
0.0
  0
LINE
  5
1F3
330
25
100
AcDbEntity
  8
0
  6
Continuous
 62
     4
100
AcDbLine
 10
7.99999941410195
 20
-0.6000078755004666
 30
0.0
 11
9.59999941410116
 21
-0.6000094506006235
 31
0.0
  0
LINE
  5
1F4
330
25
100
AcDbEntity
  8
0
  6
Continuous
 62
     4
100
AcDbLine
 10
8.000000890758341
 20
0.8999921244988087
 30
0.0
 11
9.600000890757554
 21
0.8999905493986517
 31
0.0
  0
LINE
  5
1F5
330
25
100
AcDbEntity
  8
0
  6
Continuous
 62
     4
100
AcDbLine
 10
1.310750292357383
 20
-1.042803362604928
 30
0.0
 11
3.042802790963988
 21
0.6892457258098688
 31
0.0
  0
LINE
  5
1F6
330
25
100
AcDbEntity
  8
0
  6
Continuous
 62
     4
100
AcDbLine
 10
0.9571972201525367
 20
-0.6892496401802788
 30
0.0
 11
2.689249729219682
 21
1.042799458695
 31
0.0
  0
CIRCLE
  5
1F7
330
25
100
AcDbEntity
  8
0
  6
Continuous
 62
   200
100
AcDbCircle
 10
2.0000000047674
 20
-0.0000019688751962
 30
0.0
 40
1.05
  0
CIRCLE
  5
1F8
330
25
100
AcDbEntity
  8
0
  6
Continuous
 62
     4
100
AcDbCircle
 10
2.0000000047674
 20
-0.0000019688751962
 30
0.0
 40
1.25
  0
CIRCLE
  5
1F9
330
25
100
AcDbEntity
  8
0
  6
Continuous
 62
     4
100
AcDbCircle
 10
2.0000000047674
 20
-0.0000019688751962
 30
0.0
 40
1.399999999999999
  0
LINE
  5
1FA
330
25
100
AcDbEntity
  8
0
  6
Continuous
 62
     4
100
AcDbLine
 10
-0.0000014766563936
 20
-1.499999999999275
 30
0.0
 11
15.49999852810447
 21
-1.500015258781999
 31
0.0
  0
LINE
  5
1FB
330
25
100
AcDbEntity
  8
0
  6
Continuous
 62
     4
100
AcDbLine
 10
0.0000014766563936
 20
1.499999999999275
 30
0.0
 11
15.50000148141724
 21
1.49998474121655
 31
0.0
  0
LINE
  5
1FC
330
25
100
AcDbEntity
  8
0
  6
Continuous
 62
     4
100
AcDbLine
 10
15.4999979866638
 20
-2.050015258781726
 30
0.0
 11
15.50000202285794
 21
2.049984741216292
 31
0.0
  0
LINE
  5
1FD
330
25
100
AcDbEntity
  8
0
  6
Continuous
 62
     4
100
AcDbLine
 10
-0.0000020180970637
 20
-2.049999999999002
 30
0.0
 11
0.0000020180970637
 21
2.049999999999016
 31
0.0
  0
LINE
  5
1FE
330
25
100
AcDbEntity
  8
0
  6
Continuous
 62
     4
100
AcDbLine
 10
9.59999941410116
 20
-0.6000094506006235
 30
0.0
 11
9.600000890757554
 21
0.8999905493986517
 31
0.0
  0
LINE
  5
1FF
330
25
100
AcDbEntity
  8
0
  6
Continuous
 62
     4
100
AcDbLine
 10
7.99999941410195
 20
-0.6000078755004666
 30
0.0
 11
8.000000890758341
 21
0.8999921244988087
 31
0.0
  0
LINE
  5
200
330
25
100
AcDbEntity
  8
0
  6
Continuous
 62
     4
100
AcDbLine
 10
10.39999852810692
 20
-1.500010238150267
 30
0.0
 11
10.4000014814197
 21
1.499989761848283
 31
0.0
  0
LINE
  5
201
330
25
100
AcDbEntity
  8
0
  6
Continuous
 62
     4
100
AcDbLine
 10
3.899998528110074
 20
-1.500003839305904
 30
0.0
 11
3.900001481422862
 21
1.499996160692646
 31
0.0
  0
LINE
  5
202
330
25
100
AcDbEntity
  8
0
  6
Continuous
 62
   200
100
AcDbLine
 10
2.000002901826604
 20
2.942855173980532
 30
0.0
 11
1.999996756138429
 21
-3.299986642297056
 31
0.0
  0
LINE
  5
203
330
25
100
AcDbEntity
  8
0
  6
Continuous
 62
     4
100
AcDbLine
 10
15.50000128452974
 20
1.299984741216661
 30
0.0
 11
17.7523107533508
 21
1.299982523958547
 31
0.0
  0
LINE
  5
204
330
25
100
AcDbEntity
  8
0
  6
Continuous
 62
     4
100
AcDbLine
 10
15.49999872499199
 20
-1.300015258782096
 30
0.0
 11
19.25346292822343
 21
-1.300018953833358
 31
0.0
  0
LINE
  5
205
330
25
100
AcDbEntity
  8
0
  6
Continuous
 62
   200
100
AcDbLine
 10
17.75231075335083
 20
1.299982523958547
 30
0.0
 11
19.25346292822343
 21
-1.300018953833358
 31
0.0
  0
LINE
  5
206
330
25
100
AcDbEntity
  8
0
  6
CENTER
 62
   200
100
AcDbLine
 10
-1.410401753016202
 20
0.0000013884525032
 30
0.0
 11
21.50288684078567
 21
-0.0000211682501998
 31
0.0
  0
ENDBLK
  5
207
330
25
100
AcDbEntity
  8
0
100
AcDbBlockEnd
  0
BLOCK
  5
208
330
26
100
AcDbEntity
  8
0
100
AcDbBlockBegin
  2
AFDPGH-8-JA-9
 70
     0
 10
0.0
 20
0.0
 30
0.0
  3
AFDPGH-8-JA-9
  1

  0
LINE
  5
209
330
26
100
AcDbEntity
  8
0
  6
Continuous
 62
     4
100
AcDbLine
 10
10.40000001021792
 20
1.497976233536533
 30
0.0
 11
15.00000000476837
 21
1.497976233536533
 31
0.0
  0
LINE
  5
20A
330
26
100
AcDbEntity
  8
0
  6
Continuous
 62
     4
100
AcDbLine
 10
10.39999999318803
 20
0.9479762301305639
 30
0.0
 11
15.0
 21
0.9479762301305639
 31
0.0
  0
LINE
  5
20B
330
26
100
AcDbEntity
  8
0
  6
Continuous
 62
     4
100
AcDbLine
 10
0.0
 20
-0.5500000000000114
 30
0.0
 11
15.00000000476837
 21
-0.5500000000000114
 31
0.0
  0
LINE
  5
20C
330
26
100
AcDbEntity
  8
0
  6
Continuous
 62
     4
100
AcDbLine
 10
0.0
 20
-1.100000008256415
 30
0.0
 11
15.0
 21
-1.100000008256415
 31
0.0
  0
LINE
  5
20D
330
26
100
AcDbEntity
  8
0
  6
Continuous
 62
     4
100
AcDbLine
 10
0.0
 20
-2.600000000000008
 30
0.0
 11
4.0
 21
-2.600000000000008
 31
0.0
  0
LINE
  5
20E
330
26
100
AcDbEntity
  8
0
  6
Continuous
 62
     4
100
AcDbLine
 10
0.000000004768367
 20
-1.800000000000011
 30
0.0
 11
4.300000004768377
 21
-1.800000000000011
 31
0.0
  0
LINE
  5
20F
330
26
100
AcDbEntity
  8
0
  6
Continuous
 62
     4
100
AcDbLine
 10
0.0
 20
0.0
 30
0.0
 11
15.0
 21
0.0
 31
0.0
  0
LINE
  5
210
330
26
100
AcDbEntity
  8
0
  6
Continuous
 62
     4
100
AcDbLine
 10
4.300000003405983
 20
-4.600000000000008
 30
0.0
 11
15.0
 21
-4.600000000000008
 31
0.0
  0
LINE
  5
211
330
26
100
AcDbEntity
  8
0
  6
Continuous
 62
     4
100
AcDbLine
 10
13.80000000476838
 20
5.897976315961244
 30
0.0
 11
13.80000000476838
 21
9.64566684713908
 31
0.0
  0
LINE
  5
212
330
26
100
AcDbEntity
  8
0
  6
Continuous
 62
     4
100
AcDbLine
 10
11.20000000476835
 20
5.897976315961244
 30
0.0
 11
11.20000000476835
 21
8.14451211272798
 31
0.0
  0
LINE
  5
213
330
26
100
AcDbEntity
  8
0
  6
Continuous
 62
     4
100
AcDbLine
 10
15.00000000476837
 20
-4.600000000000008
 30
0.0
 11
15.00000000476837
 21
4.897976315961244
 31
0.0
  0
LINE
  5
214
330
26
100
AcDbEntity
  8
0
  6
Continuous
 62
     4
100
AcDbLine
 10
4.300000004768377
 20
-1.800000000000011
 30
0.0
 11
4.300000004768377
 21
-4.600000000000008
 31
0.0
  0
LINE
  5
215
330
26
100
AcDbEntity
  8
0
  6
Continuous
 62
     4
100
AcDbLine
 10
3.251428576196928
 20
-2.602023684038755
 30
0.0
 11
3.251428576196928
 21
-3.902023684038752
 31
0.0
  0
LINE
  5
216
330
26
100
AcDbEntity
  8
0
  6
Continuous
 62
     4
100
AcDbLine
 10
3.251428576196928
 20
-3.902023684038752
 30
0.0
 11
2.751428576196929
 21
-4.402023684038752
 31
0.0
  0
LINE
  5
217
330
26
100
AcDbEntity
  8
0
  6
Continuous
 62
     4
100
AcDbLine
 10
1.251428576196928
 20
-4.402023684038752
 30
0.0
 11
2.751428576196929
 21
-4.402023684038752
 31
0.0
  0
LINE
  5
218
330
26
100
AcDbEntity
  8
0
  6
Continuous
 62
     4
100
AcDbLine
 10
1.251428576196928
 20
-4.402023684038752
 30
0.0
 11
0.7514285761969291
 21
-3.902023684038752
 31
0.0
  0
LINE
  5
219
330
26
100
AcDbEntity
  8
0
  6
Continuous
 62
   200
100
AcDbLine
 10
0.7514285761969291
 20
-3.902023684038752
 30
0.0
 11
3.251428576196928
 21
-3.902023684038752
 31
0.0
  0
LINE
  5
21A
330
26
100
AcDbEntity
  8
0
  6
Continuous
 62
     4
100
AcDbLine
 10
0.7514285761969291
 20
-2.602023684038755
 30
0.0
 11
0.7514285761969291
 21
-3.902023684038752
 31
0.0
  0
LINE
  5
21B
330
26
100
AcDbEntity
  8
0
  6
Continuous
 62
     4
100
AcDbLine
 10
0.000000004768367
 20
-1.802023684038758
 30
0.0
 11
0.000000004768367
 21
-2.602023684038755
 31
0.0
  0
LINE
  5
21C
330
26
100
AcDbEntity
  8
0
  6
Continuous
 62
     4
100
AcDbLine
 10
4.000000004768367
 20
-1.802023684038758
 30
0.0
 11
4.000000004768367
 21
-2.602023684038755
 31
0.0
  0
LINE
  5
21D
330
26
100
AcDbEntity
  8
0
  6
Continuous
 62
   200
100
AcDbLine
 10
2.000000004768367
 20
1.284322627126215
 30
0.0
 11
2.000000004768367
 21
-5.069195930668072
 31
0.0
  0
LINE
  5
21E
330
26
100
AcDbEntity
  8
0
  6
Continuous
 62
     4
100
AcDbLine
 10
0.000000004768367
 20
-1.802023684038758
 30
0.0
 11
0.000000004768367
 21
0.0
 31
0.0
  0
LINE
  5
21F
330
26
100
AcDbEntity
  8
0
  6
Continuous
 62
     4
100
AcDbLine
 10
0.9514285761969459
 20
0.5979763159612475
 30
0.0
 11
3.05142857619694
 21
0.5979763159612475
 31
0.0
  0
LINE
  5
220
330
26
100
AcDbEntity
  8
0
  6
Continuous
 62
   200
100
AcDbLine
 10
3.050000004768378
 20
-2.602023684038755
 30
0.0
 11
3.050000004768378
 21
-4.103452255467316
 31
0.0
  0
LINE
  5
221
330
26
100
AcDbEntity
  8
0
  6
Continuous
 62
   200
100
AcDbLine
 10
0.9500000047683554
 20
-2.602023684038755
 30
0.0
 11
0.9500000047683554
 21
-4.100595112610179
 31
0.0
  0
LINE
  5
222
330
26
100
AcDbEntity
  8
0
  6
Continuous
 62
     4
100
AcDbLine
 10
0.7514285761969291
 20
-0.0020236840387469
 30
0.0
 11
0.7514285761969291
 21
0.3979763159612446
 31
0.0
  0
LINE
  5
223
330
26
100
AcDbEntity
  8
0
  6
Continuous
 62
     4
100
AcDbLine
 10
3.251428576196928
 20
0.3979763159612446
 30
0.0
 11
3.251428576196928
 21
-0.0020236840387469
 31
0.0
  0
LINE
  5
224
330
26
100
AcDbEntity
  8
0
  6
Continuous
 62
     4
100
AcDbLine
 10
0.7514285761969291
 20
0.3979763159612446
 30
0.0
 11
0.9514285761969459
 21
0.5979763159612475
 31
0.0
  0
LINE
  5
225
330
26
100
AcDbEntity
  8
0
  6
Continuous
 62
     4
100
AcDbLine
 10
3.05142857619694
 20
0.5979763159612475
 30
0.0
 11
3.251428576196928
 21
0.3979763159612446
 31
0.0
  0
LINE
  5
226
330
26
100
AcDbEntity
  8
0
  6
Continuous
 62
     4
100
AcDbLine
 10
0.7514285761969291
 20
0.3979763159612446
 30
0.0
 11
3.251428576196928
 21
0.3979763159612446
 31
0.0
  0
LINE
  5
227
330
26
100
AcDbEntity
  8
0
  6
Continuous
 62
   200
100
AcDbLine
 10
3.050000004768378
 20
0.5979763159612475
 30
0.0
 11
3.050000004768378
 21
-0.0020236840387469
 31
0.0
  0
LINE
  5
228
330
26
100
AcDbEntity
  8
0
  6
Continuous
 62
   200
100
AcDbLine
 10
0.9500000047683554
 20
0.5979763159612475
 30
0.0
 11
0.9500000047683554
 21
-0.0020236840387469
 31
0.0
  0
LINE
  5
229
330
26
100
AcDbEntity
  8
0
  6
Continuous
 62
     4
100
AcDbLine
 10
15.00000000476837
 20
3.897976315961244
 30
0.0
 11
10.40000000476837
 21
3.897976315961244
 31
0.0
  0
LINE
  5
22A
330
26
100
AcDbEntity
  8
0
  6
Continuous
 62
     4
100
AcDbLine
 10
10.40000000476837
 20
5.897976315961244
 30
0.0
 11
14.60000000476839
 21
5.897976315961244
 31
0.0
  0
LINE
  5
22B
330
26
100
AcDbEntity
  8
0
  6
Continuous
 62
     4
100
AcDbLine
 10
10.40000000476837
 20
-0.0020236840387469
 30
0.0
 11
10.40000000476837
 21
5.897976315961244
 31
0.0
  0
LINE
  5
22C
330
26
100
AcDbEntity
  8
0
  6
Continuous
 62
     4
100
AcDbLine
 10
14.60000000476839
 20
4.897976315961244
 30
0.0
 11
14.60000000476839
 21
5.897976315961244
 31
0.0
  0
LINE
  5
22D
330
26
100
AcDbEntity
  8
0
  6
Continuous
 62
     4
100
AcDbLine
 10
12.94904434147304
 20
4.897976315961244
 30
0.0
 11
15.00000000476837
 21
4.897976315961244
 31
0.0
  0
LINE
  5
22E
330
26
100
AcDbEntity
  8
0
  6
Continuous
 62
     4
100
AcDbLine
 10
12.94904434147304
 20
4.897976311874074
 30
0.0
 11
12.94904434147304
 21
5.897976311874074
 31
0.0
  0
LINE
  5
22F
330
26
100
AcDbEntity
  8
0
  6
Continuous
 62
     4
100
AcDbLine
 10
12.05095566806369
 20
1.497976229666193
 30
0.0
 11
12.05095566806369
 21
5.897976315961244
 31
0.0
  0
LINE
  5
230
330
26
100
AcDbEntity
  8
0
  6
Continuous
 62
     4
100
AcDbLine
 10
10.40000001021792
 20
0.9479762348989313
 30
0.0
 11
12.05095566806369
 21
1.497976229666193
 31
0.0
  0
LINE
  5
231
330
26
100
AcDbEntity
  8
0
  6
Continuous
 62
   200
100
AcDbLine
 10
11.20000000476835
 20
8.14451211272798
 30
0.0
 11
13.80000000476838
 21
9.64566684713908
 31
0.0
  0
ENDBLK
  5
232
330
26
100
AcDbEntity
  8
0
100
AcDbBlockEnd
  0
BLOCK
  5
233
330
27
100
AcDbEntity
  8
0
100
AcDbBlockBegin
  2
AFDPGH-8-JA-10
 70
     0
 10
0.0
 20
0.0
 30
0.0
  3
AFDPGH-8-JA-10
  1

  0
LINE
  5
234
330
27
100
AcDbEntity
  8
0
  6
Continuous
 62
   200
100
AcDbLine
 10
-1.049999999999978
 20
-0.000000001444461
 30
0.0
 11
-1.050010535913161
 21
0.5979763158684093
 31
0.0
  0
LINE
  5
235
330
27
100
AcDbEntity
  8
0
  6
Continuous
 62
   200
100
AcDbLine
 10
1.050000000000021
 20
-0.0000000014444463
 30
0.0
 11
1.049989464086845
 21
0.5979763158684382
 31
0.0
  0
LINE
  5
236
330
27
100
AcDbEntity
  8
0
  6
Continuous
 62
   200
100
AcDbLine
 10
1.050072664852023
 20
-4.12416654054145
 30
0.0
 11
1.050045810132391
 21
-2.599999999596432
 31
0.0
  0
LINE
  5
237
330
27
100
AcDbEntity
  8
0
  6
Continuous
 62
   200
100
AcDbLine
 10
-1.049927335147976
 20
-4.124166540541478
 30
0.0
 11
-1.049954189867607
 21
-2.599999999596447
 31
0.0
  0
LINE
  5
238
330
27
100
AcDbEntity
  8
0
  6
Continuous
 62
     4
100
AcDbLine
 10
1.29989608169361
 20
5.897999133816909
 30
0.0
 11
1.299830050078448
 21
9.645689664413026
 31
0.0
  0
LINE
  5
239
330
27
100
AcDbEntity
  8
0
  6
Continuous
 62
     4
100
AcDbLine
 10
-1.300103917902813
 20
5.897953323684519
 30
0.0
 11
-1.300143500249852
 21
8.14448912010252
 31
0.0
  0
LINE
  5
23A
330
27
100
AcDbEntity
  8
0
  6
Continuous
 62
     4
100
AcDbLine
 10
-1.999359076947087
 20
-2.600035227674368
 30
0.0
 11
2.000640922432033
 21
-2.599964750547613
 31
0.0
  0
LINE
  5
23B
330
27
100
AcDbEntity
  8
0
  6
Continuous
 62
     4
100
AcDbLine
 10
-2.04996828497477
 20
-1.80003611924809
 30
0.0
 11
2.050031714388826
 21
-1.79996388019316
 31
0.0
  0
LINE
  5
23C
330
27
100
AcDbEntity
  8
0
  6
Continuous
 62
     4
100
AcDbLine
 10
-1.500000001728693
 20
-0.0000264289225811
 30
0.0
 11
1.499999997805645
 21
0.00002642892251
 31
0.0
  0
LINE
  5
23D
330
27
100
AcDbEntity
  8
0
  6
Continuous
 62
     4
100
AcDbLine
 10
1.500009690372188
 20
-0.5499735758425146
 30
0.0
 11
1.499983297106936
 21
0.9480026589059633
 31
0.0
  0
LINE
  5
23E
330
27
100
AcDbEntity
  8
0
  6
Continuous
 62
     4
100
AcDbLine
 10
-1.499990288136729
 20
-0.5512197527356193
 30
0.0
 11
-1.500016702427405
 21
0.9479498010608864
 31
0.0
  0
LINE
  5
23F
330
27
100
AcDbEntity
  8
0
  6
Continuous
 62
     4
100
AcDbLine
 10
-2.05002639831453
 20
1.497940113776451
 30
0.0
 11
-1.50001670242737
 21
0.9479497990993481
 31
0.0
  0
LINE
  5
240
330
27
100
AcDbEntity
  8
0
  6
Continuous
 62
     4
100
AcDbLine
 10
1.499983297106901
 20
0.9480026608674876
 30
0.0
 11
2.04997360786104
 21
1.498012352831509
 31
0.0
  0
LINE
  5
241
330
27
100
AcDbEntity
  8
0
  6
Continuous
 62
     4
100
AcDbLine
 10
2.049973606416582
 20
1.498012351387046
 30
0.0
 11
2.049896081577195
 21
5.898012348278157
 31
0.0
  0
LINE
  5
242
330
27
100
AcDbEntity
  8
0
  6
Continuous
 62
     4
100
AcDbLine
 10
-2.050026392946941
 20
1.497940108409054
 30
0.0
 11
-2.050103917786403
 21
5.897940109223227
 31
0.0
  0
ARC
  5
243
330
27
100
AcDbEntity
  8
0
  6
Continuous
 62
     4
100
AcDbCircle
 10
0.0000449291683076
 20
-2.549999999604196
 30
0.0
 40
2.049999999999999
100
AcDbArc
 50
180.001009510479
 51
0.0010095104790212
  0
LINE
  5
244
330
27
100
AcDbEntity
  8
0
  6
Continuous
 62
     4
100
AcDbLine
 10
2.050046534193185
 20
-2.641076737009584
 30
0.0
 11
2.050019380891789
 21
-1.099963888558221
 31
0.0
  0
LINE
  5
245
330
27
100
AcDbEntity
  8
0
  6
Continuous
 62
     4
100
AcDbLine
 10
-2.049955060028044
 20
-2.550631231741733
 30
0.0
 11
-2.049980582816093
 21
-1.102059803395164
 31
0.0
  0
LINE
  5
246
330
27
100
AcDbEntity
  8
0
  6
Continuous
 62
     4
100
AcDbLine
 10
-0.7470652965315772
 20
-4.40203684747594
 30
0.0
 11
0.7472204175221684
 21
-4.402010519235005
 31
0.0
  0
LINE
  5
247
330
27
100
AcDbEntity
  8
0
  6
Continuous
 62
     4
100
AcDbLine
 10
-1.999373172372439
 20
-1.800035227798531
 30
0.0
 11
-1.99935904129123
 21
-2.602058911712802
 31
0.0
  0
LINE
  5
248
330
27
100
AcDbEntity
  8
0
  6
Continuous
 62
     4
100
AcDbLine
 10
2.000626827006676
 20
-1.79996475067179
 30
0.0
 11
2.000640958087892
 21
-2.601988434586033
 31
0.0
  0
LINE
  5
249
330
27
100
AcDbEntity
  8
0
  6
Continuous
 62
     4
100
AcDbLine
 10
-0.7470652965315772
 20
-4.40203684747594
 30
0.0
 11
-1.249931299292327
 21
-3.899188564678511
 31
0.0
  0
LINE
  5
24A
330
27
100
AcDbEntity
  8
0
  6
Continuous
 62
     4
100
AcDbLine
 10
1.250068700319623
 20
-3.899144516474265
 30
0.0
 11
0.7472204175221684
 21
-4.402010519235005
 31
0.0
  0
LINE
  5
24B
330
27
100
AcDbEntity
  8
0
  6
Continuous
 62
     4
100
AcDbLine
 10
-1.249931299292327
 20
-3.899188564678511
 30
0.0
 11
1.250068700319623
 21
-3.899144516474265
 31
0.0
  0
LINE
  5
24C
330
27
100
AcDbEntity
  8
0
  6
Continuous
 62
     4
100
AcDbLine
 10
-1.24995418967358
 20
-2.600022023698556
 30
0.0
 11
-1.249931299292327
 21
-3.899188564678511
 31
0.0
  0
LINE
  5
24D
330
27
100
AcDbEntity
  8
0
  6
Continuous
 62
     4
100
AcDbLine
 10
1.25004580993837
 20
-2.59997797549434
 30
0.0
 11
1.250068700319623
 21
-3.899144516474265
 31
0.0
  0
LINE
  5
24E
330
27
100
AcDbEntity
  8
0
  6
Continuous
 62
     4
100
AcDbLine
 10
2.050019380891644
 20
-1.099963880301814
 30
0.0
 11
1.500009690372103
 21
-0.5499735709920941
 31
0.0
  0
LINE
  5
24F
330
27
100
AcDbEntity
  8
0
  6
Continuous
 62
     4
100
AcDbLine
 10
-2.047956898777648
 20
-1.102059767739305
 30
0.0
 11
-1.499990288136718
 21
-0.551219753602183
 31
0.0
  0
LINE
  5
250
330
27
100
AcDbEntity
  8
0
  6
Continuous
 62
     4
100
AcDbLine
 10
-1.249999999805975
 20
-0.0000220241021225
 30
0.0
 11
-1.250007011862795
 21
0.3979542917973475
 31
0.0
  0
LINE
  5
251
330
27
100
AcDbEntity
  8
0
  6
Continuous
 62
     4
100
AcDbLine
 10
1.249992987749156
 20
0.3979983400015925
 30
0.0
 11
1.249999999805975
 21
0.0000220241021225
 31
0.0
  0
LINE
  5
252
330
27
100
AcDbEntity
  8
0
  6
Continuous
 62
     4
100
AcDbLine
 10
-1.250007011862795
 20
0.3979542917973475
 30
0.0
 11
1.249992987749156
 21
0.3979983400015925
 31
0.0
  0
LINE
  5
253
330
27
100
AcDbEntity
  8
0
  6
Continuous
 62
     4
100
AcDbLine
 10
1.049989463923847
 20
0.5979948161142091
 30
0.0
 11
1.249992987749156
 21
0.3979983400015925
 31
0.0
  0
LINE
  5
254
330
27
100
AcDbEntity
  8
0
  6
Continuous
 62
     4
100
AcDbLine
 10
-1.250007011862795
 20
0.3979542917973475
 30
0.0
 11
-1.050010535750189
 21
0.5979578156226495
 31
0.0
  0
LINE
  5
255
330
27
100
AcDbEntity
  8
0
  6
Continuous
 62
     4
100
AcDbLine
 10
-1.050010535750189
 20
0.5979578156226495
 30
0.0
 11
1.049989463923847
 21
0.5979948161142091
 31
0.0
  0
LINE
  5
256
330
27
100
AcDbEntity
  8
0
  6
Continuous
 62
     4
100
AcDbLine
 10
-2.050068679223024
 20
3.897940109533678
 30
0.0
 11
2.049931320140568
 21
3.898012348588607
 31
0.0
  0
LINE
  5
257
330
27
100
AcDbEntity
  8
0
  6
Continuous
 62
     4
100
AcDbLine
 10
-2.050103917786403
 20
5.897940109223227
 30
0.0
 11
2.049896081577195
 21
5.898012348278157
 31
0.0
  0
LINE
  5
258
330
27
100
AcDbEntity
  8
0
  6
Continuous
 62
   200
100
AcDbLine
 10
-1.300143500249848
 20
8.144489120102546
 30
0.0
 11
1.299830050078448
 21
9.64568966441301
 31
0.0
  0
LINE
  5
259
330
27
100
AcDbEntity
  8
0
  6
Continuous
 62
   200
100
AcDbLine
 10
0.0000977236905442
 20
-5.546406048268352
 30
0.0
 11
-0.0001703669664721
 21
9.669348015564679
 31
0.0
  0
ENDBLK
  5
25A
330
27
100
AcDbEntity
  8
0
100
AcDbBlockEnd
  0
BLOCK
  5
25B
330
28
100
AcDbEntity
  8
0
100
AcDbBlockBegin
  2
AFDPGH-8-JA-11
 70
     0
 10
0.0
 20
0.0
 30
0.0
  3
AFDPGH-8-JA-11
  1

  0
LINE
  5
25C
330
28
100
AcDbEntity
  8
0
  6
CENTER
 62
   200
100
AcDbLine
 10
-1.324720577364814
 20
0.0000013475748801
 30
0.0
 11
16.23761911484182
 21
-0.0000165177532381
 31
0.0
  0
CIRCLE
  5
25D
330
28
100
AcDbEntity
  8
0
  6
Continuous
 62
     4
100
AcDbCircle
 10
11.84999999726911
 20
-0.0000120544381446
 30
0.0
 40
0.29
  0
CIRCLE
  5
25E
330
28
100
AcDbEntity
  8
0
  6
Continuous
 62
     4
100
AcDbCircle
 10
13.15000000271799
 20
-0.0000133768660078
 30
0.0
 40
0.29
  0
CIRCLE
  5
25F
330
28
100
AcDbEntity
  8
0
  6
Continuous
 62
     4
100
AcDbCircle
 10
11.84999999726911
 20
-0.0000120544381446
 30
0.0
 40
0.5
  0
CIRCLE
  5
260
330
28
100
AcDbEntity
  8
0
  6
Continuous
 62
     4
100
AcDbCircle
 10
13.15000000271799
 20
-0.0000133768660078
 30
0.0
 40
0.5
  0
CIRCLE
  5
261
330
28
100
AcDbEntity
  8
0
  6
Continuous
 62
     4
100
AcDbCircle
 10
1.999999999998962
 20
-0.0000020345043339
 30
0.0
 40
1.25
  0
CIRCLE
  5
262
330
28
100
AcDbEntity
  8
0
  6
Continuous
 62
   200
100
AcDbCircle
 10
1.999999999998962
 20
-0.0000020345043339
 30
0.0
 40
1.05
  0
CIRCLE
  5
263
330
28
100
AcDbEntity
  8
0
  6
Continuous
 62
     4
100
AcDbCircle
 10
1.999999999998962
 20
-0.0000020345043339
 30
0.0
 40
1.399999999999999
  0
LINE
  5
264
330
28
100
AcDbEntity
  8
0
  6
Continuous
 62
     4
100
AcDbLine
 10
-0.0000015258782469
 20
-1.499999999999218
 30
0.0
 11
11.03030462844615
 21
-1.500011220602061
 31
0.0
  0
LINE
  5
265
330
28
100
AcDbEntity
  8
0
  6
Continuous
 62
     4
100
AcDbLine
 10
-0.000002085366944
 20
-2.049999999998931
 30
0.0
 11
14.99999791462529
 21
-2.050015258781442
 31
0.0
  0
LINE
  5
266
330
28
100
AcDbEntity
  8
0
  6
Continuous
 62
     4
100
AcDbLine
 10
0.000002085366944
 20
2.049999999998931
 30
0.0
 11
15.00000208535918
 21
2.049984741216462
 31
0.0
  0
LINE
  5
267
330
28
100
AcDbEntity
  8
0
  6
Continuous
 62
     4
100
AcDbLine
 10
7.999999287919338
 20
-0.7000081380169832
 30
0.0
 11
9.599999287918535
 21
-0.7000097656204503
 31
0.0
  0
LINE
  5
268
330
28
100
AcDbEntity
  8
0
  6
Continuous
 62
     4
100
AcDbLine
 10
8.000000915522802
 20
0.8999918619822011
 30
0.0
 11
9.600000915522
 21
0.899990234378734
 31
0.0
  0
LINE
  5
269
330
28
100
AcDbEntity
  8
0
  6
Continuous
 62
     4
100
AcDbLine
 10
9.599999287918535
 20
-0.7000097724323951
 30
0.0
 11
9.600000915522
 21
0.899990234378734
 31
0.0
  0
LINE
  5
26A
330
28
100
AcDbEntity
  8
0
  6
Continuous
 62
     4
100
AcDbLine
 10
7.999999287919338
 20
-0.700008144828928
 30
0.0
 11
8.000000915522802
 21
0.8999918619822011
 31
0.0
  0
LINE
  5
26B
330
28
100
AcDbEntity
  8
0
  6
Continuous
 62
     4
100
AcDbLine
 10
10.39999847120992
 20
-1.50286772977202
 30
0.0
 11
10.40000152587288
 21
1.499989427388641
 31
0.0
  0
LINE
  5
26C
330
28
100
AcDbEntity
  8
0
  6
Continuous
 62
     4
100
AcDbLine
 10
3.899998471213294
 20
-1.502861117632974
 30
0.0
 11
3.900001525876248
 21
1.49999603952773
 31
0.0
  0
LINE
  5
26D
330
28
100
AcDbEntity
  8
0
  6
Continuous
 62
     4
100
AcDbLine
 10
1.308570341564163
 20
-1.06857275971798
 30
0.0
 11
3.051993723462714
 21
0.6748470751817451
 31
0.0
  0
LINE
  5
26E
330
28
100
AcDbEntity
  8
0
  6
Continuous
 62
     4
100
AcDbLine
 10
0.9571421305336683
 20
-0.7142866879409837
 30
0.0
 11
2.688572466167258
 21
1.019997265044352
 31
0.0
  0
LINE
  5
26F
330
28
100
AcDbEntity
  8
0
  6
Continuous
 62
     4
100
AcDbLine
 10
15.00000208535918
 20
2.049984741216462
 30
0.0
 11
14.99999791462529
 21
-2.050015258781442
 31
0.0
  0
LINE
  5
270
330
28
100
AcDbEntity
  8
0
  6
Continuous
 62
     4
100
AcDbLine
 10
0.000002085366944
 20
2.049999999998931
 30
0.0
 11
-0.000002085366944
 21
-2.049999999998931
 31
0.0
  0
LINE
  5
271
330
28
100
AcDbEntity
  8
0
  6
Continuous
 62
     4
100
AcDbLine
 10
0.0000015258782469
 20
1.499999999999218
 30
0.0
 11
11.03030768020265
 21
1.499988779396417
 31
0.0
  0
ARC
  5
272
330
28
100
AcDbEntity
  8
0
  6
Continuous
 62
     4
100
AcDbCircle
 10
12.49999999999353
 20
-0.0000127156520904
 30
0.0
 40
2.1
100
AcDbArc
 50
102.7062835541737
 51
257.6530093483313
  0
ARC
  5
273
330
28
100
AcDbEntity
  8
0
  6
Continuous
 62
     4
100
AcDbCircle
 10
12.49999999999353
 20
-0.0000127156520904
 30
0.0
 40
2.1
100
AcDbArc
 50
282.346874083157
 51
77.29359987731467
  0
CIRCLE
  5
274
330
28
100
AcDbEntity
  8
0
  6
Continuous
 62
     4
100
AcDbCircle
 10
12.49999999999353
 20
-0.0000127156520904
 30
0.0
 40
1.3
  0
LINE
  5
275
330
28
100
AcDbEntity
  8
0
  6
Continuous
 62
   200
100
AcDbLine
 10
2.000002883182248
 20
2.834283679779915
 30
0.0
 11
1.999996590766613
 21
-3.351415279354625
 31
0.0
  0
ENDBLK
  5
276
330
28
100
AcDbEntity
  8
0
100
AcDbBlockEnd
  0
ENDSEC
  0
SECTION
  2
ENTITIES
  0
INSERT
  5
277
330
A
100
AcDbEntity
  8
0
  6
ByBlock
100
AcDbBlockReference
  2
AFDPGH-8-JA-11
 10
60.0
 20
-90.0
 30
0.0
 50
0.000058284255892
  0
INSERT
  5
278
330
A
100
AcDbEntity
  8
0
  6
ByBlock
100
AcDbBlockReference
  2
AFDPGH-8-JA-10
 10
10.0
 20
-120.0
 30
0.0
 50
359.9989904895207
  0
INSERT
  5
279
330
A
100
AcDbEntity
  8
0
  6
ByBlock
100
AcDbBlockReference
  2
AFDPGH-8-JA-9
 10
60.0
 20
-120.0
 30
0.0
  0
INSERT
  5
27A
330
A
100
AcDbEntity
  8
0
  6
ByBlock
100
AcDbBlockReference
  2
AFDPGH-8-JA-8
 10
-90.0
 20
-90.0
 30
0.0
 50
0.0000564041193741
  0
INSERT
  5
27B
330
A
100
AcDbEntity
  8
0
  6
ByBlock
100
AcDbBlockReference
  2
AFDPGH-8-JA-7
 10
-140.0
 20
-120.0
 30
0.0
 50
359.9999998959213
  0
INSERT
  5
27C
330
A
100
AcDbEntity
  8
0
  6
ByBlock
100
AcDbBlockReference
  2
AFDPGH-8-JA-6
 10
-90.0
 20
-120.0
 30
0.0
  0
INSERT
  5
27D
330
A
100
AcDbEntity
  8
0
  6
ByBlock
100
AcDbBlockReference
  2
AFDPGH-8-JA-5
 10
0.0
 20
-20.0
 30
0.0
  0
INSERT
  5
27E
330
A
100
AcDbEntity
  8
0
  6
ByBlock
100
AcDbBlockReference
  2
AFDPGH-8-JA-4
 10
0.0
 20
90.0
 30
0.0
  0
INSERT
  5
27F
330
A
100
AcDbEntity
  8
0
  6
ByBlock
100
AcDbBlockReference
  2
AFDPGH-8-JA-3
 10
80.0
 20
30.0
 30
0.0
  0
INSERT
  5
280
330
A
100
AcDbEntity
  8
0
  6
ByBlock
100
AcDbBlockReference
  2
AFDPGH-8-JA-2
 10
-80.0
 20
30.0
 30
0.0
  0
INSERT
  5
281
330
A
100
AcDbEntity
  8
0
  6
ByBlock
100
AcDbBlockReference
  2
AFDPGH-8-JA-1
 10
0.0
 20
30.0
 30
0.0
  0
LINE
  5
282
330
A
100
AcDbEntity
  8
0
  6
Continuous
 62
     7
100
AcDbLine
 10
-104.25
 20
132.6000061035156
 30
0.0
 11
-104.25
 21
117.6000061035156
 31
0.0
  0
MTEXT
  5
283
330
A
100
AcDbEntity
  8
0
  6
Continuous
 62
     7
100
AcDbMText
 10
-191.1841603062715
 20
125.1000061035156
 30
0.0
 40
4.5
 41
0.0
 71
     4
 72
     5
  1
\W1.088;\A1;FLAT TYPE AIR HANDS
 73
     1
 44
1.0
1001
ACAD
1000
MTEXTBEGIN
1070
    73
1070
     1
1070
    44
1040
1.0
1070
    74
1070
     0
1000
MTEXTEND
  0
LINE
  5
284
330
A
100
AcDbEntity
  8
0
  6
Continuous
 62
     7
100
AcDbLine
 10
-194.25
 20
117.6000061035156
 30
0.0
 11
-104.25
 21
117.6000061035156
 31
0.0
  0
MTEXT
  5
285
330
A
100
AcDbEntity
  8
0
  6
Continuous
 62
     7
100
AcDbMText
 10
-16.60666195310813
 20
-77.70745925240344
 30
0.0
 40
4.5
 41
0.0
 71
     1
 72
     5
  1
\A1;ZE255
 73
     1
 44
1.0
1001
ACAD
1000
MTEXTBEGIN
1070
    73
1070
     1
1070
    44
1040
1.0
1070
    74
1070
     0
1000
MTEXTEND
  0
MTEXT
  5
286
330
A
100
AcDbEntity
  8
0
  6
Continuous
 62
     7
100
AcDbMText
 10
-16.60666195310813
 20
-70.76439655085533
 30
0.0
 40
4.5
 41
0.0
 71
     1
 72
     5
  1
\A1;ZE235
 73
     1
 44
1.0
1001
ACAD
1000
MTEXTBEGIN
1070
    73
1070
     1
1070
    44
1040
1.0
1070
    74
1070
     0
1000
MTEXTEND
  0
LINE
  5
287
330
A
100
AcDbEntity
  8
0
  6
Continuous
 62
     7
100
AcDbLine
 10
-20.19876846057571
 20
-66.97500000000002
 30
0.0
 11
-20.19876846057571
 21
-133.4267309136421
 31
0.0
  0
MTEXT
  5
288
330
A
100
AcDbEntity
  8
0
  6
Continuous
 62
     7
100
AcDbMText
 10
-189.9764605299341
 20
-70.76439655085533
 30
0.0
 40
4.5
 41
0.0
 71
     1
 72
     5
  1
\W1.071;\A1;ZE135
 73
     1
 44
1.0
1001
ACAD
1000
MTEXTBEGIN
1070
    73
1070
     1
1070
    44
1040
1.0
1070
    74
1070
     0
1000
MTEXTEND
  0
MTEXT
  5
289
330
A
100
AcDbEntity
  8
0
  6
Continuous
 62
     7
100
AcDbMText
 10
-189.9764605299341
 20
-77.70745925240344
 30
0.0
 40
4.5
 41
0.0
 71
     1
 72
     5
  1
\W1.071;\A1;ZE155
 73
     1
 44
1.0
1001
ACAD
1000
MTEXTBEGIN
1070
    73
1070
     1
1070
    44
1040
1.0
1070
    74
1070
     0
1000
MTEXTEND
  0
LINE
  5
28A
330
A
100
AcDbEntity
  8
0
  6
Continuous
 62
     7
100
AcDbLine
 10
-194.25
 20
-66.97500000000002
 30
0.0
 11
194.8000000119209
 21
-66.97500000000002
 31
0.0
  0
MTEXT
  5
28C
330
A
100
AcDbEntity
  8
0
  6
Continuous
 62
     7
100
AcDbMText
 10
-185.7193877555768
 20
107.6000061035156
 30
0.0
 40
4.5
 41
0.0
 71
     4
 72
     5
  1
\W1.041;\A1;MODEL:AFDPGH-8-JA
 73
     1
 44
1.0
1001
ACAD
1000
MTEXTBEGIN
1070
    73
1070
     1
1070
    44
1040
1.0
1070
    74
1070
     0
1000
MTEXTEND
  0
LINE
  5
28D
330
A
100
AcDbEntity
  8
0
  6
Continuous
 62
     7
100
AcDbLine
 10
-194.25
 20
132.6000061035156
 30
0.0
 11
194.8000030517578
 21
132.6000061035156
 31
0.0
  0
LINE
  5
28E
330
A
100
AcDbEntity
  8
0
  6
Continuous
 62
     7
100
AcDbLine
 10
194.8000030517578
 20
132.6000061035156
 30
0.0
 11
194.8000030517578
 21
-133.5
 31
0.0
  0
LINE
  5
28F
330
A
100
AcDbEntity
  8
0
  6
Continuous
 62
     7
100
AcDbLine
 10
-194.25
 20
132.6000061035156
 30
0.0
 11
-194.25
 21
-133.5
 31
0.0
  0
LINE
  5
290
330
A
100
AcDbEntity
  8
0
  6
Continuous
 62
     7
100
AcDbLine
 10
-194.25
 20
-133.5
 30
0.0
 11
194.8000030517578
 21
-133.5
 31
0.0
  0
LINE
  5
291
330
A
100
AcDbEntity
  8
0
  6
Continuous
 62
     7
100
AcDbLine
 10
109.8000030517578
 20
-118.5
 30
0.0
 11
109.8000030517578
 21
-133.5
 31
0.0
  0
LINE
  5
292
330
A
100
AcDbEntity
  8
0
  6
Continuous
 62
     7
100
AcDbLine
 10
109.8000030517578
 20
-118.5
 30
0.0
 11
194.8000030517578
 21
-118.5
 31
0.0
  0
LINE
  5
293
330
A
100
AcDbEntity
  8
0
  6
Continuous
 62
     7
100
AcDbLine
 10
109.8000030517578
 20
132.6000061035156
 30
0.0
 11
109.8000030517578
 21
117.6000061035156
 31
0.0
  0
LINE
  5
294
330
A
100
AcDbEntity
  8
0
  6
Continuous
 62
     7
100
AcDbLine
 10
109.8000030517578
 20
117.6000061035156
 30
0.0
 11
194.8000030517578
 21
117.6000061035156
 31
0.0
  0
MTEXT
  5
295
330
A
100
AcDbEntity
  8
0
  6
Continuous
 62
     7
100
AcDbMText
 10
135.3112389898829
 20
125.1000061035156
 30
0.0
 40
4.5
 41
0.0
 71
     4
 72
     5
  1
\W1.348;\A1;Ver. 1.1
 73
     1
 44
1.0
1001
ACAD
1000
MTEXTBEGIN
1070
    73
1070
     1
1070
    44
1040
1.0
1070
    74
1070
     0
1000
MTEXTEND
  0
MTEXT
  5
296
330
A
100
AcDbEntity
  8
0
  6
Continuous
 62
     7
100
AcDbMText
 10
115.5267259825148
 20
-126.0
 30
0.0
 40
6.300000190734863
 41
0.0
 71
     4
 72
     5
  1
\W1.121;\A1;KOGANEI CORP.
 73
     1
 44
1.0
1001
ACAD
1000
MTEXTBEGIN
1070
    73
1070
     1
1070
    44
1040
1.0
1070
    74
1070
     0
1000
MTEXTEND
  0
ENDSEC
  0
SECTION
  2
OBJECTS
  0
DICTIONARY
  5
19
330
0
100
AcDbDictionary
281
     1
  3
ACAD_COLOR
350
29F
  3
ACAD_GROUP
350
1A
  3
ACAD_LAYOUT
350
2A2
  3
ACAD_MATERIAL
350
29E
  3
ACAD_MLINESTYLE
350
1B
  3
ACAD_PLOTSETTINGS
350
2A3
  3
ACAD_PLOTSTYLENAME
350
29C
  3
ACAD_TABLESTYLE
350
2A0
  3
ACDBHEADERROUNDTRIPXREC
350
2AE
  3
AcDbVariableDictionary
350
2A9
  0
DICTIONARY
  5
29F
102
{ACAD_REACTORS
330
19
102
}
330
19
100
AcDbDictionary
281
     1
  0
DICTIONARY
  5
1A
102
{ACAD_REACTORS
330
19
102
}
330
19
100
AcDbDictionary
281
     1
  0
DICTIONARY
  5
2A2
102
{ACAD_REACTORS
330
19
102
}
330
19
100
AcDbDictionary
281
     1
  3
Model
350
2A4
  3
レイアウト1
350
2A5
  0
DICTIONARY
  5
29E
102
{ACAD_REACTORS
330
19
102
}
330
19
100
AcDbDictionary
281
     1
  0
DICTIONARY
  5
1B
102
{ACAD_REACTORS
330
19
102
}
330
19
100
AcDbDictionary
281
     1
  3
STANDARD
350
1C
  0
DICTIONARY
  5
2A3
102
{ACAD_REACTORS
330
19
102
}
330
19
100
AcDbDictionary
281
     1
  0
ACDBDICTIONARYWDFLT
  5
29C
102
{ACAD_REACTORS
330
19
102
}
330
19
100
AcDbDictionary
281
     1
  3
Normal
350
29D
100
AcDbDictionaryWithDefault
340
29D
  0
DICTIONARY
  5
2A0
102
{ACAD_REACTORS
330
19
102
}
330
19
100
AcDbDictionary
281
     1
  3
Standard
350
2A1
  0
DICTIONARY
  5
2AE
102
{ACAD_REACTORS
330
19
102
}
330
19
100
AcDbDictionary
281
     1
  0
DICTIONARY
  5
2A9
102
{ACAD_REACTORS
330
19
102
}
330
19
100
AcDbDictionary
281
     1
  3
CTABLESTYLE
350
2AA
  3
DIMASSOC
350
2AB
  3
PROJECTNAME
350
2AC
  0
LAYOUT
  5
2A4
102
{ACAD_XDICTIONARY
360
2AF
102
}
102
{ACAD_REACTORS
330
2A2
102
}
330
2A2
100
AcDbPlotSettings
  1

  2
DocuCentre Color f450
  4

  6

 40
0.0
 41
0.0
 42
0.0
 43
0.0
 44
0.0
 45
0.0
 46
0.0
 47
0.0
 48
0.0
 49
0.0
140
0.0
141
0.0
142
1.0
143
1.0
 70
  1712
 72
     0
 73
     0
 74
     0
  7

 75
     0
147
1.0
148
0.0
149
0.0
100
AcDbLayout
  1
Model
 70
     1
 71
     0
 10
0.0
 20
0.0
 11
12.0
 21
9.0
 12
0.0
 22
0.0
 32
0.0
 14
0.0
 24
0.0
 34
0.0
 15
0.0
 25
0.0
 35
0.0
146
0.0
 13
0.0
 23
0.0
 33
0.0
 16
1.0
 26
0.0
 36
0.0
 17
0.0
 27
1.0
 37
0.0
 76
     0
330
A
  0
LAYOUT
  5
2A5
102
{ACAD_XDICTIONARY
360
2B1
102
}
102
{ACAD_REACTORS
330
2A2
102
}
330
2A2
100
AcDbPlotSettings
  1

  2
DocuCentre Color f450
  4

  6

 40
0.0
 41
0.0
 42
0.0
 43
0.0
 44
0.0
 45
0.0
 46
0.0
 47
0.0
 48
0.0
 49
0.0
140
0.0
141
0.0
142
1.0
143
1.0
 70
   688
 72
     0
 73
     0
 74
     5
  7

 75
    16
147
1.0
148
0.0
149
0.0
100
AcDbLayout
  1
レイアウト1
 70
     0
 71
     1
 10
0.0
 20
0.0
 11
12.0
 21
9.0
 12
0.0
 22
0.0
 32
0.0
 14
1.000000000000000E+20
 24
1.000000000000000E+20
 34
1.000000000000000E+20
 15
-1.000000000000000E+20
 25
-1.000000000000000E+20
 35
-1.000000000000000E+20
146
0.0
 13
0.0
 23
0.0
 33
0.0
 16
1.0
 26
0.0
 36
0.0
 17
0.0
 27
1.0
 37
0.0
 76
     0
330
B
  0
MLINESTYLE
  5
1C
102
{ACAD_REACTORS
330
1B
102
}
330
1B
100
AcDbMlineStyle
  2
STANDARD
 70
     0
  3

 62
     0
 51
90.0
 52
90.0
 71
     2
 49
0.5
 62
   256
  6
BYLAYER
 49
-0.5
 62
   256
  6
BYLAYER
  0
ACDBPLACEHOLDER
  5
29D
102
{ACAD_REACTORS
330
29C
102
}
330
29C
  0
TABLESTYLE
  5
2A1
102
{ACAD_REACTORS
330
2A0
102
}
330
2A0
100
AcDbTableStyle
  3
Standard
 70
     0
 71
     0
 40
0.06
 41
0.06
280
     0
281
     0
  7
MX_NOTE_STANDARD
140
0.18
170
     2
 62
     0
 63
     7
283
     0
274
    -2
284
     1
 64
     0
275
    -2
285
     1
 65
     0
276
    -2
286
     1
 66
     0
277
    -2
287
     1
 67
     0
278
    -2
288
     1
 68
     0
279
    -2
289
     1
 69
     0
  7
MX_NOTE_STANDARD
140
0.25
170
     5
 62
     0
 63
     7
283
     0
274
    -2
284
     1
 64
     0
275
    -2
285
     1
 65
     0
276
    -2
286
     1
 66
     0
277
    -2
287
     1
 67
     0
278
    -2
288
     1
 68
     0
279
    -2
289
     1
 69
     0
  7
MX_NOTE_STANDARD
140
0.18
170
     5
 62
     0
 63
     7
283
     0
274
    -2
284
     1
 64
     0
275
    -2
285
     1
 65
     0
276
    -2
286
     1
 66
     0
277
    -2
287
     1
 67
     0
278
    -2
288
     1
 68
     0
279
    -2
289
     1
 69
     0
  0
DICTIONARYVAR
  5
2AA
102
{ACAD_REACTORS
330
2A9
102
}
330
2A9
100
DictionaryVariables
280
     0
  1
STANDARD
  0
DICTIONARYVAR
  5
2AB
102
{ACAD_REACTORS
330
2A9
102
}
330
2A9
100
DictionaryVariables
280
     0
  1
1
  0
DICTIONARYVAR
  5
2AC
102
{ACAD_REACTORS
330
2A9
102
}
330
2A9
100
DictionaryVariables
280
     0
  1

  0
DICTIONARY
  5
2AF
330
2A4
100
AcDbDictionary
280
     1
281
     1
  3
ACAD_XREC_ROUNDTRIP
360
2B0
  0
DICTIONARY
  5
2B1
330
2A5
100
AcDbDictionary
280
     1
281
     1
  3
ACAD_XREC_ROUNDTRIP
360
2B2
  0
XRECORD
  5
2B0
102
{ACAD_REACTORS
330
2AF
102
}
330
2AF
100
AcDbXrecord
280
     1
102
SHADEPLOT
 70
     0
102
SHADEPLOTRESLEVEL
 70
     2
102
SHADEPLOTCUSTOMDPI
 70
   300
  0
XRECORD
  5
2B2
102
{ACAD_REACTORS
330
2B1
102
}
330
2B1
100
AcDbXrecord
280
     1
102
SHADEPLOT
 70
     0
102
SHADEPLOTRESLEVEL
 70
     2
102
SHADEPLOTCUSTOMDPI
 70
   300
  0
ENDSEC
  0
EOF
