  0
SECTION
  2
HEADER
  9
$ACADVER
  1
AC1012
  9
$DWGCODEPAGE
  3
dos932
  9
$INSBASE
 10
0.0
 20
0.0
 30
0.0
  9
$EXTMIN
 10
-194.25
 20
-133.5
 30
0.0
  9
$EXTMAX
 10
196.25000429153442
 20
132.60000610351562
 30
0.0
  9
$LIMMIN
 10
-194.25
 20
-133.5
  9
$LIMMAX
 10
196.25000429153442
 20
132.60000610351562
  9
$ORTHOMODE
 70
               0
  9
$REGENMODE
 70
               1
  9
$FILLMODE
 70
               1
  9
$QTEXTMODE
 70
               0
  9
$MIRRTEXT
 70
               1
  9
$DRAGMODE
 70
               2
  9
$LTSCALE
 40
1.0
  9
$OSMODE
 70
               0
  9
$ATTMODE
 70
               1
  9
$TEXTSIZE
 40
3.2000000476837158
  9
$TRACEWID
 40
0.05
  9
$TEXTSTYLE
  7
MX_NOTE_STANDARD
  9
$CLAYER
  8
0
  9
$CELTYPE
  6
CONTINUOUS
  9
$CECOLOR
 62
             256
  9
$CELTSCALE
 40
1.0
  9
$DELOBJ
 70
               1
  9
$DISPSILH
 70
               0
  9
$DIMSCALE
 40
1.0
  9
$DIMASZ
 40
2.5
  9
$DIMEXO
 40
1.5
  9
$DIMDLI
 40
3.75
  9
$DIMRND
 40
0.0
  9
$DIMDLE
 40
0.0
  9
$DIMEXE
 40
1.5
  9
$DIMTP
 40
0.0
  9
$DIMTM
 40
0.0
  9
$DIMTXT
 40
3.2000000476837158
  9
$DIMCEN
 40
2.5
  9
$DIMTSZ
 40
0.0
  9
$DIMTOL
 70
               0
  9
$DIMLIM
 70
               0
  9
$DIMTIH
 70
               0
  9
$DIMTOH
 70
               0
  9
$DIMSE1
 70
               0
  9
$DIMSE2
 70
               0
  9
$DIMTAD
 70
               1
  9
$DIMZIN
 70
               8
  9
$DIMBLK
  1

  9
$DIMASO
 70
               1
  9
$DIMSHO
 70
               1
  9
$DIMPOST
  1

  9
$DIMAPOST
  1

  9
$DIMALT
 70
               0
  9
$DIMALTD
 70
               4
  9
$DIMALTF
 40
0.03937007874016
  9
$DIMLFAC
 40
1.0
  9
$DIMTOFL
 70
               1
  9
$DIMTVP
 40
0.0
  9
$DIMTIX
 70
               0
  9
$DIMSOXD
 70
               0
  9
$DIMSAH
 70
               0
  9
$DIMBLK1
  1

  9
$DIMBLK2
  1

  9
$DIMSTYLE
  2
MXDIMSTYLE
  9
$DIMCLRD
 70
               0
  9
$DIMCLRE
 70
               0
  9
$DIMCLRT
 70
               0
  9
$DIMTFAC
 40
1.0
  9
$DIMGAP
 40
1.0
  9
$DIMJUST
 70
               0
  9
$DIMSD1
 70
               0
  9
$DIMSD2
 70
               0
  9
$DIMTOLJ
 70
               1
  9
$DIMTZIN
 70
               0
  9
$DIMALTZ
 70
               0
  9
$DIMALTTZ
 70
               0
  9
$DIMFIT
 70
               3
  9
$DIMUPT
 70
               1
  9
$DIMUNIT
 70
               2
  9
$DIMDEC
 70
               4
  9
$DIMTDEC
 70
               4
  9
$DIMALTU
 70
               2
  9
$DIMALTTD
 70
               4
  9
$DIMTXSTY
  7
MX_NOTE_STANDARD
  9
$DIMAUNIT
 70
               0
  9
$LUNITS
 70
               2
  9
$LUPREC
 70
               4
  9
$SKETCHINC
 40
0.1
  9
$FILLETRAD
 40
0.0
  9
$AUNITS
 70
               0
  9
$AUPREC
 70
               0
  9
$MENU
  1
acad
  9
$ELEVATION
 40
0.0
  9
$PELEVATION
 40
0.0
  9
$THICKNESS
 40
0.0
  9
$LIMCHECK
 70
               0
  9
$BLIPMODE
 70
               1
  9
$CHAMFERA
 40
0.0
  9
$CHAMFERB
 40
0.0
  9
$CHAMFERC
 40
0.0
  9
$CHAMFERD
 40
0.0
  9
$SKPOLY
 70
               0
  9
$TDCREATE
 40
2453690.590775463
  9
$TDUPDATE
 40
2453690.590775463
  9
$TDINDWG
 40
0.0000000000
  9
$TDUSRTIMER
 40
0.0000000000
  9
$USRTIMER
 70
               1
  9
$ANGBASE
 50
0.0
  9
$ANGDIR
 70
               0
  9
$PDMODE
 70
               0
  9
$PDSIZE
 40
0.0
  9
$PLINEWID
 40
0.0
  9
$COORDS
 70
               1
  9
$SPLFRAME
 70
               0
  9
$SPLINETYPE
 70
               6
  9
$SPLINESEGS
 70
               8
  9
$ATTDIA
 70
               0
  9
$ATTREQ
 70
               1
  9
$HANDLING
 70
               1
  9
$HANDSEED
  5
2B6
  9
$SURFTAB1
 70
               6
  9
$SURFTAB2
 70
               6
  9
$SURFTYPE
 70
               6
  9
$SURFU
 70
               6
  9
$SURFV
 70
               6
  9
$UCSNAME
  2

  9
$UCSORG
 10
0.0
 20
0.0
 30
0.0
  9
$UCSXDIR
 10
1.0
 20
0.0
 30
0.0
  9
$UCSYDIR
 10
0.0
 20
1.0
 30
0.0
  9
$PUCSNAME
  2

  9
$PUCSORG
 10
0.0
 20
0.0
 30
0.0
  9
$PUCSXDIR
 10
1.0
 20
0.0
 30
0.0
  9
$PUCSYDIR
 10
0.0
 20
1.0
 30
0.0
  9
$USERI1
 70
               0
  9
$USERI2
 70
               0
  9
$USERI3
 70
               0
  9
$USERI4
 70
               0
  9
$USERI5
 70
               0
  9
$USERR1
 40
0.0
  9
$USERR2
 40
0.0
  9
$USERR3
 40
0.0
  9
$USERR4
 40
0.0
  9
$USERR5
 40
0.0
  9
$WORLDVIEW
 70
               1
  9
$SHADEDGE
 70
               3
  9
$SHADEDIF
 70
              70
  9
$TILEMODE
 70
               1
  9
$MAXACTVP
 70
              16
  9
$PINSBASE
 10
0.0
 20
0.0
 30
0.0
  9
$PLIMCHECK
 70
               0
  9
$PEXTMIN
 10
1.0000000000000000E+20
 20
1.0000000000000000E+20
 30
1.0000000000000000E+20
  9
$PEXTMAX
 10
-1.0000000000000000E+20
 20
-1.0000000000000000E+20
 30
-1.0000000000000000E+20
  9
$PLIMMIN
 10
0.0
 20
0.0
  9
$PLIMMAX
 10
12.0
 20
9.0
  9
$UNITMODE
 70
               0
  9
$VISRETAIN
 70
               0
  9
$PLINEGEN
 70
               1
  9
$PSLTSCALE
 70
               0
  9
$TREEDEPTH
 70
            3020
  9
$PICKSTYLE
 70
               1
  9
$CMLSTYLE
  2
Standard
  9
$CMLJUST
 70
               0
  9
$CMLSCALE
 40
1.0
  9
$SAVEIMAGES
 70
               0
  0
ENDSEC
  0
SECTION
  2
CLASSES
  0
CLASS
  1
LWPOLYLINE
  2
AcDbPolyline
  3
"AutoCAD"
 90
        0
280
               0
281
               1
  0
CLASS
  1
IMAGE
  2
AcDbRasterImage
  3
ISM
 90
      127
280
               0
281
               1
  0
CLASS
  1
OLE2FRAME
  2
AcDbOle2Frame
  3
""
 90
        0
280
               0
281
               1
  0
CLASS
  1
HATCH
  2
AcDbHatch
  3
"ACAD_SEDONA"
 90
        0
280
               0
281
               1
  0
CLASS
  1
DICTIONARYVAR
  2
AcDbDictionaryVar
  3
"AutoCAD"
 90
        0
280
               0
281
               0
  0
CLASS
  1
RASTERVARIABLES
  2
AcDbRasterVariables
  3
ISM
 90
        0
280
               0
281
               0
  0
CLASS
  1
IMAGEDEF
  2
AcDbRasterImageDef
  3
ISM
 90
        0
280
               0
281
               0
  0
CLASS
  1
IMAGEDEF_REACTOR
  2
AcDbRasterImageDefReactor
  3
ISM
 90
        1
280
               0
281
               0
  0
CLASS
  1
IDBUFFER
  2
AcDbIdBuffer
  3
"Acad"
 90
        0
280
               0
281
               0
  0
CLASS
  1
SPATIAL_FILTER
  2
AcDbSpatialFilter
  3
"Acad"
 90
        0
280
               0
281
               0
  0
CLASS
  1
XRECORD
  2
AcDbXrecord
  3
"<Built In>"
 90
        0
280
               0
281
               0
  0
CLASS
  1
SORTENTSTABLE
  2
AcDbSortentsTable
  3
"AutoCAD"
 90
        0
280
               0
281
               0
  0
CLASS
  1
LAYER_INDEX
  2
AcDbLayerIndex
  3
"Acad"
 90
        0
280
               0
281
               0
  0
CLASS
  1
SPATIAL_INDEX
  2
AcDbSpatialIndex
  3
"Acad"
 90
        0
280
               0
281
               0
  0
CLASS
  1
OBJECT_PTR
  2
CAseDLPNTableRecord
  3
"ASE-LPNTableRecord"
 90
        1
280
               0
281
               0
  0
CLASS
  1
LAYOUT
  2
AcDbLayout
  3
"AutoCAD 2000"
 90
        1
280
               0
281
               0
  0
CLASS
  1
PLOTSETTINGS
  2
AcDbPlotSettings
  3
"AutoCAD 2000"
 90
        1
280
               0
281
               0
  0
CLASS
  1
ACDBDICTIONARYWDFLT
  2
AcDbDictionaryWithDefault
  3
"AutoCAD 2000"
 90
        1
280
               0
281
               0
  0
CLASS
  1
ACDBPLACEHOLDER
  2
AcDbPlaceHolder
  3
"AutoCAD 2000"
 90
        1
280
               0
281
               0
  0
ENDSEC
  0
SECTION
  2
TABLES
  0
TABLE
  2
VPORT
  5
7
100
AcDbSymbolTable
 70
               1
  0
VPORT
  5
15
100
AcDbSymbolTableRecord
100
AcDbViewportTableRecord
  2
*ACTIVE
 70
               0
 10
0.0
 20
0.0
 11
1.0
 21
1.0
 12
1.0000021457672119
 22
-0.4499969482421875
 13
0.0
 23
0.0
 14
1.0
 24
1.0
 15
0.0
 25
0.0
 16
0.0
 26
0.0
 36
1.0
 17
0.0
 27
0.0
 37
0.0
 40
268.76100616455079
 41
1.7320508075688772
 42
50.0
 43
0.0
 44
0.0
 50
0.0
 51
0.0
 71
               0
 72
             100
 73
               1
 74
               1
 75
               0
 76
               0
 77
               0
 78
               0
  0
ENDTAB
  0
TABLE
  2
LTYPE
  5
4
100
AcDbSymbolTable
 70
               4
  0
LTYPE
  5
11
100
AcDbSymbolTableRecord
100
AcDbLinetypeTableRecord
  2
BYBLOCK
 70
              64
  3

 72
              65
 73
               0
 40
0.0
  0
LTYPE
  5
12
100
AcDbSymbolTableRecord
100
AcDbLinetypeTableRecord
  2
BYLAYER
 70
              64
  3

 72
              65
 73
               0
 40
0.0
  0
LTYPE
  5
13
100
AcDbSymbolTableRecord
100
AcDbLinetypeTableRecord
  2
CONTINUOUS
 70
              64
  3
Solid line
 72
              65
 73
               0
 40
0.0
  0
LTYPE
  5
55
100
AcDbSymbolTableRecord
100
AcDbLinetypeTableRecord
  2
CENTER
 70
              64
  3
Center ____ _ ____ _ ____ _ ____ _ ____ _ ____
 72
              65
 73
               4
 40
26.0
 49
20.0
 74
               0
 49
-2.0
 74
               0
 49
2.0
 74
               0
 49
-2.0
 74
               0
  0
ENDTAB
  0
TABLE
  2
LAYER
  5
2
100
AcDbSymbolTable
 70
               2
  0
LAYER
  5
14
100
AcDbSymbolTableRecord
100
AcDbLayerTableRecord
  2
0
 70
               0
 62
               7
  6
CONTINUOUS
  0
LAYER
  5
1D
100
AcDbSymbolTableRecord
100
AcDbLayerTableRecord
  2
DEFPOINTS
 70
               0
 62
               7
  6
CONTINUOUS
  0
ENDTAB
  0
TABLE
  2
STYLE
  5
3
100
AcDbSymbolTable
 70
               1
  0
STYLE
  5
17
100
AcDbSymbolTableRecord
100
AcDbTextStyleTableRecord
  2
MX_NOTE_STANDARD
 70
               0
 40
0.0
 41
1.0
 50
0.0
 71
               0
 42
3.2000000476837158
  3
txt.shx
  4
extfont.shx
  0
ENDTAB
  0
TABLE
  2
VIEW
  5
5
100
AcDbSymbolTable
 70
               0
  0
ENDTAB
  0
TABLE
  2
UCS
  5
6
100
AcDbSymbolTable
 70
               0
  0
ENDTAB
  0
TABLE
  2
APPID
  5
8
100
AcDbSymbolTable
 70
               1
  0
APPID
  5
16
100
AcDbSymbolTableRecord
100
AcDbRegAppTableRecord
  2
ACAD
 70
               0
  0
ENDTAB
  0
TABLE
  2
DIMSTYLE
  5
9
100
AcDbSymbolTable
 70
               1
  0
DIMSTYLE
105
18
100
AcDbSymbolTableRecord
100
AcDbDimStyleTableRecord
  2
MXDIMSTYLE
 70
               0
  3

  4

  5

  6

  7

 40
1.0
 41
2.5
 42
1.5
 43
3.75
 44
1.5
 45
0.0
 46
0.0
 47
0.0
 48
0.0
 71
               0
 72
               0
 73
               0
 74
               0
 75
               0
 76
               0
 77
               1
 78
               8
140
3.2000000476837158
141
2.5
142
0.0
143
0.03937007874016
144
1.0
145
0.0
146
1.0
147
1.0
170
               0
171
               4
172
               1
173
               0
174
               0
175
               0
176
               0
177
               0
178
               0
270
               2
271
               4
272
               4
273
               2
274
               4
275
               0
280
               0
281
               0
282
               0
283
               1
284
               0
285
               0
286
               0
287
               3
288
               1
340
17
  0
ENDTAB
  0
TABLE
  2
BLOCK_RECORD
  5
1
100
AcDbSymbolTable
 70
              11
  0
BLOCK_RECORD
  5
A
100
AcDbSymbolTableRecord
100
AcDbBlockTableRecord
  2
*MODEL_SPACE
  0
BLOCK_RECORD
  5
B
100
AcDbSymbolTableRecord
100
AcDbBlockTableRecord
  2
*PAPER_SPACE
  0
BLOCK_RECORD
  5
1E
100
AcDbSymbolTableRecord
100
AcDbBlockTableRecord
  2
AFDPG-8-JA-1
  0
BLOCK_RECORD
  5
1F
100
AcDbSymbolTableRecord
100
AcDbBlockTableRecord
  2
AFDPG-8-JA-2
  0
BLOCK_RECORD
  5
20
100
AcDbSymbolTableRecord
100
AcDbBlockTableRecord
  2
AFDPG-8-JA-3
  0
BLOCK_RECORD
  5
21
100
AcDbSymbolTableRecord
100
AcDbBlockTableRecord
  2
AFDPG-8-JA-4
  0
BLOCK_RECORD
  5
22
100
AcDbSymbolTableRecord
100
AcDbBlockTableRecord
  2
AFDPG-8-JA-5
  0
BLOCK_RECORD
  5
23
100
AcDbSymbolTableRecord
100
AcDbBlockTableRecord
  2
AFDPG-8-JA-6
  0
BLOCK_RECORD
  5
24
100
AcDbSymbolTableRecord
100
AcDbBlockTableRecord
  2
AFDPG-8-JA-7
  0
BLOCK_RECORD
  5
25
100
AcDbSymbolTableRecord
100
AcDbBlockTableRecord
  2
AFDPG-8-JA-8
  0
BLOCK_RECORD
  5
26
100
AcDbSymbolTableRecord
100
AcDbBlockTableRecord
  2
AFDPG-8-JA-9
  0
BLOCK_RECORD
  5
27
100
AcDbSymbolTableRecord
100
AcDbBlockTableRecord
  2
AFDPG-8-JA-10
  0
BLOCK_RECORD
  5
28
100
AcDbSymbolTableRecord
100
AcDbBlockTableRecord
  2
AFDPG-8-JA-11
  0
ENDTAB
  0
ENDSEC
  0
SECTION
  2
BLOCKS
  0
BLOCK
  5
D
100
AcDbEntity
  8
0
100
AcDbBlockBegin
  2
*MODEL_SPACE
 70
               0
 10
0.0
 20
0.0
 30
0.0
  3
*MODEL_SPACE
  1

  0
ENDBLK
  5
E
100
AcDbEntity
  8
0
100
AcDbBlockEnd
  0
BLOCK
  5
F
100
AcDbEntity
 67
               1
  8
0
100
AcDbBlockBegin
  2
*PAPER_SPACE
 70
               0
 10
0.0
 20
0.0
 30
0.0
  3
*PAPER_SPACE
  1

  0
ENDBLK
  5
10
100
AcDbEntity
 67
               1
  8
0
100
AcDbBlockEnd
  0
BLOCK
  5
29
100
AcDbEntity
  8
0
100
AcDbBlockBegin
  2
AFDPG-8-JA-1
 70
               0
 10
0.0
 20
0.0
 30
0.0
  3
AFDPG-8-JA-1
  1

  0
LINE
  5
2A
100
AcDbEntity
  8
0
  6
CONTINUOUS
 62
               7
100
AcDbLine
 10
-26.0
 20
15.200019881129293
 30
0.0
 11
-26.0
 21
0.0
 31
0.0
  0
LINE
  5
2B
100
AcDbEntity
  8
0
  6
CONTINUOUS
 62
               7
100
AcDbLine
 10
26.0
 20
15.200019881129293
 30
0.0
 11
26.0
 21
0.0
 31
0.0
  0
CIRCLE
  5
2C
100
AcDbEntity
  8
0
  6
CONTINUOUS
 62
               2
100
AcDbCircle
 10
-12.0
 20
10.500000044703484
 30
0.0
 40
1.5
  0
CIRCLE
  5
2D
100
AcDbEntity
  8
0
  6
CONTINUOUS
 62
               7
100
AcDbCircle
 10
-12.0
 20
10.500000044703484
 30
0.0
 40
1.2295
  0
LINE
  5
2E
100
AcDbEntity
  8
0
  6
CONTINUOUS
 62
               2
100
AcDbLine
 10
-12.0
 20
12.716253291675017
 30
0.0
 11
-12.0
 21
8.1233864277601242
 31
0.0
  0
LINE
  5
2F
100
AcDbEntity
  8
0
  6
CONTINUOUS
 62
               2
100
AcDbLine
 10
-14.118488311767578
 20
10.500000044703484
 30
0.0
 11
-9.8230023774723492
 21
10.500000044703484
 31
0.0
  0
LINE
  5
30
100
AcDbEntity
  8
0
  6
CONTINUOUS
 62
               2
100
AcDbLine
 10
-16.553333282470703
 20
17.49333381652832
 30
0.0
 11
-16.553333282470703
 21
20.49333381652832
 31
0.0
  0
LINE
  5
31
100
AcDbEntity
  8
0
  6
CONTINUOUS
 62
               2
100
AcDbLine
 10
16.0
 20
11.493332862854004
 30
0.0
 11
16.0
 21
14.493332862854004
 31
0.0
  0
LINE
  5
32
100
AcDbEntity
  8
0
  6
CONTINUOUS
 62
               2
100
AcDbLine
 10
-16.0
 20
11.493332862854004
 30
0.0
 11
-16.0
 21
14.493332862854004
 31
0.0
  0
LINE
  5
33
100
AcDbEntity
  8
0
  6
CONTINUOUS
 62
               2
100
AcDbLine
 10
20.0
 20
-1.5
 30
0.0
 11
20.0
 21
1.5
 31
0.0
  0
LINE
  5
34
100
AcDbEntity
  8
0
  6
CONTINUOUS
 62
               2
100
AcDbLine
 10
12.0
 20
-1.5
 30
0.0
 11
12.0
 21
1.5
 31
0.0
  0
LINE
  5
35
100
AcDbEntity
  8
0
  6
CONTINUOUS
 62
               2
100
AcDbLine
 10
-12.0
 20
-1.5
 30
0.0
 11
-12.0
 21
1.5
 31
0.0
  0
LINE
  5
36
100
AcDbEntity
  8
0
  6
CONTINUOUS
 62
               2
100
AcDbLine
 10
-20.0
 20
-1.5
 30
0.0
 11
-20.0
 21
1.5
 31
0.0
  0
CIRCLE
  5
37
100
AcDbEntity
  8
0
  6
CONTINUOUS
 62
               2
100
AcDbCircle
 10
12.0
 20
10.500000044703484
 30
0.0
 40
1.5
  0
CIRCLE
  5
38
100
AcDbEntity
  8
0
  6
CONTINUOUS
 62
               2
100
AcDbCircle
 10
21.55072021484375
 20
17.000022932887106
 30
0.0
 40
1.25
  0
CIRCLE
  5
39
100
AcDbEntity
  8
0
  6
CONTINUOUS
 62
               2
100
AcDbCircle
 10
11.55072021484375
 20
17.000022932887106
 30
0.0
 40
1.25
  0
CIRCLE
  5
3A
100
AcDbEntity
  8
0
  6
CONTINUOUS
 62
               2
100
AcDbCircle
 10
-21.550718307495117
 20
17.000022932887106
 30
0.0
 40
1.25
  0
CIRCLE
  5
3B
100
AcDbEntity
  8
0
  6
CONTINUOUS
 62
               2
100
AcDbCircle
 10
-11.550718307495117
 20
17.000022932887106
 30
0.0
 40
1.25
  0
LINE
  5
3C
100
AcDbEntity
  8
0
  6
CONTINUOUS
 62
               7
100
AcDbLine
 10
-26.0
 20
0.0
 30
0.0
 11
26.0
 21
0.0
 31
0.0
  0
LINE
  5
3D
100
AcDbEntity
  8
0
  6
CONTINUOUS
 62
               7
100
AcDbLine
 10
-26.0
 20
12.500000044703484
 30
0.0
 11
26.0
 21
12.500000044703484
 31
0.0
  0
LINE
  5
3E
100
AcDbEntity
  8
0
  6
CONTINUOUS
 62
               7
100
AcDbLine
 10
-26.0
 20
3.3999991863965988
 30
0.0
 11
26.0
 21
3.3999991863965988
 31
0.0
  0
LINE
  5
3F
100
AcDbEntity
  8
0
  6
CONTINUOUS
 62
               2
100
AcDbLine
 10
19.773109436035156
 20
17.000022932887106
 30
0.0
 11
23.360458978954366
 21
17.000022932887106
 31
0.0
  0
LINE
  5
40
100
AcDbEntity
  8
0
  6
CONTINUOUS
 62
               2
100
AcDbLine
 10
9.6780801850126892
 20
17.000022932887106
 30
0.0
 11
13.386085510253906
 21
17.000022932887106
 31
0.0
  0
LINE
  5
41
100
AcDbEntity
  8
0
  6
CONTINUOUS
 62
               7
100
AcDbLine
 10
8.3999977111816406
 20
19.000024840235739
 30
0.0
 11
8.3999977111816406
 21
13.000000044703484
 31
0.0
  0
LINE
  5
42
100
AcDbEntity
  8
0
  6
CONTINUOUS
 62
               7
100
AcDbLine
 10
9.4000015258789062
 20
19.000024840235739
 30
0.0
 11
9.4000015258789062
 21
13.000000044703484
 31
0.0
  0
LINE
  5
43
100
AcDbEntity
  8
0
  6
CONTINUOUS
 62
               7
100
AcDbLine
 10
23.700000762939453
 20
19.000024840235739
 30
0.0
 11
23.700000762939453
 21
13.000000044703484
 31
0.0
  0
LINE
  5
44
100
AcDbEntity
  8
0
  6
CONTINUOUS
 62
               7
100
AcDbLine
 10
24.700000762939453
 20
19.000024840235739
 30
0.0
 11
24.700000762939453
 21
13.000000044703484
 31
0.0
  0
LINE
  5
45
100
AcDbEntity
  8
0
  6
CONTINUOUS
 62
               2
100
AcDbLine
 10
11.55072021484375
 20
18.908117339015035
 30
0.0
 11
11.55072021484375
 21
14.874290511012077
 31
0.0
  0
LINE
  5
46
100
AcDbEntity
  8
0
  6
CONTINUOUS
 62
               2
100
AcDbLine
 10
21.55072021484375
 20
18.908117339015035
 30
0.0
 11
21.55072021484375
 21
14.874290511012077
 31
0.0
  0
LINE
  5
47
100
AcDbEntity
  8
0
  6
CONTINUOUS
 62
               7
100
AcDbLine
 10
24.700000762939453
 20
19.000022932887106
 30
0.0
 11
8.4000015258789063
 21
19.000022932887106
 31
0.0
  0
LINE
  5
48
100
AcDbEntity
  8
0
  6
CONTINUOUS
 62
               7
100
AcDbLine
 10
-8.3999958038330078
 20
19.000024840235739
 30
0.0
 11
-8.3999958038330078
 21
13.000000044703484
 31
0.0
  0
LINE
  5
49
100
AcDbEntity
  8
0
  6
CONTINUOUS
 62
               7
100
AcDbLine
 10
-9.3999958038330078
 20
19.000024840235739
 30
0.0
 11
-9.3999958038330078
 21
13.000000044703484
 31
0.0
  0
LINE
  5
4A
100
AcDbEntity
  8
0
  6
CONTINUOUS
 62
               7
100
AcDbLine
 10
-23.699995040893555
 20
19.000024840235739
 30
0.0
 11
-23.699995040893555
 21
13.000000044703484
 31
0.0
  0
LINE
  5
4B
100
AcDbEntity
  8
0
  6
CONTINUOUS
 62
               7
100
AcDbLine
 10
-24.699995040893555
 20
19.000024840235739
 30
0.0
 11
-24.699995040893555
 21
13.000000044703484
 31
0.0
  0
LINE
  5
4C
100
AcDbEntity
  8
0
  6
CONTINUOUS
 62
               7
100
AcDbLine
 10
24.700000762939453
 20
15.200019881129293
 30
0.0
 11
26.0
 21
15.200019881129293
 31
0.0
  0
LINE
  5
4D
100
AcDbEntity
  8
0
  6
CONTINUOUS
 62
               7
100
AcDbLine
 10
-8.3999958038330078
 20
15.200019881129293
 30
0.0
 11
8.3999977111816406
 21
15.200019881129293
 31
0.0
  0
LINE
  5
4E
100
AcDbEntity
  8
0
  6
CONTINUOUS
 62
               2
100
AcDbLine
 10
-19.773103713989258
 20
17.000022932887106
 30
0.0
 11
-23.349234994703103
 21
17.000022932887106
 31
0.0
  0
LINE
  5
4F
100
AcDbEntity
  8
0
  6
CONTINUOUS
 62
               2
100
AcDbLine
 10
-11.550718307495117
 20
18.908117339015035
 30
0.0
 11
-11.550718307495117
 21
14.874290511012077
 31
0.0
  0
LINE
  5
50
100
AcDbEntity
  8
0
  6
CONTINUOUS
 62
               2
100
AcDbLine
 10
-21.550718307495117
 20
18.908117339015035
 30
0.0
 11
-21.550718307495117
 21
14.874290511012077
 31
0.0
  0
LINE
  5
51
100
AcDbEntity
  8
0
  6
CONTINUOUS
 62
               2
100
AcDbLine
 10
-9.6919330415365827
 20
17.000022932887106
 30
0.0
 11
-13.386083602905273
 21
17.000022932887106
 31
0.0
  0
LINE
  5
52
100
AcDbEntity
  8
0
  6
CONTINUOUS
 62
               7
100
AcDbLine
 10
-24.699995040893555
 20
19.000022932887106
 30
0.0
 11
-8.3999996185302734
 21
19.000022932887106
 31
0.0
  0
LINE
  5
53
100
AcDbEntity
  8
0
  6
CONTINUOUS
 62
               7
100
AcDbLine
 10
-26.0
 20
6.6000004261732101
 30
0.0
 11
26.0
 21
6.6000004261732101
 31
0.0
  0
LINE
  5
54
100
AcDbEntity
  8
0
  6
CONTINUOUS
 62
               7
100
AcDbLine
 10
-26.0
 20
15.200019881129293
 30
0.0
 11
-24.699995040893555
 21
15.200019881129293
 31
0.0
  0
LINE
  5
56
100
AcDbEntity
  8
0
  6
CENTER
 62
               2
100
AcDbLine
 10
-35.69761672769237
 20
5.0000000447034836
 30
0.0
 11
30.0
 21
5.0000000447034836
 31
0.0
  0
LINE
  5
57
100
AcDbEntity
  8
0
  6
CONTINUOUS
 62
               7
100
AcDbLine
 10
-26.0
 20
0.4999999850988388
 30
0.0
 11
26.0
 21
0.4999999850988388
 31
0.0
  0
LINE
  5
58
100
AcDbEntity
  8
0
  6
CONTINUOUS
 62
               7
100
AcDbLine
 10
-26.0
 20
13.000000044703484
 30
0.0
 11
26.0
 21
13.000000044703484
 31
0.0
  0
LINE
  5
59
100
AcDbEntity
  8
0
  6
CONTINUOUS
 62
               2
100
AcDbLine
 10
16.553333282470703
 20
17.493355751037626
 30
0.0
 11
16.553333282470703
 21
20.493355751037626
 31
0.0
  0
LINE
  5
5A
100
AcDbEntity
  8
0
  6
CONTINUOUS
 62
               2
100
AcDbLine
 10
-16.549997329711914
 20
17.493355751037626
 30
0.0
 11
-16.549997329711914
 21
20.493355751037626
 31
0.0
  0
CIRCLE
  5
5B
100
AcDbEntity
  8
0
  6
CONTINUOUS
 62
               7
100
AcDbCircle
 10
12.0
 20
10.500000044703484
 30
0.0
 40
1.2295
  0
CIRCLE
  5
5C
100
AcDbEntity
  8
0
  6
CONTINUOUS
 62
               7
100
AcDbCircle
 10
21.55072021484375
 20
17.000022932887106
 30
0.0
 40
1.0065
  0
CIRCLE
  5
5D
100
AcDbEntity
  8
0
  6
CONTINUOUS
 62
               7
100
AcDbCircle
 10
11.55072021484375
 20
17.000022932887106
 30
0.0
 40
1.0065
  0
CIRCLE
  5
5E
100
AcDbEntity
  8
0
  6
CONTINUOUS
 62
               7
100
AcDbCircle
 10
-11.550718307495117
 20
17.000022932887106
 30
0.0
 40
1.0065
  0
CIRCLE
  5
5F
100
AcDbEntity
  8
0
  6
CONTINUOUS
 62
               7
100
AcDbCircle
 10
-21.550718307495117
 20
17.000022932887106
 30
0.0
 40
1.0065
  0
LINE
  5
60
100
AcDbEntity
  8
0
  6
CONTINUOUS
 62
               7
100
AcDbLine
 10
-26.999994277954102
 20
9.0000000447034836
 30
0.0
 11
-26.0
 21
9.0000000447034836
 31
0.0
  0
LINE
  5
61
100
AcDbEntity
  8
0
  6
CONTINUOUS
 62
               7
100
AcDbLine
 10
-34.699991226198279
 20
3.5000000447004425
 30
0.0
 11
-34.699991226198335
 21
6.5000000447004425
 31
0.0
  0
LINE
  5
62
100
AcDbEntity
  8
0
  6
CONTINUOUS
 62
               7
100
AcDbLine
 10
-34.999994277954102
 20
6.1999969929446781
 30
0.0
 11
-34.999994277954102
 21
3.8000030964612961
 31
0.0
  0
LINE
  5
63
100
AcDbEntity
  8
0
  6
CONTINUOUS
 62
               7
100
AcDbLine
 10
-26.999994277954102
 20
9.0000000447034836
 30
0.0
 11
-26.999994277954102
 21
7.6640603572308521
 31
0.0
  0
LINE
  5
64
100
AcDbEntity
  8
0
  6
CONTINUOUS
 62
               7
100
AcDbLine
 10
-34.999994277954102
 20
6.1999969929446781
 30
0.0
 11
-34.699991226198335
 21
6.5000000447004425
 31
0.0
  0
LINE
  5
65
100
AcDbEntity
  8
0
  6
CONTINUOUS
 62
               7
100
AcDbLine
 10
-34.699991226196289
 20
6.5000000447034836
 30
0.0
 11
-29.999994277954102
 21
6.5000000447034836
 31
0.0
  0
LINE
  5
66
100
AcDbEntity
  8
0
  6
CONTINUOUS
 62
               2
100
AcDbLine
 10
-34.970491226195293
 20
6.2295000447034852
 30
0.0
 11
-29.99999427795408
 21
6.2295000447034852
 31
0.0
  0
LINE
  5
67
100
AcDbEntity
  8
0
  6
CONTINUOUS
 62
               7
100
AcDbLine
 10
-29.886683323618858
 20
5.0000000447034836
 30
0.0
 11
-27.999998092651367
 21
5.0000000447034836
 31
0.0
  0
LINE
  5
68
100
AcDbEntity
  8
0
  6
CONTINUOUS
 62
               7
100
AcDbLine
 10
-26.999994277954102
 20
1.0000000447034836
 30
0.0
 11
-26.0
 21
1.0000000447034836
 31
0.0
  0
LINE
  5
69
100
AcDbEntity
  8
0
  6
CONTINUOUS
 62
               7
100
AcDbLine
 10
-34.699991226196289
 20
3.5000000447034836
 30
0.0
 11
-29.999994277954102
 21
3.5000000447034836
 31
0.0
  0
LINE
  5
6A
100
AcDbEntity
  8
0
  6
CONTINUOUS
 62
               2
100
AcDbLine
 10
-34.970491226201318
 20
3.770500044703482
 30
0.0
 11
-29.999994277954123
 21
3.770500044703482
 31
0.0
  0
LINE
  5
6B
100
AcDbEntity
  8
0
  6
CONTINUOUS
 62
               7
100
AcDbLine
 10
-34.699991226198279
 20
3.5000000447004425
 30
0.0
 11
-34.999994277954102
 21
3.8000030964562628
 31
0.0
  0
LINE
  5
6C
100
AcDbEntity
  8
0
  6
CONTINUOUS
 62
               7
100
AcDbLine
 10
-26.999994277954102
 20
2.3359402090132733
 30
0.0
 11
-26.999994277954102
 21
1.0000000447034836
 31
0.0
  0
LINE
  5
6D
100
AcDbEntity
  8
0
  6
CONTINUOUS
 62
               7
100
AcDbLine
 10
-26.0
 20
7.7499997460891548
 30
0.0
 11
-26.732767558007474
 21
7.7115966236430893
 31
0.0
  0
ARC
  5
6E
100
AcDbEntity
  8
0
  6
CONTINUOUS
 62
               7
100
AcDbCircle
 10
-20.999998092651367
 20
5.0000000447034836
 30
0.0
 40
7.0
100
AcDbArc
 50
164.13288817074809
 51
195.86711182925191
  0
ARC
  5
6F
100
AcDbEntity
  8
0
  6
CONTINUOUS
 62
               7
100
AcDbCircle
 10
-26.675199568271637
 20
6.6131043881177902
 30
0.0
 40
1.1000000238418579
100
AcDbArc
 50
93.000046984190377
 51
164.13288817074809
  0
LINE
  5
70
100
AcDbEntity
  8
0
  6
CONTINUOUS
 62
               7
100
AcDbLine
 10
-26.0
 20
2.2500003616466597
 30
0.0
 11
-26.73276911500944
 21
2.2884037925750818
 31
0.0
  0
ARC
  5
71
100
AcDbEntity
  8
0
  6
CONTINUOUS
 62
               7
100
AcDbCircle
 10
-26.675199568271637
 20
3.3868961781263351
 30
0.0
 40
1.1000000238418579
100
AcDbArc
 50
195.86711182925191
 51
266.99993935543131
  0
ARC
  5
72
100
AcDbEntity
  8
0
  6
CONTINUOUS
 62
               7
100
AcDbCircle
 10
-21.650293855297491
 20
6.3709069249243484
 30
0.0
 40
8.3497004226566123
100
AcDbArc
 50
170.52155389829827
 51
189.44997146497633
  0
LINE
  5
73
100
AcDbEntity
  8
0
  6
CONTINUOUS
 62
               7
100
AcDbLine
 10
-29.999994277954102
 20
7.7459069249243484
 30
0.0
 11
-26.999994277954102
 21
7.7459069249243484
 31
0.0
  0
LINE
  5
74
100
AcDbEntity
  8
0
  6
CONTINUOUS
 62
               7
100
AcDbLine
 10
-29.999994277954102
 20
7.7459069249243484
 30
0.0
 11
-29.999994277954102
 21
2.2459069249243484
 31
0.0
  0
ARC
  5
75
100
AcDbEntity
  8
0
  6
CONTINUOUS
 62
               7
100
AcDbCircle
 10
-21.650293855297747
 20
3.6209069249243484
 30
0.0
 40
8.3497004226563565
100
AcDbArc
 50
170.49307689874715
 51
189.47844610170202
  0
LINE
  5
76
100
AcDbEntity
  8
0
  6
CONTINUOUS
 62
               7
100
AcDbLine
 10
-29.999994277954102
 20
2.2459069249243484
 30
0.0
 11
-26.999994277954102
 21
2.2459069249243484
 31
0.0
  0
LINE
  5
77
100
AcDbEntity
  8
0
  6
CONTINUOUS
 62
               2
100
AcDbLine
 10
12.0
 20
12.716253291675017
 30
0.0
 11
12.0
 21
8.1233864277601242
 31
0.0
  0
LINE
  5
78
100
AcDbEntity
  8
0
  6
CONTINUOUS
 62
               2
100
AcDbLine
 10
14.118488311767578
 20
10.500000044703484
 30
0.0
 11
9.8230023774723492
 21
10.500000044703484
 31
0.0
  0
LINE
  5
79
100
AcDbEntity
  8
0
  6
CENTER
 62
               2
100
AcDbLine
 10
0.0
 20
17.322963759303121
 30
0.0
 11
0.0
 21
-2.7066655158996582
 31
0.0
  0
ENDBLK
  5
7A
100
AcDbEntity
  8
0
100
AcDbBlockEnd
  0
BLOCK
  5
7B
100
AcDbEntity
  8
0
100
AcDbBlockBegin
  2
AFDPG-8-JA-2
 70
               0
 10
0.0
 20
0.0
 30
0.0
  3
AFDPG-8-JA-2
  1

  0
LINE
  5
7C
100
AcDbEntity
  8
0
  6
CONTINUOUS
 62
               7
100
AcDbLine
 10
9.25
 20
12.999999091029167
 30
0.0
 11
15.499935148590339
 21
12.999999091029167
 31
0.0
  0
LINE
  5
7D
100
AcDbEntity
  8
0
  6
CONTINUOUS
 62
               7
100
AcDbLine
 10
16.0
 20
0.5000519609047831
 30
0.0
 11
15.499948039095216
 21
0.0
 31
0.0
  0
LINE
  5
7E
100
AcDbEntity
  8
0
  6
CONTINUOUS
 62
               2
100
AcDbLine
 10
13.5
 20
2.0000000447034836
 30
0.0
 11
13.5
 21
8.0000000447034836
 31
0.0
  0
LINE
  5
7F
100
AcDbEntity
  8
0
  6
CONTINUOUS
 62
               7
100
AcDbLine
 10
15.420936584472656
 20
3.3999991863965988
 30
0.0
 11
16.0
 21
3.3999991863965988
 31
0.0
  0
LINE
  5
80
100
AcDbEntity
  8
0
  6
CONTINUOUS
 62
               7
100
AcDbLine
 10
15.420938542174156
 20
6.5999985188245773
 30
0.0
 11
16.0
 21
6.5999985188245773
 31
0.0
  0
ARC
  5
81
100
AcDbEntity
  8
0
  6
CONTINUOUS
 62
               7
100
AcDbCircle
 10
13.5
 20
5.0000000447034836
 30
0.0
 40
2.5
100
AcDbArc
 50
39.791773987195249
 51
320.20815489972591
  0
LINE
  5
82
100
AcDbEntity
  8
0
  6
CONTINUOUS
 62
               7
100
AcDbLine
 10
16.0
 20
3.3999991863965988
 30
0.0
 11
16.0
 21
0.5000519609047833
 31
0.0
  0
LINE
  5
83
100
AcDbEntity
  8
0
  6
CONTINUOUS
 62
               2
100
AcDbLine
 10
17.5
 20
10.493332862854004
 30
0.0
 11
14.5
 21
10.493332862854004
 31
0.0
  0
LINE
  5
84
100
AcDbEntity
  8
0
  6
CONTINUOUS
 62
               7
100
AcDbLine
 10
16.0
 20
12.499934239619504
 30
0.0
 11
16.0
 21
6.5999985188245773
 31
0.0
  0
LINE
  5
85
100
AcDbEntity
  8
0
  6
CONTINUOUS
 62
               7
100
AcDbLine
 10
16.0
 20
12.499934239619504
 30
0.0
 11
15.499935148590339
 21
12.999999091029167
 31
0.0
  0
LINE
  5
86
100
AcDbEntity
  8
0
  6
CONTINUOUS
 62
               2
100
AcDbLine
 10
13.0
 20
11.499999091029167
 30
0.0
 11
13.0
 21
14.499999091029167
 31
0.0
  0
ARC
  5
87
100
AcDbEntity
  8
0
  6
CONTINUOUS
 62
               7
100
AcDbCircle
 10
3.7000045776367187
 20
13.999999091029167
 30
0.0
 40
0.800000011920929
100
AcDbArc
 50
104.47785056681349
 51
255.52214943318651
  0
ARC
  5
88
100
AcDbEntity
  8
0
  6
CONTINUOUS
 62
               7
100
AcDbCircle
 10
4.0
 20
13.999999091029167
 30
0.0
 40
0.800000011920929
100
AcDbArc
 50
97.180645526970324
 51
262.8193544730297
  0
LINE
  5
89
100
AcDbEntity
  8
0
  6
CONTINUOUS
 62
               7
100
AcDbLine
 10
3.5
 20
13.225403591430929
 30
0.0
 11
3.5
 21
10.000000044703484
 31
0.0
  0
LINE
  5
8A
100
AcDbEntity
  8
0
  6
CONTINUOUS
 62
               7
100
AcDbLine
 10
3.9000015258789062
 20
13.206273493453443
 30
0.0
 11
3.9000015258789062
 21
12.499999091029167
 31
0.0
  0
LINE
  5
8B
100
AcDbEntity
  8
0
  6
CONTINUOUS
 62
               7
100
AcDbLine
 10
3.9000015258789062
 20
16.100006148219137
 30
0.0
 11
3.9000015258789062
 21
14.793724688604891
 31
0.0
  0
LINE
  5
8C
100
AcDbEntity
  8
0
  6
CONTINUOUS
 62
               7
100
AcDbLine
 10
3.5
 20
15.6999969929457
 30
0.0
 11
3.5
 21
14.774594590627405
 31
0.0
  0
LINE
  5
8D
100
AcDbEntity
  8
0
  6
CONTINUOUS
 62
               2
100
AcDbLine
 10
-6.5
 20
17.49333381652832
 30
0.0
 11
-6.5
 21
20.49333381652832
 31
0.0
  0
LINE
  5
8E
100
AcDbEntity
  8
0
  6
CONTINUOUS
 62
               2
100
AcDbLine
 10
6.5
 20
17.49333381652832
 30
0.0
 11
6.5
 21
20.49333381652832
 31
0.0
  0
LINE
  5
8F
100
AcDbEntity
  8
0
  6
CONTINUOUS
 62
               2
100
AcDbLine
 10
-10.0
 20
16.99333381652832
 30
0.0
 11
-7.0
 21
16.99333381652832
 31
0.0
  0
LINE
  5
90
100
AcDbEntity
  8
0
  6
CONTINUOUS
 62
               2
100
AcDbLine
 10
7.0
 20
16.99333381652832
 30
0.0
 11
10.0
 21
16.99333381652832
 31
0.0
  0
LINE
  5
91
100
AcDbEntity
  8
0
  6
CONTINUOUS
 62
               2
100
AcDbLine
 10
-17.5
 20
10.493332862854004
 30
0.0
 11
-14.5
 21
10.493332862854004
 31
0.0
  0
CIRCLE
  5
92
100
AcDbEntity
  8
0
  6
CONTINUOUS
 62
               7
100
AcDbCircle
 10
-6.0
 20
5.0000000447034836
 30
0.0
 40
2.75
  0
CIRCLE
  5
93
100
AcDbEntity
  8
0
  6
CONTINUOUS
 62
               7
100
AcDbCircle
 10
6.0
 20
5.0000000447034836
 30
0.0
 40
2.75
  0
CIRCLE
  5
94
100
AcDbEntity
  8
0
  6
CONTINUOUS
 62
               7
100
AcDbCircle
 10
-6.0
 20
5.0000000447034836
 30
0.0
 40
4.5
  0
ARC
  5
95
100
AcDbEntity
  8
0
  6
CONTINUOUS
 62
               7
100
AcDbCircle
 10
-13.5
 20
5.0000000447034836
 30
0.0
 40
2.5
100
AcDbArc
 50
219.79184510027409
 51
140.2082260128048
  0
CIRCLE
  5
96
100
AcDbEntity
  8
0
  6
CONTINUOUS
 62
               7
100
AcDbCircle
 10
6.0
 20
5.0000000447034836
 30
0.0
 40
4.5
  0
ARC
  5
97
100
AcDbEntity
  8
0
  6
CONTINUOUS
 62
               7
100
AcDbCircle
 10
7.0
 20
17.500001952052145
 30
0.0
 40
1.0
100
AcDbArc
 50
359.99989071697325
 51
90.000437132106882
  0
ARC
  5
98
100
AcDbEntity
  8
0
  6
CONTINUOUS
 62
               7
100
AcDbCircle
 10
-7.0000076293945313
 20
17.500001952052145
 30
0.0
 40
1.0
100
AcDbArc
 50
89.999982013910653
 51
180.00010928302672
  0
ARC
  5
99
100
AcDbEntity
  8
0
  6
CONTINUOUS
 62
               7
100
AcDbCircle
 10
-4.0
 20
13.999999091029167
 30
0.0
 40
0.800000011920929
100
AcDbArc
 50
277.1806455269703
 51
82.819354473029676
  0
ARC
  5
9A
100
AcDbEntity
  8
0
  6
CONTINUOUS
 62
               7
100
AcDbCircle
 10
-3.7000045776367187
 20
13.999999091029167
 30
0.0
 40
0.800000011920929
100
AcDbArc
 50
284.47785056681346
 51
75.522149433186513
  0
LINE
  5
9B
100
AcDbEntity
  8
0
  6
CONTINUOUS
 62
               7
100
AcDbLine
 10
-15.420938542174156
 20
6.5999985188245773
 30
0.0
 11
-16.0
 21
6.5999985188245773
 31
0.0
  0
LINE
  5
9C
100
AcDbEntity
  8
0
  6
CONTINUOUS
 62
               7
100
AcDbLine
 10
9.25
 20
12.999999091029167
 30
0.0
 11
9.25
 21
10.000000044703484
 31
0.0
  0
LINE
  5
9D
100
AcDbEntity
  8
0
  6
CONTINUOUS
 62
               2
100
AcDbLine
 10
-6.0
 20
13.668046995997429
 30
0.0
 11
-6.0
 21
-1.0143261104822159
 31
0.0
  0
LINE
  5
9E
100
AcDbEntity
  8
0
  6
CENTER
 62
               2
100
AcDbLine
 10
-16.5
 20
5.0000000447034836
 30
0.0
 11
16.499992370605469
 21
5.0000000447034836
 31
0.0
  0
LINE
  5
9F
100
AcDbEntity
  8
0
  6
CONTINUOUS
 62
               2
100
AcDbLine
 10
6.0
 20
13.668046995997429
 30
0.0
 11
6.0
 21
-1.0143261104822159
 31
0.0
  0
LINE
  5
A0
100
AcDbEntity
  8
0
  6
CONTINUOUS
 62
               7
100
AcDbLine
 10
-15.420936584472656
 20
3.3999991863965988
 30
0.0
 11
-16.0
 21
3.3999991863965988
 31
0.0
  0
LINE
  5
A1
100
AcDbEntity
  8
0
  6
CONTINUOUS
 62
               7
100
AcDbLine
 10
9.25
 20
10.000000044703484
 30
0.0
 11
3.5
 21
10.000000044703484
 31
0.0
  0
LINE
  5
A2
100
AcDbEntity
  8
0
  6
CONTINUOUS
 62
               7
100
AcDbLine
 10
-3.5
 20
10.000000044703484
 30
0.0
 11
-9.25
 21
10.000000044703484
 31
0.0
  0
LINE
  5
A3
100
AcDbEntity
  8
0
  6
CONTINUOUS
 62
               7
100
AcDbLine
 10
4.0
 20
12.499999091029167
 30
0.0
 11
4.0
 21
10.099999472498894
 31
0.0
  0
LINE
  5
A4
100
AcDbEntity
  8
0
  6
CONTINUOUS
 62
               7
100
AcDbLine
 10
4.0
 20
10.099999472498894
 30
0.0
 11
9.0
 21
10.099999472498894
 31
0.0
  0
LINE
  5
A5
100
AcDbEntity
  8
0
  6
CONTINUOUS
 62
               7
100
AcDbLine
 10
9.0
 20
12.499999091029167
 30
0.0
 11
9.0
 21
10.099999472498894
 31
0.0
  0
LINE
  5
A6
100
AcDbEntity
  8
0
  6
CONTINUOUS
 62
               7
100
AcDbLine
 10
-9.0
 20
12.499999091029167
 30
0.0
 11
-9.0
 21
10.000000044703484
 31
0.0
  0
LINE
  5
A7
100
AcDbEntity
  8
0
  6
CONTINUOUS
 62
               7
100
AcDbLine
 10
-9.25
 20
12.999999091029167
 30
0.0
 11
-9.25
 21
10.000000044703484
 31
0.0
  0
LINE
  5
A8
100
AcDbEntity
  8
0
  6
CONTINUOUS
 62
               7
100
AcDbLine
 10
-4.0
 20
10.099999472498894
 30
0.0
 11
-9.0
 21
10.099999472498894
 31
0.0
  0
LINE
  5
A9
100
AcDbEntity
  8
0
  6
CONTINUOUS
 62
               7
100
AcDbLine
 10
-4.0
 20
12.499999091029167
 30
0.0
 11
-4.0
 21
10.099999472498894
 31
0.0
  0
LINE
  5
AA
100
AcDbEntity
  8
0
  6
CONTINUOUS
 62
               7
100
AcDbLine
 10
-1.5716818970739528
 20
5.7999992817640305
 30
0.0
 11
1.5716818970739528
 21
5.7999992817640305
 31
0.0
  0
LINE
  5
AB
100
AcDbEntity
  8
0
  6
CONTINUOUS
 62
               7
100
AcDbLine
 10
-1.5716823277904701
 20
4.1999984234571457
 30
0.0
 11
1.5716823277904706
 21
4.1999984234571457
 31
0.0
  0
LINE
  5
AC
100
AcDbEntity
  8
0
  6
CONTINUOUS
 62
               7
100
AcDbLine
 10
-16.0
 20
0.5000519609047831
 30
0.0
 11
-15.499948039095216
 21
0.0
 31
0.0
  0
LINE
  5
AD
100
AcDbEntity
  8
0
  6
CONTINUOUS
 62
               7
100
AcDbLine
 10
15.499948039095216
 20
0.0
 30
0.0
 11
-15.499948039095216
 21
0.0
 31
0.0
  0
LINE
  5
AE
100
AcDbEntity
  8
0
  6
CONTINUOUS
 62
               7
100
AcDbLine
 10
-9.25
 20
12.999999091029167
 30
0.0
 11
-15.499935148590339
 21
12.999999091029167
 31
0.0
  0
LINE
  5
AF
100
AcDbEntity
  8
0
  6
CONTINUOUS
 62
               7
100
AcDbLine
 10
-16.0
 20
12.499934239619504
 30
0.0
 11
-16.0
 21
6.5999985188245773
 31
0.0
  0
LINE
  5
B0
100
AcDbEntity
  8
0
  6
CONTINUOUS
 62
               7
100
AcDbLine
 10
3.5
 20
11.000000044703484
 30
0.0
 11
-3.4999847412109375
 21
11.000000044703484
 31
0.0
  0
LINE
  5
B1
100
AcDbEntity
  8
0
  6
CONTINUOUS
 62
               7
100
AcDbLine
 10
-16.0
 20
3.3999991863965988
 30
0.0
 11
-16.0
 21
0.5000519609047833
 31
0.0
  0
LINE
  5
B2
100
AcDbEntity
  8
0
  6
CENTER
 62
               2
100
AcDbLine
 10
0.0
 20
21.708169981837301
 30
0.0
 11
0.0
 21
-2.7066655158996582
 31
0.0
  0
LINE
  5
B3
100
AcDbEntity
  8
0
  6
CONTINUOUS
 62
               7
100
AcDbLine
 10
8.0
 20
17.500000044703512
 30
0.0
 11
8.0
 21
12.499999091029167
 31
0.0
  0
LINE
  5
B4
100
AcDbEntity
  8
0
  6
CONTINUOUS
 62
               7
100
AcDbLine
 10
6.9999923706054687
 20
18.500001952052145
 30
0.0
 11
-7.0000073154780527
 21
18.500001952052145
 31
0.0
  0
LINE
  5
B5
100
AcDbEntity
  8
0
  6
CONTINUOUS
 62
               7
100
AcDbLine
 10
-8.0000076293945313
 20
17.500000044703512
 30
0.0
 11
-8.0000076293945313
 21
12.499999091029167
 31
0.0
  0
LINE
  5
B6
100
AcDbEntity
  8
0
  6
CONTINUOUS
 62
               7
100
AcDbLine
 10
-3.5
 20
13.225403591430929
 30
0.0
 11
-3.5
 21
10.000000044703484
 31
0.0
  0
LINE
  5
B7
100
AcDbEntity
  8
0
  6
CONTINUOUS
 62
               7
100
AcDbLine
 10
-3.9000015258789062
 20
13.206273493453443
 30
0.0
 11
-3.9000015258789062
 21
12.499999091029167
 31
0.0
  0
LINE
  5
B8
100
AcDbEntity
  8
0
  6
CONTINUOUS
 62
               7
100
AcDbLine
 10
3.9000015258789062
 20
16.100006148219137
 30
0.0
 11
-3.9000015258789058
 21
16.100006148219137
 31
0.0
  0
LINE
  5
B9
100
AcDbEntity
  8
0
  6
CONTINUOUS
 62
               7
100
AcDbLine
 10
-3.9000015258789062
 20
16.100006148219137
 30
0.0
 11
-3.9000015258789062
 21
14.793724688604891
 31
0.0
  0
LINE
  5
BA
100
AcDbEntity
  8
0
  6
CONTINUOUS
 62
               7
100
AcDbLine
 10
-3.9000015258789062
 20
12.499999091029167
 30
0.0
 11
-9.0
 21
12.499999091029167
 31
0.0
  0
LINE
  5
BB
100
AcDbEntity
  8
0
  6
CONTINUOUS
 62
               7
100
AcDbLine
 10
9.0
 20
12.499999091029167
 30
0.0
 11
3.9000015258789062
 21
12.499999091029167
 31
0.0
  0
LINE
  5
BC
100
AcDbEntity
  8
0
  6
CONTINUOUS
 62
               7
100
AcDbLine
 10
8.5
 20
19.000001952052145
 30
0.0
 11
-8.5000076293945313
 21
19.000001952052145
 31
0.0
  0
LINE
  5
BD
100
AcDbEntity
  8
0
  6
CONTINUOUS
 62
               7
100
AcDbLine
 10
3.5
 20
15.6999969929457
 30
0.0
 11
-3.4999999999999996
 21
15.6999969929457
 31
0.0
  0
LINE
  5
BE
100
AcDbEntity
  8
0
  6
CONTINUOUS
 62
               7
100
AcDbLine
 10
8.5
 20
19.000001952052145
 30
0.0
 11
8.5
 21
12.499999091029167
 31
0.0
  0
LINE
  5
BF
100
AcDbEntity
  8
0
  6
CONTINUOUS
 62
               7
100
AcDbLine
 10
-8.5000076293945313
 20
19.000001952052145
 30
0.0
 11
-8.5000076293945313
 21
12.499999091029167
 31
0.0
  0
LINE
  5
C0
100
AcDbEntity
  8
0
  6
CONTINUOUS
 62
               7
100
AcDbLine
 10
-3.5
 20
15.6999969929457
 30
0.0
 11
-3.5
 21
14.774594590627405
 31
0.0
  0
LINE
  5
C1
100
AcDbEntity
  8
0
  6
CONTINUOUS
 62
               7
100
AcDbLine
 10
-16.0
 20
12.499934239619504
 30
0.0
 11
-15.499935148590339
 21
12.999999091029167
 31
0.0
  0
LINE
  5
C2
100
AcDbEntity
  8
0
  6
CONTINUOUS
 62
               7
100
AcDbLine
 10
7.2374314722798516
 20
3.7625685724236391
 30
0.0
 11
4.7625685277201484
 21
6.2374315169833281
 31
0.0
  0
LINE
  5
C3
100
AcDbEntity
  8
0
  6
CONTINUOUS
 62
               7
100
AcDbLine
 10
4.7625685277201484
 20
3.7625685724236391
 30
0.0
 11
7.2374314722798516
 21
6.2374315169833281
 31
0.0
  0
LINE
  5
C4
100
AcDbEntity
  8
0
  6
CONTINUOUS
 62
               7
100
AcDbLine
 10
-2.7999999999999972
 20
5.0000000447034836
 30
0.0
 11
-4.3636931828046386
 21
2.2500000447034836
 31
0.0
  0
LINE
  5
C5
100
AcDbEntity
  8
0
  6
CONTINUOUS
 62
               7
100
AcDbLine
 10
-4.3636931828046386
 20
7.7500000447034836
 30
0.0
 11
-2.7999999999999972
 21
5.0000000447034836
 31
0.0
  0
LINE
  5
C6
100
AcDbEntity
  8
0
  6
CONTINUOUS
 62
               7
100
AcDbLine
 10
-7.6363068171953614
 20
2.2500000447034836
 30
0.0
 11
-9.2000000000000028
 21
5.0000000447034836
 31
0.0
  0
LINE
  5
C7
100
AcDbEntity
  8
0
  6
CONTINUOUS
 62
               7
100
AcDbLine
 10
-4.3636931828046386
 20
2.2500000447034836
 30
0.0
 11
-7.6363068171953614
 21
2.2500000447034836
 31
0.0
  0
CIRCLE
  5
C8
100
AcDbEntity
  8
0
  6
CONTINUOUS
 62
               2
100
AcDbCircle
 10
-6.0
 20
5.0000000447034836
 30
0.0
 40
1.2295
  0
CIRCLE
  5
C9
100
AcDbEntity
  8
0
  6
CONTINUOUS
 62
               7
100
AcDbCircle
 10
-6.0
 20
5.0000000447034836
 30
0.0
 40
1.5
  0
LINE
  5
CA
100
AcDbEntity
  8
0
  6
CONTINUOUS
 62
               7
100
AcDbLine
 10
-7.6363068171953614
 20
7.7500000447034836
 30
0.0
 11
-9.2000000000000028
 21
5.0000000447034836
 31
0.0
  0
LINE
  5
CB
100
AcDbEntity
  8
0
  6
CONTINUOUS
 62
               7
100
AcDbLine
 10
-4.3636931828046386
 20
7.7500000447034836
 30
0.0
 11
-7.6363068171953614
 21
7.7500000447034836
 31
0.0
  0
CIRCLE
  5
CC
100
AcDbEntity
  8
0
  6
CONTINUOUS
 62
               7
100
AcDbCircle
 10
-6.0
 20
5.0000000447034836
 30
0.0
 40
4.0
  0
LINE
  5
CD
100
AcDbEntity
  8
0
  6
CONTINUOUS
 62
               2
100
AcDbLine
 10
-13.0
 20
11.499999091029167
 30
0.0
 11
-13.0
 21
14.499999091029167
 31
0.0
  0
LINE
  5
CE
100
AcDbEntity
  8
0
  6
CONTINUOUS
 62
               2
100
AcDbLine
 10
-13.5
 20
2.0000000447034836
 30
0.0
 11
-13.5
 21
8.0000000447034836
 31
0.0
  0
ENDBLK
  5
CF
100
AcDbEntity
  8
0
100
AcDbBlockEnd
  0
BLOCK
  5
D0
100
AcDbEntity
  8
0
100
AcDbBlockBegin
  2
AFDPG-8-JA-3
 70
               0
 10
0.0
 20
0.0
 30
0.0
  3
AFDPG-8-JA-3
  1

  0
CIRCLE
  5
D1
100
AcDbEntity
  8
0
  6
CONTINUOUS
 62
               7
100
AcDbCircle
 10
6.0
 20
5.0000000447034836
 30
0.0
 40
4.5
  0
CIRCLE
  5
D2
100
AcDbEntity
  8
0
  6
CONTINUOUS
 62
               2
100
AcDbCircle
 10
6.0
 20
5.0000000447034836
 30
0.0
 40
1.5
  0
CIRCLE
  5
D3
100
AcDbEntity
  8
0
  6
CONTINUOUS
 62
               7
100
AcDbCircle
 10
6.0
 20
5.0000000447034836
 30
0.0
 40
2.5999999046325684
  0
CIRCLE
  5
D4
100
AcDbEntity
  8
0
  6
CONTINUOUS
 62
               7
100
AcDbCircle
 10
6.0
 20
5.0000000447034836
 30
0.0
 40
1.2295
  0
LINE
  5
D5
100
AcDbEntity
  8
0
  6
CONTINUOUS
 62
               2
100
AcDbLine
 10
6.0
 20
13.234713599085808
 30
0.0
 11
6.0
 21
-1.0143261104822159
 31
0.0
  0
LINE
  5
D6
100
AcDbEntity
  8
0
  6
CONTINUOUS
 62
               2
100
AcDbLine
 10
-6.5
 20
17.49333381652832
 30
0.0
 11
-6.5
 21
20.49333381652832
 31
0.0
  0
LINE
  5
D7
100
AcDbEntity
  8
0
  6
CONTINUOUS
 62
               2
100
AcDbLine
 10
6.5
 20
17.49333381652832
 30
0.0
 11
6.5
 21
20.49333381652832
 31
0.0
  0
LINE
  5
D8
100
AcDbEntity
  8
0
  6
CONTINUOUS
 62
               2
100
AcDbLine
 10
-10.0
 20
16.99333381652832
 30
0.0
 11
-7.0
 21
16.99333381652832
 31
0.0
  0
LINE
  5
D9
100
AcDbEntity
  8
0
  6
CONTINUOUS
 62
               2
100
AcDbLine
 10
7.0
 20
16.99333381652832
 30
0.0
 11
10.0
 21
16.99333381652832
 31
0.0
  0
LINE
  5
DA
100
AcDbEntity
  8
0
  6
CONTINUOUS
 62
               2
100
AcDbLine
 10
14.5
 20
10.493332862854004
 30
0.0
 11
17.5
 21
10.493332862854004
 31
0.0
  0
LINE
  5
DB
100
AcDbEntity
  8
0
  6
CONTINUOUS
 62
               2
100
AcDbLine
 10
-17.5
 20
10.493332862854004
 30
0.0
 11
-14.5
 21
10.493332862854004
 31
0.0
  0
CIRCLE
  5
DC
100
AcDbEntity
  8
0
  6
CONTINUOUS
 62
               2
100
AcDbCircle
 10
-6.0
 20
5.0000000447034836
 30
0.0
 40
1.5
  0
CIRCLE
  5
DD
100
AcDbEntity
  8
0
  6
CONTINUOUS
 62
               7
100
AcDbCircle
 10
-6.0
 20
5.0000000447034836
 30
0.0
 40
2.5999999046325684
  0
ARC
  5
DE
100
AcDbEntity
  8
0
  6
CONTINUOUS
 62
               7
100
AcDbCircle
 10
13.499984741210937
 20
5.0000000447034836
 30
0.0
 40
2.5
100
AcDbArc
 50
39.791773987195235
 51
320.20815489972591
  0
ARC
  5
DF
100
AcDbEntity
  8
0
  6
CONTINUOUS
 62
               7
100
AcDbCircle
 10
-13.5
 20
5.0000000447034836
 30
0.0
 40
2.5
100
AcDbArc
 50
219.79184510027409
 51
140.2082260128048
  0
ARC
  5
E0
100
AcDbEntity
  8
0
  6
CONTINUOUS
 62
               7
100
AcDbCircle
 10
-3.6999969482421875
 20
13.999999091029167
 30
0.0
 40
0.800000011920929
100
AcDbArc
 50
284.4772869508484
 51
75.522713049151633
  0
ARC
  5
E1
100
AcDbEntity
  8
0
  6
CONTINUOUS
 62
               7
100
AcDbCircle
 10
-3.9999923706054687
 20
13.999999091029167
 30
0.0
 40
0.800000011920929
100
AcDbArc
 50
277.18078710582051
 51
82.819212894179486
  0
ARC
  5
E2
100
AcDbEntity
  8
0
  6
CONTINUOUS
 62
               7
100
AcDbCircle
 10
-7.0
 20
17.500001952052145
 30
0.0
 40
1.0
100
AcDbArc
 50
89.999982013910653
 51
180.00010928302672
  0
ARC
  5
E3
100
AcDbEntity
  8
0
  6
CONTINUOUS
 62
               7
100
AcDbCircle
 10
7.0
 20
17.500001952052145
 30
0.0
 40
1.0
100
AcDbArc
 50
0.0
 51
89.999982013910653
  0
ARC
  5
E4
100
AcDbEntity
  8
0
  6
CONTINUOUS
 62
               7
100
AcDbCircle
 10
3.9999847412109375
 20
13.999999091029167
 30
0.0
 40
0.800000011920929
100
AcDbArc
 50
97.180645526970309
 51
262.8193544730297
  0
ARC
  5
E5
100
AcDbEntity
  8
0
  6
CONTINUOUS
 62
               7
100
AcDbCircle
 10
3.6999969482421875
 20
13.999999091029167
 30
0.0
 40
0.800000011920929
100
AcDbArc
 50
104.4784149035066
 51
255.52158509649337
  0
CIRCLE
  5
E6
100
AcDbEntity
  8
0
  6
CONTINUOUS
 62
               7
100
AcDbCircle
 10
-6.0
 20
5.0000000447034836
 30
0.0
 40
4.5
  0
LINE
  5
E7
100
AcDbEntity
  8
0
  6
CONTINUOUS
 62
               7
100
AcDbLine
 10
-15.420938542174156
 20
6.5999985188245773
 30
0.0
 11
-16.0
 21
6.5999985188245773
 31
0.0
  0
LINE
  5
E8
100
AcDbEntity
  8
0
  6
CONTINUOUS
 62
               7
100
AcDbLine
 10
-9.25
 20
12.999999091029167
 30
0.0
 11
-9.25
 21
9.9999990910291672
 31
0.0
  0
LINE
  5
E9
100
AcDbEntity
  8
0
  6
CONTINUOUS
 62
               7
100
AcDbLine
 10
15.999984741210938
 20
12.499949807729537
 30
0.0
 11
15.499935457911306
 21
12.999999091029167
 31
0.0
  0
LINE
  5
EA
100
AcDbEntity
  8
0
  6
CONTINUOUS
 62
               7
100
AcDbLine
 10
15.999984741210938
 20
0.5000363927947531
 30
0.0
 11
15.499948348416183
 21
0.0
 31
0.0
  0
LINE
  5
EB
100
AcDbEntity
  8
0
  6
CONTINUOUS
 62
               7
100
AcDbLine
 10
-15.499949377379705
 20
12.999999091029167
 30
0.0
 11
-16.0
 21
12.49994463264273
 31
0.0
  0
LINE
  5
EC
100
AcDbEntity
  8
0
  6
CONTINUOUS
 62
               7
100
AcDbLine
 10
-16.0
 20
3.3999991863965988
 30
0.0
 11
-16.0
 21
0.5000273977278154
 31
0.0
  0
LINE
  5
ED
100
AcDbEntity
  8
0
  6
CONTINUOUS
 62
               7
100
AcDbLine
 10
-15.420936556322783
 20
3.3999991863965988
 30
0.0
 11
-16.0
 21
3.3999991863965988
 31
0.0
  0
LINE
  5
EE
100
AcDbEntity
  8
0
  6
CONTINUOUS
 62
               7
100
AcDbLine
 10
-4.0
 20
10.099999472498894
 30
0.0
 11
-9.0
 21
10.099999472498894
 31
0.0
  0
LINE
  5
EF
100
AcDbEntity
  8
0
  6
CONTINUOUS
 62
               7
100
AcDbLine
 10
-4.0
 20
12.499999091029167
 30
0.0
 11
-4.0
 21
10.099998518824577
 31
0.0
  0
LINE
  5
F0
100
AcDbEntity
  8
0
  6
CONTINUOUS
 62
               7
100
AcDbLine
 10
-9.0
 20
12.499999091029167
 30
0.0
 11
-9.0
 21
10.099999472498894
 31
0.0
  0
LINE
  5
F1
100
AcDbEntity
  8
0
  6
CONTINUOUS
 62
               7
100
AcDbLine
 10
3.9999847412109375
 20
10.099999472498894
 30
0.0
 11
8.9999847412109375
 21
10.099999472498894
 31
0.0
  0
LINE
  5
F2
100
AcDbEntity
  8
0
  6
CONTINUOUS
 62
               7
100
AcDbLine
 10
9.2499847412109375
 20
12.999999091029167
 30
0.0
 11
9.2499847412109375
 21
10.000000044703484
 31
0.0
  0
LINE
  5
F3
100
AcDbEntity
  8
0
  6
CONTINUOUS
 62
               7
100
AcDbLine
 10
3.9999847412109375
 20
12.499999091029167
 30
0.0
 11
3.9999847412109375
 21
10.099999472498894
 31
0.0
  0
LINE
  5
F4
100
AcDbEntity
  8
0
  6
CONTINUOUS
 62
               7
100
AcDbLine
 10
-1.571685791015625
 20
5.7999992817640305
 30
0.0
 11
1.5716818970739519
 21
5.7999992817640305
 31
0.0
  0
LINE
  5
F5
100
AcDbEntity
  8
0
  6
CONTINUOUS
 62
               7
100
AcDbLine
 10
-1.571685791015625
 20
4.1999984234571457
 30
0.0
 11
1.5716823277904712
 21
4.1999984234571457
 31
0.0
  0
LINE
  5
F6
100
AcDbEntity
  8
0
  6
CONTINUOUS
 62
               7
100
AcDbLine
 10
15.999984741210938
 20
3.3999991863965988
 30
0.0
 11
15.999984741210938
 21
0.5000363927947529
 31
0.0
  0
LINE
  5
F7
100
AcDbEntity
  8
0
  6
CONTINUOUS
 62
               7
100
AcDbLine
 10
15.420923283385093
 20
6.5999985188245773
 30
0.0
 11
15.999984741210938
 21
6.5999985188245773
 31
0.0
  0
LINE
  5
F8
100
AcDbEntity
  8
0
  6
CONTINUOUS
 62
               7
100
AcDbLine
 10
15.42092129753372
 20
3.3999991863965988
 30
0.0
 11
15.999984741210938
 21
3.3999991863965988
 31
0.0
  0
LINE
  5
F9
100
AcDbEntity
  8
0
  6
CONTINUOUS
 62
               2
100
AcDbLine
 10
-6.0
 20
13.234713599085808
 30
0.0
 11
-6.0
 21
-1.0143261104822159
 31
0.0
  0
LINE
  5
FA
100
AcDbEntity
  8
0
  6
CONTINUOUS
 62
               7
100
AcDbLine
 10
3.4999847412109375
 20
10.000000044703484
 30
0.0
 11
9.2499847412109375
 21
10.000000044703484
 31
0.0
  0
LINE
  5
FB
100
AcDbEntity
  8
0
  6
CONTINUOUS
 62
               7
100
AcDbLine
 10
-9.25
 20
10.000000044703484
 30
0.0
 11
-3.5
 21
10.000000044703484
 31
0.0
  0
LINE
  5
FC
100
AcDbEntity
  8
0
  6
CONTINUOUS
 62
               7
100
AcDbLine
 10
9.2499847412109375
 20
12.999999091029167
 30
0.0
 11
15.499935457911306
 21
12.999999091029167
 31
0.0
  0
LINE
  5
FD
100
AcDbEntity
  8
0
  6
CENTER
 62
               2
100
AcDbLine
 10
-16.5
 20
5.0000000447034836
 30
0.0
 11
16.499984741210937
 21
5.0000000447034836
 31
0.0
  0
LINE
  5
FE
100
AcDbEntity
  8
0
  6
CONTINUOUS
 62
               7
100
AcDbLine
 10
8.9999847412109375
 20
12.499999091029167
 30
0.0
 11
8.9999847412109375
 21
10.000000044703484
 31
0.0
  0
LINE
  5
FF
100
AcDbEntity
  8
0
  6
CONTINUOUS
 62
               7
100
AcDbLine
 10
-15.499949377379705
 20
12.999999091029167
 30
0.0
 11
-9.25
 21
12.999999091029167
 31
0.0
  0
LINE
  5
100
100
AcDbEntity
  8
0
  6
CONTINUOUS
 62
               7
100
AcDbLine
 10
-16.0
 20
12.499944632642729
 30
0.0
 11
-16.0
 21
6.5999985188245773
 31
0.0
  0
LINE
  5
101
100
AcDbEntity
  8
0
  6
CONTINUOUS
 62
               7
100
AcDbLine
 10
15.999984741210938
 20
12.499949807729537
 30
0.0
 11
15.999984741210938
 21
6.5999985188245773
 31
0.0
  0
LINE
  5
102
100
AcDbEntity
  8
0
  6
CONTINUOUS
 62
               7
100
AcDbLine
 10
-15.499970705556526
 20
0.0
 30
0.0
 11
15.499948348416183
 21
0.0
 31
0.0
  0
LINE
  5
103
100
AcDbEntity
  8
0
  6
CONTINUOUS
 62
               7
100
AcDbLine
 10
-15.499970705556526
 20
-0.0000000000000004
 30
0.0
 11
-16.0
 21
0.5000273977278151
 31
0.0
  0
LINE
  5
104
100
AcDbEntity
  8
0
  6
CONTINUOUS
 62
               7
100
AcDbLine
 10
-3.5000152587890625
 20
11.000000044703484
 30
0.0
 11
3.4999771118164062
 21
11.000000044703484
 31
0.0
  0
LINE
  5
105
100
AcDbEntity
  8
0
  6
CONTINUOUS
 62
               7
100
AcDbLine
 10
-3.5
 20
13.225400015711784
 30
0.0
 11
-3.5
 21
9.9999990910291672
 31
0.0
  0
LINE
  5
106
100
AcDbEntity
  8
0
  6
CONTINUOUS
 62
               7
100
AcDbLine
 10
-3.9000091552734375
 20
13.206271216273308
 30
0.0
 11
-3.9000091552734375
 21
12.500023886561394
 31
0.0
  0
LINE
  5
107
100
AcDbEntity
  8
0
  6
CONTINUOUS
 62
               7
100
AcDbLine
 10
-8.0
 20
17.500000044703512
 30
0.0
 11
-8.0
 21
12.499999091029167
 31
0.0
  0
LINE
  5
108
100
AcDbEntity
  8
0
  6
CONTINUOUS
 62
               7
100
AcDbLine
 10
-7.0
 20
18.500001952052145
 30
0.0
 11
6.9999847412109375
 21
18.500001952052145
 31
0.0
  0
LINE
  5
109
100
AcDbEntity
  8
0
  6
CONTINUOUS
 62
               7
100
AcDbLine
 10
8.0
 20
17.500000044703512
 30
0.0
 11
8.0
 21
12.499999091029167
 31
0.0
  0
LINE
  5
10A
100
AcDbEntity
  8
0
  6
CONTINUOUS
 62
               7
100
AcDbLine
 10
3.4999847412109375
 20
13.225405561420267
 30
0.0
 11
3.4999847412109375
 21
10.000000044703484
 31
0.0
  0
LINE
  5
10B
100
AcDbEntity
  8
0
  6
CONTINUOUS
 62
               7
100
AcDbLine
 10
3.8999862670898437
 20
13.206273493453443
 30
0.0
 11
3.8999862670898437
 21
12.499997183680534
 31
0.0
  0
LINE
  5
10C
100
AcDbEntity
  8
0
  6
CONTINUOUS
 62
               7
100
AcDbLine
 10
-3.9000244140625
 20
16.100006148219137
 30
0.0
 11
3.8999862670898437
 21
16.100006148219137
 31
0.0
  0
LINE
  5
10D
100
AcDbEntity
  8
0
  6
CONTINUOUS
 62
               7
100
AcDbLine
 10
3.8999862670898437
 20
16.100006148219137
 30
0.0
 11
3.8999862670898437
 21
14.793724504287942
 31
0.0
  0
LINE
  5
10E
100
AcDbEntity
  8
0
  6
CONTINUOUS
 62
               7
100
AcDbLine
 10
-3.9000091552734375
 20
16.100030943751364
 30
0.0
 11
-3.9000091552734375
 21
14.793725058436394
 31
0.0
  0
LINE
  5
10F
100
AcDbEntity
  8
0
  6
CONTINUOUS
 62
               7
100
AcDbLine
 10
3.8999862670898437
 20
12.499999091029167
 30
0.0
 11
8.9999847412109375
 21
12.499999091029167
 31
0.0
  0
LINE
  5
110
100
AcDbEntity
  8
0
  6
CONTINUOUS
 62
               7
100
AcDbLine
 10
-9.0
 20
12.499999091029167
 30
0.0
 11
-3.9000244140625
 21
12.499999091029167
 31
0.0
  0
LINE
  5
111
100
AcDbEntity
  8
0
  6
CONTINUOUS
 62
               7
100
AcDbLine
 10
-8.5
 20
19.000001952052145
 30
0.0
 11
8.5025375052674939
 21
19.000001952052145
 31
0.0
  0
LINE
  5
112
100
AcDbEntity
  8
0
  6
CONTINUOUS
 62
               7
100
AcDbLine
 10
-3.5000152587890625
 20
15.6999969929457
 30
0.0
 11
3.4999771118164062
 21
15.6999969929457
 31
0.0
  0
LINE
  5
113
100
AcDbEntity
  8
0
  6
CONTINUOUS
 62
               7
100
AcDbLine
 10
-8.5
 20
19.000001952052145
 30
0.0
 11
-8.5
 21
12.499999091029167
 31
0.0
  0
LINE
  5
114
100
AcDbEntity
  8
0
  6
CONTINUOUS
 62
               7
100
AcDbLine
 10
8.5
 20
19.001245323113977
 30
0.0
 11
8.5
 21
12.499999091029167
 31
0.0
  0
LINE
  5
115
100
AcDbEntity
  8
0
  6
CONTINUOUS
 62
               7
100
AcDbLine
 10
-3.5
 20
15.700021788477926
 30
0.0
 11
-3.5
 21
14.774594351649284
 31
0.0
  0
LINE
  5
116
100
AcDbEntity
  8
0
  6
CONTINUOUS
 62
               7
100
AcDbLine
 10
3.4999847412109375
 20
15.700021788477926
 30
0.0
 11
3.4999847412109375
 21
14.774592620638067
 31
0.0
  0
LINE
  5
117
100
AcDbEntity
  8
0
  6
CENTER
 62
               2
100
AcDbLine
 10
0.0
 20
21.708169981837301
 30
0.0
 11
0.0
 21
-2.7066655158996582
 31
0.0
  0
CIRCLE
  5
118
100
AcDbEntity
  8
0
  6
CONTINUOUS
 62
               7
100
AcDbCircle
 10
-6.0
 20
5.0000000447034836
 30
0.0
 40
1.2295
  0
LINE
  5
119
100
AcDbEntity
  8
0
  6
CONTINUOUS
 62
               2
100
AcDbLine
 10
13.0
 20
11.499999091029167
 30
0.0
 11
13.0
 21
14.499999091029167
 31
0.0
  0
LINE
  5
11A
100
AcDbEntity
  8
0
  6
CONTINUOUS
 62
               2
100
AcDbLine
 10
-13.0
 20
11.499999091029167
 30
0.0
 11
-13.0
 21
14.499999091029167
 31
0.0
  0
LINE
  5
11B
100
AcDbEntity
  8
0
  6
CONTINUOUS
 62
               2
100
AcDbLine
 10
13.499984741210937
 20
2.0000000447034836
 30
0.0
 11
13.499984741210937
 21
8.0000000447034836
 31
0.0
  0
LINE
  5
11C
100
AcDbEntity
  8
0
  6
CONTINUOUS
 62
               2
100
AcDbLine
 10
-13.5
 20
2.0000000447034836
 30
0.0
 11
-13.5
 21
8.0000000447034836
 31
0.0
  0
ENDBLK
  5
11D
100
AcDbEntity
  8
0
100
AcDbBlockEnd
  0
BLOCK
  5
11E
100
AcDbEntity
  8
0
100
AcDbBlockBegin
  2
AFDPG-8-JA-4
 70
               0
 10
0.0
 20
0.0
 30
0.0
  3
AFDPG-8-JA-4
  1

  0
ARC
  5
11F
100
AcDbEntity
  8
0
  6
CONTINUOUS
 62
               7
100
AcDbCircle
 10
-29.143327713012695
 20
8.3499984741210937
 30
0.0
 40
0.8566666841506958
100
AcDbArc
 50
97.153181006771476
 51
262.84681899322851
  0
CIRCLE
  5
120
100
AcDbEntity
  8
0
  6
CONTINUOUS
 62
               2
100
AcDbCircle
 10
-16.0
 20
-13.0
 30
0.0
 40
1.5
  0
LINE
  5
121
100
AcDbEntity
  8
0
  6
CONTINUOUS
 62
               2
100
AcDbLine
 10
-16.0
 20
-10.783746753028467
 30
0.0
 11
-16.0
 21
-15.376613616943359
 31
0.0
  0
LINE
  5
122
100
AcDbEntity
  8
0
  6
CONTINUOUS
 62
               2
100
AcDbLine
 10
-18.118488311767578
 20
-13.0
 30
0.0
 11
-13.823002377472349
 21
-13.0
 31
0.0
  0
CIRCLE
  5
123
100
AcDbEntity
  8
0
  6
CONTINUOUS
 62
               7
100
AcDbCircle
 10
-16.0
 20
-13.0
 30
0.0
 40
1.2295
  0
LINE
  5
124
100
AcDbEntity
  8
0
  6
CONTINUOUS
 62
               7
100
AcDbLine
 10
-25.50000061951846
 20
-16.0
 30
0.0
 11
-26.0
 21
-15.50000061951846
 31
0.0
  0
LINE
  5
125
100
AcDbEntity
  8
0
  6
CONTINUOUS
 62
               7
100
AcDbLine
 10
-25.499983782848176
 20
16.0
 30
0.0
 11
-26.0
 21
15.499983782848176
 31
0.0
  0
LINE
  5
126
100
AcDbEntity
  8
0
  6
CONTINUOUS
 62
               7
100
AcDbLine
 10
-26.0
 20
15.499983782848176
 30
0.0
 11
-26.0
 21
-15.500000619518456
 31
0.0
  0
LINE
  5
127
100
AcDbEntity
  8
0
  6
CONTINUOUS
 62
               2
100
AcDbLine
 10
-18.371262864033199
 20
13.0
 30
0.0
 11
-13.703670501708984
 21
13.0
 31
0.0
  0
CIRCLE
  5
128
100
AcDbEntity
  8
0
  6
CONTINUOUS
 62
               2
100
AcDbCircle
 10
-16.0
 20
13.0
 30
0.0
 40
1.5
  0
LINE
  5
129
100
AcDbEntity
  8
0
  6
CONTINUOUS
 62
               2
100
AcDbLine
 10
-16.0
 20
15.244813238819404
 30
0.0
 11
-16.0
 21
10.818008422851563
 31
0.0
  0
CIRCLE
  5
12A
100
AcDbEntity
  8
0
  6
CONTINUOUS
 62
               7
100
AcDbCircle
 10
-16.0
 20
13.0
 30
0.0
 40
1.2295
  0
LINE
  5
12B
100
AcDbEntity
  8
0
  6
CONTINUOUS
 62
               2
100
AcDbLine
 10
12.0
 20
-17.5
 30
0.0
 11
12.0
 21
-14.5
 31
0.0
  0
LINE
  5
12C
100
AcDbEntity
  8
0
  6
CONTINUOUS
 62
               2
100
AcDbLine
 10
-12.0
 20
-17.5
 30
0.0
 11
-12.0
 21
-14.5
 31
0.0
  0
LINE
  5
12D
100
AcDbEntity
  8
0
  6
CONTINUOUS
 62
               2
100
AcDbLine
 10
11.553333282470703
 20
-10.0
 30
0.0
 11
11.553333282470703
 21
-7.0
 31
0.0
  0
LINE
  5
12E
100
AcDbEntity
  8
0
  6
CONTINUOUS
 62
               2
100
AcDbLine
 10
21.553333282470703
 20
-10.0
 30
0.0
 11
21.553333282470703
 21
-7.0
 31
0.0
  0
LINE
  5
12F
100
AcDbEntity
  8
0
  6
CONTINUOUS
 62
               2
100
AcDbLine
 10
-11.553333282470703
 20
-10.0
 30
0.0
 11
-11.553333282470703
 21
-7.0
 31
0.0
  0
LINE
  5
130
100
AcDbEntity
  8
0
  6
CONTINUOUS
 62
               2
100
AcDbLine
 10
-21.553333282470703
 20
-10.0
 30
0.0
 11
-21.553333282470703
 21
-7.0
 31
0.0
  0
LINE
  5
131
100
AcDbEntity
  8
0
  6
CONTINUOUS
 62
               2
100
AcDbLine
 10
12.0
 20
17.5
 30
0.0
 11
12.0
 21
14.5
 31
0.0
  0
LINE
  5
132
100
AcDbEntity
  8
0
  6
CONTINUOUS
 62
               2
100
AcDbLine
 10
-12.0
 20
17.5
 30
0.0
 11
-12.0
 21
14.5
 31
0.0
  0
LINE
  5
133
100
AcDbEntity
  8
0
  6
CONTINUOUS
 62
               2
100
AcDbLine
 10
24.5
 20
6.0
 30
0.0
 11
27.5
 21
6.0
 31
0.0
  0
LINE
  5
134
100
AcDbEntity
  8
0
  6
CONTINUOUS
 62
               2
100
AcDbLine
 10
24.5
 20
-6.0
 30
0.0
 11
27.5
 21
-6.0
 31
0.0
  0
CIRCLE
  5
135
100
AcDbEntity
  8
0
  6
CONTINUOUS
 62
               2
100
AcDbCircle
 10
16.0
 20
-13.0
 30
0.0
 40
1.5
  0
CIRCLE
  5
136
100
AcDbEntity
  8
0
  6
CONTINUOUS
 62
               2
100
AcDbCircle
 10
16.0
 20
13.0
 30
0.0
 40
1.5
  0
CIRCLE
  5
137
100
AcDbEntity
  8
0
  6
CONTINUOUS
 62
               2
100
AcDbCircle
 10
16.549278259277344
 20
6.4993896484375
 30
0.0
 40
1.25
  0
CIRCLE
  5
138
100
AcDbEntity
  8
0
  6
CONTINUOUS
 62
               2
100
AcDbCircle
 10
16.549278259277344
 20
-6.5006179809570312
 30
0.0
 40
1.25
  0
CIRCLE
  5
139
100
AcDbEntity
  8
0
  6
CONTINUOUS
 62
               2
100
AcDbCircle
 10
-16.549283981323242
 20
-6.5006179809570312
 30
0.0
 40
1.25
  0
CIRCLE
  5
13A
100
AcDbEntity
  8
0
  6
CONTINUOUS
 62
               2
100
AcDbCircle
 10
-16.549283981323242
 20
6.4993896484375
 30
0.0
 40
1.25
  0
LINE
  5
13B
100
AcDbEntity
  8
0
  6
CONTINUOUS
 62
               7
100
AcDbLine
 10
-21.549283981323242
 20
8.5
 30
0.0
 11
-21.549283981323242
 21
9.0
 31
0.0
  0
LINE
  5
13C
100
AcDbEntity
  8
0
  6
CONTINUOUS
 62
               2
100
AcDbLine
 10
-35.69761672769237
 20
6.0
 30
0.0
 11
-25.575689315795898
 21
6.0
 31
0.0
  0
LINE
  5
13D
100
AcDbEntity
  8
0
  6
CONTINUOUS
 62
               7
100
AcDbLine
 10
-25.500001907348633
 20
-15.5
 30
0.0
 11
25.5
 21
-15.5
 31
0.0
  0
LINE
  5
13E
100
AcDbEntity
  8
0
  6
CONTINUOUS
 62
               7
100
AcDbLine
 10
-25.500001907348633
 20
15.5
 30
0.0
 11
25.5
 21
15.5
 31
0.0
  0
LINE
  5
13F
100
AcDbEntity
  8
0
  6
CONTINUOUS
 62
               7
100
AcDbLine
 10
-21.549283981323242
 20
9.0
 30
0.0
 11
6.4999777607072247
 21
9.0
 31
0.0
  0
LINE
  5
140
100
AcDbEntity
  8
0
  6
CONTINUOUS
 62
               7
100
AcDbLine
 10
-25.499983782848176
 20
16.0
 30
0.0
 11
25.499983782848176
 21
16.0
 31
0.0
  0
LINE
  5
141
100
AcDbEntity
  8
0
  6
CONTINUOUS
 62
               7
100
AcDbLine
 10
-7.5
 20
-5.0000304482559841
 30
0.0
 11
-6.4999695517440159
 21
-4.0
 31
0.0
  0
LINE
  5
142
100
AcDbEntity
  8
0
  6
CONTINUOUS
 62
               7
100
AcDbLine
 10
-7.5
 20
-5.0000304482559841
 30
0.0
 11
-7.5
 21
-8.0000065953985313
 31
0.0
  0
LINE
  5
143
100
AcDbEntity
  8
0
  6
CONTINUOUS
 62
               2
100
AcDbLine
 10
18.371262864033199
 20
13.0
 30
0.0
 11
13.703670501708984
 21
13.0
 31
0.0
  0
LINE
  5
144
100
AcDbEntity
  8
0
  6
CONTINUOUS
 62
               2
100
AcDbLine
 10
16.0
 20
15.244813238819404
 30
0.0
 11
16.0
 21
10.818008422851563
 31
0.0
  0
LINE
  5
145
100
AcDbEntity
  8
0
  6
CONTINUOUS
 62
               7
100
AcDbLine
 10
26.0
 20
15.499983782848176
 30
0.0
 11
26.0
 21
-15.500000619518465
 31
0.0
  0
LINE
  5
146
100
AcDbEntity
  8
0
  6
CONTINUOUS
 62
               2
100
AcDbLine
 10
16.0
 20
-10.783746753028467
 30
0.0
 11
16.0
 21
-15.376613616943359
 31
0.0
  0
LINE
  5
147
100
AcDbEntity
  8
0
  6
CONTINUOUS
 62
               2
100
AcDbLine
 10
18.118488311767578
 20
-13.0
 30
0.0
 11
13.823002377472349
 21
-13.0
 31
0.0
  0
LINE
  5
148
100
AcDbEntity
  8
0
  6
CONTINUOUS
 62
               7
100
AcDbLine
 10
7.5
 20
7.9999777607073383
 30
0.0
 11
6.4999777607072247
 21
9.0
 31
0.0
  0
LINE
  5
149
100
AcDbEntity
  8
0
  6
CONTINUOUS
 62
               7
100
AcDbLine
 10
-8.3999996185302734
 20
4.0
 30
0.0
 11
6.5000114796192747
 21
4.0
 31
0.0
  0
LINE
  5
14A
100
AcDbEntity
  8
0
  6
CONTINUOUS
 62
               7
100
AcDbLine
 10
7.5
 20
4.9999885203807253
 30
0.0
 11
7.5
 21
7.9999777607073383
 31
0.0
  0
LINE
  5
14B
100
AcDbEntity
  8
0
  6
CONTINUOUS
 62
               7
100
AcDbLine
 10
7.5
 20
4.9999885203807253
 30
0.0
 11
6.5000114796192747
 21
4.0
 31
0.0
  0
LINE
  5
14C
100
AcDbEntity
  8
0
  6
CONTINUOUS
 62
               7
100
AcDbLine
 10
-7.5
 20
-8.0000065953985313
 30
0.0
 11
-6.5000029526861454
 21
-9.000003642712386
 31
0.0
  0
LINE
  5
14D
100
AcDbEntity
  8
0
  6
CONTINUOUS
 62
               2
100
AcDbLine
 10
18.536586761474609
 20
6.5006256103515625
 30
0.0
 11
14.535380525969828
 21
6.5006256103515625
 31
0.0
  0
LINE
  5
14E
100
AcDbEntity
  8
0
  6
CONTINUOUS
 62
               7
100
AcDbLine
 10
24.700000762939453
 20
-3.5
 30
0.0
 11
26.0
 21
-3.5
 31
0.0
  0
LINE
  5
14F
100
AcDbEntity
  8
0
  6
CONTINUOUS
 62
               7
100
AcDbLine
 10
24.700000762939453
 20
3.5
 30
0.0
 11
26.0
 21
3.5
 31
0.0
  0
LINE
  5
150
100
AcDbEntity
  8
0
  6
CONTINUOUS
 62
               7
100
AcDbLine
 10
8.4000015258789063
 20
-8.5
 30
0.0
 11
24.700000762939453
 21
-8.5
 31
0.0
  0
LINE
  5
151
100
AcDbEntity
  8
0
  6
CONTINUOUS
 62
               2
100
AcDbLine
 10
18.536586761474609
 20
-6.5006179809570312
 30
0.0
 11
14.535380525969828
 21
-6.5006179809570312
 31
0.0
  0
LINE
  5
152
100
AcDbEntity
  8
0
  6
CONTINUOUS
 62
               2
100
AcDbLine
 10
16.549278259277344
 20
-8.5006179809570312
 30
0.0
 11
16.549278259277344
 21
-4.3048735236443321
 31
0.0
  0
LINE
  5
153
100
AcDbEntity
  8
0
  6
CONTINUOUS
 62
               7
100
AcDbLine
 10
24.700000762939453
 20
8.5
 30
0.0
 11
24.700000762939453
 21
-8.5
 31
0.0
  0
LINE
  5
154
100
AcDbEntity
  8
0
  6
CONTINUOUS
 62
               7
100
AcDbLine
 10
8.3999977111816406
 20
8.5
 30
0.0
 11
8.3999977111816406
 21
-8.5
 31
0.0
  0
LINE
  5
155
100
AcDbEntity
  8
0
  6
CONTINUOUS
 62
               7
100
AcDbLine
 10
9.4000015258789062
 20
8.5
 30
0.0
 11
9.4000015258789062
 21
-8.5
 31
0.0
  0
LINE
  5
156
100
AcDbEntity
  8
0
  6
CONTINUOUS
 62
               7
100
AcDbLine
 10
23.700000762939453
 20
8.5
 30
0.0
 11
23.700000762939453
 21
-8.5
 31
0.0
  0
LINE
  5
157
100
AcDbEntity
  8
0
  6
CONTINUOUS
 62
               7
100
AcDbLine
 10
8.4000015258789063
 20
8.5
 30
0.0
 11
24.700000762939453
 21
8.5
 31
0.0
  0
LINE
  5
158
100
AcDbEntity
  8
0
  6
CONTINUOUS
 62
               7
100
AcDbLine
 10
-24.700002670288086
 20
8.5
 30
0.0
 11
-24.700002670288086
 21
-8.5
 31
0.0
  0
LINE
  5
159
100
AcDbEntity
  8
0
  6
CONTINUOUS
 62
               7
100
AcDbLine
 10
-8.3999996185302734
 20
8.5
 30
0.0
 11
-8.3999996185302734
 21
-8.5
 31
0.0
  0
LINE
  5
15A
100
AcDbEntity
  8
0
  6
CONTINUOUS
 62
               7
100
AcDbLine
 10
-9.3999996185302734
 20
8.5
 30
0.0
 11
-9.3999996185302734
 21
-8.5
 31
0.0
  0
LINE
  5
15B
100
AcDbEntity
  8
0
  6
CONTINUOUS
 62
               7
100
AcDbLine
 10
-24.700002670288086
 20
3.5
 30
0.0
 11
-26.0
 21
3.5
 31
0.0
  0
LINE
  5
15C
100
AcDbEntity
  8
0
  6
CONTINUOUS
 62
               7
100
AcDbLine
 10
-24.700002670288086
 20
-3.5
 30
0.0
 11
-26.000001907348633
 21
-3.5
 31
0.0
  0
LINE
  5
15D
100
AcDbEntity
  8
0
  6
CONTINUOUS
 62
               7
100
AcDbLine
 10
8.3999977111816406
 20
3.5
 30
0.0
 11
-8.3999996185302734
 21
3.5
 31
0.0
  0
LINE
  5
15E
100
AcDbEntity
  8
0
  6
CONTINUOUS
 62
               7
100
AcDbLine
 10
8.3999977111816406
 20
-3.5
 30
0.0
 11
-8.3999996185302734
 21
-3.5
 31
0.0
  0
LINE
  5
15F
100
AcDbEntity
  8
0
  6
CONTINUOUS
 62
               7
100
AcDbLine
 10
25.499983782848176
 20
16.0
 30
0.0
 11
26.0
 21
15.499983782848176
 31
0.0
  0
LINE
  5
160
100
AcDbEntity
  8
0
  6
CONTINUOUS
 62
               7
100
AcDbLine
 10
-26.0
 20
9.25
 30
0.0
 11
26.0
 21
9.25
 31
0.0
  0
LINE
  5
161
100
AcDbEntity
  8
0
  6
CONTINUOUS
 62
               7
100
AcDbLine
 10
-26.000001907348633
 20
-9.25
 30
0.0
 11
26.0
 21
-9.25
 31
0.0
  0
LINE
  5
162
100
AcDbEntity
  8
0
  6
CONTINUOUS
 62
               7
100
AcDbLine
 10
25.50000061951846
 20
-16.0
 30
0.0
 11
26.0
 21
-15.500000619518458
 31
0.0
  0
LINE
  5
163
100
AcDbEntity
  8
0
  6
CONTINUOUS
 62
               7
100
AcDbLine
 10
8.3999977111816406
 20
-4.0
 30
0.0
 11
-6.4999695517440159
 21
-4.0
 31
0.0
  0
LINE
  5
164
100
AcDbEntity
  8
0
  6
CONTINUOUS
 62
               2
100
AcDbLine
 10
-18.536584854125977
 20
-6.5006179809570312
 30
0.0
 11
-14.507728605081354
 21
-6.5006179809570312
 31
0.0
  0
LINE
  5
165
100
AcDbEntity
  8
0
  6
CONTINUOUS
 62
               2
100
AcDbLine
 10
-16.549283981323242
 20
-8.5006179809570312
 30
0.0
 11
-16.549283981323242
 21
-4.3048735236443321
 31
0.0
  0
LINE
  5
166
100
AcDbEntity
  8
0
  6
CONTINUOUS
 62
               2
100
AcDbLine
 10
-18.536584854125977
 20
6.4993896484375
 30
0.0
 11
-14.507728605081354
 21
6.4993896484375
 31
0.0
  0
LINE
  5
167
100
AcDbEntity
  8
0
  6
CONTINUOUS
 62
               7
100
AcDbLine
 10
-23.700002670288086
 20
8.5
 30
0.0
 11
-23.700002670288086
 21
-8.5
 31
0.0
  0
LINE
  5
168
100
AcDbEntity
  8
0
  6
CONTINUOUS
 62
               7
100
AcDbLine
 10
-8.3999996185302734
 20
8.5
 30
0.0
 11
-24.69999885559082
 21
8.5
 31
0.0
  0
LINE
  5
169
100
AcDbEntity
  8
0
  6
CONTINUOUS
 62
               7
100
AcDbLine
 10
-8.3999996185302734
 20
-8.5
 30
0.0
 11
-24.69999885559082
 21
-8.5
 31
0.0
  0
LINE
  5
16A
100
AcDbEntity
  8
0
  6
CONTINUOUS
 62
               7
100
AcDbLine
 10
-25.50000061951846
 20
-16.0
 30
0.0
 11
25.50000061951846
 21
-16.0
 31
0.0
  0
LINE
  5
16B
100
AcDbEntity
  8
0
  6
CONTINUOUS
 62
               7
100
AcDbLine
 10
21.549282073974609
 20
-9.0
 30
0.0
 11
-6.5
 21
-9.0
 31
0.0
  0
LINE
  5
16C
100
AcDbEntity
  8
0
  6
CENTER
 62
               2
100
AcDbLine
 10
0.0
 20
-20.0
 30
0.0
 11
0.0
 21
20.0
 31
0.0
  0
LINE
  5
16D
100
AcDbEntity
  8
0
  6
CENTER
 62
               2
100
AcDbLine
 10
-30.0
 20
0.0
 30
0.0
 11
30.0
 21
0.0
 31
0.0
  0
CIRCLE
  5
16E
100
AcDbEntity
  8
0
  6
CONTINUOUS
 62
               7
100
AcDbCircle
 10
16.0
 20
13.0
 30
0.0
 40
1.2295
  0
CIRCLE
  5
16F
100
AcDbEntity
  8
0
  6
CONTINUOUS
 62
               7
100
AcDbCircle
 10
16.0
 20
-13.0
 30
0.0
 40
1.2295
  0
CIRCLE
  5
170
100
AcDbEntity
  8
0
  6
CONTINUOUS
 62
               7
100
AcDbCircle
 10
16.549278259277344
 20
6.5006256103515625
 30
0.0
 40
1.0065
  0
CIRCLE
  5
171
100
AcDbEntity
  8
0
  6
CONTINUOUS
 62
               7
100
AcDbCircle
 10
16.549278259277344
 20
-6.5006179809570312
 30
0.0
 40
1.0065
  0
CIRCLE
  5
172
100
AcDbEntity
  8
0
  6
CONTINUOUS
 62
               7
100
AcDbCircle
 10
-16.549283981323242
 20
6.4993896484375
 30
0.0
 40
1.0065
  0
CIRCLE
  5
173
100
AcDbEntity
  8
0
  6
CONTINUOUS
 62
               7
100
AcDbCircle
 10
-16.549283981323242
 20
-6.5006179809570312
 30
0.0
 40
1.0065
  0
LINE
  5
174
100
AcDbEntity
  8
0
  6
CONTINUOUS
 62
               7
100
AcDbLine
 10
-27.000001907348633
 20
10.0
 30
0.0
 11
-26.0
 21
10.0
 31
0.0
  0
LINE
  5
175
100
AcDbEntity
  8
0
  6
CONTINUOUS
 62
               7
100
AcDbLine
 10
-27.000001907348633
 20
2.0
 30
0.0
 11
-26.0
 21
2.0
 31
0.0
  0
ARC
  5
176
100
AcDbEntity
  8
0
  6
CONTINUOUS
 62
               7
100
AcDbCircle
 10
-29.143327713012695
 20
3.6500015258789062
 30
0.0
 40
0.8566666841506958
100
AcDbArc
 50
97.153181006771476
 51
262.84681899322851
  0
ARC
  5
177
100
AcDbEntity
  8
0
  6
CONTINUOUS
 62
               7
100
AcDbCircle
 10
-28.125001907348633
 20
6.0
 30
0.0
 40
1.875
100
AcDbArc
 50
126.86990322915143
 51
233.1300931283829
  0
LINE
  5
178
100
AcDbEntity
  8
0
  6
CONTINUOUS
 62
               7
100
AcDbLine
 10
-34.69999885559281
 20
4.5
 30
0.0
 11
-35.000001907348633
 21
4.8000030517558221
 31
0.0
  0
LINE
  5
179
100
AcDbEntity
  8
0
  6
CONTINUOUS
 62
               7
100
AcDbLine
 10
-29.250001907348633
 20
4.5
 30
0.0
 11
-27.000001907348633
 21
4.5
 31
0.0
  0
LINE
  5
17A
100
AcDbEntity
  8
0
  6
CONTINUOUS
 62
               7
100
AcDbLine
 10
-29.250001907348633
 20
7.5
 30
0.0
 11
-27.000001907348633
 21
7.5
 31
0.0
  0
LINE
  5
17B
100
AcDbEntity
  8
0
  6
CONTINUOUS
 62
               7
100
AcDbLine
 10
-34.69999885559281
 20
4.4999999999969589
 30
0.0
 11
-34.699998855592867
 21
7.4999999999969589
 31
0.0
  0
LINE
  5
17C
100
AcDbEntity
  8
0
  6
CONTINUOUS
 62
               2
100
AcDbLine
 10
-34.970498855592808
 20
4.7704999999999984
 30
0.0
 11
-30.000001907348654
 21
4.7704999999999984
 31
0.0
  0
LINE
  5
17D
100
AcDbEntity
  8
0
  6
CONTINUOUS
 62
               2
100
AcDbLine
 10
-34.970498855589824
 20
7.2295000000000016
 30
0.0
 11
-30.000001907348611
 21
7.2295000000000016
 31
0.0
  0
LINE
  5
17E
100
AcDbEntity
  8
0
  6
CONTINUOUS
 62
               7
100
AcDbLine
 10
-35.000001907348633
 20
7.1999969482411927
 30
0.0
 11
-35.000001907348633
 21
4.8000030517578125
 31
0.0
  0
LINE
  5
17F
100
AcDbEntity
  8
0
  6
CONTINUOUS
 62
               7
100
AcDbLine
 10
-34.69999885559082
 20
4.5
 30
0.0
 11
-30.000001907348633
 21
4.5
 31
0.0
  0
LINE
  5
180
100
AcDbEntity
  8
0
  6
CONTINUOUS
 62
               7
100
AcDbLine
 10
-29.250001907348633
 20
2.8000030517578125
 30
0.0
 11
-27.000001907348633
 21
2.8000030517578125
 31
0.0
  0
LINE
  5
181
100
AcDbEntity
  8
0
  6
CONTINUOUS
 62
               7
100
AcDbLine
 10
-29.250001907348633
 20
9.2000045776367187
 30
0.0
 11
-27.000001907348633
 21
9.2000045776367187
 31
0.0
  0
LINE
  5
182
100
AcDbEntity
  8
0
  6
CONTINUOUS
 62
               7
100
AcDbLine
 10
-27.000001907348633
 20
10.0
 30
0.0
 11
-27.000001907348633
 21
2.0
 31
0.0
  0
LINE
  5
183
100
AcDbEntity
  8
0
  6
CONTINUOUS
 62
               7
100
AcDbLine
 10
-30.000001907348633
 20
8.3499984741210937
 30
0.0
 11
-30.000001907348633
 21
3.6500015258789062
 31
0.0
  0
LINE
  5
184
100
AcDbEntity
  8
0
  6
CONTINUOUS
 62
               7
100
AcDbLine
 10
-34.69999885559082
 20
7.5
 30
0.0
 11
-30.000001907348633
 21
7.5
 31
0.0
  0
LINE
  5
185
100
AcDbEntity
  8
0
  6
CONTINUOUS
 62
               7
100
AcDbLine
 10
-35.000001907348633
 20
7.1999969482411927
 30
0.0
 11
-34.699998855592867
 21
7.4999999999969589
 31
0.0
  0
LINE
  5
186
100
AcDbEntity
  8
0
  6
CONTINUOUS
 62
               2
100
AcDbLine
 10
16.549278259277344
 20
4.3551252761434398
 30
0.0
 11
16.549278259277344
 21
8.5
 31
0.0
  0
LINE
  5
187
100
AcDbEntity
  8
0
  6
CONTINUOUS
 62
               2
100
AcDbLine
 10
-16.549283981323242
 20
4.3551252761434398
 30
0.0
 11
-16.549283981323242
 21
8.5
 31
0.0
  0
LINE
  5
188
100
AcDbEntity
  8
0
  6
CONTINUOUS
 62
               2
100
AcDbLine
 10
-29.0
 20
-6.0
 30
0.0
 11
-24.575689315795898
 21
-6.0
 31
0.0
  0
LINE
  5
189
100
AcDbEntity
  8
0
  6
CONTINUOUS
 62
               7
100
AcDbLine
 10
-26.0
 20
-3.2499998987705192
 30
0.0
 11
-26.732775187402005
 21
-3.2884034210603943
 31
0.0
  0
LINE
  5
18A
100
AcDbEntity
  8
0
  6
CONTINUOUS
 62
               7
100
AcDbLine
 10
-26.0
 20
-8.7500000829029947
 30
0.0
 11
-26.732776744403971
 21
-8.7115962521284018
 31
0.0
  0
ARC
  5
18B
100
AcDbEntity
  8
0
  6
CONTINUOUS
 62
               7
100
AcDbCircle
 10
-26.675207197666168
 20
-7.6131038665771484
 30
0.0
 40
1.1000000238418579
100
AcDbArc
 50
195.86711182925191
 51
266.99993935543131
  0
ARC
  5
18C
100
AcDbEntity
  8
0
  6
CONTINUOUS
 62
               7
100
AcDbCircle
 10
-26.675207197666168
 20
-4.3868956565856934
 30
0.0
 40
1.1000000238418579
100
AcDbArc
 50
93.000046984190377
 51
164.13288817074809
  0
ARC
  5
18D
100
AcDbEntity
  8
0
  6
CONTINUOUS
 62
               7
100
AcDbCircle
 10
-21.000005722045898
 20
-6.0
 30
0.0
 40
7.0
100
AcDbArc
 50
164.13288817074809
 51
195.86711182925191
  0
LINE
  5
18E
100
AcDbEntity
  8
0
  6
CONTINUOUS
 62
               2
100
AcDbLine
 10
-16.549283981323242
 20
-2.1793814280383117
 30
0.0
 11
-16.549283981323242
 21
2.0
 31
0.0
  0
CIRCLE
  5
18F
100
AcDbEntity
  8
0
  6
CONTINUOUS
 62
               7
100
AcDbCircle
 10
-16.549283981323242
 20
0.0
 30
0.0
 40
1.0
  0
LINE
  5
190
100
AcDbEntity
  8
0
  6
CONTINUOUS
 62
               2
100
AcDbLine
 10
16.549278259277344
 20
-2.1793814280383117
 30
0.0
 11
16.549278259277344
 21
2.0
 31
0.0
  0
CIRCLE
  5
191
100
AcDbEntity
  8
0
  6
CONTINUOUS
 62
               7
100
AcDbCircle
 10
16.549278259277344
 20
0.0
 30
0.0
 40
1.0
  0
ENDBLK
  5
192
100
AcDbEntity
  8
0
100
AcDbBlockEnd
  0
BLOCK
  5
193
100
AcDbEntity
  8
0
100
AcDbBlockBegin
  2
AFDPG-8-JA-5
 70
               0
 10
0.0
 20
0.0
 30
0.0
  3
AFDPG-8-JA-5
  1

  0
LINE
  5
194
100
AcDbEntity
  8
0
  6
CONTINUOUS
 62
               7
100
AcDbLine
 10
-25.500056114669135
 20
-16.0
 30
0.0
 11
25.499956107913235
 21
-16.0
 31
0.0
  0
LINE
  5
195
100
AcDbEntity
  8
0
  6
CONTINUOUS
 62
               7
100
AcDbLine
 10
-25.50000118019971
 20
16.0
 30
0.0
 11
25.500002235027011
 21
16.0
 31
0.0
  0
CIRCLE
  5
196
100
AcDbEntity
  8
0
  6
CONTINUOUS
 62
               2
100
AcDbCircle
 10
-11.999999951515928
 20
0.0
 30
0.0
 40
1.5
  0
LINE
  5
197
100
AcDbEntity
  8
0
  6
CONTINUOUS
 62
               2
100
AcDbLine
 10
-11.999999951515928
 20
-2.32025146484375
 30
0.0
 11
-11.999999951515928
 21
2.3550205230712891
 31
0.0
  0
CIRCLE
  5
198
100
AcDbEntity
  8
0
  6
CONTINUOUS
 62
               7
100
AcDbCircle
 10
-11.999999951515928
 20
0.0
 30
0.0
 40
1.2295
  0
LINE
  5
199
100
AcDbEntity
  8
0
  6
CONTINUOUS
 62
               2
100
AcDbLine
 10
-12.000000048484075
 20
17.5
 30
0.0
 11
-12.000000048484075
 21
14.5
 31
0.0
  0
LINE
  5
19A
100
AcDbEntity
  8
0
  6
CONTINUOUS
 62
               2
100
AcDbLine
 10
11.999999951515925
 20
17.5
 30
0.0
 11
11.999999951515925
 21
14.5
 31
0.0
  0
LINE
  5
19B
100
AcDbEntity
  8
0
  6
CONTINUOUS
 62
               2
100
AcDbLine
 10
-12.000000048484075
 20
-17.5
 30
0.0
 11
-12.000000048484075
 21
-14.5
 31
0.0
  0
LINE
  5
19C
100
AcDbEntity
  8
0
  6
CONTINUOUS
 62
               2
100
AcDbLine
 10
11.999999951515925
 20
-17.5
 30
0.0
 11
11.999999951515925
 21
-14.5
 31
0.0
  0
LINE
  5
19D
100
AcDbEntity
  8
0
  6
CONTINUOUS
 62
               2
100
AcDbLine
 10
24.499999951515925
 20
6.0
 30
0.0
 11
27.499999951515925
 21
6.0
 31
0.0
  0
LINE
  5
19E
100
AcDbEntity
  8
0
  6
CONTINUOUS
 62
               2
100
AcDbLine
 10
24.499999951515925
 20
-6.0
 30
0.0
 11
27.499999951515925
 21
-6.0
 31
0.0
  0
ARC
  5
19F
100
AcDbEntity
  8
0
  6
CONTINUOUS
 62
               7
100
AcDbCircle
 10
20.999999951515925
 20
0.0
 30
0.0
 40
1.25
100
AcDbArc
 50
270.00001798608935
 51
90.000036655424012
  0
ARC
  5
1A0
100
AcDbEntity
  8
0
  6
CONTINUOUS
 62
               7
100
AcDbCircle
 10
18.999999951515925
 20
0.0
 30
0.0
 40
1.25
100
AcDbArc
 50
90.000036655424012
 51
270.00000068324533
  0
CIRCLE
  5
1A1
100
AcDbEntity
  8
0
  6
CONTINUOUS
 62
               2
100
AcDbCircle
 10
11.999999951515925
 20
0.0
 30
0.0
 40
1.5
  0
CIRCLE
  5
1A2
100
AcDbEntity
  8
0
  6
CONTINUOUS
 62
               7
100
AcDbCircle
 10
-0.0000000484840772
 20
0.0
 30
0.0
 40
1.5
  0
CIRCLE
  5
1A3
100
AcDbEntity
  8
0
  6
CONTINUOUS
 62
               7
100
AcDbCircle
 10
-20.000001955832708
 20
0.0
 30
0.0
 40
1.25
  0
LINE
  5
1A4
100
AcDbEntity
  8
0
  6
CENTER
 62
               2
100
AcDbLine
 10
-30.0
 20
0.0
 30
0.0
 11
30.0
 21
0.0
 31
0.0
  0
LINE
  5
1A5
100
AcDbEntity
  8
0
  6
CONTINUOUS
 62
               2
100
AcDbLine
 10
20.999999951515925
 20
-1.8984222412109375
 30
0.0
 11
20.999999951515925
 21
1.9331912994384766
 31
0.0
  0
LINE
  5
1A6
100
AcDbEntity
  8
0
  6
CONTINUOUS
 62
               2
100
AcDbLine
 10
19.999999951515925
 20
-2.32025146484375
 30
0.0
 11
19.999999951515925
 21
2.3550205230712891
 31
0.0
  0
LINE
  5
1A7
100
AcDbEntity
  8
0
  6
CONTINUOUS
 62
               7
100
AcDbLine
 10
-26.000001955832708
 20
-15.500052262430131
 30
0.0
 11
-25.500056114669135
 21
-16.0
 31
0.0
  0
LINE
  5
1A8
100
AcDbEntity
  8
0
  6
CONTINUOUS
 62
               7
100
AcDbLine
 10
25.499956107913228
 20
-16.0
 30
0.0
 11
25.999999951515925
 21
-15.499956156397305
 31
0.0
  0
LINE
  5
1A9
100
AcDbEntity
  8
0
  6
CONTINUOUS
 62
               2
100
AcDbLine
 10
-20.000001955832708
 20
-2.039031982421875
 30
0.0
 11
-20.000001955832708
 21
2.0738029479980469
 31
0.0
  0
LINE
  5
1AA
100
AcDbEntity
  8
0
  6
CONTINUOUS
 62
               7
100
AcDbLine
 10
20.999999951515925
 20
1.2500038146972656
 30
0.0
 11
18.999999951515925
 21
1.2500038146972656
 31
0.0
  0
LINE
  5
1AB
100
AcDbEntity
  8
0
  6
CONTINUOUS
 62
               7
100
AcDbLine
 10
20.999999951515925
 20
-1.25
 30
0.0
 11
18.999999951515925
 21
-1.25
 31
0.0
  0
LINE
  5
1AC
100
AcDbEntity
  8
0
  6
CONTINUOUS
 62
               2
100
AcDbLine
 10
18.999999951515925
 20
-1.8984222412109375
 30
0.0
 11
18.999999951515925
 21
1.9331912994384766
 31
0.0
  0
LINE
  5
1AD
100
AcDbEntity
  8
0
  6
CONTINUOUS
 62
               2
100
AcDbLine
 10
-29.0
 20
6.0000019073486328
 30
0.0
 11
-24.575689364279974
 21
6.0000019073486328
 31
0.0
  0
LINE
  5
1AE
100
AcDbEntity
  8
0
  6
CONTINUOUS
 62
               7
100
AcDbLine
 10
25.500002235027019
 20
16.0
 30
0.0
 11
25.999999951515925
 21
15.500002283511096
 31
0.0
  0
LINE
  5
1AF
100
AcDbEntity
  8
0
  6
CONTINUOUS
 62
               7
100
AcDbLine
 10
-26.000001955832708
 20
15.499999224367
 30
0.0
 11
-25.50000118019971
 21
16.0
 31
0.0
  0
LINE
  5
1B0
100
AcDbEntity
  8
0
  6
CONTINUOUS
 62
               2
100
AcDbLine
 10
11.999999951515925
 20
-2.32025146484375
 30
0.0
 11
11.999999951515925
 21
2.3550205230712891
 31
0.0
  0
LINE
  5
1B1
100
AcDbEntity
  8
0
  6
CONTINUOUS
 62
               7
100
AcDbLine
 10
-26.000001955832708
 20
-15.500052262430131
 30
0.0
 11
-26.000001955832708
 21
15.499999224367
 31
0.0
  0
LINE
  5
1B2
100
AcDbEntity
  8
0
  6
CONTINUOUS
 62
               7
100
AcDbLine
 10
25.999999951515925
 20
-15.499956156397305
 30
0.0
 11
25.999999951515925
 21
15.500002283511098
 31
0.0
  0
CIRCLE
  5
1B3
100
AcDbEntity
  8
0
  6
CONTINUOUS
 62
               7
100
AcDbCircle
 10
-0.0000000484840772
 20
0.0
 30
0.0
 40
4.0
  0
CIRCLE
  5
1B4
100
AcDbEntity
  8
0
  6
CONTINUOUS
 62
               7
100
AcDbCircle
 10
11.999999951515925
 20
0.0
 30
0.0
 40
1.2295
  0
LINE
  5
1B5
100
AcDbEntity
  8
0
  6
CONTINUOUS
 62
               2
100
AcDbLine
 10
-35.697616776176446
 20
-6.0
 30
0.0
 11
-25.575689364279974
 21
-6.0
 31
0.0
  0
LINE
  5
1B6
100
AcDbEntity
  8
0
  6
CONTINUOUS
 62
               7
100
AcDbLine
 10
-27.000001955832708
 20
-2.0
 30
0.0
 11
-26.000001955832708
 21
-2.0
 31
0.0
  0
LINE
  5
1B7
100
AcDbEntity
  8
0
  6
CONTINUOUS
 62
               7
100
AcDbLine
 10
-27.000001955832708
 20
-10.0
 30
0.0
 11
-26.000001955832708
 21
-10.0
 31
0.0
  0
LINE
  5
1B8
100
AcDbEntity
  8
0
  6
CONTINUOUS
 62
               7
100
AcDbLine
 10
-35.000001955832708
 20
-4.8000030517578089
 30
0.0
 11
-34.699998904074896
 21
-4.5
 31
0.0
  0
LINE
  5
1B9
100
AcDbEntity
  8
0
  6
CONTINUOUS
 62
               7
100
AcDbLine
 10
-34.699998904074896
 20
-4.5
 30
0.0
 11
-30.000001955832708
 21
-4.5
 31
0.0
  0
LINE
  5
1BA
100
AcDbEntity
  8
0
  6
CONTINUOUS
 62
               7
100
AcDbLine
 10
-30.000001955832708
 20
-3.6500015258789062
 30
0.0
 11
-30.000001955832708
 21
-8.3499984741210937
 31
0.0
  0
LINE
  5
1BB
100
AcDbEntity
  8
0
  6
CONTINUOUS
 62
               7
100
AcDbLine
 10
-27.000001955832708
 20
-2.0
 30
0.0
 11
-27.000001955832708
 21
-10.0
 31
0.0
  0
LINE
  5
1BC
100
AcDbEntity
  8
0
  6
CONTINUOUS
 62
               7
100
AcDbLine
 10
-29.250001955832708
 20
-2.7999954223632813
 30
0.0
 11
-27.000001955832708
 21
-2.7999954223632813
 31
0.0
  0
LINE
  5
1BD
100
AcDbEntity
  8
0
  6
CONTINUOUS
 62
               7
100
AcDbLine
 10
-29.250001955832708
 20
-9.1999969482421875
 30
0.0
 11
-27.000001955832708
 21
-9.1999969482421875
 31
0.0
  0
LINE
  5
1BE
100
AcDbEntity
  8
0
  6
CONTINUOUS
 62
               7
100
AcDbLine
 10
-34.699998904074896
 20
-7.5
 30
0.0
 11
-30.000001955832708
 21
-7.5
 31
0.0
  0
LINE
  5
1BF
100
AcDbEntity
  8
0
  6
CONTINUOUS
 62
               7
100
AcDbLine
 10
-35.000001955832708
 20
-4.8000030517578089
 30
0.0
 11
-35.000001955832708
 21
-7.1999969482421875
 31
0.0
  0
LINE
  5
1C0
100
AcDbEntity
  8
0
  6
CONTINUOUS
 62
               2
100
AcDbLine
 10
-34.970498904074894
 20
-4.7704999999999984
 30
0.0
 11
-30.000001955832687
 21
-4.7704999999999984
 31
0.0
  0
LINE
  5
1C1
100
AcDbEntity
  8
0
  6
CONTINUOUS
 62
               2
100
AcDbLine
 10
-34.970498904076884
 20
-7.2295000000000016
 30
0.0
 11
-30.00000195583273
 21
-7.2295000000000016
 31
0.0
  0
LINE
  5
1C2
100
AcDbEntity
  8
0
  6
CONTINUOUS
 62
               7
100
AcDbLine
 10
-34.699998904076885
 20
-7.5000000000030411
 30
0.0
 11
-34.699998904076942
 21
-4.5000000000030411
 31
0.0
  0
LINE
  5
1C3
100
AcDbEntity
  8
0
  6
CONTINUOUS
 62
               7
100
AcDbLine
 10
-29.250001955832708
 20
-4.5
 30
0.0
 11
-27.000001955832708
 21
-4.5
 31
0.0
  0
LINE
  5
1C4
100
AcDbEntity
  8
0
  6
CONTINUOUS
 62
               7
100
AcDbLine
 10
-29.250001955832708
 20
-7.5
 30
0.0
 11
-27.000001955832708
 21
-7.5
 31
0.0
  0
LINE
  5
1C5
100
AcDbEntity
  8
0
  6
CONTINUOUS
 62
               7
100
AcDbLine
 10
-34.699998904076885
 20
-7.5
 30
0.0
 11
-35.000003538390949
 21
-7.1999953656859361
 31
0.0
  0
ARC
  5
1C6
100
AcDbEntity
  8
0
  6
CONTINUOUS
 62
               7
100
AcDbCircle
 10
-29.143327761496771
 20
-3.6500015258789062
 30
0.0
 40
0.8566666841506958
100
AcDbArc
 50
97.153117467082083
 51
262.84650235667613
  0
ARC
  5
1C7
100
AcDbEntity
  8
0
  6
CONTINUOUS
 62
               7
100
AcDbCircle
 10
-28.125001955832708
 20
-6.0
 30
0.0
 40
1.875
100
AcDbArc
 50
126.86990322915143
 51
233.1300931283829
  0
ARC
  5
1C8
100
AcDbEntity
  8
0
  6
CONTINUOUS
 62
               7
100
AcDbCircle
 10
-29.143327761496771
 20
-8.3499984741210937
 30
0.0
 40
0.8566666841506958
100
AcDbArc
 50
97.153181006771476
 51
262.84681899322851
  0
ARC
  5
1C9
100
AcDbEntity
  8
0
  6
CONTINUOUS
 62
               7
100
AcDbCircle
 10
-26.675207246150244
 20
7.6131062507629395
 30
0.0
 40
1.1000000238418579
100
AcDbArc
 50
93.000046984190377
 51
164.13288817074809
  0
LINE
  5
1CA
100
AcDbEntity
  8
0
  6
CONTINUOUS
 62
               7
100
AcDbLine
 10
-26.000001955832708
 20
8.7500019086171612
 30
0.0
 11
-26.732775235886081
 21
8.7115984862882385
 31
0.0
  0
ARC
  5
1CB
100
AcDbEntity
  8
0
  6
CONTINUOUS
 62
               7
100
AcDbCircle
 10
-21.000005770529974
 20
6.0000019073486328
 30
0.0
 40
7.0
100
AcDbArc
 50
164.13288817074809
 51
195.86711182925191
  0
ARC
  5
1CC
100
AcDbEntity
  8
0
  6
CONTINUOUS
 62
               7
100
AcDbCircle
 10
-26.675207246150244
 20
4.3868980407714844
 30
0.0
 40
1.1000000238418579
100
AcDbArc
 50
195.86711182925191
 51
266.99993935543131
  0
LINE
  5
1CD
100
AcDbEntity
  8
0
  6
CONTINUOUS
 62
               7
100
AcDbLine
 10
-26.000001955832708
 20
3.2500019244071798
 30
0.0
 11
-26.732776792888046
 21
3.288405655220231
 31
0.0
  0
LINE
  5
1CE
100
AcDbEntity
  8
0
  6
CENTER
 62
               2
100
AcDbLine
 10
-0.0000000000000018
 20
-20.000000083976886
 30
0.0
 11
-0.0000000000000018
 21
19.999999916023114
 31
0.0
  0
ENDBLK
  5
1CF
100
AcDbEntity
  8
0
100
AcDbBlockEnd
  0
BLOCK
  5
1D0
100
AcDbEntity
  8
0
100
AcDbBlockBegin
  2
AFDPG-8-JA-6
 70
               0
 10
0.0
 20
0.0
 30
0.0
  3
AFDPG-8-JA-6
  1

  0
LINE
  5
1D1
100
AcDbEntity
  8
0
  6
CONTINUOUS
 62
               4
100
AcDbLine
 10
15.5
 20
-3.7999995223464538
 30
0.0
 11
19.253464203233264
 21
-3.799999522346468
 31
0.0
  0
LINE
  5
1D2
100
AcDbEntity
  8
0
  6
CONTINUOUS
 62
               4
100
AcDbLine
 10
15.500000000000014
 20
-1.1999995223464452
 30
0.0
 11
17.752309468822162
 21
-1.1999995223464595
 31
0.0
  0
LINE
  5
1D3
100
AcDbEntity
  8
0
  6
CONTINUOUS
 62
               4
100
AcDbLine
 10
-0.000000004768367
 20
0.0
 30
0.0
 11
15.500000000000014
 21
0.0
 31
0.0
  0
LINE
  5
1D4
100
AcDbEntity
  8
0
  6
CONTINUOUS
 62
               4
100
AcDbLine
 10
-0.000000004768367
 20
-0.5499999965940106
 30
0.0
 11
15.500000000000014
 21
-0.5499999965940106
 31
0.0
  0
LINE
  5
1D5
100
AcDbEntity
  8
0
  6
CONTINUOUS
 62
               4
100
AcDbLine
 10
-0.000000004768367
 20
-1.1000000027247836
 30
0.0
 11
15.500000000000014
 21
-1.1000000027247836
 31
0.0
  0
LINE
  5
1D6
100
AcDbEntity
  8
0
  6
CONTINUOUS
 62
               4
100
AcDbLine
 10
-0.000000004768367
 20
-2.6000000027247836
 30
0.0
 11
3.9999999952316472
 21
-2.6000000027247836
 31
0.0
  0
LINE
  5
1D7
100
AcDbEntity
  8
0
  6
CONTINUOUS
 62
               4
100
AcDbLine
 10
-0.000000004768367
 20
-1.8000000027247722
 30
0.0
 11
4.2999999986376025
 21
-1.8000000027247722
 31
0.0
  0
LINE
  5
1D8
100
AcDbEntity
  8
0
  6
CONTINUOUS
 62
               4
100
AcDbLine
 10
4.2999999986376025
 20
-4.5999995223464509
 30
0.0
 11
15.499999995231647
 21
-4.5999995223464509
 31
0.0
  0
LINE
  5
1D9
100
AcDbEntity
  8
0
  6
CONTINUOUS
 62
               4
100
AcDbLine
 10
15.500000000000014
 20
-4.5999995223464509
 30
0.0
 11
15.500000000000014
 21
0.0
 31
0.0
  0
LINE
  5
1DA
100
AcDbEntity
  8
0
  6
CONTINUOUS
 62
               4
100
AcDbLine
 10
4.3000000000000256
 20
-1.8000000027247722
 30
0.0
 11
4.3000000000000256
 21
-4.5999995223464509
 31
0.0
  0
LINE
  5
1DB
100
AcDbEntity
  8
0
  6
CONTINUOUS
 62
               4
100
AcDbLine
 10
3.2514285714285762
 20
-2.5998640027247859
 30
0.0
 11
3.251428571428562
 21
-3.8998640027247831
 31
0.0
  0
LINE
  5
1DC
100
AcDbEntity
  8
0
  6
CONTINUOUS
 62
               4
100
AcDbLine
 10
3.251428571428562
 20
-3.8998640027247831
 30
0.0
 11
2.7514285714285762
 21
-4.3998640027247831
 31
0.0
  0
LINE
  5
1DD
100
AcDbEntity
  8
0
  6
CONTINUOUS
 62
               4
100
AcDbLine
 10
1.2514285714285762
 20
-4.3998640027247831
 30
0.0
 11
2.7514285714285762
 21
-4.3998640027247831
 31
0.0
  0
LINE
  5
1DE
100
AcDbEntity
  8
0
  6
CONTINUOUS
 62
               4
100
AcDbLine
 10
1.2514285714285762
 20
-4.3998640027247831
 30
0.0
 11
0.751428571428562
 21
-3.8998640027247831
 31
0.0
  0
LINE
  5
1DF
100
AcDbEntity
  8
0
  6
CONTINUOUS
 62
               4
100
AcDbLine
 10
0.751428571428562
 20
-3.8998640027247831
 30
0.0
 11
3.251428571428562
 21
-3.8998640027247831
 31
0.0
  0
LINE
  5
1E0
100
AcDbEntity
  8
0
  6
CONTINUOUS
 62
               4
100
AcDbLine
 10
0.7514285714285762
 20
-2.5998640027247859
 30
0.0
 11
0.751428571428562
 21
-3.8998640027247831
 31
0.0
  0
LINE
  5
1E1
100
AcDbEntity
  8
0
  6
CONTINUOUS
 62
               4
100
AcDbLine
 10
0.0
 20
-1.7998640027247745
 30
0.0
 11
0.0
 21
-2.6000000027247836
 31
0.0
  0
LINE
  5
1E2
100
AcDbEntity
  8
0
  6
CONTINUOUS
 62
               4
100
AcDbLine
 10
4.0000000000000142
 20
-1.8000000027247722
 30
0.0
 11
4.0000000000000142
 21
-2.6000000027247836
 31
0.0
  0
LINE
  5
1E3
100
AcDbEntity
  8
0
  6
CONTINUOUS
 62
             200
100
AcDbLine
 10
2.0
 20
1.2864823084401849
 30
0.0
 11
2.0
 21
-5.0670362493540893
 31
0.0
  0
LINE
  5
1E4
100
AcDbEntity
  8
0
  6
CONTINUOUS
 62
               4
100
AcDbLine
 10
0.0
 20
-1.7998640027247745
 30
0.0
 11
0.0
 21
0.0
 31
0.0
  0
LINE
  5
1E5
100
AcDbEntity
  8
0
  6
CONTINUOUS
 62
               4
100
AcDbLine
 10
0.9514285714285791
 20
0.6001359972752312
 30
0.0
 11
3.0514285714285876
 21
0.6001359972752312
 31
0.0
  0
LINE
  5
1E6
100
AcDbEntity
  8
0
  6
CONTINUOUS
 62
             200
100
AcDbLine
 10
3.0500000000000256
 20
-2.5998640027247859
 30
0.0
 11
3.0500000000000256
 21
-4.1012925741533479
 31
0.0
  0
LINE
  5
1E7
100
AcDbEntity
  8
0
  6
CONTINUOUS
 62
             200
100
AcDbLine
 10
0.9500000000000028
 20
-2.5998640027247859
 30
0.0
 11
0.9500000000000028
 21
-4.0984354312962097
 31
0.0
  0
LINE
  5
1E8
100
AcDbEntity
  8
0
  6
CONTINUOUS
 62
               4
100
AcDbLine
 10
0.7514285714285762
 20
0.0
 30
0.0
 11
0.7514285714285762
 21
0.4001359972752141
 31
0.0
  0
LINE
  5
1E9
100
AcDbEntity
  8
0
  6
CONTINUOUS
 62
               4
100
AcDbLine
 10
3.2514285714285762
 20
0.4001359972752141
 30
0.0
 11
3.2514285714285762
 21
0.0
 31
0.0
  0
LINE
  5
1EA
100
AcDbEntity
  8
0
  6
CONTINUOUS
 62
               4
100
AcDbLine
 10
0.7514285714285762
 20
0.4001359972752141
 30
0.0
 11
0.9514285714285791
 21
0.6001359972752312
 31
0.0
  0
LINE
  5
1EB
100
AcDbEntity
  8
0
  6
CONTINUOUS
 62
               4
100
AcDbLine
 10
3.0514285714285876
 20
0.6001359972752312
 30
0.0
 11
3.2514285714285762
 21
0.4001359972752141
 31
0.0
  0
LINE
  5
1EC
100
AcDbEntity
  8
0
  6
CONTINUOUS
 62
               4
100
AcDbLine
 10
0.7514285714285762
 20
0.4001359972752141
 30
0.0
 11
3.2514285714285762
 21
0.4001359972752141
 31
0.0
  0
LINE
  5
1ED
100
AcDbEntity
  8
0
  6
CONTINUOUS
 62
             200
100
AcDbLine
 10
3.0500000000000256
 20
0.6001359972752312
 30
0.0
 11
3.0500000000000256
 21
0.0
 31
0.0
  0
LINE
  5
1EE
100
AcDbEntity
  8
0
  6
CONTINUOUS
 62
             200
100
AcDbLine
 10
0.9500000000000028
 20
0.6001359972752312
 30
0.0
 11
0.9500000000000028
 21
0.0
 31
0.0
  0
LINE
  5
1EF
100
AcDbEntity
  8
0
  6
CONTINUOUS
 62
             200
100
AcDbLine
 10
17.75230946882219
 20
-1.1999995223464595
 30
0.0
 11
19.253464203233271
 21
-3.799999522346468
 31
0.0
  0
ENDBLK
  5
1F0
100
AcDbEntity
  8
0
100
AcDbBlockEnd
  0
BLOCK
  5
1F1
100
AcDbEntity
  8
0
100
AcDbBlockBegin
  2
AFDPG-8-JA-7
 70
               0
 10
0.0
 20
0.0
 30
0.0
  3
AFDPG-8-JA-7
  1

  0
LINE
  5
1F2
100
AcDbEntity
  8
0
  6
CONTINUOUS
 62
               4
100
AcDbLine
 10
-1.0499999989098399
 20
0.6001360019073445
 30
0.0
 11
1.0500000010901829
 21
0.6001359980926679
 31
0.0
  0
LINE
  5
1F3
100
AcDbEntity
  8
0
  6
CONTINUOUS
 62
               4
100
AcDbLine
 10
-1.2499999992731432
 20
0.4001360022706422
 30
0.0
 11
1.2500000007268284
 21
0.4001359977293504
 31
0.0
  0
LINE
  5
1F4
100
AcDbEntity
  8
0
  6
CONTINUOUS
 62
               4
100
AcDbLine
 10
-1.501428571428562
 20
0.0000000027273614
 30
0.0
 11
1.5
 21
-0.0000000027247751
 31
0.0
  0
LINE
  5
1F5
100
AcDbEntity
  8
0
  6
CONTINUOUS
 62
               4
100
AcDbLine
 10
-1.2500000070789667
 20
-3.8970068548722168
 30
0.0
 11
1.2499999929210333
 21
-3.8970068594135086
 31
0.0
  0
LINE
  5
1F6
100
AcDbEntity
  8
0
  6
CONTINUOUS
 62
               4
100
AcDbLine
 10
1.2499999929210333
 20
-3.8970068594135086
 30
0.0
 11
0.7471428491504355
 21
-4.3998640013572015
 31
0.0
  0
ARC
  5
1F7
100
AcDbEntity
  8
0
  6
CONTINUOUS
 62
               4
100
AcDbCircle
 10
-0.0000000046321134
 20
-2.5499989233983342
 30
0.0
 40
2.050000596223347
100
AcDbArc
 50
179.95630153623492
 51
359.99999989592135
  0
LINE
  5
1F8
100
AcDbEntity
  8
0
  6
CONTINUOUS
 62
               4
100
AcDbLine
 10
-2.0500000032697301
 20
-1.7999999962761422
 30
0.0
 11
2.0499999967302927
 21
-1.8000000037238522
 31
0.0
  0
LINE
  5
1F9
100
AcDbEntity
  8
0
  6
CONTINUOUS
 62
               4
100
AcDbLine
 10
-2.0500000047229605
 20
-2.5999999962761535
 30
0.0
 11
2.0493907186031208
 21
-2.6000000037227551
 31
0.0
  0
LINE
  5
1FA
100
AcDbEntity
  8
0
  6
CONTINUOUS
 62
               4
100
AcDbLine
 10
1.4999999928701868
 20
-0.5499999965940106
 30
0.0
 11
2.0499999980018515
 21
-1.1000000037238635
 31
0.0
  0
LINE
  5
1FB
100
AcDbEntity
  8
0
  6
CONTINUOUS
 62
               4
100
AcDbLine
 10
1.4999999990008916
 20
-0.5500000027247722
 30
0.0
 11
1.5
 21
0.0
 31
0.0
  0
LINE
  5
1FC
100
AcDbEntity
  8
0
  6
CONTINUOUS
 62
               4
100
AcDbLine
 10
1.2499999952773351
 20
-2.5998640022706496
 30
0.0
 11
1.2499999929210333
 21
-3.8970068594135086
 31
0.0
  0
LINE
  5
1FD
100
AcDbEntity
  8
0
  6
CONTINUOUS
 62
               4
100
AcDbLine
 10
2.0499999980018515
 20
-1.1000000037238635
 30
0.0
 11
2.0499999953707686
 21
-2.5484354322952925
 31
0.0
  0
LINE
  5
1FE
100
AcDbEntity
  8
0
  6
CONTINUOUS
 62
               4
100
AcDbLine
 10
1.2500000007268284
 20
0.4001359977293504
 30
0.0
 11
1.25
 21
-0.0000000022706388
 31
0.0
  0
LINE
  5
1FF
100
AcDbEntity
  8
0
  6
CONTINUOUS
 62
               4
100
AcDbLine
 10
1.0500000010901829
 20
0.6001359980926679
 30
0.0
 11
1.2500000007268284
 21
0.4001359977293504
 31
0.0
  0
LINE
  5
200
100
AcDbEntity
  8
0
  6
CONTINUOUS
 62
               4
100
AcDbLine
 10
-1.5000000009938788
 20
-0.5471354139419162
 30
0.0
 11
-1.5
 21
0.0000000054495501
 31
0.0
  0
LINE
  5
201
100
AcDbEntity
  8
0
  6
CONTINUOUS
 62
             200
100
AcDbLine
 10
-0.0000000092043422
 20
-5.0670362466293142
 30
0.0
 11
0.0000000023369182
 21
1.2864823111649599
 31
0.0
  0
LINE
  5
202
100
AcDbEntity
  8
0
  6
CONTINUOUS
 62
               4
100
AcDbLine
 10
-0.7471428651352596
 20
-4.3998639986428003
 30
0.0
 11
0.7471428491504355
 21
-4.3998640013572015
 31
0.0
  0
LINE
  5
203
100
AcDbEntity
  8
0
  6
CONTINUOUS
 62
               4
100
AcDbLine
 10
-0.7471428651352596
 20
-4.3998639986428003
 30
0.0
 11
-1.2500000070789667
 21
-3.8970068548722168
 31
0.0
  0
LINE
  5
204
100
AcDbEntity
  8
0
  6
CONTINUOUS
 62
               4
100
AcDbLine
 10
-1.2500000047229491
 20
-2.5999999977293697
 30
0.0
 11
-1.2500000070789667
 21
-3.8970068548722168
 31
0.0
  0
LINE
  5
205
100
AcDbEntity
  8
0
  6
CONTINUOUS
 62
               4
100
AcDbLine
 10
-2.0500000019981712
 20
-1.0999999962761535
 30
0.0
 11
-1.5014285724250556
 21
-0.5485714258440737
 31
0.0
  0
LINE
  5
206
100
AcDbEntity
  8
0
  6
CONTINUOUS
 62
               4
100
AcDbLine
 10
-2.0500000019981712
 20
-1.0999999962761535
 30
0.0
 11
-2.0500000046292826
 21
-2.5484354248475825
 31
0.0
  0
LINE
  5
207
100
AcDbEntity
  8
0
  6
CONTINUOUS
 62
               4
100
AcDbLine
 10
-1.25
 20
0.0000000022706388
 30
0.0
 11
-1.2499999992731432
 21
0.4001360022706422
 31
0.0
  0
LINE
  5
208
100
AcDbEntity
  8
0
  6
CONTINUOUS
 62
               4
100
AcDbLine
 10
-1.2499999992731432
 20
0.4001360022706422
 30
0.0
 11
-1.0499999989098399
 21
0.6001360019073445
 31
0.0
  0
LINE
  5
209
100
AcDbEntity
  8
0
  6
CONTINUOUS
 62
             200
100
AcDbLine
 10
-1.0500000074422644
 20
-4.0970068552355201
 30
0.0
 11
-1.0500000047229321
 21
-2.5999999980926702
 31
0.0
  0
LINE
  5
20A
100
AcDbEntity
  8
0
  6
CONTINUOUS
 62
             200
100
AcDbLine
 10
1.0499999925577583
 20
-4.0970068590501967
 30
0.0
 11
1.0499999952770906
 21
-2.600000001907361
 31
0.0
  0
LINE
  5
20B
100
AcDbEntity
  8
0
  6
CONTINUOUS
 62
             200
100
AcDbLine
 10
-1.0499999999999829
 20
0.0000000019073525
 30
0.0
 11
-1.0499999989098399
 21
0.6001360019073445
 31
0.0
  0
LINE
  5
20C
100
AcDbEntity
  8
0
  6
CONTINUOUS
 62
             200
100
AcDbLine
 10
1.0500000000000114
 20
-0.0000000019073525
 30
0.0
 11
1.0500000010901829
 21
0.6001359980926679
 31
0.0
  0
ENDBLK
  5
20D
100
AcDbEntity
  8
0
100
AcDbBlockEnd
  0
BLOCK
  5
20E
100
AcDbEntity
  8
0
100
AcDbBlockBegin
  2
AFDPG-8-JA-8
 70
               0
 10
0.0
 20
0.0
 30
0.0
  3
AFDPG-8-JA-8
  1

  0
LINE
  5
20F
100
AcDbEntity
  8
0
  6
CONTINUOUS
 62
               4
100
AcDbLine
 10
0.0
 20
-2.0499999999999972
 30
0.0
 11
15.500000004768381
 21
-2.0499999999999972
 31
0.0
  0
LINE
  5
210
100
AcDbEntity
  8
0
  6
CONTINUOUS
 62
               4
100
AcDbLine
 10
0.0
 20
2.0500000000000114
 30
0.0
 11
15.500000004768381
 21
2.0500000000000114
 31
0.0
  0
LINE
  5
211
100
AcDbEntity
  8
0
  6
CONTINUOUS
 62
               4
100
AcDbLine
 10
8.0000000047683812
 20
-0.5999999999999943
 30
0.0
 11
9.6000000047683756
 21
-0.5999999999999943
 31
0.0
  0
LINE
  5
212
100
AcDbEntity
  8
0
  6
CONTINUOUS
 62
               4
100
AcDbLine
 10
8.0000000047683812
 20
0.9000000000000057
 30
0.0
 11
9.6000000047683756
 21
0.9000000000000057
 31
0.0
  0
LINE
  5
213
100
AcDbEntity
  8
0
  6
CONTINUOUS
 62
               4
100
AcDbLine
 10
1.3107513189315796
 20
-1.0428020722525559
 30
0.0
 11
3.0428021124431126
 21
0.6892487212589913
 31
0.0
  0
LINE
  5
214
100
AcDbEntity
  8
0
  6
CONTINUOUS
 62
               4
100
AcDbLine
 10
0.9571978986753322
 20
-0.6892486978790089
 30
0.0
 11
2.6892487026473901
 21
1.0428021060930348
 31
0.0
  0
CIRCLE
  5
215
100
AcDbEntity
  8
0
  6
CONTINUOUS
 62
             200
100
AcDbCircle
 10
2.000000004768367
 20
0.0
 30
0.0
 40
1.05
  0
CIRCLE
  5
216
100
AcDbEntity
  8
0
  6
CONTINUOUS
 62
               4
100
AcDbCircle
 10
2.000000004768367
 20
0.0
 30
0.0
 40
1.25
  0
CIRCLE
  5
217
100
AcDbEntity
  8
0
  6
CONTINUOUS
 62
               4
100
AcDbCircle
 10
2.000000004768367
 20
0.0
 30
0.0
 40
1.3999999999999997
  0
LINE
  5
218
100
AcDbEntity
  8
0
  6
CONTINUOUS
 62
               4
100
AcDbLine
 10
0.0
 20
-1.5
 30
0.0
 11
15.500000004768381
 21
-1.5
 31
0.0
  0
LINE
  5
219
100
AcDbEntity
  8
0
  6
CONTINUOUS
 62
               4
100
AcDbLine
 10
0.0
 20
1.5
 30
0.0
 11
15.500000004768381
 21
1.5
 31
0.0
  0
LINE
  5
21A
100
AcDbEntity
  8
0
  6
CONTINUOUS
 62
               4
100
AcDbLine
 10
15.500000004768381
 20
-2.0499999999999972
 30
0.0
 11
15.500000004768381
 21
2.0500000000000114
 31
0.0
  0
LINE
  5
21B
100
AcDbEntity
  8
0
  6
CONTINUOUS
 62
               4
100
AcDbLine
 10
0.0
 20
-2.0499999999999972
 30
0.0
 11
0.0
 21
2.0500000000000114
 31
0.0
  0
LINE
  5
21C
100
AcDbEntity
  8
0
  6
CONTINUOUS
 62
               4
100
AcDbLine
 10
9.6000000047683756
 20
-0.5999999999999943
 30
0.0
 11
9.6000000047683756
 21
0.9000000000000057
 31
0.0
  0
LINE
  5
21D
100
AcDbEntity
  8
0
  6
CONTINUOUS
 62
               4
100
AcDbLine
 10
8.0000000047683812
 20
-0.5999999999999943
 30
0.0
 11
8.0000000047683812
 21
0.9000000000000057
 31
0.0
  0
LINE
  5
21E
100
AcDbEntity
  8
0
  6
CONTINUOUS
 62
               4
100
AcDbLine
 10
10.400000004768359
 20
-1.5
 30
0.0
 11
10.400000004768359
 21
1.5
 31
0.0
  0
LINE
  5
21F
100
AcDbEntity
  8
0
  6
CONTINUOUS
 62
               4
100
AcDbLine
 10
3.9000000047683585
 20
-1.5
 30
0.0
 11
3.9000000047683585
 21
1.5
 31
0.0
  0
LINE
  5
220
100
AcDbEntity
  8
0
  6
CONTINUOUS
 62
               4
100
AcDbLine
 10
15.500000004768381
 20
1.3000000000000114
 30
0.0
 11
17.752309473590529
 21
1.3000000000000114
 31
0.0
  0
LINE
  5
221
100
AcDbEntity
  8
0
  6
CONTINUOUS
 62
               4
100
AcDbLine
 10
15.500000004768381
 20
-1.2999999999999972
 30
0.0
 11
19.253464208001631
 21
-1.2999999999999972
 31
0.0
  0
LINE
  5
222
100
AcDbEntity
  8
0
  6
CONTINUOUS
 62
             200
100
AcDbLine
 10
17.75230947359055
 20
1.3000000000000114
 30
0.0
 11
19.253464208001638
 21
-1.2999999999999972
 31
0.0
  0
LINE
  5
223
100
AcDbEntity
  8
0
  6
CENTER
 62
             200
100
AcDbLine
 10
-1.4104017530168846
 20
0.0
 30
0.0
 11
21.50288684079608
 21
0.0
 31
0.0
  0
LINE
  5
224
100
AcDbEntity
  8
0
  6
CONTINUOUS
 62
             200
100
AcDbLine
 10
2.000000004768367
 20
2.9428571428571502
 30
0.0
 11
2.000000004768367
 21
-3.2999846734234666
 31
0.0
  0
ENDBLK
  5
225
100
AcDbEntity
  8
0
100
AcDbBlockEnd
  0
BLOCK
  5
226
100
AcDbEntity
  8
0
100
AcDbBlockBegin
  2
AFDPG-8-JA-9
 70
               0
 10
0.0
 20
0.0
 30
0.0
  3
AFDPG-8-JA-9
  1

  0
LINE
  5
227
100
AcDbEntity
  8
0
  6
CONTINUOUS
 62
               4
100
AcDbLine
 10
10.400000010217923
 20
1.4979762335365336
 30
0.0
 11
15.000000004768367
 21
1.4979762335365336
 31
0.0
  0
LINE
  5
228
100
AcDbEntity
  8
0
  6
CONTINUOUS
 62
               4
100
AcDbLine
 10
10.399999993188032
 20
0.9479762301305641
 30
0.0
 11
15.0
 21
0.9479762301305641
 31
0.0
  0
LINE
  5
229
100
AcDbEntity
  8
0
  6
CONTINUOUS
 62
               4
100
AcDbLine
 10
0.0
 20
-0.5500000000000114
 30
0.0
 11
15.000000004768367
 21
-0.5500000000000114
 31
0.0
  0
LINE
  5
22A
100
AcDbEntity
  8
0
  6
CONTINUOUS
 62
               4
100
AcDbLine
 10
0.0
 20
-1.1000000082564156
 30
0.0
 11
15.0
 21
-1.1000000082564156
 31
0.0
  0
LINE
  5
22B
100
AcDbEntity
  8
0
  6
CONTINUOUS
 62
               4
100
AcDbLine
 10
0.0
 20
-2.6000000000000085
 30
0.0
 11
4.0
 21
-2.6000000000000085
 31
0.0
  0
LINE
  5
22C
100
AcDbEntity
  8
0
  6
CONTINUOUS
 62
               4
100
AcDbLine
 10
0.000000004768367
 20
-1.8000000000000114
 30
0.0
 11
4.3000000047683784
 21
-1.8000000000000114
 31
0.0
  0
LINE
  5
22D
100
AcDbEntity
  8
0
  6
CONTINUOUS
 62
               4
100
AcDbLine
 10
0.0
 20
0.0
 30
0.0
 11
15.0
 21
0.0
 31
0.0
  0
LINE
  5
22E
100
AcDbEntity
  8
0
  6
CONTINUOUS
 62
               4
100
AcDbLine
 10
4.3000000034059838
 20
-4.6000000000000085
 30
0.0
 11
15.0
 21
-4.6000000000000085
 31
0.0
  0
LINE
  5
22F
100
AcDbEntity
  8
0
  6
CONTINUOUS
 62
               4
100
AcDbLine
 10
13.800000004768378
 20
5.8979763159612446
 30
0.0
 11
13.800000004768378
 21
9.6456668471390827
 31
0.0
  0
LINE
  5
230
100
AcDbEntity
  8
0
  6
CONTINUOUS
 62
               4
100
AcDbLine
 10
11.200000004768356
 20
5.8979763159612446
 30
0.0
 11
11.200000004768356
 21
8.1445121127279805
 31
0.0
  0
LINE
  5
231
100
AcDbEntity
  8
0
  6
CONTINUOUS
 62
               4
100
AcDbLine
 10
15.000000004768367
 20
-4.6000000000000085
 30
0.0
 11
15.000000004768367
 21
4.8979763159612446
 31
0.0
  0
LINE
  5
232
100
AcDbEntity
  8
0
  6
CONTINUOUS
 62
               4
100
AcDbLine
 10
4.3000000047683784
 20
-1.8000000000000114
 30
0.0
 11
4.3000000047683784
 21
-4.6000000000000085
 31
0.0
  0
LINE
  5
233
100
AcDbEntity
  8
0
  6
CONTINUOUS
 62
               4
100
AcDbLine
 10
3.251428576196929
 20
-2.6020236840387554
 30
0.0
 11
3.251428576196929
 21
-3.9020236840387525
 31
0.0
  0
LINE
  5
234
100
AcDbEntity
  8
0
  6
CONTINUOUS
 62
               4
100
AcDbLine
 10
3.251428576196929
 20
-3.9020236840387525
 30
0.0
 11
2.751428576196929
 21
-4.4020236840387525
 31
0.0
  0
LINE
  5
235
100
AcDbEntity
  8
0
  6
CONTINUOUS
 62
               4
100
AcDbLine
 10
1.251428576196929
 20
-4.4020236840387525
 30
0.0
 11
2.751428576196929
 21
-4.4020236840387525
 31
0.0
  0
LINE
  5
236
100
AcDbEntity
  8
0
  6
CONTINUOUS
 62
               4
100
AcDbLine
 10
1.251428576196929
 20
-4.4020236840387525
 30
0.0
 11
0.751428576196929
 21
-3.9020236840387525
 31
0.0
  0
LINE
  5
237
100
AcDbEntity
  8
0
  6
CONTINUOUS
 62
               4
100
AcDbLine
 10
0.751428576196929
 20
-3.9020236840387525
 30
0.0
 11
3.251428576196929
 21
-3.9020236840387525
 31
0.0
  0
LINE
  5
238
100
AcDbEntity
  8
0
  6
CONTINUOUS
 62
               4
100
AcDbLine
 10
0.751428576196929
 20
-2.6020236840387554
 30
0.0
 11
0.751428576196929
 21
-3.9020236840387525
 31
0.0
  0
LINE
  5
239
100
AcDbEntity
  8
0
  6
CONTINUOUS
 62
               4
100
AcDbLine
 10
0.000000004768367
 20
-1.8020236840387582
 30
0.0
 11
0.000000004768367
 21
-2.6020236840387554
 31
0.0
  0
LINE
  5
23A
100
AcDbEntity
  8
0
  6
CONTINUOUS
 62
               4
100
AcDbLine
 10
4.000000004768367
 20
-1.8020236840387582
 30
0.0
 11
4.000000004768367
 21
-2.6020236840387554
 31
0.0
  0
LINE
  5
23B
100
AcDbEntity
  8
0
  6
CONTINUOUS
 62
             200
100
AcDbLine
 10
2.000000004768367
 20
1.2843226271262154
 30
0.0
 11
2.000000004768367
 21
-5.0691959306680729
 31
0.0
  0
LINE
  5
23C
100
AcDbEntity
  8
0
  6
CONTINUOUS
 62
               4
100
AcDbLine
 10
0.000000004768367
 20
-1.8020236840387582
 30
0.0
 11
0.000000004768367
 21
0.0
 31
0.0
  0
LINE
  5
23D
100
AcDbEntity
  8
0
  6
CONTINUOUS
 62
               4
100
AcDbLine
 10
0.9514285761969461
 20
0.5979763159612475
 30
0.0
 11
3.0514285761969404
 21
0.5979763159612475
 31
0.0
  0
LINE
  5
23E
100
AcDbEntity
  8
0
  6
CONTINUOUS
 62
             200
100
AcDbLine
 10
3.0500000047683784
 20
-2.6020236840387554
 30
0.0
 11
3.0500000047683784
 21
-4.1034522554673174
 31
0.0
  0
LINE
  5
23F
100
AcDbEntity
  8
0
  6
CONTINUOUS
 62
             200
100
AcDbLine
 10
0.9500000047683557
 20
-2.6020236840387554
 30
0.0
 11
0.9500000047683557
 21
-4.1005951126101792
 31
0.0
  0
LINE
  5
240
100
AcDbEntity
  8
0
  6
CONTINUOUS
 62
               4
100
AcDbLine
 10
0.751428576196929
 20
-0.0020236840387469
 30
0.0
 11
0.751428576196929
 21
0.3979763159612446
 31
0.0
  0
LINE
  5
241
100
AcDbEntity
  8
0
  6
CONTINUOUS
 62
               4
100
AcDbLine
 10
3.251428576196929
 20
0.3979763159612446
 30
0.0
 11
3.251428576196929
 21
-0.0020236840387469
 31
0.0
  0
LINE
  5
242
100
AcDbEntity
  8
0
  6
CONTINUOUS
 62
               4
100
AcDbLine
 10
0.751428576196929
 20
0.3979763159612446
 30
0.0
 11
0.9514285761969461
 21
0.5979763159612475
 31
0.0
  0
LINE
  5
243
100
AcDbEntity
  8
0
  6
CONTINUOUS
 62
               4
100
AcDbLine
 10
3.0514285761969404
 20
0.5979763159612475
 30
0.0
 11
3.251428576196929
 21
0.3979763159612446
 31
0.0
  0
LINE
  5
244
100
AcDbEntity
  8
0
  6
CONTINUOUS
 62
               4
100
AcDbLine
 10
0.751428576196929
 20
0.3979763159612446
 30
0.0
 11
3.251428576196929
 21
0.3979763159612446
 31
0.0
  0
LINE
  5
245
100
AcDbEntity
  8
0
  6
CONTINUOUS
 62
             200
100
AcDbLine
 10
3.0500000047683784
 20
0.5979763159612475
 30
0.0
 11
3.0500000047683784
 21
-0.0020236840387469
 31
0.0
  0
LINE
  5
246
100
AcDbEntity
  8
0
  6
CONTINUOUS
 62
             200
100
AcDbLine
 10
0.9500000047683557
 20
0.5979763159612475
 30
0.0
 11
0.9500000047683557
 21
-0.0020236840387469
 31
0.0
  0
LINE
  5
247
100
AcDbEntity
  8
0
  6
CONTINUOUS
 62
               4
100
AcDbLine
 10
15.000000004768367
 20
3.8979763159612446
 30
0.0
 11
10.400000004768373
 21
3.8979763159612446
 31
0.0
  0
LINE
  5
248
100
AcDbEntity
  8
0
  6
CONTINUOUS
 62
               4
100
AcDbLine
 10
10.400000004768373
 20
5.8979763159612446
 30
0.0
 11
14.60000000476839
 21
5.8979763159612446
 31
0.0
  0
LINE
  5
249
100
AcDbEntity
  8
0
  6
CONTINUOUS
 62
               4
100
AcDbLine
 10
10.400000004768373
 20
-0.0020236840387469
 30
0.0
 11
10.400000004768373
 21
5.8979763159612446
 31
0.0
  0
LINE
  5
24A
100
AcDbEntity
  8
0
  6
CONTINUOUS
 62
               4
100
AcDbLine
 10
14.60000000476839
 20
4.8979763159612446
 30
0.0
 11
14.60000000476839
 21
5.8979763159612446
 31
0.0
  0
LINE
  5
24B
100
AcDbEntity
  8
0
  6
CONTINUOUS
 62
               4
100
AcDbLine
 10
12.949044341473041
 20
4.8979763159612446
 30
0.0
 11
15.000000004768367
 21
4.8979763159612446
 31
0.0
  0
LINE
  5
24C
100
AcDbEntity
  8
0
  6
CONTINUOUS
 62
               4
100
AcDbLine
 10
12.949044341473041
 20
4.8979763118740749
 30
0.0
 11
12.949044341473041
 21
5.8979763118740749
 31
0.0
  0
LINE
  5
24D
100
AcDbEntity
  8
0
  6
CONTINUOUS
 62
               4
100
AcDbLine
 10
12.050955668063693
 20
1.4979762296661931
 30
0.0
 11
12.050955668063693
 21
5.8979763159612446
 31
0.0
  0
LINE
  5
24E
100
AcDbEntity
  8
0
  6
CONTINUOUS
 62
               4
100
AcDbLine
 10
10.400000010217923
 20
0.9479762348989311
 30
0.0
 11
12.050955668063693
 21
1.4979762296661931
 31
0.0
  0
LINE
  5
24F
100
AcDbEntity
  8
0
  6
CONTINUOUS
 62
             200
100
AcDbLine
 10
11.200000004768356
 20
8.1445121127279805
 30
0.0
 11
13.800000004768378
 21
9.6456668471390827
 31
0.0
  0
ENDBLK
  5
250
100
AcDbEntity
  8
0
100
AcDbBlockEnd
  0
BLOCK
  5
251
100
AcDbEntity
  8
0
100
AcDbBlockBegin
  2
AFDPG-8-JA-10
 70
               0
 10
0.0
 20
0.0
 30
0.0
  3
AFDPG-8-JA-10
  1

  0
LINE
  5
252
100
AcDbEntity
  8
0
  6
CONTINUOUS
 62
             200
100
AcDbLine
 10
-1.0250000000000057
 20
-0.0000000014444481
 30
0.0
 11
-1.0250000000000057
 21
0.5979763159612475
 31
0.0
  0
LINE
  5
253
100
AcDbEntity
  8
0
  6
CONTINUOUS
 62
             200
100
AcDbLine
 10
1.0250000000000057
 20
-0.0000000014444481
 30
0.0
 11
1.0250000000000092
 21
0.5979763159612475
 31
0.0
  0
LINE
  5
254
100
AcDbEntity
  8
0
  6
CONTINUOUS
 62
               4
100
AcDbLine
 10
1.3000000000000078
 20
5.8979762296661846
 30
0.0
 11
1.3000000000000185
 21
9.6456667608440085
 31
0.0
  0
LINE
  5
255
100
AcDbEntity
  8
0
  6
CONTINUOUS
 62
               4
100
AcDbLine
 10
-1.2999999999999865
 20
5.8979762296661988
 30
0.0
 11
-1.2999999999999829
 21
8.1445120264329205
 31
0.0
  0
LINE
  5
256
100
AcDbEntity
  8
0
  6
CONTINUOUS
 62
               4
100
AcDbLine
 10
-1.9994048873898382
 20
-2.6000000000000085
 30
0.0
 11
2.00059511261016
 21
-2.6000000000000227
 31
0.0
  0
LINE
  5
257
100
AcDbEntity
  8
0
  6
CONTINUOUS
 62
               4
100
AcDbLine
 10
-2.0500000000000185
 20
-1.8000000000000114
 30
0.0
 11
2.0499999999999758
 21
-1.8000000000000256
 31
0.0
  0
LINE
  5
258
100
AcDbEntity
  8
0
  6
CONTINUOUS
 62
               4
100
AcDbLine
 10
-1.5000000019615243
 20
0.0
 30
0.0
 11
1.4999999980384757
 21
0.0
 31
0.0
  0
LINE
  5
259
100
AcDbEntity
  8
0
  6
CONTINUOUS
 62
               4
100
AcDbLine
 10
1.5
 20
-0.5500000048504319
 30
0.0
 11
1.5000000000000036
 21
0.9479762301305641
 31
0.0
  0
LINE
  5
25A
100
AcDbEntity
  8
0
  6
CONTINUOUS
 62
               4
100
AcDbLine
 10
-1.5
 20
-0.5511933238986302
 30
0.0
 11
-1.4999999999999964
 21
0.9479762301305783
 31
0.0
  0
LINE
  5
25B
100
AcDbEntity
  8
0
  6
CONTINUOUS
 62
               4
100
AcDbLine
 10
-2.0500000053675009
 20
1.4979762335365336
 30
0.0
 11
-1.4999999999999964
 21
0.9479762281690398
 31
0.0
  0
LINE
  5
25C
100
AcDbEntity
  8
0
  6
CONTINUOUS
 62
               4
100
AcDbLine
 10
1.5000000000000036
 20
0.9479762320920884
 30
0.0
 11
2.0500000014444666
 21
1.4979762335365194
 31
0.0
  0
LINE
  5
25D
100
AcDbEntity
  8
0
  6
CONTINUOUS
 62
               4
100
AcDbLine
 10
2.0499999999999865
 20
1.4979762320920855
 30
0.0
 11
2.0500000000000078
 21
5.8979762296661704
 31
0.0
  0
LINE
  5
25E
100
AcDbEntity
  8
0
  6
CONTINUOUS
 62
               4
100
AcDbLine
 10
-2.050000000000006
 20
1.497976228169037
 30
0.0
 11
-2.0499999999999883
 21
5.8979762296661846
 31
0.0
  0
ARC
  5
25F
100
AcDbEntity
  8
0
  6
CONTINUOUS
 62
               4
100
AcDbCircle
 10
-0.0000000000000107
 20
-2.5500000000000114
 30
0.0
 40
2.0499999999999994
100
AcDbArc
 50
179.9999999999998
 51
359.99999999999977
  0
LINE
  5
260
100
AcDbEntity
  8
0
  6
CONTINUOUS
 62
               4
100
AcDbLine
 10
2.0499999999999723
 20
-2.6411128569470037
 30
0.0
 11
2.0499999999999794
 21
-1.1000000082564299
 31
0.0
  0
LINE
  5
261
100
AcDbEntity
  8
0
  6
CONTINUOUS
 62
               4
100
AcDbLine
 10
-2.0500000000000203
 20
-2.5505951126101678
 30
0.0
 11
-2.0500000000000167
 21
-1.1020236840387412
 31
0.0
  0
LINE
  5
262
100
AcDbEntity
  8
0
  6
CONTINUOUS
 62
               4
100
AcDbLine
 10
-0.7471428571428618
 20
-4.4020236840387525
 30
0.0
 11
0.7471428571428298
 21
-4.4020236840387525
 31
0.0
  0
LINE
  5
263
100
AcDbEntity
  8
0
  6
CONTINUOUS
 62
               4
100
AcDbLine
 10
-1.9994048873898365
 20
-1.7999999999999972
 30
0.0
 11
-1.99940488738984
 21
-2.6020236840387554
 31
0.0
  0
LINE
  5
264
100
AcDbEntity
  8
0
  6
CONTINUOUS
 62
               4
100
AcDbLine
 10
2.0005951126101635
 20
-1.8000000000000256
 30
0.0
 11
2.00059511261016
 21
-2.6020236840387696
 31
0.0
  0
LINE
  5
265
100
AcDbEntity
  8
0
  6
CONTINUOUS
 62
               4
100
AcDbLine
 10
-0.7471428571428618
 20
-4.4020236840387525
 30
0.0
 11
-1.2500000000000142
 21
-3.8991665411816143
 31
0.0
  0
LINE
  5
266
100
AcDbEntity
  8
0
  6
CONTINUOUS
 62
               4
100
AcDbLine
 10
1.2499999999999858
 20
-3.8991665411816143
 30
0.0
 11
0.7471428571428298
 21
-4.4020236840387525
 31
0.0
  0
LINE
  5
267
100
AcDbEntity
  8
0
  6
CONTINUOUS
 62
               4
100
AcDbLine
 10
-1.2500000000000142
 20
-3.8991665411816143
 30
0.0
 11
1.2499999999999858
 21
-3.8991665411816143
 31
0.0
  0
LINE
  5
268
100
AcDbEntity
  8
0
  6
CONTINUOUS
 62
               4
100
AcDbLine
 10
-1.2500000000000107
 20
-2.6000000000000085
 30
0.0
 11
-1.2500000000000142
 21
-3.8991665411816143
 31
0.0
  0
LINE
  5
269
100
AcDbEntity
  8
0
  6
CONTINUOUS
 62
               4
100
AcDbLine
 10
1.2499999999999893
 20
-2.6000000000000227
 30
0.0
 11
1.2499999999999858
 21
-3.8991665411816143
 31
0.0
  0
LINE
  5
26A
100
AcDbEntity
  8
0
  6
CONTINUOUS
 62
               4
100
AcDbLine
 10
2.0499999999999794
 20
-1.1000000000000227
 30
0.0
 11
1.5
 21
-0.5500000000000114
 31
0.0
  0
LINE
  5
26B
100
AcDbEntity
  8
0
  6
CONTINUOUS
 62
               4
100
AcDbLine
 10
-2.0479763159612556
 20
-1.1020236840387412
 30
0.0
 11
-1.5000000000000036
 21
-0.5511933247651939
 31
0.0
  0
LINE
  5
26C
100
AcDbEntity
  8
0
  6
CONTINUOUS
 62
               4
100
AcDbLine
 10
-1.25
 20
0.0
 30
0.0
 11
-1.25
 21
0.3979763159612446
 31
0.0
  0
LINE
  5
26D
100
AcDbEntity
  8
0
  6
CONTINUOUS
 62
               4
100
AcDbLine
 10
1.25
 20
0.3979763159612446
 30
0.0
 11
1.25
 21
0.0
 31
0.0
  0
LINE
  5
26E
100
AcDbEntity
  8
0
  6
CONTINUOUS
 62
               4
100
AcDbLine
 10
-1.25
 20
0.3979763159612446
 30
0.0
 11
1.25
 21
0.3979763159612446
 31
0.0
  0
LINE
  5
26F
100
AcDbEntity
  8
0
  6
CONTINUOUS
 62
               4
100
AcDbLine
 10
1.0499999999999865
 20
0.5979763159612475
 30
0.0
 11
1.25
 21
0.3979763159612446
 31
0.0
  0
LINE
  5
270
100
AcDbEntity
  8
0
  6
CONTINUOUS
 62
               4
100
AcDbLine
 10
-1.25
 20
0.3979763159612446
 30
0.0
 11
-1.0500000000000114
 21
0.5979763159612475
 31
0.0
  0
LINE
  5
271
100
AcDbEntity
  8
0
  6
CONTINUOUS
 62
               4
100
AcDbLine
 10
-1.0500000000000114
 20
0.5979763159612475
 30
0.0
 11
1.0499999999999865
 21
0.5979763159612475
 31
0.0
  0
LINE
  5
272
100
AcDbEntity
  8
0
  6
CONTINUOUS
 62
               4
100
AcDbLine
 10
-2.0499999999999972
 20
3.8979762296661988
 30
0.0
 11
2.0499999999999972
 21
3.8979762296661704
 31
0.0
  0
LINE
  5
273
100
AcDbEntity
  8
0
  6
CONTINUOUS
 62
               4
100
AcDbLine
 10
-2.0499999999999883
 20
5.8979762296661846
 30
0.0
 11
2.0500000000000078
 21
5.8979762296661704
 31
0.0
  0
LINE
  5
274
100
AcDbEntity
  8
0
  6
CONTINUOUS
 62
             200
100
AcDbLine
 10
-1.2999999999999865
 20
8.1445120264329205
 30
0.0
 11
1.3000000000000185
 21
9.6456667608439943
 31
0.0
  0
LINE
  5
275
100
AcDbEntity
  8
0
  6
CONTINUOUS
 62
             200
100
AcDbLine
 10
-0.0000000000000213
 20
-5.5464060491292599
 30
0.0
 11
0.0000000000000391
 21
9.6693480170655448
 31
0.0
  0
LINE
  5
276
100
AcDbEntity
  8
0
  6
CONTINUOUS
 62
             200
100
AcDbLine
 10
-1.0500000000000256
 20
-2.6020236840387696
 30
0.0
 11
-1.0500000000000256
 21
-4.1005951126101934
 31
0.0
  0
LINE
  5
277
100
AcDbEntity
  8
0
  6
CONTINUOUS
 62
             200
100
AcDbLine
 10
1.0499999999999972
 20
-2.6020236840387696
 30
0.0
 11
1.0499999999999972
 21
-4.099166541181603
 31
0.0
  0
ENDBLK
  5
278
100
AcDbEntity
  8
0
100
AcDbBlockEnd
  0
BLOCK
  5
279
100
AcDbEntity
  8
0
100
AcDbBlockBegin
  2
AFDPG-8-JA-11
 70
               0
 10
0.0
 20
0.0
 30
0.0
  3
AFDPG-8-JA-11
  1

  0
LINE
  5
27A
100
AcDbEntity
  8
0
  6
CENTER
 62
             200
100
AcDbLine
 10
-1.3247205773654969
 20
0.0
 30
0.0
 11
16.237619114850219
 21
0.0
 31
0.0
  0
CIRCLE
  5
27B
100
AcDbEntity
  8
0
  6
CONTINUOUS
 62
               4
100
AcDbCircle
 10
11.849999997275233
 20
0.0000000000000142
 30
0.0
 40
0.29
  0
CIRCLE
  5
27C
100
AcDbEntity
  8
0
  6
CONTINUOUS
 62
               4
100
AcDbCircle
 10
13.150000002724795
 20
0.0
 30
0.0
 40
0.29
  0
CIRCLE
  5
27D
100
AcDbEntity
  8
0
  6
CONTINUOUS
 62
               4
100
AcDbCircle
 10
11.849999997275233
 20
0.0000000000000142
 30
0.0
 40
0.5
  0
CIRCLE
  5
27E
100
AcDbEntity
  8
0
  6
CONTINUOUS
 62
               4
100
AcDbCircle
 10
13.150000002724795
 20
0.0
 30
0.0
 40
0.5
  0
CIRCLE
  5
27F
100
AcDbEntity
  8
0
  6
CONTINUOUS
 62
               4
100
AcDbCircle
 10
2.0
 20
0.0
 30
0.0
 40
1.25
  0
CIRCLE
  5
280
100
AcDbEntity
  8
0
  6
CONTINUOUS
 62
             200
100
AcDbCircle
 10
2.0
 20
0.0
 30
0.0
 40
1.05
  0
CIRCLE
  5
281
100
AcDbEntity
  8
0
  6
CONTINUOUS
 62
               4
100
AcDbCircle
 10
2.0
 20
0.0
 30
0.0
 40
1.3999999999999997
  0
LINE
  5
282
100
AcDbEntity
  8
0
  6
CONTINUOUS
 62
               4
100
AcDbLine
 10
0.0
 20
-1.5
 30
0.0
 11
11.030306154330106
 21
-1.5
 31
0.0
  0
LINE
  5
283
100
AcDbEntity
  8
0
  6
CONTINUOUS
 62
               4
100
AcDbLine
 10
0.0
 20
-2.0499999999999972
 30
0.0
 11
15.0
 21
-2.0499999999999972
 31
0.0
  0
LINE
  5
284
100
AcDbEntity
  8
0
  6
CONTINUOUS
 62
               4
100
AcDbLine
 10
0.0
 20
2.0499999999999972
 30
0.0
 11
15.0
 21
2.0500000000000114
 31
0.0
  0
LINE
  5
285
100
AcDbEntity
  8
0
  6
CONTINUOUS
 62
               4
100
AcDbLine
 10
8.0
 20
-0.7000000000000028
 30
0.0
 11
9.6000000000000227
 21
-0.7000000000000028
 31
0.0
  0
LINE
  5
286
100
AcDbEntity
  8
0
  6
CONTINUOUS
 62
               4
100
AcDbLine
 10
8.0
 20
0.9000000000000057
 30
0.0
 11
9.6000000000000227
 21
0.9000000000000057
 31
0.0
  0
LINE
  5
287
100
AcDbEntity
  8
0
  6
CONTINUOUS
 62
               4
100
AcDbLine
 10
9.6000000000000227
 20
-0.7000000068119476
 30
0.0
 11
9.6000000000000227
 21
0.9000000000000057
 31
0.0
  0
LINE
  5
288
100
AcDbEntity
  8
0
  6
CONTINUOUS
 62
               4
100
AcDbLine
 10
8.0
 20
-0.7000000068119476
 30
0.0
 11
8.0
 21
0.9000000000000057
 31
0.0
  0
LINE
  5
289
100
AcDbEntity
  8
0
  6
CONTINUOUS
 62
               4
100
AcDbLine
 10
10.400000000000006
 20
-1.5028571503502803
 30
0.0
 11
10.400000000000006
 21
1.500000006811959
 31
0.0
  0
LINE
  5
28A
100
AcDbEntity
  8
0
  6
CONTINUOUS
 62
               4
100
AcDbLine
 10
3.9000000000000057
 20
-1.5028571503502945
 30
0.0
 11
3.9000000000000057
 21
1.500000006811959
 31
0.0
  0
LINE
  5
28B
100
AcDbEntity
  8
0
  6
CONTINUOUS
 62
               4
100
AcDbLine
 10
1.3085714285714403
 20
-1.068571428571417
 30
0.0
 11
3.0519930369714814
 21
0.6748501798286242
 31
0.0
  0
LINE
  5
28C
100
AcDbEntity
  8
0
  6
CONTINUOUS
 62
               4
100
AcDbLine
 10
0.9571428571428555
 20
-0.7142857142857082
 30
0.0
 11
2.6885714285714357
 21
1.019999999999996
 31
0.0
  0
LINE
  5
28D
100
AcDbEntity
  8
0
  6
CONTINUOUS
 62
               4
100
AcDbLine
 10
15.0
 20
2.0500000000000114
 30
0.0
 11
15.0
 21
-2.0499999999999972
 31
0.0
  0
LINE
  5
28E
100
AcDbEntity
  8
0
  6
CONTINUOUS
 62
               4
100
AcDbLine
 10
0.0
 20
2.0499999999999972
 30
0.0
 11
0.0
 21
-2.0499999999999972
 31
0.0
  0
LINE
  5
28F
100
AcDbEntity
  8
0
  6
CONTINUOUS
 62
               4
100
AcDbLine
 10
0.0
 20
1.5
 30
0.0
 11
11.030306154330106
 21
1.5000000000000142
 31
0.0
  0
ARC
  5
290
100
AcDbEntity
  8
0
  6
CONTINUOUS
 62
               4
100
AcDbCircle
 10
12.5
 20
0.0
 30
0.0
 40
2.1000000000000001
100
AcDbArc
 50
102.70634183842959
 51
257.65306763258724
  0
ARC
  5
291
100
AcDbEntity
  8
0
  6
CONTINUOUS
 62
               4
100
AcDbCircle
 10
12.5
 20
0.0
 30
0.0
 40
2.1000000000000001
100
AcDbArc
 50
282.34693236741288
 51
77.293658161570505
  0
CIRCLE
  5
292
100
AcDbEntity
  8
0
  6
CONTINUOUS
 62
               4
100
AcDbCircle
 10
12.5
 20
0.0
 30
0.0
 40
1.3
  0
LINE
  5
293
100
AcDbEntity
  8
0
  6
CONTINUOUS
 62
             200
100
AcDbLine
 10
2.0
 20
2.8342857142857127
 30
0.0
 11
2.0000000000000142
 21
-3.3514132448520257
 31
0.0
  0
ENDBLK
  5
294
100
AcDbEntity
  8
0
100
AcDbBlockEnd
  0
ENDSEC
  0
SECTION
  2
ENTITIES
  0
INSERT
  5
295
100
AcDbEntity
  8
0
  6
ByBlock
100
AcDbBlockReference
  2
AFDPG-8-JA-5
 10
-0.0000000000000018
 20
-20.0
 30
0.0
  0
INSERT
  5
296
100
AcDbEntity
  8
0
  6
ByBlock
100
AcDbBlockReference
  2
AFDPG-8-JA-4
 10
0.0
 20
90.0
 30
0.0
  0
INSERT
  5
297
100
AcDbEntity
  8
0
  6
ByBlock
100
AcDbBlockReference
  2
AFDPG-8-JA-11
 10
60.0
 20
-90.0
 30
0.0
  0
INSERT
  5
298
100
AcDbEntity
  8
0
  6
ByBlock
100
AcDbBlockReference
  2
AFDPG-8-JA-10
 10
10.0
 20
-120.0
 30
0.0
  0
INSERT
  5
299
100
AcDbEntity
  8
0
  6
ByBlock
100
AcDbBlockReference
  2
AFDPG-8-JA-9
 10
60.0
 20
-120.0
 30
0.0
  0
INSERT
  5
29A
100
AcDbEntity
  8
0
  6
ByBlock
100
AcDbBlockReference
  2
AFDPG-8-JA-8
 10
-90.0
 20
-90.0
 30
0.0
  0
INSERT
  5
29B
100
AcDbEntity
  8
0
  6
ByBlock
100
AcDbBlockReference
  2
AFDPG-8-JA-7
 10
-140.0
 20
-120.0
 30
0.0
  0
INSERT
  5
29C
100
AcDbEntity
  8
0
  6
ByBlock
100
AcDbBlockReference
  2
AFDPG-8-JA-6
 10
-90.0
 20
-120.0
 30
0.0
  0
INSERT
  5
29D
100
AcDbEntity
  8
0
  6
ByBlock
100
AcDbBlockReference
  2
AFDPG-8-JA-3
 10
80.0
 20
30.0
 30
0.0
  0
INSERT
  5
29E
100
AcDbEntity
  8
0
  6
ByBlock
100
AcDbBlockReference
  2
AFDPG-8-JA-2
 10
-80.0
 20
30.0
 30
0.0
  0
INSERT
  5
29F
100
AcDbEntity
  8
0
  6
ByBlock
100
AcDbBlockReference
  2
AFDPG-8-JA-1
 10
0.0
 20
30.0
 30
0.0
  0
LINE
  5
2A0
100
AcDbEntity
  8
0
  6
CONTINUOUS
 62
               7
100
AcDbLine
 10
-104.25
 20
132.60000610351562
 30
0.0
 11
-104.25
 21
117.60000610351562
 31
0.0
  0
MTEXT
  5
2A1
100
AcDbEntity
  8
0
  6
CONTINUOUS
 62
               7
100
AcDbMText
 10
-191.18416030627154
 20
125.10000610351562
 30
0.0
 40
4.5
 41
0.0
 71
               4
 72
               1
  1
\W1.088;\A1;FLAT TYPE AIR HANDS
  0
LINE
  5
2A2
100
AcDbEntity
  8
0
  6
CONTINUOUS
 62
               7
100
AcDbLine
 10
-194.25
 20
117.60000610351562
 30
0.0
 11
-104.25
 21
117.60000610351562
 31
0.0
  0
MTEXT
  5
2A3
100
AcDbEntity
  8
0
  6
CONTINUOUS
 62
               7
100
AcDbMText
 10
-16.60666195310813
 20
-77.707459252403439
 30
0.0
 40
4.5
 41
0.0
 71
               1
 72
               1
  1
\A1;ZE255
  0
MTEXT
  5
2A4
100
AcDbEntity
  8
0
  6
CONTINUOUS
 62
               7
100
AcDbMText
 10
-16.60666195310813
 20
-70.764396550855338
 30
0.0
 40
4.5
 41
0.0
 71
               1
 72
               1
  1
\A1;ZE235
  0
LINE
  5
2A5
100
AcDbEntity
  8
0
  6
CONTINUOUS
 62
               7
100
AcDbLine
 10
-20.198768460575707
 20
-66.975000000000023
 30
0.0
 11
-20.198768460575707
 21
-133.4267309136421
 31
0.0
  0
MTEXT
  5
2A6
100
AcDbEntity
  8
0
  6
CONTINUOUS
 62
               7
100
AcDbMText
 10
-189.97646052993406
 20
-70.764396550855338
 30
0.0
 40
4.5
 41
0.0
 71
               1
 72
               1
  1
\W1.071;\A1;ZE135
  0
MTEXT
  5
2A7
100
AcDbEntity
  8
0
  6
CONTINUOUS
 62
               7
100
AcDbMText
 10
-189.97646052993406
 20
-77.707459252403439
 30
0.0
 40
4.5
 41
0.0
 71
               1
 72
               1
  1
\W1.071;\A1;ZE155
  0
LINE
  5
2A8
100
AcDbEntity
  8
0
  6
CONTINUOUS
 62
               7
100
AcDbLine
 10
-194.25
 20
-66.975000000000023
 30
0.0
 11
194.80000001192093
 21
-66.975000000000023
 31
0.0
  0
MTEXT
  5
2A9
100
AcDbEntity
  8
0
  6
CONTINUOUS
 62
               7
100
AcDbMText
 10
115.5267259825148
 20
-126.0
 30
0.0
 40
6.3000001907348633
 41
0.0
 71
               4
 72
               1
  1
\W1.121;\A1;KOGANEI CORP.
  0
MTEXT
  5
2AA
100
AcDbEntity
  8
0
  6
CONTINUOUS
 62
               7
100
AcDbMText
 10
135.25744984812627
 20
125.10000610351562
 30
0.0
 40
4.5
 41
0.0
 71
               4
 72
               1
  1
\W1.277;\A1;Ver. 1.2
  0
MTEXT
  5
2AB
100
AcDbEntity
  8
0
  6
CONTINUOUS
 62
               7
100
AcDbMText
 10
-185.71739130485486
 20
107.60000610351562
 30
0.0
 40
4.5
 41
0.0
 71
               4
 72
               1
  1
\W1.043;\A1;MODEL:AFDPG-8-JA
  0
LINE
  5
2AC
100
AcDbEntity
  8
0
  6
CONTINUOUS
 62
               7
100
AcDbLine
 10
109.80000305175781
 20
117.60000610351562
 30
0.0
 11
194.80000305175781
 21
117.60000610351562
 31
0.0
  0
LINE
  5
2AD
100
AcDbEntity
  8
0
  6
CONTINUOUS
 62
               7
100
AcDbLine
 10
109.80000305175781
 20
132.60000610351562
 30
0.0
 11
109.80000305175781
 21
117.60000610351562
 31
0.0
  0
LINE
  5
2AE
100
AcDbEntity
  8
0
  6
CONTINUOUS
 62
               7
100
AcDbLine
 10
109.80000305175781
 20
-118.5
 30
0.0
 11
194.80000305175781
 21
-118.5
 31
0.0
  0
LINE
  5
2AF
100
AcDbEntity
  8
0
  6
CONTINUOUS
 62
               7
100
AcDbLine
 10
109.80000305175781
 20
-118.5
 30
0.0
 11
109.80000305175781
 21
-133.5
 31
0.0
  0
LINE
  5
2B0
100
AcDbEntity
  8
0
  6
CONTINUOUS
 62
               7
100
AcDbLine
 10
-194.25
 20
-133.5
 30
0.0
 11
194.80000305175781
 21
-133.5
 31
0.0
  0
LINE
  5
2B1
100
AcDbEntity
  8
0
  6
CONTINUOUS
 62
               7
100
AcDbLine
 10
-194.25
 20
132.60000610351562
 30
0.0
 11
-194.25
 21
-133.5
 31
0.0
  0
LINE
  5
2B2
100
AcDbEntity
  8
0
  6
CONTINUOUS
 62
               7
100
AcDbLine
 10
194.80000305175781
 20
132.60000610351562
 30
0.0
 11
194.80000305175781
 21
-133.5
 31
0.0
  0
LINE
  5
2B3
100
AcDbEntity
  8
0
  6
CONTINUOUS
 62
               7
100
AcDbLine
 10
-194.25
 20
132.60000610351562
 30
0.0
 11
194.80000305175781
 21
132.60000610351562
 31
0.0
  0
ENDSEC
  0
SECTION
  2
OBJECTS
  0
DICTIONARY
  5
19
100
AcDbDictionary
  3
ACAD_GROUP
350
1A
  3
ACAD_MLINESTYLE
350
1B
  0
DICTIONARY
  5
1A
102
{ACAD_REACTORS
330
19
102
}
100
AcDbDictionary
  0
DICTIONARY
  5
1B
102
{ACAD_REACTORS
330
19
102
}
100
AcDbDictionary
  3
STANDARD
350
1C
  0
MLINESTYLE
  5
1C
102
{ACAD_REACTORS
330
1B
102
}
100
AcDbMlineStyle
  2
Standard
 70
               0
  3

 62
               0
 51
90.0
 52
90.0
 71
               2
 49
0.5
 62
             256
  6
ByLayer
 49
-0.5
 62
             256
  6
ByLayer
  0
ENDSEC
  0
EOF
