  0
SECTION
  2
HEADER
  9
$ACADVER
  1
AC1015
  9
$ACADMAINTVER
 70
    20
  9
$DWGCODEPAGE
  3
ANSI_932
  9
$INSBASE
 10
0.0
 20
0.0
 30
0.0
  9
$EXTMIN
 10
-194.25
 20
-133.5
 30
0.0
  9
$EXTMAX
 10
195.0953083914834
 20
311.6323332507083
 30
0.0
  9
$LIMMIN
 10
-194.25
 20
-133.5
  9
$LIMMAX
 10
196.2500042915344
 20
132.6000061035156
  9
$ORTHOMODE
 70
     0
  9
$REGENMODE
 70
     1
  9
$FILLMODE
 70
     1
  9
$QTEXTMODE
 70
     0
  9
$MIRRTEXT
 70
     1
  9
$LTSCALE
 40
1.0
  9
$ATTMODE
 70
     1
  9
$TEXTSIZE
 40
3.200000047683715
  9
$TRACEWID
 40
0.05
  9
$TEXTSTYLE
  7
MX_NOTE_STANDARD
  9
$CLAYER
  8
0
  9
$CELTYPE
  6
CONTINUOUS
  9
$CECOLOR
 62
   256
  9
$CELTSCALE
 40
1.0
  9
$DISPSILH
 70
     0
  9
$DIMSCALE
 40
1.0
  9
$DIMASZ
 40
2.5
  9
$DIMEXO
 40
1.5
  9
$DIMDLI
 40
3.75
  9
$DIMRND
 40
0.0
  9
$DIMDLE
 40
0.0
  9
$DIMEXE
 40
1.5
  9
$DIMTP
 40
0.0
  9
$DIMTM
 40
0.0
  9
$DIMTXT
 40
3.200000047683715
  9
$DIMCEN
 40
2.5
  9
$DIMTSZ
 40
0.0
  9
$DIMTOL
 70
     0
  9
$DIMLIM
 70
     0
  9
$DIMTIH
 70
     0
  9
$DIMTOH
 70
     0
  9
$DIMSE1
 70
     0
  9
$DIMSE2
 70
     0
  9
$DIMTAD
 70
     1
  9
$DIMZIN
 70
     8
  9
$DIMBLK
  1

  9
$DIMASO
 70
     1
  9
$DIMSHO
 70
     1
  9
$DIMPOST
  1

  9
$DIMAPOST
  1

  9
$DIMALT
 70
     0
  9
$DIMALTD
 70
     4
  9
$DIMALTF
 40
0.03937007874016
  9
$DIMLFAC
 40
1.0
  9
$DIMTOFL
 70
     1
  9
$DIMTVP
 40
0.0
  9
$DIMTIX
 70
     0
  9
$DIMSOXD
 70
     0
  9
$DIMSAH
 70
     0
  9
$DIMBLK1
  1

  9
$DIMBLK2
  1

  9
$DIMSTYLE
  2
MXDIMSTYLE
  9
$DIMCLRD
 70
     0
  9
$DIMCLRE
 70
     0
  9
$DIMCLRT
 70
     0
  9
$DIMTFAC
 40
1.0
  9
$DIMGAP
 40
1.0
  9
$DIMJUST
 70
     0
  9
$DIMSD1
 70
     0
  9
$DIMSD2
 70
     0
  9
$DIMTOLJ
 70
     1
  9
$DIMTZIN
 70
     0
  9
$DIMALTZ
 70
     0
  9
$DIMALTTZ
 70
     0
  9
$DIMUPT
 70
     1
  9
$DIMDEC
 70
     4
  9
$DIMTDEC
 70
     4
  9
$DIMALTU
 70
     2
  9
$DIMALTTD
 70
     4
  9
$DIMTXSTY
  7
MX_NOTE_STANDARD
  9
$DIMAUNIT
 70
     0
  9
$DIMADEC
 70
     0
  9
$DIMALTRND
 40
0.0
  9
$DIMAZIN
 70
     0
  9
$DIMDSEP
 70
    46
  9
$DIMATFIT
 70
     3
  9
$DIMFRAC
 70
     0
  9
$DIMLDRBLK
  1

  9
$DIMLUNIT
 70
     2
  9
$DIMLWD
 70
    -2
  9
$DIMLWE
 70
    -2
  9
$DIMTMOVE
 70
     0
  9
$LUNITS
 70
     2
  9
$LUPREC
 70
     4
  9
$SKETCHINC
 40
0.1
  9
$FILLETRAD
 40
0.0
  9
$AUNITS
 70
     0
  9
$AUPREC
 70
     0
  9
$MENU
  1
acad
  9
$ELEVATION
 40
0.0
  9
$PELEVATION
 40
0.0
  9
$THICKNESS
 40
0.0
  9
$LIMCHECK
 70
     0
  9
$CHAMFERA
 40
0.0
  9
$CHAMFERB
 40
0.0
  9
$CHAMFERC
 40
0.0
  9
$CHAMFERD
 40
0.0
  9
$SKPOLY
 70
     0
  9
$TDCREATE
 40
2453690.590763889
  9
$TDUCREATE
 40
2453690.215763889
  9
$TDUPDATE
 40
2454159.538124063
  9
$TDUUPDATE
 40
2454159.163124063
  9
$TDINDWG
 40
0.0040335648
  9
$TDUSRTIMER
 40
0.0040330208
  9
$USRTIMER
 70
     1
  9
$ANGBASE
 50
0.0
  9
$ANGDIR
 70
     0
  9
$PDMODE
 70
     0
  9
$PDSIZE
 40
0.0
  9
$PLINEWID
 40
0.0
  9
$SPLFRAME
 70
     0
  9
$SPLINETYPE
 70
     6
  9
$SPLINESEGS
 70
     8
  9
$HANDSEED
  5
7BF
  9
$SURFTAB1
 70
     6
  9
$SURFTAB2
 70
     6
  9
$SURFTYPE
 70
     6
  9
$SURFU
 70
     6
  9
$SURFV
 70
     6
  9
$UCSBASE
  2

  9
$UCSNAME
  2

  9
$UCSORG
 10
0.0
 20
0.0
 30
0.0
  9
$UCSXDIR
 10
1.0
 20
0.0
 30
0.0
  9
$UCSYDIR
 10
0.0
 20
1.0
 30
0.0
  9
$UCSORTHOREF
  2

  9
$UCSORTHOVIEW
 70
     0
  9
$UCSORGTOP
 10
0.0
 20
0.0
 30
0.0
  9
$UCSORGBOTTOM
 10
0.0
 20
0.0
 30
0.0
  9
$UCSORGLEFT
 10
0.0
 20
0.0
 30
0.0
  9
$UCSORGRIGHT
 10
0.0
 20
0.0
 30
0.0
  9
$UCSORGFRONT
 10
0.0
 20
0.0
 30
0.0
  9
$UCSORGBACK
 10
0.0
 20
0.0
 30
0.0
  9
$PUCSBASE
  2

  9
$PUCSNAME
  2

  9
$PUCSORG
 10
0.0
 20
0.0
 30
0.0
  9
$PUCSXDIR
 10
1.0
 20
0.0
 30
0.0
  9
$PUCSYDIR
 10
0.0
 20
1.0
 30
0.0
  9
$PUCSORTHOREF
  2

  9
$PUCSORTHOVIEW
 70
     0
  9
$PUCSORGTOP
 10
0.0
 20
0.0
 30
0.0
  9
$PUCSORGBOTTOM
 10
0.0
 20
0.0
 30
0.0
  9
$PUCSORGLEFT
 10
0.0
 20
0.0
 30
0.0
  9
$PUCSORGRIGHT
 10
0.0
 20
0.0
 30
0.0
  9
$PUCSORGFRONT
 10
0.0
 20
0.0
 30
0.0
  9
$PUCSORGBACK
 10
0.0
 20
0.0
 30
0.0
  9
$USERI1
 70
     0
  9
$USERI2
 70
     0
  9
$USERI3
 70
     0
  9
$USERI4
 70
     0
  9
$USERI5
 70
     0
  9
$USERR1
 40
0.0
  9
$USERR2
 40
0.0
  9
$USERR3
 40
0.0
  9
$USERR4
 40
0.0
  9
$USERR5
 40
0.0
  9
$WORLDVIEW
 70
     1
  9
$SHADEDGE
 70
     3
  9
$SHADEDIF
 70
    70
  9
$TILEMODE
 70
     1
  9
$MAXACTVP
 70
    16
  9
$PINSBASE
 10
0.0
 20
0.0
 30
0.0
  9
$PLIMCHECK
 70
     0
  9
$PEXTMIN
 10
1.000000000000000E+20
 20
1.000000000000000E+20
 30
1.000000000000000E+20
  9
$PEXTMAX
 10
-1.000000000000000E+20
 20
-1.000000000000000E+20
 30
-1.000000000000000E+20
  9
$PLIMMIN
 10
0.0
 20
0.0
  9
$PLIMMAX
 10
12.0
 20
9.0
  9
$UNITMODE
 70
     0
  9
$VISRETAIN
 70
     0
  9
$PLINEGEN
 70
     1
  9
$PSLTSCALE
 70
     0
  9
$TREEDEPTH
 70
  3020
  9
$CMLSTYLE
  2
STANDARD
  9
$CMLJUST
 70
     0
  9
$CMLSCALE
 40
1.0
  9
$PROXYGRAPHICS
 70
     1
  9
$MEASUREMENT
 70
     0
  9
$CELWEIGHT
370
    -1
  9
$ENDCAPS
280
     0
  9
$JOINSTYLE
280
     0
  9
$LWDISPLAY
290
     0
  9
$INSUNITS
 70
     0
  9
$HYPERLINKBASE
  1

  9
$STYLESHEET
  1

  9
$XEDIT
290
     1
  9
$CEPSNTYPE
380
     0
  9
$PSTYLEMODE
290
     1
  9
$FINGERPRINTGUID
  2
{F7E34319-57A5-4DC8-8E86-E97A615869E1}
  9
$VERSIONGUID
  2
{8248E5D7-35C1-488E-89C9-446B01BAEBD1}
  9
$EXTNAMES
290
     1
  9
$PSVPSCALE
 40
0.0
  9
$OLESTARTUP
290
     0
  0
ENDSEC
  0
SECTION
  2
CLASSES
  0
CLASS
  1
IMAGE
  2
AcDbRasterImage
  3
ISM
 90
    32895
280
     0
281
     1
  0
CLASS
  1
DICTIONARYVAR
  2
AcDbDictionaryVar
  3
ObjectDBX Classes
 90
        0
280
     0
281
     0
  0
CLASS
  1
RASTERVARIABLES
  2
AcDbRasterVariables
  3
ISM
 90
    32768
280
     0
281
     0
  0
CLASS
  1
IMAGEDEF
  2
AcDbRasterImageDef
  3
ISM
 90
    32768
280
     0
281
     0
  0
CLASS
  1
IMAGEDEF_REACTOR
  2
AcDbRasterImageDefReactor
  3
ISM
 90
    32769
280
     0
281
     0
  0
CLASS
  1
IDBUFFER
  2
AcDbIdBuffer
  3
ObjectDBX Classes
 90
    32768
280
     0
281
     0
  0
CLASS
  1
SPATIAL_FILTER
  2
AcDbSpatialFilter
  3
ObjectDBX Classes
 90
    32768
280
     0
281
     0
  0
CLASS
  1
SORTENTSTABLE
  2
AcDbSortentsTable
  3
ObjectDBX Classes
 90
        0
280
     0
281
     0
  0
CLASS
  1
LAYER_INDEX
  2
AcDbLayerIndex
  3
ObjectDBX Classes
 90
    32768
280
     0
281
     0
  0
CLASS
  1
SPATIAL_INDEX
  2
AcDbSpatialIndex
  3
ObjectDBX Classes
 90
    32768
280
     0
281
     0
  0
CLASS
  1
OBJECT_PTR
  2
CAseDLPNTableRecord
  3
"ASE-LPNTableRecord"
 90
    32768
280
     0
281
     0
  0
CLASS
  1
LAYOUT
  2
AcDbLayout
  3
ObjectDBX Classes
 90
        0
280
     0
281
     0
  0
CLASS
  1
PLOTSETTINGS
  2
AcDbPlotSettings
  3
ObjectDBX Classes
 90
    32768
280
     0
281
     0
  0
CLASS
  1
ACDBDICTIONARYWDFLT
  2
AcDbDictionaryWithDefault
  3
ObjectDBX Classes
 90
        0
280
     0
281
     0
  0
CLASS
  1
ACDBPLACEHOLDER
  2
AcDbPlaceHolder
  3
ObjectDBX Classes
 90
        0
280
     0
281
     0
  0
CLASS
  1
TABLESTYLE
  2
AcDbTableStyle
  3
ObjectDBX Classes
 90
     2047
280
     0
281
     0
  0
ENDSEC
  0
SECTION
  2
TABLES
  0
TABLE
  2
VPORT
  5
7
330
0
100
AcDbSymbolTable
 70
     6
  0
VPORT
  5
7B9
330
7
100
AcDbSymbolTableRecord
100
AcDbViewportTableRecord
  2
*Active
 70
     0
 10
0.0
 20
0.0
 11
1.0
 21
1.0
 12
-46.64599741261182
 22
35.84215425960105
 13
0.0
 23
0.0
 14
1.0
 24
1.0
 15
0.0
 25
0.0
 16
0.0
 26
0.0
 36
1.0
 17
0.0
 27
0.0
 37
0.0
 40
392.1221253608859
 41
1.211779448621553
 42
50.0
 43
0.0
 44
0.0
 50
0.0
 51
0.0
 71
     0
 72
   100
 73
     1
 74
     1
 75
     0
 76
     0
 77
     0
 78
     0
281
     0
 65
     1
110
0.0
120
0.0
130
0.0
111
1.0
121
0.0
131
0.0
112
0.0
122
1.0
132
0.0
 79
     0
146
0.0
  0
ENDTAB
  0
TABLE
  2
LTYPE
  5
4
330
0
100
AcDbSymbolTable
 70
     2
  0
LTYPE
  5
11
330
4
100
AcDbSymbolTableRecord
100
AcDbLinetypeTableRecord
  2
BYBLOCK
 70
     0
  3

 72
    65
 73
     0
 40
0.0
  0
LTYPE
  5
12
330
4
100
AcDbSymbolTableRecord
100
AcDbLinetypeTableRecord
  2
BYLAYER
 70
     0
  3

 72
    65
 73
     0
 40
0.0
  0
LTYPE
  5
13
330
4
100
AcDbSymbolTableRecord
100
AcDbLinetypeTableRecord
  2
CONTINUOUS
 70
     0
  3
Solid line
 72
    65
 73
     0
 40
0.0
  0
LTYPE
  5
31
330
4
100
AcDbSymbolTableRecord
100
AcDbLinetypeTableRecord
  2
CENTER
 70
     0
  3
Center ____ _ ____ _ ____ _ ____ _ ____ _ ____
 72
    65
 73
     4
 40
26.0
 49
20.0
 74
     0
 49
-2.0
 74
     0
 49
2.0
 74
     0
 49
-2.0
 74
     0
  0
ENDTAB
  0
TABLE
  2
LAYER
  5
2
102
{ACAD_XDICTIONARY
360
306
102
}
330
0
100
AcDbSymbolTable
 70
     2
  0
LAYER
  5
14
330
2
100
AcDbSymbolTableRecord
100
AcDbLayerTableRecord
  2
0
 70
     0
 62
     7
  6
CONTINUOUS
370
    -3
390
2F7
  0
LAYER
  5
1D
330
2
100
AcDbSymbolTableRecord
100
AcDbLayerTableRecord
  2
DEFPOINTS
 70
     0
 62
     7
  6
CONTINUOUS
290
     0
370
    -3
390
2F7
  0
ENDTAB
  0
TABLE
  2
STYLE
  5
3
330
0
100
AcDbSymbolTable
 70
     3
  0
STYLE
  5
17
330
3
100
AcDbSymbolTableRecord
100
AcDbTextStyleTableRecord
  2
MX_NOTE_STANDARD
 70
     0
 40
0.0
 41
1.0
 50
0.0
 71
     0
 42
3.200000047683715
  3
txt.shx
  4
extfont.shx
  0
STYLE
  5
2F5
330
3
100
AcDbSymbolTableRecord
100
AcDbTextStyleTableRecord
  2
Standard
 70
     0
 40
0.0
 41
1.0
 50
0.0
 71
     0
 42
0.2
  3

  4

  0
STYLE
  5
303
330
3
100
AcDbSymbolTableRecord
100
AcDbTextStyleTableRecord
  2
MONOTXT
 70
     0
 40
0.0
 41
1.0
 50
0.0
 71
     0
 42
0.2
  3
monotxt
  4

  0
ENDTAB
  0
TABLE
  2
VIEW
  5
5
330
0
100
AcDbSymbolTable
 70
     0
  0
ENDTAB
  0
TABLE
  2
UCS
  5
6
330
0
100
AcDbSymbolTable
 70
     0
  0
ENDTAB
  0
TABLE
  2
APPID
  5
8
330
0
100
AcDbSymbolTable
 70
     2
  0
APPID
  5
16
330
8
100
AcDbSymbolTableRecord
100
AcDbRegAppTableRecord
  2
ACAD
 70
     0
  0
APPID
  5
305
330
8
100
AcDbSymbolTableRecord
100
AcDbRegAppTableRecord
  2
ACAD_PSEXT
 70
     0
  0
ENDTAB
  0
TABLE
  2
DIMSTYLE
  5
9
330
0
100
AcDbSymbolTable
 70
     2
100
AcDbDimStyleTable
 71
     0
  0
DIMSTYLE
105
18
330
9
100
AcDbSymbolTableRecord
100
AcDbDimStyleTableRecord
  2
MXDIMSTYLE
 70
     0
 41
2.5
 42
1.5
 43
3.75
 44
1.5
 73
     0
 74
     0
 77
     1
 78
     8
140
3.200000047683715
141
2.5
143
0.03937007874016
147
1.0
171
     4
172
     1
274
     4
288
     1
340
17
  0
DIMSTYLE
105
304
330
9
100
AcDbSymbolTableRecord
100
AcDbDimStyleTableRecord
  2
Standard
 70
     0
340
2F5
  0
ENDTAB
  0
TABLE
  2
BLOCK_RECORD
  5
1
330
0
100
AcDbSymbolTable
 70
    12
  0
BLOCK_RECORD
  5
A
102
{ACAD_XDICTIONARY
360
64F
102
}
330
1
100
AcDbSymbolTableRecord
100
AcDbBlockTableRecord
  2
*MODEL_SPACE
340
2FE
  0
BLOCK_RECORD
  5
B
330
1
100
AcDbSymbolTableRecord
100
AcDbBlockTableRecord
  2
*PAPER_SPACE
340
2FF
  0
BLOCK_RECORD
  5
1E
330
1
100
AcDbSymbolTableRecord
100
AcDbBlockTableRecord
  2
AFDPG-14-JB-1
340
0
  0
BLOCK_RECORD
  5
1F
330
1
100
AcDbSymbolTableRecord
100
AcDbBlockTableRecord
  2
AFDPG-14-JB-2
340
0
  0
BLOCK_RECORD
  5
20
330
1
100
AcDbSymbolTableRecord
100
AcDbBlockTableRecord
  2
AFDPG-14-JB-3
340
0
102
{BLKREFS
331
2DA
102
}
  0
BLOCK_RECORD
  5
21
330
1
100
AcDbSymbolTableRecord
100
AcDbBlockTableRecord
  2
AFDPG-14-JB-4
340
0
  0
BLOCK_RECORD
  5
22
330
1
100
AcDbSymbolTableRecord
100
AcDbBlockTableRecord
  2
AFDPG-14-JB-5
340
0
  0
BLOCK_RECORD
  5
23
330
1
100
AcDbSymbolTableRecord
100
AcDbBlockTableRecord
  2
AFDPG-14-JB-6
340
0
102
{BLKREFS
331
2D7
102
}
  0
BLOCK_RECORD
  5
24
330
1
100
AcDbSymbolTableRecord
100
AcDbBlockTableRecord
  2
AFDPG-14-JB-7
340
0
102
{BLKREFS
331
2D6
102
}
  0
BLOCK_RECORD
  5
25
330
1
100
AcDbSymbolTableRecord
100
AcDbBlockTableRecord
  2
AFDPG-14-JB-8
340
0
102
{BLKREFS
331
2D5
102
}
  0
BLOCK_RECORD
  5
26
330
1
100
AcDbSymbolTableRecord
100
AcDbBlockTableRecord
  2
AFDPG-14-JB-9
340
0
102
{BLKREFS
331
2D4
102
}
  0
BLOCK_RECORD
  5
27
330
1
100
AcDbSymbolTableRecord
100
AcDbBlockTableRecord
  2
AFDPG-14-JB-10
340
0
102
{BLKREFS
331
2D3
102
}
  0
BLOCK_RECORD
  5
28
330
1
100
AcDbSymbolTableRecord
100
AcDbBlockTableRecord
  2
AFDPG-14-JB-11
340
0
102
{BLKREFS
331
2D2
102
}
  0
ENDTAB
  0
ENDSEC
  0
SECTION
  2
BLOCKS
  0
BLOCK
  5
D
330
A
100
AcDbEntity
  8
0
100
AcDbBlockBegin
  2
*MODEL_SPACE
 70
     0
 10
0.0
 20
0.0
 30
0.0
  3
*MODEL_SPACE
  1

  0
ENDBLK
  5
E
330
A
100
AcDbEntity
  8
0
100
AcDbBlockEnd
  0
BLOCK
  5
F
330
B
100
AcDbEntity
 67
     1
  8
0
100
AcDbBlockBegin
  2
*PAPER_SPACE
 70
     0
 10
0.0
 20
0.0
 30
0.0
  3
*PAPER_SPACE
  1

  0
ENDBLK
  5
10
330
B
100
AcDbEntity
 67
     1
  8
0
100
AcDbBlockEnd
  0
BLOCK
  5
29
330
1E
100
AcDbEntity
  8
0
100
AcDbBlockBegin
  2
AFDPG-14-JB-1
 70
     0
 10
0.0
 20
0.0
 30
0.0
  3
AFDPG-14-JB-1
  1

  0
CIRCLE
  5
2A
330
1E
100
AcDbEntity
  8
0
  6
Continuous
 62
     2
100
AcDbCircle
 10
0.0
 20
18.5
 30
0.0
 40
2.0
  0
CIRCLE
  5
2B
330
1E
100
AcDbEntity
  8
0
  6
Continuous
 62
     2
100
AcDbCircle
 10
-30.0
 20
18.5
 30
0.0
 40
2.0
  0
CIRCLE
  5
2C
330
1E
100
AcDbEntity
  8
0
  6
Continuous
 62
     2
100
AcDbCircle
 10
30.0
 20
18.5
 30
0.0
 40
2.0
  0
LINE
  5
2D
330
1E
100
AcDbEntity
  8
0
  6
Continuous
 62
     7
100
AcDbLine
 10
-43.0
 20
10.13397216796875
 30
0.0
 11
43.0
 21
10.13397216796875
 31
0.0
  0
LINE
  5
2E
330
1E
100
AcDbEntity
  8
0
  6
Continuous
 62
     7
100
AcDbLine
 10
-43.0
 20
11.86602783203125
 30
0.0
 11
43.0
 21
11.86602783203125
 31
0.0
  0
LINE
  5
2F
330
1E
100
AcDbEntity
  8
0
  6
Continuous
 62
     7
100
AcDbLine
 10
-43.0
 20
6.599998474121093
 30
0.0
 11
43.0
 21
6.599998474121093
 31
0.0
  0
LINE
  5
30
330
1E
100
AcDbEntity
  8
0
  6
Continuous
 62
     7
100
AcDbLine
 10
-43.0
 20
3.400001525878906
 30
0.0
 11
43.0
 21
3.400001525878906
 31
0.0
  0
LINE
  5
32
330
1E
100
AcDbEntity
  8
0
  6
CENTER
 62
     2
100
AcDbLine
 10
-59.60000000018018
 20
9.0
 30
0.0
 11
47.49999999623117
 21
9.0
 31
0.0
  0
LINE
  5
33
330
1E
100
AcDbEntity
  8
0
  6
Continuous
 62
     7
100
AcDbLine
 10
17.0
 20
29.5
 30
0.0
 11
16.0
 21
29.5
 31
0.0
  0
LINE
  5
34
330
1E
100
AcDbEntity
  8
0
  6
Continuous
 62
     7
100
AcDbLine
 10
44.0
 20
29.5
 30
0.0
 11
43.0
 21
29.5
 31
0.0
  0
LINE
  5
35
330
1E
100
AcDbEntity
  8
0
  6
Continuous
 62
     7
100
AcDbLine
 10
44.0
 20
29.5
 30
0.0
 11
44.0
 21
23.00000381469727
 31
0.0
  0
LINE
  5
36
330
1E
100
AcDbEntity
  8
0
  6
Continuous
 62
     7
100
AcDbLine
 10
43.0
 20
31.0
 30
0.0
 11
43.0
 21
23.00000381469727
 31
0.0
  0
LINE
  5
37
330
1E
100
AcDbEntity
  8
0
  6
Continuous
 62
     7
100
AcDbLine
 10
16.0
 20
29.5
 30
0.0
 11
16.0
 21
23.00000381469727
 31
0.0
  0
LINE
  5
38
330
1E
100
AcDbEntity
  8
0
  6
Continuous
 62
     7
100
AcDbLine
 10
17.0
 20
31.0
 30
0.0
 11
17.0
 21
23.00000381469727
 31
0.0
  0
LINE
  5
39
330
1E
100
AcDbEntity
  8
0
  6
Continuous
 62
     7
100
AcDbLine
 10
-17.0
 20
29.5
 30
0.0
 11
-16.0
 21
29.5
 31
0.0
  0
LINE
  5
3A
330
1E
100
AcDbEntity
  8
0
  6
Continuous
 62
     7
100
AcDbLine
 10
-44.0
 20
29.5
 30
0.0
 11
-43.0
 21
29.5
 31
0.0
  0
LINE
  5
3B
330
1E
100
AcDbEntity
  8
0
  6
Continuous
 62
     7
100
AcDbLine
 10
-44.0
 20
29.5
 30
0.0
 11
-44.0
 21
23.00000381469727
 31
0.0
  0
LINE
  5
3C
330
1E
100
AcDbEntity
  8
0
  6
Continuous
 62
     7
100
AcDbLine
 10
-43.0
 20
31.0
 30
0.0
 11
-43.0
 21
23.00000381469727
 31
0.0
  0
LINE
  5
3D
330
1E
100
AcDbEntity
  8
0
  6
Continuous
 62
     7
100
AcDbLine
 10
-16.0
 20
29.5
 30
0.0
 11
-16.0
 21
23.00000381469727
 31
0.0
  0
LINE
  5
3E
330
1E
100
AcDbEntity
  8
0
  6
Continuous
 62
     7
100
AcDbLine
 10
-17.0
 20
31.0
 30
0.0
 11
-17.0
 21
23.00000381469727
 31
0.0
  0
LINE
  5
3F
330
1E
100
AcDbEntity
  8
0
  6
Continuous
 62
     7
100
AcDbLine
 10
-16.0
 20
25.50000381469727
 30
0.0
 11
16.0
 21
25.50000381469727
 31
0.0
  0
LINE
  5
40
330
1E
100
AcDbEntity
  8
0
  6
Continuous
 62
     7
100
AcDbLine
 10
17.0
 20
31.0
 30
0.0
 11
43.0
 21
31.0
 31
0.0
  0
LINE
  5
41
330
1E
100
AcDbEntity
  8
0
  6
Continuous
 62
     7
100
AcDbLine
 10
-43.0
 20
31.0
 30
0.0
 11
-17.0
 21
31.0
 31
0.0
  0
LINE
  5
42
330
1E
100
AcDbEntity
  8
0
  6
Continuous
 62
     7
100
AcDbLine
 10
-43.0
 20
23.00000381469727
 30
0.0
 11
43.0
 21
23.00000381469727
 31
0.0
  0
LINE
  5
43
330
1E
100
AcDbEntity
  8
0
  6
Continuous
 62
     7
100
AcDbLine
 10
-43.0
 20
0.0
 30
0.0
 11
43.0
 21
0.0
 31
0.0
  0
LINE
  5
44
330
1E
100
AcDbEntity
  8
0
  6
Continuous
 62
     7
100
AcDbLine
 10
43.0
 20
23.00000381469727
 30
0.0
 11
43.0
 21
0.0
 31
0.0
  0
LINE
  5
45
330
1E
100
AcDbEntity
  8
0
  6
Continuous
 62
     7
100
AcDbLine
 10
-43.0
 20
23.00000381469727
 30
0.0
 11
-43.0
 21
0.0
 31
0.0
  0
LINE
  5
46
330
1E
100
AcDbEntity
  8
0
  6
Continuous
 62
     7
100
AcDbLine
 10
43.0
 20
23.00000381469727
 30
0.0
 11
44.0
 21
23.00000381469727
 31
0.0
  0
LINE
  5
47
330
1E
100
AcDbEntity
  8
0
  6
Continuous
 62
     7
100
AcDbLine
 10
-44.0
 20
23.00000381469727
 30
0.0
 11
-43.0
 21
23.00000381469727
 31
0.0
  0
CIRCLE
  5
48
330
1E
100
AcDbEntity
  8
0
  6
Continuous
 62
     7
100
AcDbCircle
 10
30.0
 20
18.5
 30
0.0
 40
1.620999999999999
  0
CIRCLE
  5
49
330
1E
100
AcDbEntity
  8
0
  6
Continuous
 62
     7
100
AcDbCircle
 10
0.0
 20
18.5
 30
0.0
 40
1.620999999999999
  0
CIRCLE
  5
4A
330
1E
100
AcDbEntity
  8
0
  6
Continuous
 62
     7
100
AcDbCircle
 10
-30.0
 20
18.5
 30
0.0
 40
1.620999999999999
  0
LINE
  5
4B
330
1E
100
AcDbEntity
  8
0
  6
Continuous
 62
     2
100
AcDbLine
 10
37.49999999981981
 20
29.5
 30
0.0
 11
37.49999999981981
 21
32.5
 31
0.0
  0
LINE
  5
4C
330
1E
100
AcDbEntity
  8
0
  6
Continuous
 62
     2
100
AcDbLine
 10
22.49999999981981
 20
29.5
 30
0.0
 11
22.49999999981981
 21
32.5
 31
0.0
  0
LINE
  5
4D
330
1E
100
AcDbEntity
  8
0
  6
Continuous
 62
     2
100
AcDbLine
 10
-22.49999237078567
 20
29.5
 30
0.0
 11
-22.49999237078567
 21
32.5
 31
0.0
  0
LINE
  5
4E
330
1E
100
AcDbEntity
  8
0
  6
Continuous
 62
     2
100
AcDbLine
 10
-37.49999237078566
 20
29.5
 30
0.0
 11
-37.49999237078566
 21
32.5
 31
0.0
  0
LINE
  5
4F
330
1E
100
AcDbEntity
  8
0
  6
Continuous
 62
     2
100
AcDbLine
 10
-20.00000000018019
 20
21.50000381469727
 30
0.0
 11
-20.00000000018019
 21
24.50000381469727
 31
0.0
  0
LINE
  5
50
330
1E
100
AcDbEntity
  8
0
  6
Continuous
 62
     2
100
AcDbLine
 10
19.9999999998198
 20
21.50000381469727
 30
0.0
 11
19.9999999998198
 21
24.50000381469727
 31
0.0
  0
LINE
  5
51
330
1E
100
AcDbEntity
  8
0
  6
Continuous
 62
     2
100
AcDbLine
 10
30.0
 20
14.75
 30
0.0
 11
30.0
 21
22.25
 31
0.0
  0
LINE
  5
52
330
1E
100
AcDbEntity
  8
0
  6
Continuous
 62
     2
100
AcDbLine
 10
26.25
 20
18.5
 30
0.0
 11
33.75
 21
18.5
 31
0.0
  0
LINE
  5
53
330
1E
100
AcDbEntity
  8
0
  6
Continuous
 62
     2
100
AcDbLine
 10
-30.0
 20
14.75
 30
0.0
 11
-30.0
 21
22.25
 31
0.0
  0
LINE
  5
54
330
1E
100
AcDbEntity
  8
0
  6
Continuous
 62
     2
100
AcDbLine
 10
-33.75
 20
18.5
 30
0.0
 11
-26.25
 21
18.5
 31
0.0
  0
LINE
  5
55
330
1E
100
AcDbEntity
  8
0
  6
Continuous
 62
     2
100
AcDbLine
 10
-3.75
 20
18.5
 30
0.0
 11
3.75
 21
18.5
 31
0.0
  0
ARC
  5
56
330
1E
100
AcDbEntity
  8
0
  6
Continuous
 62
     7
100
AcDbCircle
 10
-42.59999847412109
 20
11.5
 30
0.0
 40
6.5
100
AcDbArc
 50
157.3801533459233
 51
202.6198293512327
  0
LINE
  5
57
330
1E
100
AcDbEntity
  8
0
  6
Continuous
 62
     7
100
AcDbLine
 10
-49.09999847412109
 20
14.0
 30
0.0
 11
-44.09999847412109
 21
14.0
 31
0.0
  0
LINE
  5
58
330
1E
100
AcDbEntity
  8
0
  6
Continuous
 62
     7
100
AcDbLine
 10
-57.1
 20
12.0
 30
0.0
 11
-57.1
 21
6.0
 31
0.0
  0
LINE
  5
59
330
1E
100
AcDbEntity
  8
0
  6
Continuous
 62
     7
100
AcDbLine
 10
-49.09999847412109
 20
14.0
 30
0.0
 11
-49.09999847412109
 21
4.0
 31
0.0
  0
LINE
  5
5A
330
1E
100
AcDbEntity
  8
0
  6
Continuous
 62
     7
100
AcDbLine
 10
-57.6
 20
11.5
 30
0.0
 11
-57.6
 21
6.5
 31
0.0
  0
LINE
  5
5B
330
1E
100
AcDbEntity
  8
0
  6
Continuous
 62
     7
100
AcDbLine
 10
-57.1
 20
12.0
 30
0.0
 11
-49.09999847412109
 21
12.0
 31
0.0
  0
LINE
  5
5C
330
1E
100
AcDbEntity
  8
0
  6
Continuous
 62
     2
100
AcDbLine
 10
-57.6
 20
11.4585
 30
0.0
 11
-49.09999847412109
 21
11.4585
 31
0.0
  0
LINE
  5
5D
330
1E
100
AcDbEntity
  8
0
  6
Continuous
 62
     7
100
AcDbLine
 10
-57.59999937419488
 20
11.50000983066002
 30
0.0
 11
-57.09999884340014
 21
12.00001036145477
 31
0.0
  0
ARC
  5
5E
330
1E
100
AcDbEntity
  8
0
  6
Continuous
 62
     7
100
AcDbCircle
 10
-50.59999847412109
 20
11.5
 30
0.0
 40
6.5
100
AcDbArc
 50
337.3801350519596
 51
22.61981068189803
  0
LINE
  5
5F
330
1E
100
AcDbEntity
  8
0
  6
Continuous
 62
     7
100
AcDbLine
 10
-44.09999847412109
 20
14.0
 30
0.0
 11
-43.0
 21
14.0
 31
0.0
  0
LINE
  5
60
330
1E
100
AcDbEntity
  8
0
  6
Continuous
 62
     7
100
AcDbLine
 10
-44.09999847412109
 20
4.0
 30
0.0
 11
-44.09999847412109
 21
14.0
 31
0.0
  0
ARC
  5
61
330
1E
100
AcDbEntity
  8
0
  6
Continuous
 62
     7
100
AcDbCircle
 10
-42.59999847412109
 20
6.5
 30
0.0
 40
6.5
100
AcDbArc
 50
157.3800987044099
 51
202.6197747097193
  0
LINE
  5
62
330
1E
100
AcDbEntity
  8
0
  6
Continuous
 62
     7
100
AcDbLine
 10
-49.09999847412109
 20
4.0
 30
0.0
 11
-44.09999847412109
 21
4.0
 31
0.0
  0
LINE
  5
63
330
1E
100
AcDbEntity
  8
0
  6
Continuous
 62
     7
100
AcDbLine
 10
-57.1
 20
6.0
 30
0.0
 11
-49.09999847412109
 21
6.0
 31
0.0
  0
LINE
  5
64
330
1E
100
AcDbEntity
  8
0
  6
Continuous
 62
     2
100
AcDbLine
 10
-57.6
 20
6.541499999999999
 30
0.0
 11
-49.09999847412109
 21
6.541499999999999
 31
0.0
  0
LINE
  5
65
330
1E
100
AcDbEntity
  8
0
  6
Continuous
 62
     7
100
AcDbLine
 10
-57.5999858872036
 20
6.500012614907291
 30
0.0
 11
-57.09998535640885
 21
6.00001208411254
 31
0.0
  0
ARC
  5
66
330
1E
100
AcDbEntity
  8
0
  6
Continuous
 62
     7
100
AcDbCircle
 10
-50.59999847412109
 20
6.5
 30
0.0
 40
6.5
100
AcDbArc
 50
337.3801346765886
 51
22.61986494804045
  0
LINE
  5
67
330
1E
100
AcDbEntity
  8
0
  6
Continuous
 62
     7
100
AcDbLine
 10
-44.09999847412109
 20
4.0
 30
0.0
 11
-43.0
 21
4.0
 31
0.0
  0
LINE
  5
68
330
1E
100
AcDbEntity
  8
0
  6
Continuous
 62
     7
100
AcDbLine
 10
-48.59999847412109
 20
9.0
 30
0.0
 11
-44.59999847412109
 21
9.0
 31
0.0
  0
LINE
  5
69
330
1E
100
AcDbEntity
  8
0
  6
Continuous
 62
     2
100
AcDbLine
 10
-24.99999231118102
 20
-1.5
 30
0.0
 11
-24.99999231118102
 21
1.5
 31
0.0
  0
LINE
  5
6A
330
1E
100
AcDbEntity
  8
0
  6
Continuous
 62
     2
100
AcDbLine
 10
-17.49999231118102
 20
-1.5
 30
0.0
 11
-17.49999231118102
 21
1.5
 31
0.0
  0
LINE
  5
6B
330
1E
100
AcDbEntity
  8
0
  6
Continuous
 62
     2
100
AcDbLine
 10
17.50000005942445
 20
-1.5
 30
0.0
 11
17.50000005942445
 21
1.5
 31
0.0
  0
LINE
  5
6C
330
1E
100
AcDbEntity
  8
0
  6
Continuous
 62
     2
100
AcDbLine
 10
25.00000005942445
 20
-1.5
 30
0.0
 11
25.00000005942445
 21
1.5
 31
0.0
  0
LINE
  5
6D
330
1E
100
AcDbEntity
  8
0
  6
CENTER
 62
     2
100
AcDbLine
 10
0.0
 20
-5.63397216796875
 30
0.0
 11
0.0
 21
34.36602783203125
 31
0.0
  0
ENDBLK
  5
6E
330
1E
100
AcDbEntity
  8
0
100
AcDbBlockEnd
  0
BLOCK
  5
6F
330
1F
100
AcDbEntity
  8
0
100
AcDbBlockBegin
  2
AFDPG-14-JB-2
 70
     0
 10
0.0
 20
0.0
 30
0.0
  3
AFDPG-14-JB-2
  1

  0
LINE
  5
70
330
1F
100
AcDbEntity
  8
0
  6
Continuous
 62
     7
100
AcDbLine
 10
-22.50008792926459
 20
2.9
 30
0.0
 11
-20.90000152587891
 21
2.9
 31
0.0
  0
LINE
  5
71
330
1F
100
AcDbEntity
  8
0
  6
Continuous
 62
     7
100
AcDbLine
 10
-22.49994273560636
 20
7.099999999999999
 30
0.0
 11
-20.90000152587891
 21
7.099999999999999
 31
0.0
  0
LINE
  5
72
330
1F
100
AcDbEntity
  8
0
  6
Continuous
 62
     7
100
AcDbLine
 10
20.89999389648437
 20
2.9
 30
0.0
 11
22.50002265522897
 21
2.9
 31
0.0
  0
LINE
  5
73
330
1F
100
AcDbEntity
  8
0
  6
Continuous
 62
     7
100
AcDbLine
 10
20.89999389648437
 20
7.099999999999999
 30
0.0
 11
22.49994219913439
 21
7.099999999999999
 31
0.0
  0
ARC
  5
74
330
1F
100
AcDbEntity
  8
0
  6
Continuous
 62
     7
100
AcDbCircle
 10
-20.90000152587891
 20
5.0
 30
0.0
 40
2.099999904632568
100
AcDbArc
 50
270.0
 51
90.00000250447817
  0
CIRCLE
  5
75
330
1F
100
AcDbEntity
  8
0
  6
Continuous
 62
     7
100
AcDbCircle
 10
-10.5
 20
9.0
 30
0.0
 40
3.5
  0
ARC
  5
76
330
1F
100
AcDbEntity
  8
0
  6
Continuous
 62
     7
100
AcDbCircle
 10
6.5
 20
23.69999694824219
 30
0.0
 40
1.0
100
AcDbArc
 50
90.00000250447817
 51
269.9999733624887
  0
ARC
  5
77
330
1F
100
AcDbEntity
  8
0
  6
Continuous
 62
     7
100
AcDbCircle
 10
6.25
 20
23.69999694824219
 30
0.0
 40
1.299999952316284
100
AcDbArc
 50
78.91250178328309
 51
281.0874194421704
  0
ARC
  5
78
330
1F
100
AcDbEntity
  8
0
  6
Continuous
 62
     7
100
AcDbCircle
 10
-6.25
 20
23.69999694824219
 30
0.0
 40
1.299999952316284
100
AcDbArc
 50
258.9125172648943
 51
98.29745974218221
  0
ARC
  5
79
330
1F
100
AcDbEntity
  8
0
  6
Continuous
 62
     7
100
AcDbCircle
 10
-6.5
 20
23.69999694824219
 30
0.0
 40
1.0
100
AcDbArc
 50
269.9999770049543
 51
90.00000250447817
  0
ARC
  5
7A
330
1F
100
AcDbEntity
  8
0
  6
Continuous
 62
     7
100
AcDbCircle
 10
-23.5
 20
22.5
 30
0.0
 40
0.5
100
AcDbArc
 50
90.00000250447817
 51
179.9999776881997
  0
ARC
  5
7B
330
1F
100
AcDbEntity
  8
0
  6
Continuous
 62
     7
100
AcDbCircle
 10
23.5
 20
22.5
 30
0.0
 40
0.5
100
AcDbArc
 50
0.0000179860890374
 51
90.00000250447817
  0
ARC
  5
7C
330
1F
100
AcDbEntity
  8
0
  6
Continuous
 62
     7
100
AcDbCircle
 10
20.89999389648437
 20
5.0
 30
0.0
 40
2.099999904632568
100
AcDbArc
 50
89.99999999999998
 51
270.0000006832453
  0
CIRCLE
  5
7D
330
1F
100
AcDbEntity
  8
0
  6
Continuous
 62
     7
100
AcDbCircle
 10
10.5
 20
9.0
 30
0.0
 40
7.5
  0
CIRCLE
  5
7E
330
1F
100
AcDbEntity
  8
0
  6
Continuous
 62
     7
100
AcDbCircle
 10
-10.5
 20
9.0
 30
0.0
 40
7.5
  0
ARC
  5
7F
330
1F
100
AcDbEntity
  8
0
  6
Continuous
 62
     7
100
AcDbCircle
 10
24.5
 20
11.0
 30
0.0
 40
1.0
100
AcDbArc
 50
119.9999350374125
 51
240.0000886408785
  0
LINE
  5
80
330
1F
100
AcDbEntity
  8
0
  6
Continuous
 62
     7
100
AcDbLine
 10
-22.99993667423707
 20
6.600006103515625
 30
0.0
 11
-24.0
 21
6.600006103515625
 31
0.0
  0
LINE
  5
81
330
1F
100
AcDbEntity
  8
0
  6
Continuous
 62
     7
100
AcDbLine
 10
-22.49994273560636
 20
7.099999999999999
 30
0.0
 11
-22.99993667423707
 21
6.600006103515625
 31
0.0
  0
LINE
  5
82
330
1F
100
AcDbEntity
  8
0
  6
Continuous
 62
     7
100
AcDbLine
 10
-22.50004543241402
 20
2.899957503153018
 30
0.0
 11
-23.00008186789531
 21
3.399993896484375
 31
0.0
  0
LINE
  5
83
330
1F
100
AcDbEntity
  8
0
  6
Continuous
 62
     7
100
AcDbLine
 10
-23.00008186789531
 20
3.399993896484375
 30
0.0
 11
-24.0
 21
3.399993896484375
 31
0.0
  0
LINE
  5
84
330
1F
100
AcDbEntity
  8
0
  6
Continuous
 62
     7
100
AcDbLine
 10
24.0
 20
11.86602783203125
 30
0.0
 11
24.0
 21
22.5
 31
0.0
  0
LINE
  5
85
330
1F
100
AcDbEntity
  8
0
  6
Continuous
 62
     7
100
AcDbLine
 10
12.49997634265401
 20
29.49999760851733
 30
0.0
 11
11.9999754746841
 21
29.99999784428382
 31
0.0
  0
LINE
  5
86
330
1F
100
AcDbEntity
  8
0
  6
Continuous
 62
     7
100
AcDbLine
 10
12.00000341429222
 20
21.50000965696199
 30
0.0
 11
12.50000394508697
 21
22.00001018775675
 31
0.0
  0
LINE
  5
87
330
1F
100
AcDbEntity
  8
0
  6
Continuous
 62
     7
100
AcDbLine
 10
-12.49999562066796
 20
29.50002354447452
 30
0.0
 11
-11.99999508987321
 21
30.00002407526927
 31
0.0
  0
LINE
  5
88
330
1F
100
AcDbEntity
  8
0
  6
Continuous
 62
     7
100
AcDbLine
 10
-11.99997351068714
 20
21.50002584135155
 30
0.0
 11
-12.49997404148189
 21
22.00002637214629
 31
0.0
  0
LINE
  5
89
330
1F
100
AcDbEntity
  8
0
  6
Continuous
 62
     7
100
AcDbLine
 10
12.5
 20
22.0
 30
0.0
 11
12.5
 21
29.5
 31
0.0
  0
LINE
  5
8A
330
1F
100
AcDbEntity
  8
0
  6
Continuous
 62
     7
100
AcDbLine
 10
6.5
 20
21.5
 30
0.0
 11
12.0
 21
21.5
 31
0.0
  0
LINE
  5
8B
330
1F
100
AcDbEntity
  8
0
  6
Continuous
 62
     7
100
AcDbLine
 10
6.0
 20
24.97573852539062
 30
0.0
 11
6.0
 21
25.5
 31
0.0
  0
LINE
  5
8C
330
1F
100
AcDbEntity
  8
0
  6
Continuous
 62
     7
100
AcDbLine
 10
6.5
 20
24.69999694824219
 30
0.0
 11
6.5
 21
26.30000305175781
 31
0.0
  0
LINE
  5
8D
330
1F
100
AcDbEntity
  8
0
  6
Continuous
 62
     7
100
AcDbLine
 10
6.25
 20
25.0
 30
0.0
 11
6.25
 21
26.0
 31
0.0
  0
LINE
  5
8E
330
1F
100
AcDbEntity
  8
0
  6
Continuous
 62
     7
100
AcDbLine
 10
6.5
 20
21.5
 30
0.0
 11
6.5
 21
22.69999694824219
 31
0.0
  0
LINE
  5
8F
330
1F
100
AcDbEntity
  8
0
  6
Continuous
 62
     7
100
AcDbLine
 10
6.25
 20
21.0
 30
0.0
 11
6.25
 21
22.39999389648437
 31
0.0
  0
LINE
  5
90
330
1F
100
AcDbEntity
  8
0
  6
Continuous
 62
     7
100
AcDbLine
 10
-6.5
 20
26.30000305175781
 30
0.0
 11
6.5
 21
26.30000305175781
 31
0.0
  0
LINE
  5
91
330
1F
100
AcDbEntity
  8
0
  6
Continuous
 62
     7
100
AcDbLine
 10
-6.25
 20
25.0
 30
0.0
 11
-6.25
 21
26.0
 31
0.0
  0
LINE
  5
92
330
1F
100
AcDbEntity
  8
0
  6
Continuous
 62
     7
100
AcDbLine
 10
-6.25
 20
21.0
 30
0.0
 11
-6.25
 21
22.39999389648437
 31
0.0
  0
LINE
  5
93
330
1F
100
AcDbEntity
  8
0
  6
Continuous
 62
     7
100
AcDbLine
 10
-12.0
 20
30.0
 30
0.0
 11
12.0
 21
30.0
 31
0.0
  0
LINE
  5
94
330
1F
100
AcDbEntity
  8
0
  6
Continuous
 62
     7
100
AcDbLine
 10
-12.5
 20
22.0
 30
0.0
 11
-12.5
 21
29.5
 31
0.0
  0
LINE
  5
95
330
1F
100
AcDbEntity
  8
0
  6
Continuous
 62
     7
100
AcDbLine
 10
6.500040967497944
 20
31.0
 30
0.0
 11
13.5
 21
31.0
 31
0.0
  0
LINE
  5
96
330
1F
100
AcDbEntity
  8
0
  6
Continuous
 62
     7
100
AcDbLine
 10
6.000041009644788
 20
30.5
 30
0.0
 11
6.500040967497944
 21
31.0
 31
0.0
  0
LINE
  5
97
330
1F
100
AcDbEntity
  8
0
  6
Continuous
 62
     7
100
AcDbLine
 10
-6.000038080023347
 20
30.5
 30
0.0
 11
6.000041009644787
 21
30.5
 31
0.0
  0
LINE
  5
98
330
1F
100
AcDbEntity
  8
0
  6
Continuous
 62
     7
100
AcDbLine
 10
-6.000038080023347
 20
30.5
 30
0.0
 11
-6.500038037876501
 21
31.0
 31
0.0
  0
LINE
  5
99
330
1F
100
AcDbEntity
  8
0
  6
Continuous
 62
     7
100
AcDbLine
 10
-12.0
 20
21.5
 30
0.0
 11
-6.5
 21
21.5
 31
0.0
  0
LINE
  5
9A
330
1F
100
AcDbEntity
  8
0
  6
Continuous
 62
     7
100
AcDbLine
 10
-6.5
 20
24.69999694824219
 30
0.0
 11
-6.5
 21
26.30000305175781
 31
0.0
  0
LINE
  5
9B
330
1F
100
AcDbEntity
  8
0
  6
Continuous
 62
     7
100
AcDbLine
 10
-6.0
 20
24.97573852539062
 30
0.0
 11
-6.0
 21
25.5
 31
0.0
  0
LINE
  5
9C
330
1F
100
AcDbEntity
  8
0
  6
Continuous
 62
     7
100
AcDbLine
 10
-6.5
 20
21.5
 30
0.0
 11
-6.5
 21
22.69999694824219
 31
0.0
  0
LINE
  5
9D
330
1F
100
AcDbEntity
  8
0
  6
Continuous
 62
     7
100
AcDbLine
 10
-6.25
 20
26.0
 30
0.0
 11
6.25
 21
26.0
 31
0.0
  0
LINE
  5
9E
330
1F
100
AcDbEntity
  8
0
  6
Continuous
 62
     7
100
AcDbLine
 10
-3.04278564453125
 20
8.199996948242187
 30
0.0
 11
3.04278564453125
 21
8.199996948242187
 31
0.0
  0
LINE
  5
9F
330
1F
100
AcDbEntity
  8
0
  6
Continuous
 62
     7
100
AcDbLine
 10
-3.04278564453125
 20
9.80000305175781
 30
0.0
 11
3.04278564453125
 21
9.80000305175781
 31
0.0
  0
LINE
  5
A0
330
1F
100
AcDbEntity
  8
0
  6
Continuous
 62
     7
100
AcDbLine
 10
-15.0
 20
17.0
 30
0.0
 11
-15.0
 21
23.0
 31
0.0
  0
LINE
  5
A1
330
1F
100
AcDbEntity
  8
0
  6
Continuous
 62
     7
100
AcDbLine
 10
15.0
 20
17.0
 30
0.0
 11
15.0
 21
23.0
 31
0.0
  0
LINE
  5
A2
330
1F
100
AcDbEntity
  8
0
  6
Continuous
 62
     7
100
AcDbLine
 10
14.0
 20
17.30000305175781
 30
0.0
 11
14.0
 21
21.0
 31
0.0
  0
LINE
  5
A3
330
1F
100
AcDbEntity
  8
0
  6
Continuous
 62
     7
100
AcDbLine
 10
14.0
 20
17.30000305175781
 30
0.0
 11
7.0
 21
17.30000305175781
 31
0.0
  0
LINE
  5
A4
330
1F
100
AcDbEntity
  8
0
  6
Continuous
 62
     7
100
AcDbLine
 10
7.0
 20
17.30000305175781
 30
0.0
 11
7.0
 21
21.0
 31
0.0
  0
LINE
  5
A5
330
1F
100
AcDbEntity
  8
0
  6
Continuous
 62
     7
100
AcDbLine
 10
-6.0
 20
25.5
 30
0.0
 11
6.0
 21
25.5
 31
0.0
  0
LINE
  5
A6
330
1F
100
AcDbEntity
  8
0
  6
Continuous
 62
     7
100
AcDbLine
 10
7.0
 20
20.69999694824219
 30
0.0
 11
14.0
 21
20.69999694824219
 31
0.0
  0
LINE
  5
A7
330
1F
100
AcDbEntity
  8
0
  6
Continuous
 62
     7
100
AcDbLine
 10
-14.0
 20
20.69999694824219
 30
0.0
 11
-7.0
 21
20.69999694824219
 31
0.0
  0
LINE
  5
A8
330
1F
100
AcDbEntity
  8
0
  6
Continuous
 62
     7
100
AcDbLine
 10
-7.0
 20
17.30000305175781
 30
0.0
 11
-7.0
 21
21.0
 31
0.0
  0
LINE
  5
A9
330
1F
100
AcDbEntity
  8
0
  6
Continuous
 62
     7
100
AcDbLine
 10
-14.0
 20
17.30000305175781
 30
0.0
 11
-14.0
 21
21.0
 31
0.0
  0
LINE
  5
AA
330
1F
100
AcDbEntity
  8
0
  6
Continuous
 62
     7
100
AcDbLine
 10
15.0
 20
23.0
 30
0.0
 11
23.5
 21
23.0
 31
0.0
  0
LINE
  5
AB
330
1F
100
AcDbEntity
  8
0
  6
Continuous
 62
     7
100
AcDbLine
 10
-23.5
 20
23.0
 30
0.0
 11
-15.0
 21
23.0
 31
0.0
  0
LINE
  5
AC
330
1F
100
AcDbEntity
  8
0
  6
Continuous
 62
     7
100
AcDbLine
 10
-24.0
 20
6.600006103515625
 30
0.0
 11
-24.0
 21
22.5
 31
0.0
  0
LINE
  5
AD
330
1F
100
AcDbEntity
  8
0
  6
Continuous
 62
     7
100
AcDbLine
 10
-24.0
 20
0.0
 30
0.0
 11
-24.0
 21
3.399993896484375
 31
0.0
  0
LINE
  5
AE
330
1F
100
AcDbEntity
  8
0
  6
Continuous
 62
     7
100
AcDbLine
 10
-24.0
 20
0.0
 30
0.0
 11
24.0
 21
0.0
 31
0.0
  0
LINE
  5
AF
330
1F
100
AcDbEntity
  8
0
  6
Continuous
 62
     7
100
AcDbLine
 10
24.0
 20
6.600006103515625
 30
0.0
 11
24.0
 21
10.13397216796875
 31
0.0
  0
LINE
  5
B0
330
1F
100
AcDbEntity
  8
0
  6
Continuous
 62
     7
100
AcDbLine
 10
23.00001659385968
 20
3.399993896484375
 30
0.0
 11
24.0
 21
3.399993896484375
 31
0.0
  0
LINE
  5
B1
330
1F
100
AcDbEntity
  8
0
  6
Continuous
 62
     7
100
AcDbLine
 10
22.50002265522897
 20
2.9
 30
0.0
 11
23.00001483315145
 21
3.3999921357763
 31
0.0
  0
LINE
  5
B2
330
1F
100
AcDbEntity
  8
0
  6
Continuous
 62
     7
100
AcDbLine
 10
22.99993613776511
 20
6.600006103515625
 30
0.0
 11
24.0
 21
6.600006103515625
 31
0.0
  0
LINE
  5
B3
330
1F
100
AcDbEntity
  8
0
  6
Continuous
 62
     7
100
AcDbLine
 10
22.49994219913439
 20
7.099999999999999
 30
0.0
 11
22.99993613776511
 21
6.600006103515625
 31
0.0
  0
LINE
  5
B4
330
1F
100
AcDbEntity
  8
0
  6
Continuous
 62
     7
100
AcDbLine
 10
24.0
 20
0.0
 30
0.0
 11
24.0
 21
3.399993896484375
 31
0.0
  0
LINE
  5
B5
330
1F
100
AcDbEntity
  8
0
  6
Continuous
 62
     7
100
AcDbLine
 10
-14.0
 20
21.0
 30
0.0
 11
-6.25
 21
21.0
 31
0.0
  0
LINE
  5
B6
330
1F
100
AcDbEntity
  8
0
  6
Continuous
 62
     7
100
AcDbLine
 10
-13.5
 20
21.0
 30
0.0
 11
-13.5
 21
31.0
 31
0.0
  0
LINE
  5
B7
330
1F
100
AcDbEntity
  8
0
  6
Continuous
 62
     7
100
AcDbLine
 10
-14.0
 20
17.30000305175781
 30
0.0
 11
-7.0
 21
17.30000305175781
 31
0.0
  0
LINE
  5
B8
330
1F
100
AcDbEntity
  8
0
  6
Continuous
 62
     7
100
AcDbLine
 10
6.0
 20
17.0
 30
0.0
 11
15.0
 21
17.0
 31
0.0
  0
LINE
  5
B9
330
1F
100
AcDbEntity
  8
0
  6
Continuous
 62
     7
100
AcDbLine
 10
-6.0
 20
17.0
 30
0.0
 11
-6.0
 21
22.42427062988281
 31
0.0
  0
LINE
  5
BA
330
1F
100
AcDbEntity
  8
0
  6
Continuous
 62
     7
100
AcDbLine
 10
6.0
 20
17.0
 30
0.0
 11
6.0
 21
22.42427062988281
 31
0.0
  0
LINE
  5
BB
330
1F
100
AcDbEntity
  8
0
  6
Continuous
 62
     7
100
AcDbLine
 10
6.25
 20
21.0
 30
0.0
 11
14.0
 21
21.0
 31
0.0
  0
LINE
  5
BC
330
1F
100
AcDbEntity
  8
0
  6
Continuous
 62
     7
100
AcDbLine
 10
13.5
 20
21.0
 30
0.0
 11
13.5
 21
31.0
 31
0.0
  0
LINE
  5
BD
330
1F
100
AcDbEntity
  8
0
  6
Continuous
 62
     7
100
AcDbLine
 10
-15.0
 20
17.0
 30
0.0
 11
-6.0
 21
17.0
 31
0.0
  0
LINE
  5
BE
330
1F
100
AcDbEntity
  8
0
  6
Continuous
 62
     7
100
AcDbLine
 10
-6.0
 20
18.0
 30
0.0
 11
6.0
 21
18.0
 31
0.0
  0
LINE
  5
BF
330
1F
100
AcDbEntity
  8
0
  6
Continuous
 62
     7
100
AcDbLine
 10
-13.5
 20
31.0
 30
0.0
 11
-6.500038037876501
 21
31.0
 31
0.0
  0
LINE
  5
C0
330
1F
100
AcDbEntity
  8
0
  6
Continuous
 62
     2
100
AcDbLine
 10
10.5
 20
-2.0
 30
0.0
 11
10.5
 21
23.0
 31
0.0
  0
LINE
  5
C1
330
1F
100
AcDbEntity
  8
0
  6
Continuous
 62
     2
100
AcDbLine
 10
-10.5
 20
-2.0
 30
0.0
 11
-10.5
 21
23.0
 31
0.0
  0
LINE
  5
C2
330
1F
100
AcDbEntity
  8
0
  6
Continuous
 62
     2
100
AcDbLine
 10
20.89999389648437
 20
9.199999809265136
 30
0.0
 11
20.89999389648437
 21
0.8000001907348632
 31
0.0
  0
LINE
  5
C3
330
1F
100
AcDbEntity
  8
0
  6
Continuous
 62
     2
100
AcDbLine
 10
16.69999694824219
 20
5.0
 30
0.0
 11
26.09999847412109
 21
5.0
 31
0.0
  0
LINE
  5
C4
330
1F
100
AcDbEntity
  8
0
  6
Continuous
 62
     2
100
AcDbLine
 10
-20.90000152587891
 20
9.199999809265136
 30
0.0
 11
-20.90000152587891
 21
0.8000001907348632
 31
0.0
  0
LINE
  5
C5
330
1F
100
AcDbEntity
  8
0
  6
Continuous
 62
     2
100
AcDbLine
 10
-26.09999847412109
 20
5.0
 30
0.0
 11
-16.70000076293945
 21
5.0
 31
0.0
  0
LINE
  5
C6
330
1F
100
AcDbEntity
  8
0
  6
Continuous
 62
     2
100
AcDbLine
 10
-10.0
 20
29.5
 30
0.0
 11
-10.0
 21
32.5
 31
0.0
  0
LINE
  5
C7
330
1F
100
AcDbEntity
  8
0
  6
Continuous
 62
     2
100
AcDbLine
 10
10.0
 20
29.5
 30
0.0
 11
10.0
 21
32.5
 31
0.0
  0
LINE
  5
C8
330
1F
100
AcDbEntity
  8
0
  6
Continuous
 62
     2
100
AcDbLine
 10
-25.5
 20
18.5
 30
0.0
 11
-22.5
 21
18.5
 31
0.0
  0
LINE
  5
C9
330
1F
100
AcDbEntity
  8
0
  6
Continuous
 62
     2
100
AcDbLine
 10
-20.0
 20
21.5
 30
0.0
 11
-20.0
 21
24.5
 31
0.0
  0
LINE
  5
CA
330
1F
100
AcDbEntity
  8
0
  6
Continuous
 62
     2
100
AcDbLine
 10
20.0
 20
21.5
 30
0.0
 11
20.0
 21
24.5
 31
0.0
  0
LINE
  5
CB
330
1F
100
AcDbEntity
  8
0
  6
Continuous
 62
     2
100
AcDbLine
 10
22.5
 20
18.5
 30
0.0
 11
25.5
 21
18.5
 31
0.0
  0
CIRCLE
  5
CC
330
1F
100
AcDbEntity
  8
0
  6
Continuous
 62
     7
100
AcDbCircle
 10
10.5
 20
9.0
 30
0.0
 40
5.0
  0
CIRCLE
  5
CD
330
1F
100
AcDbEntity
  8
0
  6
Continuous
 62
     7
100
AcDbCircle
 10
10.5
 20
9.0
 30
0.0
 40
3.0
  0
CIRCLE
  5
CE
330
1F
100
AcDbEntity
  8
0
  6
Continuous
 62
     7
100
AcDbCircle
 10
10.5
 20
9.0
 30
0.0
 40
4.5
  0
LINE
  5
CF
330
1F
100
AcDbEntity
  8
0
  6
Continuous
 62
     7
100
AcDbLine
 10
7.613250732421875
 20
14.0
 30
0.0
 11
13.38674926757812
 21
14.0
 31
0.0
  0
LINE
  5
D0
330
1F
100
AcDbEntity
  8
0
  6
Continuous
 62
     7
100
AcDbLine
 10
16.27348274169435
 20
8.999969224519192
 30
0.0
 11
13.38673278586157
 21
13.99996519080832
 31
0.0
  0
LINE
  5
D1
330
1F
100
AcDbEntity
  8
0
  6
Continuous
 62
     7
100
AcDbLine
 10
4.726515424008539
 20
8.999982611036102
 30
0.0
 11
7.613272148917075
 21
13.99999248007953
 31
0.0
  0
LINE
  5
D2
330
1F
100
AcDbEntity
  8
0
  6
Continuous
 62
     7
100
AcDbLine
 10
7.613250732421875
 20
4.0
 30
0.0
 11
13.38674926757812
 21
4.0
 31
0.0
  0
LINE
  5
D3
330
1F
100
AcDbEntity
  8
0
  6
Continuous
 62
     7
100
AcDbLine
 10
7.613208611438494
 20
3.999973617527757
 30
0.0
 11
4.726458655605711
 21
8.999969583816893
 31
0.0
  0
LINE
  5
D4
330
1F
100
AcDbEntity
  8
0
  6
Continuous
 62
     7
100
AcDbLine
 10
13.38676990246312
 20
3.999982909059326
 30
0.0
 11
16.27352662737166
 21
8.999992778102752
 31
0.0
  0
CIRCLE
  5
D5
330
1F
100
AcDbEntity
  8
0
  6
Continuous
 62
     2
100
AcDbCircle
 10
10.5
 20
9.0
 30
0.0
 40
2.458499999999999
  0
LINE
  5
D6
330
1F
100
AcDbEntity
  8
0
  6
Continuous
 62
     7
100
AcDbLine
 10
-10.89999389648437
 20
5.522933959960937
 30
0.0
 11
-10.89999389648437
 21
12.47706604003906
 31
0.0
  0
LINE
  5
D7
330
1F
100
AcDbEntity
  8
0
  6
Continuous
 62
     7
100
AcDbLine
 10
-10.10000610351562
 20
5.522933959960937
 30
0.0
 11
-10.10000610351562
 21
12.47706604003906
 31
0.0
  0
CIRCLE
  5
D8
330
1F
100
AcDbEntity
  8
0
  6
Continuous
 62
     7
100
AcDbCircle
 10
-10.5
 20
9.0
 30
0.0
 40
4.5
  0
LINE
  5
D9
330
1F
100
AcDbEntity
  8
0
  6
CENTER
 62
     2
100
AcDbLine
 10
-27.5
 20
9.0
 30
0.0
 11
27.5
 21
9.0
 31
0.0
  0
LINE
  5
DA
330
1F
100
AcDbEntity
  8
0
  6
CENTER
 62
     2
100
AcDbLine
 10
0.0
 20
-5.63397216796875
 30
0.0
 11
0.0
 21
34.36602783203125
 31
0.0
  0
ENDBLK
  5
DB
330
1F
100
AcDbEntity
  8
0
100
AcDbBlockEnd
  0
BLOCK
  5
DC
330
20
100
AcDbEntity
  8
0
100
AcDbBlockBegin
  2
AFDPG-14-JB-3
 70
     0
 10
0.0
 20
0.0
 30
0.0
  3
AFDPG-14-JB-3
  1

  0
LINE
  5
DD
330
20
100
AcDbEntity
  8
0
  6
Continuous
 62
     7
100
AcDbLine
 10
-22.50002409625445
 20
2.9
 30
0.0
 11
-20.90000152587891
 21
2.9
 31
0.0
  0
LINE
  5
DE
330
20
100
AcDbEntity
  8
0
  6
Continuous
 62
     7
100
AcDbLine
 10
-22.49995442975382
 20
7.099999999999999
 30
0.0
 11
-20.90000152587891
 21
7.099999999999999
 31
0.0
  0
LINE
  5
DF
330
20
100
AcDbEntity
  8
0
  6
Continuous
 62
     7
100
AcDbLine
 10
20.89999389648437
 20
2.9
 30
0.0
 11
22.50007569864517
 21
2.9
 31
0.0
  0
LINE
  5
E0
330
20
100
AcDbEntity
  8
0
  6
Continuous
 62
     7
100
AcDbLine
 10
20.89999389648437
 20
7.099999999999999
 30
0.0
 11
22.49994129458087
 21
7.099999999999999
 31
0.0
  0
ARC
  5
E1
330
20
100
AcDbEntity
  8
0
  6
Continuous
 62
     7
100
AcDbCircle
 10
-24.5
 20
11.0
 30
0.0
 40
1.0
100
AcDbArc
 50
299.9999095378888
 51
60.00006997154381
  0
CIRCLE
  5
E2
330
20
100
AcDbEntity
  8
0
  6
Continuous
 62
     2
100
AcDbCircle
 10
10.5
 20
9.0
 30
0.0
 40
2.5
  0
CIRCLE
  5
E3
330
20
100
AcDbEntity
  8
0
  6
Continuous
 62
     7
100
AcDbCircle
 10
10.5
 20
9.0
 30
0.0
 40
7.5
  0
CIRCLE
  5
E4
330
20
100
AcDbEntity
  8
0
  6
Continuous
 62
     7
100
AcDbCircle
 10
-10.5
 20
9.0
 30
0.0
 40
7.5
  0
ARC
  5
E5
330
20
100
AcDbEntity
  8
0
  6
Continuous
 62
     7
100
AcDbCircle
 10
-20.90000152587891
 20
5.0
 30
0.0
 40
2.099999904632568
100
AcDbArc
 50
269.9999974955218
 51
90.0
  0
ARC
  5
E6
330
20
100
AcDbEntity
  8
0
  6
Continuous
 62
     7
100
AcDbCircle
 10
-23.5
 20
22.5
 30
0.0
 40
0.5
100
AcDbArc
 50
90.00000250447817
 51
179.9999776881997
  0
ARC
  5
E7
330
20
100
AcDbEntity
  8
0
  6
Continuous
 62
     7
100
AcDbCircle
 10
23.5
 20
22.5
 30
0.0
 40
0.5
100
AcDbArc
 50
0.0000179860890374
 51
90.00000250447817
  0
CIRCLE
  5
E8
330
20
100
AcDbEntity
  8
0
  6
Continuous
 62
     7
100
AcDbCircle
 10
10.5
 20
9.0
 30
0.0
 40
4.5
  0
CIRCLE
  5
E9
330
20
100
AcDbEntity
  8
0
  6
Continuous
 62
     7
100
AcDbCircle
 10
-10.5
 20
9.0
 30
0.0
 40
4.5
  0
ARC
  5
EA
330
20
100
AcDbEntity
  8
0
  6
Continuous
 62
     7
100
AcDbCircle
 10
6.5
 20
23.69999694824219
 30
0.0
 40
1.0
100
AcDbArc
 50
90.00000250447817
 51
270.000028004002
  0
ARC
  5
EB
330
20
100
AcDbEntity
  8
0
  6
Continuous
 62
     7
100
AcDbCircle
 10
6.25
 20
23.69999694824219
 30
0.0
 40
1.299999952316284
100
AcDbArc
 50
81.70253843658494
 51
281.0874740836837
  0
ARC
  5
EC
330
20
100
AcDbEntity
  8
0
  6
Continuous
 62
     7
100
AcDbCircle
 10
-6.25
 20
23.69999694824219
 30
0.0
 40
1.299999952316284
100
AcDbArc
 50
258.9125923969752
 51
101.087496395484
  0
ARC
  5
ED
330
20
100
AcDbEntity
  8
0
  6
Continuous
 62
     7
100
AcDbCircle
 10
-6.5
 20
23.69999694824219
 30
0.0
 40
1.0
100
AcDbArc
 50
270.0000384766569
 51
90.00000250447817
  0
CIRCLE
  5
EE
330
20
100
AcDbEntity
  8
0
  6
Continuous
 62
     2
100
AcDbCircle
 10
-10.5
 20
9.0
 30
0.0
 40
2.5
  0
ARC
  5
EF
330
20
100
AcDbEntity
  8
0
  6
Continuous
 62
     7
100
AcDbCircle
 10
20.89999389648437
 20
5.0
 30
0.0
 40
2.099999904632568
100
AcDbArc
 50
90.00000250447817
 51
270.0000826455154
  0
LINE
  5
F0
330
20
100
AcDbEntity
  8
0
  6
Continuous
 62
     2
100
AcDbLine
 10
16.69999694824219
 20
5.0
 30
0.0
 11
26.09999847412109
 21
5.0
 31
0.0
  0
LINE
  5
F1
330
20
100
AcDbEntity
  8
0
  6
Continuous
 62
     2
100
AcDbLine
 10
-26.09999847412109
 20
5.0
 30
0.0
 11
-16.70000076293945
 21
5.0
 31
0.0
  0
LINE
  5
F2
330
20
100
AcDbEntity
  8
0
  6
Continuous
 62
     2
100
AcDbLine
 10
-20.90000152587891
 20
9.199999809265136
 30
0.0
 11
-20.90000152587891
 21
0.8000001907348632
 31
0.0
  0
LINE
  5
F3
330
20
100
AcDbEntity
  8
0
  6
Continuous
 62
     2
100
AcDbLine
 10
20.89999389648437
 20
9.199999809265136
 30
0.0
 11
20.89999389648437
 21
0.8000001907348632
 31
0.0
  0
LINE
  5
F4
330
20
100
AcDbEntity
  8
0
  6
Continuous
 62
     7
100
AcDbLine
 10
13.5
 20
31.0
 30
0.0
 11
6.500031684152633
 21
31.0
 31
0.0
  0
LINE
  5
F5
330
20
100
AcDbEntity
  8
0
  6
Continuous
 62
     7
100
AcDbLine
 10
6.0
 20
18.0
 30
0.0
 11
-6.0
 21
18.0
 31
0.0
  0
LINE
  5
F6
330
20
100
AcDbEntity
  8
0
  6
Continuous
 62
     7
100
AcDbLine
 10
15.0
 20
17.0
 30
0.0
 11
6.0
 21
17.0
 31
0.0
  0
LINE
  5
F7
330
20
100
AcDbEntity
  8
0
  6
Continuous
 62
     7
100
AcDbLine
 10
-13.5
 20
21.0
 30
0.0
 11
-13.5
 21
31.0
 31
0.0
  0
LINE
  5
F8
330
20
100
AcDbEntity
  8
0
  6
Continuous
 62
     7
100
AcDbLine
 10
-6.25
 20
21.0
 30
0.0
 11
-14.0
 21
21.0
 31
0.0
  0
LINE
  5
F9
330
20
100
AcDbEntity
  8
0
  6
Continuous
 62
     7
100
AcDbLine
 10
-6.0
 20
17.0
 30
0.0
 11
-6.0
 21
22.42427062988281
 31
0.0
  0
LINE
  5
FA
330
20
100
AcDbEntity
  8
0
  6
Continuous
 62
     7
100
AcDbLine
 10
6.0
 20
17.0
 30
0.0
 11
6.0
 21
22.42427062988281
 31
0.0
  0
LINE
  5
FB
330
20
100
AcDbEntity
  8
0
  6
Continuous
 62
     7
100
AcDbLine
 10
-6.0
 20
17.0
 30
0.0
 11
-15.0
 21
17.0
 31
0.0
  0
LINE
  5
FC
330
20
100
AcDbEntity
  8
0
  6
Continuous
 62
     7
100
AcDbLine
 10
14.0
 20
17.30000305175781
 30
0.0
 11
7.0
 21
17.30000305175781
 31
0.0
  0
LINE
  5
FD
330
20
100
AcDbEntity
  8
0
  6
Continuous
 62
     7
100
AcDbLine
 10
13.5
 20
21.0
 30
0.0
 11
13.5
 21
31.0
 31
0.0
  0
LINE
  5
FE
330
20
100
AcDbEntity
  8
0
  6
Continuous
 62
     7
100
AcDbLine
 10
14.0
 20
21.0
 30
0.0
 11
6.25
 21
21.0
 31
0.0
  0
LINE
  5
FF
330
20
100
AcDbEntity
  8
0
  6
Continuous
 62
     2
100
AcDbLine
 10
-10.5
 20
-2.0
 30
0.0
 11
-10.5
 21
23.0
 31
0.0
  0
LINE
  5
100
330
20
100
AcDbEntity
  8
0
  6
Continuous
 62
     2
100
AcDbLine
 10
10.5
 20
-2.0
 30
0.0
 11
10.5
 21
23.0
 31
0.0
  0
LINE
  5
101
330
20
100
AcDbEntity
  8
0
  6
Continuous
 62
     7
100
AcDbLine
 10
-24.0
 20
0.0
 30
0.0
 11
-24.0
 21
3.399993896484375
 31
0.0
  0
LINE
  5
102
330
20
100
AcDbEntity
  8
0
  6
Continuous
 62
     7
100
AcDbLine
 10
-22.49995442975382
 20
7.099999999999998
 30
0.0
 11
-22.99994836838453
 21
6.600006103515624
 31
0.0
  0
LINE
  5
103
330
20
100
AcDbEntity
  8
0
  6
Continuous
 62
     7
100
AcDbLine
 10
-22.99994836838453
 20
6.600006103515625
 30
0.0
 11
-24.0
 21
6.600006103515625
 31
0.0
  0
LINE
  5
104
330
20
100
AcDbEntity
  8
0
  6
Continuous
 62
     7
100
AcDbLine
 10
-22.50001815758469
 20
2.899994061330744
 30
0.0
 11
-23.00001873052633
 21
3.399994592125494
 31
0.0
  0
LINE
  5
105
330
20
100
AcDbEntity
  8
0
  6
Continuous
 62
     7
100
AcDbLine
 10
-23.00001803488516
 20
3.399993896484375
 30
0.0
 11
-24.0
 21
3.399993896484375
 31
0.0
  0
LINE
  5
106
330
20
100
AcDbEntity
  8
0
  6
Continuous
 62
     7
100
AcDbLine
 10
-24.0
 20
6.600006103515625
 30
0.0
 11
-24.0
 21
10.13397216796875
 31
0.0
  0
LINE
  5
107
330
20
100
AcDbEntity
  8
0
  6
Continuous
 62
     7
100
AcDbLine
 10
24.0
 20
0.0
 30
0.0
 11
-24.0
 21
0.0
 31
0.0
  0
LINE
  5
108
330
20
100
AcDbEntity
  8
0
  6
Continuous
 62
     7
100
AcDbLine
 10
24.0
 20
0.0
 30
0.0
 11
24.0
 21
3.399993896484375
 31
0.0
  0
LINE
  5
109
330
20
100
AcDbEntity
  8
0
  6
Continuous
 62
     7
100
AcDbLine
 10
24.0
 20
6.600006103515625
 30
0.0
 11
24.0
 21
22.5
 31
0.0
  0
LINE
  5
10A
330
20
100
AcDbEntity
  8
0
  6
Continuous
 62
     7
100
AcDbLine
 10
23.5
 20
23.0
 30
0.0
 11
15.0
 21
23.0
 31
0.0
  0
LINE
  5
10B
330
20
100
AcDbEntity
  8
0
  6
Continuous
 62
     7
100
AcDbLine
 10
-15.0
 20
23.0
 30
0.0
 11
-23.5
 21
23.0
 31
0.0
  0
LINE
  5
10C
330
20
100
AcDbEntity
  8
0
  6
Continuous
 62
     7
100
AcDbLine
 10
14.0
 20
17.30000305175781
 30
0.0
 11
14.0
 21
21.0
 31
0.0
  0
LINE
  5
10D
330
20
100
AcDbEntity
  8
0
  6
Continuous
 62
     7
100
AcDbLine
 10
7.0
 20
17.30000305175781
 30
0.0
 11
7.0
 21
21.0
 31
0.0
  0
LINE
  5
10E
330
20
100
AcDbEntity
  8
0
  6
Continuous
 62
     7
100
AcDbLine
 10
14.0
 20
20.69999694824219
 30
0.0
 11
7.0
 21
20.69999694824219
 31
0.0
  0
LINE
  5
10F
330
20
100
AcDbEntity
  8
0
  6
Continuous
 62
     7
100
AcDbLine
 10
-7.0
 20
20.69999694824219
 30
0.0
 11
-14.0
 21
20.69999694824219
 31
0.0
  0
LINE
  5
110
330
20
100
AcDbEntity
  8
0
  6
Continuous
 62
     7
100
AcDbLine
 10
6.0
 20
25.5
 30
0.0
 11
-6.0
 21
25.5
 31
0.0
  0
LINE
  5
111
330
20
100
AcDbEntity
  8
0
  6
Continuous
 62
     7
100
AcDbLine
 10
-7.0
 20
17.30000305175781
 30
0.0
 11
-7.0
 21
21.0
 31
0.0
  0
LINE
  5
112
330
20
100
AcDbEntity
  8
0
  6
Continuous
 62
     7
100
AcDbLine
 10
-14.0
 20
17.30000305175781
 30
0.0
 11
-7.0
 21
17.30000305175781
 31
0.0
  0
LINE
  5
113
330
20
100
AcDbEntity
  8
0
  6
Continuous
 62
     7
100
AcDbLine
 10
-14.0
 20
17.30000305175781
 30
0.0
 11
-14.0
 21
21.0
 31
0.0
  0
LINE
  5
114
330
20
100
AcDbEntity
  8
0
  6
Continuous
 62
     7
100
AcDbLine
 10
-15.0
 20
17.0
 30
0.0
 11
-15.0
 21
23.0
 31
0.0
  0
LINE
  5
115
330
20
100
AcDbEntity
  8
0
  6
Continuous
 62
     7
100
AcDbLine
 10
15.0
 20
17.0
 30
0.0
 11
15.0
 21
23.0
 31
0.0
  0
LINE
  5
116
330
20
100
AcDbEntity
  8
0
  6
Continuous
 62
     2
100
AcDbLine
 10
3.04278564453125
 20
9.80000305175781
 30
0.0
 11
-3.04278564453125
 21
9.80000305175781
 31
0.0
  0
LINE
  5
117
330
20
100
AcDbEntity
  8
0
  6
Continuous
 62
     2
100
AcDbLine
 10
3.04278564453125
 20
8.199996948242187
 30
0.0
 11
-3.04278564453125
 21
8.199996948242187
 31
0.0
  0
LINE
  5
118
330
20
100
AcDbEntity
  8
0
  6
Continuous
 62
     7
100
AcDbLine
 10
6.25
 20
26.0
 30
0.0
 11
-6.25
 21
26.0
 31
0.0
  0
LINE
  5
119
330
20
100
AcDbEntity
  8
0
  6
Continuous
 62
     7
100
AcDbLine
 10
6.5
 20
21.5
 30
0.0
 11
6.5
 21
22.69999694824219
 31
0.0
  0
LINE
  5
11A
330
20
100
AcDbEntity
  8
0
  6
Continuous
 62
     7
100
AcDbLine
 10
6.0
 20
24.97573852539062
 30
0.0
 11
6.0
 21
25.5
 31
0.0
  0
LINE
  5
11B
330
20
100
AcDbEntity
  8
0
  6
Continuous
 62
     7
100
AcDbLine
 10
6.5
 20
24.69999694824219
 30
0.0
 11
6.5
 21
26.30000305175781
 31
0.0
  0
LINE
  5
11C
330
20
100
AcDbEntity
  8
0
  6
Continuous
 62
     7
100
AcDbLine
 10
11.99994131561197
 20
21.5
 30
0.0
 11
6.5
 21
21.5
 31
0.0
  0
LINE
  5
11D
330
20
100
AcDbEntity
  8
0
  6
Continuous
 62
     7
100
AcDbLine
 10
6.00003172629948
 20
30.5
 30
0.0
 11
6.500031684152633
 21
31.0
 31
0.0
  0
LINE
  5
11E
330
20
100
AcDbEntity
  8
0
  6
Continuous
 62
     7
100
AcDbLine
 10
6.00003172629948
 20
30.5
 30
0.0
 11
-6.00003657377562
 21
30.5
 31
0.0
  0
LINE
  5
11F
330
20
100
AcDbEntity
  8
0
  6
Continuous
 62
     7
100
AcDbLine
 10
-6.00003657377562
 20
30.5
 30
0.0
 11
-6.500036531628776
 21
31.0
 31
0.0
  0
LINE
  5
120
330
20
100
AcDbEntity
  8
0
  6
Continuous
 62
     7
100
AcDbLine
 10
-6.500036531628776
 20
31.0
 30
0.0
 11
-13.5
 21
31.0
 31
0.0
  0
LINE
  5
121
330
20
100
AcDbEntity
  8
0
  6
Continuous
 62
     7
100
AcDbLine
 10
12.5
 20
22.00005868438802
 30
0.0
 11
12.5
 21
29.5
 31
0.0
  0
LINE
  5
122
330
20
100
AcDbEntity
  8
0
  6
Continuous
 62
     7
100
AcDbLine
 10
12.00002360101189
 20
30.0
 30
0.0
 11
-11.99998352950777
 21
30.0
 31
0.0
  0
LINE
  5
123
330
20
100
AcDbEntity
  8
0
  6
Continuous
 62
     7
100
AcDbLine
 10
6.25
 20
21.0
 30
0.0
 11
6.25
 21
22.39999389648437
 31
0.0
  0
LINE
  5
124
330
20
100
AcDbEntity
  8
0
  6
Continuous
 62
     7
100
AcDbLine
 10
6.25
 20
25.0
 30
0.0
 11
6.25
 21
26.0
 31
0.0
  0
LINE
  5
125
330
20
100
AcDbEntity
  8
0
  6
Continuous
 62
     7
100
AcDbLine
 10
6.5
 20
26.30000305175781
 30
0.0
 11
-6.5
 21
26.30000305175781
 31
0.0
  0
LINE
  5
126
330
20
100
AcDbEntity
  8
0
  6
Continuous
 62
     7
100
AcDbLine
 10
-6.25
 20
21.0
 30
0.0
 11
-6.25
 21
22.39999389648437
 31
0.0
  0
LINE
  5
127
330
20
100
AcDbEntity
  8
0
  6
Continuous
 62
     7
100
AcDbLine
 10
-6.5
 20
21.5
 30
0.0
 11
-6.5
 21
22.69999694824219
 31
0.0
  0
LINE
  5
128
330
20
100
AcDbEntity
  8
0
  6
Continuous
 62
     7
100
AcDbLine
 10
-6.25
 20
25.0
 30
0.0
 11
-6.25
 21
26.0
 31
0.0
  0
LINE
  5
129
330
20
100
AcDbEntity
  8
0
  6
Continuous
 62
     7
100
AcDbLine
 10
-6.5
 20
24.69999694824219
 30
0.0
 11
-6.5
 21
26.30000305175781
 31
0.0
  0
LINE
  5
12A
330
20
100
AcDbEntity
  8
0
  6
Continuous
 62
     7
100
AcDbLine
 10
-6.0
 20
24.97573852539062
 30
0.0
 11
-6.0
 21
25.5
 31
0.0
  0
LINE
  5
12B
330
20
100
AcDbEntity
  8
0
  6
Continuous
 62
     7
100
AcDbLine
 10
-6.5
 20
21.5
 30
0.0
 11
-11.99998932146081
 21
21.5
 31
0.0
  0
LINE
  5
12C
330
20
100
AcDbEntity
  8
0
  6
Continuous
 62
     7
100
AcDbLine
 10
-12.5
 20
22.00001067853919
 30
0.0
 11
-12.5
 21
29.49998416173091
 31
0.0
  0
LINE
  5
12D
330
20
100
AcDbEntity
  8
0
  6
Continuous
 62
     7
100
AcDbLine
 10
11.99994131561197
 20
21.5
 30
0.0
 11
12.5
 21
22.00005868438802
 31
0.0
  0
LINE
  5
12E
330
20
100
AcDbEntity
  8
0
  6
Continuous
 62
     7
100
AcDbLine
 10
12.49999466174086
 20
29.50002893927104
 30
0.0
 11
12.00002360101189
 21
30.0
 31
0.0
  0
LINE
  5
12F
330
20
100
AcDbEntity
  8
0
  6
Continuous
 62
     7
100
AcDbLine
 10
-11.99998932146081
 20
21.5
 30
0.0
 11
-12.5
 21
22.00001067853919
 31
0.0
  0
LINE
  5
130
330
20
100
AcDbEntity
  8
0
  6
Continuous
 62
     7
100
AcDbLine
 10
-12.5
 20
29.49998416173091
 30
0.0
 11
-11.99998206948271
 21
30.00000146002321
 31
0.0
  0
LINE
  5
131
330
20
100
AcDbEntity
  8
0
  6
Continuous
 62
     7
100
AcDbLine
 10
-24.0
 20
11.86602783203125
 30
0.0
 11
-24.0
 21
22.5
 31
0.0
  0
LINE
  5
132
330
20
100
AcDbEntity
  8
0
  6
Continuous
 62
     7
100
AcDbLine
 10
23.0
 20
3.399993896484375
 30
0.0
 11
24.0
 21
3.399993896484375
 31
0.0
  0
LINE
  5
133
330
20
100
AcDbEntity
  8
0
  6
Continuous
 62
     7
100
AcDbLine
 10
22.50007569864517
 20
2.9
 30
0.0
 11
23.00004210798125
 21
3.399966367192064
 31
0.0
  0
LINE
  5
134
330
20
100
AcDbEntity
  8
0
  6
Continuous
 62
     7
100
AcDbLine
 10
22.49994129458087
 20
7.099999999999999
 30
0.0
 11
22.99997256371489
 21
6.599968773015461
 31
0.0
  0
LINE
  5
135
330
20
100
AcDbEntity
  8
0
  6
Continuous
 62
     7
100
AcDbLine
 10
23.0
 20
6.600006103515625
 30
0.0
 11
24.0
 21
6.600006103515625
 31
0.0
  0
CIRCLE
  5
136
330
20
100
AcDbEntity
  8
0
  6
Continuous
 62
     7
100
AcDbCircle
 10
10.5
 20
9.0
 30
0.0
 40
2.067
  0
CIRCLE
  5
137
330
20
100
AcDbEntity
  8
0
  6
Continuous
 62
     7
100
AcDbCircle
 10
-10.5
 20
9.0
 30
0.0
 40
2.067
  0
LINE
  5
138
330
20
100
AcDbEntity
  8
0
  6
Continuous
 62
     2
100
AcDbLine
 10
20.0
 20
21.5
 30
0.0
 11
20.0
 21
24.5
 31
0.0
  0
LINE
  5
139
330
20
100
AcDbEntity
  8
0
  6
Continuous
 62
     2
100
AcDbLine
 10
22.5
 20
18.5
 30
0.0
 11
25.5
 21
18.5
 31
0.0
  0
LINE
  5
13A
330
20
100
AcDbEntity
  8
0
  6
Continuous
 62
     2
100
AcDbLine
 10
-25.5
 20
18.5
 30
0.0
 11
-22.5
 21
18.5
 31
0.0
  0
LINE
  5
13B
330
20
100
AcDbEntity
  8
0
  6
Continuous
 62
     2
100
AcDbLine
 10
10.0
 20
29.5
 30
0.0
 11
10.0
 21
32.5
 31
0.0
  0
LINE
  5
13C
330
20
100
AcDbEntity
  8
0
  6
Continuous
 62
     2
100
AcDbLine
 10
-10.0
 20
29.5
 30
0.0
 11
-10.0
 21
32.5
 31
0.0
  0
LINE
  5
13D
330
20
100
AcDbEntity
  8
0
  6
Continuous
 62
     2
100
AcDbLine
 10
-20.0
 20
21.5
 30
0.0
 11
-20.0
 21
24.5
 31
0.0
  0
LINE
  5
13E
330
20
100
AcDbEntity
  8
0
  6
CENTER
 62
     2
100
AcDbLine
 10
-27.5
 20
9.0
 30
0.0
 11
27.5
 21
9.0
 31
0.0
  0
LINE
  5
13F
330
20
100
AcDbEntity
  8
0
  6
CENTER
 62
     2
100
AcDbLine
 10
0.0
 20
-5.63397216796875
 30
0.0
 11
0.0
 21
34.36602783203125
 31
0.0
  0
ENDBLK
  5
140
330
20
100
AcDbEntity
  8
0
100
AcDbBlockEnd
  0
BLOCK
  5
141
330
21
100
AcDbEntity
  8
0
100
AcDbBlockBegin
  2
AFDPG-14-JB-4
 70
     0
 10
0.0
 20
0.0
 30
0.0
  3
AFDPG-14-JB-4
  1

  0
LINE
  5
142
330
21
100
AcDbEntity
  8
0
  6
Continuous
 62
     7
100
AcDbLine
 10
-57.59999999641136
 20
-12.99999999378429
 30
0.0
 11
-57.09999999641136
 21
-13.49999999378428
 31
0.0
  0
ARC
  5
143
330
21
100
AcDbEntity
  8
0
  6
Continuous
 62
     7
100
AcDbCircle
 10
-44.49999999641136
 20
8.500007635610245
 30
0.0
 40
1.5
100
AcDbArc
 50
179.9999813306653
 51
270.0000248162786
  0
ARC
  5
144
330
21
100
AcDbEntity
  8
0
  6
Continuous
 62
     7
100
AcDbCircle
 10
-44.49999999641136
 20
12.50000763561024
 30
0.0
 40
1.5
100
AcDbArc
 50
89.99998201391065
 51
179.9999640278213
  0
CIRCLE
  5
145
330
21
100
AcDbEntity
  8
0
  6
Continuous
 62
     2
100
AcDbCircle
 10
22.50000000358864
 20
-10.00000000621571
 30
0.0
 40
1.5
  0
CIRCLE
  5
146
330
21
100
AcDbEntity
  8
0
  6
Continuous
 62
     2
100
AcDbCircle
 10
22.50000000358864
 20
9.999999993784284
 30
0.0
 40
1.5
  0
CIRCLE
  5
147
330
21
100
AcDbEntity
  8
0
  6
Continuous
 62
     2
100
AcDbCircle
 10
-37.49999236701683
 20
9.999999993784284
 30
0.0
 40
1.5
  0
CIRCLE
  5
148
330
21
100
AcDbEntity
  8
0
  6
Continuous
 62
     2
100
AcDbCircle
 10
-37.49999236701683
 20
-10.00000000621571
 30
0.0
 40
1.5
  0
CIRCLE
  5
149
330
21
100
AcDbEntity
  8
0
  6
Continuous
 62
     2
100
AcDbCircle
 10
-19.99999999641136
 20
-20.00000000621572
 30
0.0
 40
2.0
  0
CIRCLE
  5
14A
330
21
100
AcDbEntity
  8
0
  6
Continuous
 62
     2
100
AcDbCircle
 10
20.00000000358864
 20
-20.00000000621572
 30
0.0
 40
2.0
  0
CIRCLE
  5
14B
330
21
100
AcDbEntity
  8
0
  6
Continuous
 62
     2
100
AcDbCircle
 10
20.00000000358864
 20
19.99999999378429
 30
0.0
 40
2.0
  0
CIRCLE
  5
14C
330
21
100
AcDbEntity
  8
0
  6
Continuous
 62
     2
100
AcDbCircle
 10
-19.99999999641136
 20
19.99999999378429
 30
0.0
 40
2.0
  0
CIRCLE
  5
14D
330
21
100
AcDbEntity
  8
0
  6
Continuous
 62
     2
100
AcDbCircle
 10
-22.49999236701683
 20
-10.00000000621571
 30
0.0
 40
1.5
  0
CIRCLE
  5
14E
330
21
100
AcDbEntity
  8
0
  6
Continuous
 62
     2
100
AcDbCircle
 10
-22.49999236701683
 20
9.999999993784284
 30
0.0
 40
1.5
  0
CIRCLE
  5
14F
330
21
100
AcDbEntity
  8
0
  6
Continuous
 62
     2
100
AcDbCircle
 10
37.50000000358864
 20
9.999999993784284
 30
0.0
 40
1.5
  0
CIRCLE
  5
150
330
21
100
AcDbEntity
  8
0
  6
Continuous
 62
     2
100
AcDbCircle
 10
37.50000000358864
 20
-10.00000000621571
 30
0.0
 40
1.5
  0
LINE
  5
151
330
21
100
AcDbEntity
  8
0
  6
Continuous
 62
     2
100
AcDbLine
 10
30.00000000358864
 20
13.49999999378428
 30
0.0
 11
30.00000000358864
 21
-13.50000000621571
 31
0.0
  0
LINE
  5
152
330
21
100
AcDbEntity
  8
0
  6
Continuous
 62
     2
100
AcDbLine
 10
-29.99999236701683
 20
13.49999999378428
 30
0.0
 11
-29.99999236701683
 21
-13.50000000621571
 31
0.0
  0
LINE
  5
153
330
21
100
AcDbEntity
  8
0
  6
Continuous
 62
     7
100
AcDbLine
 10
-45.99999999641136
 20
12.50000763561024
 30
0.0
 11
-45.99999999641136
 21
10.90000916770486
 31
0.0
  0
LINE
  5
154
330
21
100
AcDbEntity
  8
0
  6
Continuous
 62
     7
100
AcDbLine
 10
-44.49999999641136
 20
14.00000763561024
 30
0.0
 11
-42.99999999641136
 21
14.00000763561024
 31
0.0
  0
LINE
  5
155
330
21
100
AcDbEntity
  8
0
  6
Continuous
 62
     7
100
AcDbLine
 10
-44.49999999641136
 20
7.000007635610244
 30
0.0
 11
-43.99999236701683
 21
7.000007635610244
 31
0.0
  0
LINE
  5
156
330
21
100
AcDbEntity
  8
0
  6
Continuous
 62
     7
100
AcDbLine
 10
17.00000000358864
 20
6.499999993784285
 30
0.0
 11
43.00000000358863
 21
6.499999993784285
 31
0.0
  0
LINE
  5
157
330
21
100
AcDbEntity
  8
0
  6
Continuous
 62
     7
100
AcDbLine
 10
17.00000000358864
 20
5.999999993784285
 30
0.0
 11
43.00000000358863
 21
5.999999993784285
 31
0.0
  0
LINE
  5
158
330
21
100
AcDbEntity
  8
0
  6
Continuous
 62
     7
100
AcDbLine
 10
-42.99999236701682
 20
6.499999993784285
 30
0.0
 11
-16.99999236701683
 21
6.499999993784285
 31
0.0
  0
LINE
  5
159
330
21
100
AcDbEntity
  8
0
  6
Continuous
 62
     7
100
AcDbLine
 10
-42.99999236701682
 20
5.999999993784285
 30
0.0
 11
-16.99999236701683
 21
5.999999993784285
 31
0.0
  0
LINE
  5
15A
330
21
100
AcDbEntity
  8
0
  6
Continuous
 62
     7
100
AcDbLine
 10
17.00000000358864
 20
-6.000007635610244
 30
0.0
 11
43.00000000358863
 21
-6.000007635610244
 31
0.0
  0
LINE
  5
15B
330
21
100
AcDbEntity
  8
0
  6
Continuous
 62
     7
100
AcDbLine
 10
17.00000000358864
 20
-6.500007635610244
 30
0.0
 11
43.00000000358863
 21
-6.500007635610244
 31
0.0
  0
LINE
  5
15C
330
21
100
AcDbEntity
  8
0
  6
Continuous
 62
     7
100
AcDbLine
 10
-42.99999236701682
 20
-6.500007635610244
 30
0.0
 11
-16.99999236701683
 21
-6.500007635610244
 31
0.0
  0
LINE
  5
15D
330
21
100
AcDbEntity
  8
0
  6
Continuous
 62
     7
100
AcDbLine
 10
-42.99999236701682
 20
-6.000007635610244
 30
0.0
 11
-16.99999236701683
 21
-6.000007635610244
 31
0.0
  0
LINE
  5
15E
330
21
100
AcDbEntity
  8
0
  6
Continuous
 62
     7
100
AcDbLine
 10
-42.99999999641136
 20
-15.00000000621571
 30
0.0
 11
43.00000000358863
 21
-15.00000000621571
 31
0.0
  0
LINE
  5
15F
330
21
100
AcDbEntity
  8
0
  6
Continuous
 62
     7
100
AcDbLine
 10
-42.99999999641136
 20
14.99999999378428
 30
0.0
 11
43.00000000358863
 21
14.99999999378428
 31
0.0
  0
LINE
  5
160
330
21
100
AcDbEntity
  8
0
  6
Continuous
 62
     7
100
AcDbLine
 10
17.00000000358864
 20
-12.00000000621571
 30
0.0
 11
16.00000000358864
 21
-12.00000000621571
 31
0.0
  0
LINE
  5
161
330
21
100
AcDbEntity
  8
0
  6
Continuous
 62
     7
100
AcDbLine
 10
17.00000000358864
 20
11.99999999378428
 30
0.0
 11
16.00000000358864
 21
11.99999999378428
 31
0.0
  0
LINE
  5
162
330
21
100
AcDbEntity
  8
0
  6
Continuous
 62
     7
100
AcDbLine
 10
44.00000000358864
 20
-12.00000000621571
 30
0.0
 11
43.00000000358863
 21
-12.00000000621571
 31
0.0
  0
LINE
  5
163
330
21
100
AcDbEntity
  8
0
  6
Continuous
 62
     7
100
AcDbLine
 10
44.00000000358864
 20
11.99999999378428
 30
0.0
 11
43.00000000358863
 21
11.99999999378428
 31
0.0
  0
LINE
  5
164
330
21
100
AcDbEntity
  8
0
  6
Continuous
 62
     7
100
AcDbLine
 10
44.00000000358864
 20
11.99999999378428
 30
0.0
 11
44.00000000358864
 21
-12.00000000621571
 31
0.0
  0
LINE
  5
165
330
21
100
AcDbEntity
  8
0
  6
Continuous
 62
     7
100
AcDbLine
 10
17.00000000358864
 20
13.49999999378428
 30
0.0
 11
17.00000000358864
 21
-13.50000000621571
 31
0.0
  0
LINE
  5
166
330
21
100
AcDbEntity
  8
0
  6
Continuous
 62
     7
100
AcDbLine
 10
16.00000000358864
 20
11.99999999378428
 30
0.0
 11
16.00000000358864
 21
-12.00000000621571
 31
0.0
  0
LINE
  5
167
330
21
100
AcDbEntity
  8
0
  6
Continuous
 62
     7
100
AcDbLine
 10
-16.99999236701683
 20
-12.00000000621571
 30
0.0
 11
-15.99999236701683
 21
-12.00000000621571
 31
0.0
  0
LINE
  5
168
330
21
100
AcDbEntity
  8
0
  6
Continuous
 62
     7
100
AcDbLine
 10
-43.99999236701683
 20
12.00000000621571
 30
0.0
 11
-42.99999236701682
 21
12.00000000621571
 31
0.0
  0
LINE
  5
169
330
21
100
AcDbEntity
  8
0
  6
Continuous
 62
     7
100
AcDbLine
 10
-16.99999236701683
 20
11.99999999378428
 30
0.0
 11
-15.99999236701683
 21
11.99999999378428
 31
0.0
  0
LINE
  5
16A
330
21
100
AcDbEntity
  8
0
  6
Continuous
 62
     7
100
AcDbLine
 10
-43.99999236701683
 20
-11.99999999378428
 30
0.0
 11
-42.99999236701682
 21
-11.99999999378428
 31
0.0
  0
LINE
  5
16B
330
21
100
AcDbEntity
  8
0
  6
Continuous
 62
     7
100
AcDbLine
 10
-16.99999236701683
 20
13.49999999378428
 30
0.0
 11
-16.99999236701683
 21
-13.50000000621571
 31
0.0
  0
LINE
  5
16C
330
21
100
AcDbEntity
  8
0
  6
Continuous
 62
     7
100
AcDbLine
 10
-15.99999236701683
 20
11.99999999378428
 30
0.0
 11
-15.99999236701683
 21
-12.00000000621571
 31
0.0
  0
LINE
  5
16D
330
21
100
AcDbEntity
  8
0
  6
Continuous
 62
     7
100
AcDbLine
 10
-43.99999236701683
 20
-11.99999999378428
 30
0.0
 11
-43.99999236701683
 21
12.00000000621571
 31
0.0
  0
LINE
  5
16E
330
21
100
AcDbEntity
  8
0
  6
Continuous
 62
     7
100
AcDbLine
 10
42.49999403953552
 20
-24.0
 30
0.0
 11
43.00000000358862
 21
-23.49999407809424
 31
0.0
  0
LINE
  5
16F
330
21
100
AcDbEntity
  8
0
  6
Continuous
 62
     7
100
AcDbLine
 10
-42.49999696016312
 20
-24.00000000621572
 30
0.0
 11
42.49999403952251
 21
-24.00000000621572
 31
0.0
  0
LINE
  5
170
330
21
100
AcDbEntity
  8
0
  6
Continuous
 62
     7
100
AcDbLine
 10
-43.0
 20
23.50001496076584
 30
0.0
 11
-42.5000149011612
 21
24.0
 31
0.0
  0
LINE
  5
171
330
21
100
AcDbEntity
  8
0
  6
Continuous
 62
     7
100
AcDbLine
 10
43.0
 20
23.50000333786011
 30
0.0
 11
42.50000339746475
 21
24.0
 31
0.0
  0
LINE
  5
172
330
21
100
AcDbEntity
  8
0
  6
Continuous
 62
     7
100
AcDbLine
 10
-42.5000149011612
 20
23.99999999378429
 30
0.0
 11
42.50000339746475
 21
23.99999999378429
 31
0.0
  0
LINE
  5
173
330
21
100
AcDbEntity
  8
0
  6
Continuous
 62
     7
100
AcDbLine
 10
-43.0
 20
-23.49999701976776
 30
0.0
 11
-42.49999697140495
 21
-24.00000000621571
 31
0.0
  0
LINE
  5
174
330
21
100
AcDbEntity
  8
0
  6
Continuous
 62
     7
100
AcDbLine
 10
-15.99999236701683
 20
-6.000000006215713
 30
0.0
 11
16.00000000358864
 21
-6.000000006215713
 31
0.0
  0
LINE
  5
175
330
21
100
AcDbEntity
  8
0
  6
Continuous
 62
     7
100
AcDbLine
 10
-15.99999236701683
 20
5.999999993784285
 30
0.0
 11
16.00000000358864
 21
5.999999993784285
 31
0.0
  0
LINE
  5
176
330
21
100
AcDbEntity
  8
0
  6
Continuous
 62
     7
100
AcDbLine
 10
17.00000000358864
 20
-13.50000000621571
 30
0.0
 11
43.00000000358863
 21
-13.50000000621571
 31
0.0
  0
LINE
  5
177
330
21
100
AcDbEntity
  8
0
  6
Continuous
 62
     7
100
AcDbLine
 10
17.00000000358864
 20
13.49999999378428
 30
0.0
 11
43.00000000358863
 21
13.49999999378428
 31
0.0
  0
LINE
  5
178
330
21
100
AcDbEntity
  8
0
  6
Continuous
 62
     7
100
AcDbLine
 10
-42.99999999641136
 20
-23.49999701976776
 30
0.0
 11
-42.99999999641136
 21
23.50001490116119
 31
0.0
  0
LINE
  5
179
330
21
100
AcDbEntity
  8
0
  6
Continuous
 62
     7
100
AcDbLine
 10
-42.99999236701682
 20
13.49999999378428
 30
0.0
 11
-16.99999236701683
 21
13.49999999378428
 31
0.0
  0
LINE
  5
17A
330
21
100
AcDbEntity
  8
0
  6
Continuous
 62
     7
100
AcDbLine
 10
-42.99999236701682
 20
-13.50000000621571
 30
0.0
 11
-16.99999236701683
 21
-13.50000000621571
 31
0.0
  0
LINE
  5
17B
330
21
100
AcDbEntity
  8
0
  6
Continuous
 62
     7
100
AcDbLine
 10
43.00000000358863
 20
-23.49999409914017
 30
0.0
 11
43.00000000358863
 21
23.50000340782488
 31
0.0
  0
LINE
  5
17C
330
21
100
AcDbEntity
  8
0
  6
Continuous
 62
     2
100
AcDbLine
 10
-34.99999236701683
 20
9.999999993784284
 30
0.0
 11
-39.99999236701683
 21
9.999999993784284
 31
0.0
  0
LINE
  5
17D
330
21
100
AcDbEntity
  8
0
  6
Continuous
 62
     2
100
AcDbLine
 10
-37.49999236701683
 20
12.49999999378428
 30
0.0
 11
-37.49999236701683
 21
7.499999993784284
 31
0.0
  0
LINE
  5
17E
330
21
100
AcDbEntity
  8
0
  6
Continuous
 62
     2
100
AcDbLine
 10
-19.99999236701683
 20
9.999999993784284
 30
0.0
 11
-24.99999236701683
 21
9.999999993784284
 31
0.0
  0
LINE
  5
17F
330
21
100
AcDbEntity
  8
0
  6
Continuous
 62
     2
100
AcDbLine
 10
-22.49999236701683
 20
12.49999999378428
 30
0.0
 11
-22.49999236701683
 21
7.499999993784284
 31
0.0
  0
LINE
  5
180
330
21
100
AcDbEntity
  8
0
  6
Continuous
 62
     2
100
AcDbLine
 10
-34.99999236701683
 20
-10.00000000621571
 30
0.0
 11
-39.99999236701683
 21
-10.00000000621571
 31
0.0
  0
LINE
  5
181
330
21
100
AcDbEntity
  8
0
  6
Continuous
 62
     2
100
AcDbLine
 10
-37.49999236701683
 20
-7.500000006215713
 30
0.0
 11
-37.49999236701683
 21
-12.50000000621571
 31
0.0
  0
LINE
  5
182
330
21
100
AcDbEntity
  8
0
  6
Continuous
 62
     2
100
AcDbLine
 10
-19.99999236701683
 20
-10.00000000621571
 30
0.0
 11
-24.99999236701683
 21
-10.00000000621571
 31
0.0
  0
LINE
  5
183
330
21
100
AcDbEntity
  8
0
  6
Continuous
 62
     2
100
AcDbLine
 10
-22.49999236701683
 20
-7.500000006215713
 30
0.0
 11
-22.49999236701683
 21
-12.50000000621571
 31
0.0
  0
LINE
  5
184
330
21
100
AcDbEntity
  8
0
  6
Continuous
 62
     2
100
AcDbLine
 10
25.00000000358864
 20
9.999999993784284
 30
0.0
 11
20.00000000358864
 21
9.999999993784284
 31
0.0
  0
LINE
  5
185
330
21
100
AcDbEntity
  8
0
  6
Continuous
 62
     2
100
AcDbLine
 10
22.50000000358864
 20
12.49999999378428
 30
0.0
 11
22.50000000358864
 21
7.499999993784284
 31
0.0
  0
LINE
  5
186
330
21
100
AcDbEntity
  8
0
  6
Continuous
 62
     2
100
AcDbLine
 10
40.00000000358864
 20
9.999999993784284
 30
0.0
 11
35.00000000358864
 21
9.999999993784284
 31
0.0
  0
LINE
  5
187
330
21
100
AcDbEntity
  8
0
  6
Continuous
 62
     2
100
AcDbLine
 10
37.50000000358864
 20
12.49999999378428
 30
0.0
 11
37.50000000358864
 21
7.499999993784284
 31
0.0
  0
LINE
  5
188
330
21
100
AcDbEntity
  8
0
  6
Continuous
 62
     2
100
AcDbLine
 10
40.00000000358864
 20
-10.00000000621571
 30
0.0
 11
35.00000000358864
 21
-10.00000000621571
 31
0.0
  0
LINE
  5
189
330
21
100
AcDbEntity
  8
0
  6
Continuous
 62
     2
100
AcDbLine
 10
37.50000000358864
 20
-7.500000006215713
 30
0.0
 11
37.50000000358864
 21
-12.50000000621571
 31
0.0
  0
LINE
  5
18A
330
21
100
AcDbEntity
  8
0
  6
Continuous
 62
     2
100
AcDbLine
 10
25.00000000358864
 20
-10.00000000621571
 30
0.0
 11
20.00000000358864
 21
-10.00000000621571
 31
0.0
  0
LINE
  5
18B
330
21
100
AcDbEntity
  8
0
  6
Continuous
 62
     2
100
AcDbLine
 10
22.50000000358864
 20
-7.500000006215713
 30
0.0
 11
22.50000000358864
 21
-12.50000000621571
 31
0.0
  0
LINE
  5
18C
330
21
100
AcDbEntity
  8
0
  6
Continuous
 62
     2
100
AcDbLine
 10
-47.5
 20
10.50000000621571
 30
0.0
 11
-40.99999999641136
 21
10.50000000621571
 31
0.0
  0
LINE
  5
18D
330
21
100
AcDbEntity
  8
0
  6
CENTER
 62
     2
100
AcDbLine
 10
-47.5
 20
0.0
 30
0.0
 11
47.5
 21
0.0
 31
0.0
  0
CIRCLE
  5
18E
330
21
100
AcDbEntity
  8
0
  6
Continuous
 62
     7
100
AcDbCircle
 10
20.00000000358864
 20
19.99999999378429
 30
0.0
 40
1.620999999999999
  0
CIRCLE
  5
18F
330
21
100
AcDbEntity
  8
0
  6
Continuous
 62
     7
100
AcDbCircle
 10
-19.99999999641136
 20
19.99999999378429
 30
0.0
 40
1.620999999999999
  0
CIRCLE
  5
190
330
21
100
AcDbEntity
  8
0
  6
Continuous
 62
     7
100
AcDbCircle
 10
-19.99999999641136
 20
-20.00000000621572
 30
0.0
 40
1.620999999999999
  0
CIRCLE
  5
191
330
21
100
AcDbEntity
  8
0
  6
Continuous
 62
     7
100
AcDbCircle
 10
20.00000000358864
 20
-20.00000000621572
 30
0.0
 40
1.620999999999999
  0
CIRCLE
  5
192
330
21
100
AcDbEntity
  8
0
  6
Continuous
 62
     7
100
AcDbCircle
 10
37.50000000358864
 20
9.999999993784284
 30
0.0
 40
1.2295
  0
CIRCLE
  5
193
330
21
100
AcDbEntity
  8
0
  6
Continuous
 62
     7
100
AcDbCircle
 10
22.50000000358864
 20
9.999999993784284
 30
0.0
 40
1.2295
  0
CIRCLE
  5
194
330
21
100
AcDbEntity
  8
0
  6
Continuous
 62
     7
100
AcDbCircle
 10
22.50000000358864
 20
-10.00000000621571
 30
0.0
 40
1.2295
  0
CIRCLE
  5
195
330
21
100
AcDbEntity
  8
0
  6
Continuous
 62
     7
100
AcDbCircle
 10
37.50000000358864
 20
-10.00000000621571
 30
0.0
 40
1.2295
  0
CIRCLE
  5
196
330
21
100
AcDbEntity
  8
0
  6
Continuous
 62
     7
100
AcDbCircle
 10
-22.49999236701683
 20
9.999999993784284
 30
0.0
 40
1.2295
  0
CIRCLE
  5
197
330
21
100
AcDbEntity
  8
0
  6
Continuous
 62
     7
100
AcDbCircle
 10
-37.49999236701683
 20
9.999999993784284
 30
0.0
 40
1.2295
  0
CIRCLE
  5
198
330
21
100
AcDbEntity
  8
0
  6
Continuous
 62
     7
100
AcDbCircle
 10
-37.49999236701683
 20
-10.00000000621571
 30
0.0
 40
1.2295
  0
CIRCLE
  5
199
330
21
100
AcDbEntity
  8
0
  6
Continuous
 62
     7
100
AcDbCircle
 10
-22.49999236701683
 20
-10.00000000621571
 30
0.0
 40
1.2295
  0
LINE
  5
19A
330
21
100
AcDbEntity
  8
0
  6
Continuous
 62
     2
100
AcDbLine
 10
30.00000000376883
 20
22.49999999378429
 30
0.0
 11
30.00000000376883
 21
25.49999999378429
 31
0.0
  0
LINE
  5
19B
330
21
100
AcDbEntity
  8
0
  6
Continuous
 62
     2
100
AcDbLine
 10
-29.99999999623117
 20
22.49999999378429
 30
0.0
 11
-29.99999999623117
 21
25.49999999378429
 31
0.0
  0
LINE
  5
19C
330
21
100
AcDbEntity
  8
0
  6
Continuous
 62
     2
100
AcDbLine
 10
41.00000000358863
 20
-10.50000000621571
 30
0.0
 11
46.00000000358863
 21
-10.50000000621571
 31
0.0
  0
LINE
  5
19D
330
21
100
AcDbEntity
  8
0
  6
Continuous
 62
     2
100
AcDbLine
 10
41.00000000358863
 20
10.49999999378429
 30
0.0
 11
46.00000000358863
 21
10.49999999378429
 31
0.0
  0
LINE
  5
19E
330
21
100
AcDbEntity
  8
0
  6
Continuous
 62
     2
100
AcDbLine
 10
-29.99999999623117
 20
-22.49999999378429
 30
0.0
 11
-29.99999999623117
 21
-25.49999999378429
 31
0.0
  0
LINE
  5
19F
330
21
100
AcDbEntity
  8
0
  6
Continuous
 62
     2
100
AcDbLine
 10
30.00000000376883
 20
-22.49999999378429
 30
0.0
 11
30.00000000376883
 21
-25.49999999378429
 31
0.0
  0
LINE
  5
1A0
330
21
100
AcDbEntity
  8
0
  6
Continuous
 62
     2
100
AcDbLine
 10
20.00000000358864
 20
16.24999999378428
 30
0.0
 11
20.00000000358864
 21
23.74999999378429
 31
0.0
  0
LINE
  5
1A1
330
21
100
AcDbEntity
  8
0
  6
Continuous
 62
     2
100
AcDbLine
 10
-19.99999999641136
 20
16.24999999378428
 30
0.0
 11
-19.99999999641136
 21
23.74999999378429
 31
0.0
  0
LINE
  5
1A2
330
21
100
AcDbEntity
  8
0
  6
Continuous
 62
     2
100
AcDbLine
 10
16.25000000358864
 20
19.99999999378429
 30
0.0
 11
23.75000000358864
 21
19.99999999378429
 31
0.0
  0
LINE
  5
1A3
330
21
100
AcDbEntity
  8
0
  6
Continuous
 62
     2
100
AcDbLine
 10
-23.74999999641136
 20
19.99999999378429
 30
0.0
 11
-16.24999999641136
 21
19.99999999378429
 31
0.0
  0
LINE
  5
1A4
330
21
100
AcDbEntity
  8
0
  6
Continuous
 62
     2
100
AcDbLine
 10
20.00000000358864
 20
-23.75000000621572
 30
0.0
 11
20.00000000358864
 21
-16.25000000621571
 31
0.0
  0
LINE
  5
1A5
330
21
100
AcDbEntity
  8
0
  6
Continuous
 62
     2
100
AcDbLine
 10
16.25000000358864
 20
-20.00000000621572
 30
0.0
 11
23.75000000358864
 21
-20.00000000621572
 31
0.0
  0
LINE
  5
1A6
330
21
100
AcDbEntity
  8
0
  6
Continuous
 62
     2
100
AcDbLine
 10
-19.99999999641136
 20
-23.75000000621572
 30
0.0
 11
-19.99999999641136
 21
-16.25000000621571
 31
0.0
  0
LINE
  5
1A7
330
21
100
AcDbEntity
  8
0
  6
Continuous
 62
     2
100
AcDbLine
 10
-23.74999999641136
 20
-20.00000000621572
 30
0.0
 11
-16.24999999641136
 21
-20.00000000621572
 31
0.0
  0
LINE
  5
1A8
330
21
100
AcDbEntity
  8
0
  6
Continuous
 62
     7
100
AcDbLine
 10
-48.59999847053246
 20
-13.40000151966319
 30
0.0
 11
-44.59999847053246
 21
-13.40000151966319
 31
0.0
  0
LINE
  5
1A9
330
21
100
AcDbEntity
  8
0
  6
Continuous
 62
     7
100
AcDbLine
 10
-48.59999847053246
 20
-7.599998467905379
 30
0.0
 11
-44.59999847053246
 21
-7.599998467905379
 31
0.0
  0
LINE
  5
1AA
330
21
100
AcDbEntity
  8
0
  6
Continuous
 62
     2
100
AcDbLine
 10
-59.59999999641136
 20
-10.49999999378429
 30
0.0
 11
-40.99999999641136
 21
-10.49999999378429
 31
0.0
  0
LINE
  5
1AB
330
21
100
AcDbEntity
  8
0
  6
Continuous
 62
     7
100
AcDbLine
 10
-48.59999847053246
 20
-4.700004571421004
 30
0.0
 11
-44.59999847053246
 21
-4.700004571421004
 31
0.0
  0
LINE
  5
1AC
330
21
100
AcDbEntity
  8
0
  6
Continuous
 62
     7
100
AcDbLine
 10
-48.59999847053246
 20
-16.29999541614757
 30
0.0
 11
-44.59999847053246
 21
-16.29999541614757
 31
0.0
  0
LINE
  5
1AD
330
21
100
AcDbEntity
  8
0
  6
Continuous
 62
     7
100
AcDbLine
 10
-57.59999999641136
 20
-7.999999993784284
 30
0.0
 11
-57.59999999641136
 21
-12.99999999378429
 31
0.0
  0
LINE
  5
1AE
330
21
100
AcDbEntity
  8
0
  6
Continuous
 62
     7
100
AcDbLine
 10
-49.09999847053246
 20
-6.150001519663192
 30
0.0
 11
-49.09999847053246
 21
-14.84999846790538
 31
0.0
  0
LINE
  5
1AF
330
21
100
AcDbEntity
  8
0
  6
Continuous
 62
     7
100
AcDbLine
 10
-57.09999999641136
 20
-7.499999993784284
 30
0.0
 11
-49.09999847053246
 21
-7.499999993784284
 31
0.0
  0
LINE
  5
1B0
330
21
100
AcDbEntity
  8
0
  6
Continuous
 62
     7
100
AcDbLine
 10
-57.09999999641136
 20
-13.49999999378428
 30
0.0
 11
-49.09999847053246
 21
-13.49999999378428
 31
0.0
  0
LINE
  5
1B1
330
21
100
AcDbEntity
  8
0
  6
Continuous
 62
     2
100
AcDbLine
 10
-57.59999999641136
 20
-8.041499993784285
 30
0.0
 11
-49.09999847053246
 21
-8.041499993784285
 31
0.0
  0
LINE
  5
1B2
330
21
100
AcDbEntity
  8
0
  6
Continuous
 62
     2
100
AcDbLine
 10
-57.59999999641136
 20
-12.95849999378428
 30
0.0
 11
-49.09999847053246
 21
-12.95849999378428
 31
0.0
  0
LINE
  5
1B3
330
21
100
AcDbEntity
  8
0
  6
Continuous
 62
     7
100
AcDbLine
 10
-57.09999999641136
 20
-7.499999993784284
 30
0.0
 11
-57.09999999641136
 21
-13.49999999378428
 31
0.0
  0
LINE
  5
1B4
330
21
100
AcDbEntity
  8
0
  6
Continuous
 62
     7
100
AcDbLine
 10
-57.59999532450884
 20
-8.000006661743896
 30
0.0
 11
-57.0999947937141
 21
-7.500006130949145
 31
0.0
  0
ARC
  5
1B5
330
21
100
AcDbEntity
  8
0
  6
Continuous
 62
     7
100
AcDbCircle
 10
-46.74749755500511
 20
-6.150001519663192
 30
0.0
 40
2.352500915527344
100
AcDbArc
 50
141.9488198796059
 51
218.0511564421031
  0
ARC
  5
1B6
330
21
100
AcDbEntity
  8
0
  6
Continuous
 62
     7
100
AcDbCircle
 10
-40.44000243781761
 20
-10.49999999378429
 30
0.0
 40
8.659997940063474
100
AcDbArc
 50
160.4352049814872
 51
199.5647850006
  0
ARC
  5
1B7
330
21
100
AcDbEntity
  8
0
  6
Continuous
 62
     7
100
AcDbCircle
 10
-46.74749755500511
 20
-14.84999846790538
 30
0.0
 40
2.352500915527344
100
AcDbArc
 50
141.9487788984708
 51
218.0511154609681
  0
ARC
  5
1B8
330
21
100
AcDbEntity
  8
0
  6
Continuous
 62
     7
100
AcDbCircle
 10
-52.76000213264183
 20
-10.49999999378429
 30
0.0
 40
8.659997940063474
100
AcDbArc
 50
340.4351826696869
 51
19.5647626887997
  0
LINE
  5
1B9
330
21
100
AcDbEntity
  8
0
  6
Continuous
 62
     7
100
AcDbLine
 10
-44.09999847053245
 20
-15.49999999378428
 30
0.0
 11
-42.99999999641136
 21
-15.49999999378428
 31
0.0
  0
LINE
  5
1BA
330
21
100
AcDbEntity
  8
0
  6
Continuous
 62
     7
100
AcDbLine
 10
-44.09999847053245
 20
-5.499999993784285
 30
0.0
 11
-44.09999847053245
 21
-15.49999999378428
 31
0.0
  0
ARC
  5
1BB
330
21
100
AcDbEntity
  8
0
  6
Continuous
 62
     7
100
AcDbCircle
 10
-46.4524993860598
 20
-14.84999846790538
 30
0.0
 40
2.352500915527344
100
AcDbArc
 50
321.9487975678055
 51
38.05113413030277
  0
ARC
  5
1BC
330
21
100
AcDbEntity
  8
0
  6
Continuous
 62
     7
100
AcDbCircle
 10
-46.4524993860598
 20
-6.150001519663192
 30
0.0
 40
2.352500915527344
100
AcDbArc
 50
321.9488112281839
 51
38.05114779068112
  0
CIRCLE
  5
1BD
330
21
100
AcDbEntity
  8
0
  6
Continuous
 62
     7
100
AcDbCircle
 10
30.00000000358864
 20
0.0
 30
0.0
 40
2.0
  0
CIRCLE
  5
1BE
330
21
100
AcDbEntity
  8
0
  6
Continuous
 62
     7
100
AcDbCircle
 10
-29.99999236701683
 20
0.0
 30
0.0
 40
2.0
  0
LINE
  5
1BF
330
21
100
AcDbEntity
  8
0
  6
Continuous
 62
     7
100
AcDbLine
 10
-45.99999999641136
 20
10.90000916770486
 30
0.0
 11
-44.60000609992698
 21
10.90000916770486
 31
0.0
  0
LINE
  5
1C0
330
21
100
AcDbEntity
  8
0
  6
Continuous
 62
     7
100
AcDbLine
 10
-45.99999999641136
 20
10.10000611594705
 30
0.0
 11
-44.60000609992698
 21
10.10000611594705
 31
0.0
  0
LINE
  5
1C1
330
21
100
AcDbEntity
  8
0
  6
Continuous
 62
     7
100
AcDbLine
 10
-44.60000609992698
 20
10.90000916770486
 30
0.0
 11
-44.60000609992698
 21
10.10000611594705
 31
0.0
  0
LINE
  5
1C2
330
21
100
AcDbEntity
  8
0
  6
Continuous
 62
     7
100
AcDbLine
 10
-45.99999999641136
 20
10.10000611594705
 30
0.0
 11
-45.99999999641136
 21
8.500007635610245
 31
0.0
  0
LINE
  5
1C3
330
21
100
AcDbEntity
  8
0
  6
CENTER
 62
     2
100
AcDbLine
 10
0.0
 20
-30.0
 30
0.0
 11
0.0
 21
30.0
 31
0.0
  0
ENDBLK
  5
1C4
330
21
100
AcDbEntity
  8
0
100
AcDbBlockEnd
  0
BLOCK
  5
1C5
330
22
100
AcDbEntity
  8
0
100
AcDbBlockBegin
  2
AFDPG-14-JB-5
 70
     0
 10
0.0
 20
0.0
 30
0.0
  3
AFDPG-14-JB-5
  1

  0
CIRCLE
  5
1C6
330
22
100
AcDbEntity
  8
0
  6
Continuous
 62
     7
100
AcDbCircle
 10
0.0000001963482035
 20
0.0
 30
0.0
 40
5.0
  0
CIRCLE
  5
1C7
330
22
100
AcDbEntity
  8
0
  6
Continuous
 62
     7
100
AcDbCircle
 10
0.0000001963482035
 20
0.0
 30
0.0
 40
2.0
  0
ARC
  5
1C8
330
22
100
AcDbEntity
  8
0
  6
Continuous
 62
     7
100
AcDbCircle
 10
16.0000001963482
 20
0.0
 30
0.0
 40
1.5
100
AcDbArc
 50
90.00000250447817
 51
270.0000006832453
  0
ARC
  5
1C9
330
22
100
AcDbEntity
  8
0
  6
Continuous
 62
     7
100
AcDbCircle
 10
19.0000001963482
 20
0.0
 30
0.0
 40
1.5
100
AcDbArc
 50
269.9999974955218
 51
90.00000250447817
  0
CIRCLE
  5
1CA
330
22
100
AcDbEntity
  8
0
  6
Continuous
 62
     7
100
AcDbCircle
 10
-17.49999217425726
 20
0.0
 30
0.0
 40
1.5
  0
CIRCLE
  5
1CB
330
22
100
AcDbEntity
  8
0
  6
Continuous
 62
     2
100
AcDbCircle
 10
-24.99999217425727
 20
0.0
 30
0.0
 40
2.5
  0
CIRCLE
  5
1CC
330
22
100
AcDbEntity
  8
0
  6
Continuous
 62
     2
100
AcDbCircle
 10
25.0000001963482
 20
0.0
 30
0.0
 40
2.5
  0
ARC
  5
1CD
330
22
100
AcDbEntity
  8
0
  6
Continuous
 62
     7
100
AcDbCircle
 10
-44.4999998036518
 20
-8.500007629394534
 30
0.0
 40
1.5
100
AcDbArc
 50
89.99997199599798
 51
180.0000223118003
  0
ARC
  5
1CE
330
22
100
AcDbEntity
  8
0
  6
Continuous
 62
     7
100
AcDbCircle
 10
-44.4999998036518
 20
-12.50000762939454
 30
0.0
 40
1.5
100
AcDbArc
 50
180.0000359721787
 51
270.0000179860893
  0
LINE
  5
1CF
330
22
100
AcDbEntity
  8
0
  6
Continuous
 62
     7
100
AcDbLine
 10
16.0000001963482
 20
1.5
 30
0.0
 11
19.0000001963482
 21
1.5
 31
0.0
  0
LINE
  5
1D0
330
22
100
AcDbEntity
  8
0
  6
Continuous
 62
     7
100
AcDbLine
 10
16.0000001963482
 20
-1.500000000000003
 30
0.0
 11
19.0000001963482
 21
-1.500000000000003
 31
0.0
  0
LINE
  5
1D1
330
22
100
AcDbEntity
  8
0
  6
Continuous
 62
     2
100
AcDbLine
 10
16.0000001963482
 20
-3.500000000000003
 30
0.0
 11
16.0000001963482
 21
3.5
 31
0.0
  0
LINE
  5
1D2
330
22
100
AcDbEntity
  8
0
  6
Continuous
 62
     2
100
AcDbLine
 10
19.0000001963482
 20
-3.500000000000003
 30
0.0
 11
19.0000001963482
 21
3.5
 31
0.0
  0
LINE
  5
1D3
330
22
100
AcDbEntity
  8
0
  6
Continuous
 62
     7
100
AcDbLine
 10
-44.4999998036518
 20
-14.00000762939454
 30
0.0
 11
-42.9999998036518
 21
-14.00000762939454
 31
0.0
  0
LINE
  5
1D4
330
22
100
AcDbEntity
  8
0
  6
Continuous
 62
     7
100
AcDbLine
 10
-44.4999998036518
 20
-7.000007629394534
 30
0.0
 11
-42.9999998036518
 21
-7.000007629394534
 31
0.0
  0
LINE
  5
1D5
330
22
100
AcDbEntity
  8
0
  6
Continuous
 62
     7
100
AcDbLine
 10
-45.9999998036518
 20
-8.500007629394534
 30
0.0
 11
-45.9999998036518
 21
-10.09999083851085
 31
0.0
  0
LINE
  5
1D6
330
22
100
AcDbEntity
  8
0
  6
Continuous
 62
     2
100
AcDbLine
 10
-17.49999217425726
 20
-3.500000000000003
 30
0.0
 11
-17.49999217425726
 21
3.5
 31
0.0
  0
LINE
  5
1D7
330
22
100
AcDbEntity
  8
0
  6
Continuous
 62
     7
100
AcDbLine
 10
42.49999791383742
 20
24.0
 30
0.0
 11
43.00000017881393
 21
23.49999779462814
 31
0.0
  0
LINE
  5
1D8
330
22
100
AcDbEntity
  8
0
  6
Continuous
 62
     7
100
AcDbLine
 10
-42.49999779462815
 20
24.0
 30
0.0
 11
42.49999791383742
 21
24.0
 31
0.0
  0
LINE
  5
1D9
330
22
100
AcDbEntity
  8
0
  6
Continuous
 62
     7
100
AcDbLine
 10
-42.99999982118606
 20
-23.50000041723252
 30
0.0
 11
-42.50000019627177
 21
-24.0
 31
0.0
  0
LINE
  5
1DA
330
22
100
AcDbEntity
  8
0
  6
Continuous
 62
     7
100
AcDbLine
 10
42.50000703334808
 20
-24.00000005960464
 30
0.0
 11
43.00000017881393
 21
-23.5000069141388
 31
0.0
  0
LINE
  5
1DB
330
22
100
AcDbEntity
  8
0
  6
Continuous
 62
     7
100
AcDbLine
 10
-42.50000017881394
 20
-24.0
 30
0.0
 11
42.50000709295273
 21
-24.0
 31
0.0
  0
LINE
  5
1DC
330
22
100
AcDbEntity
  8
0
  6
Continuous
 62
     7
100
AcDbLine
 10
-42.99999988079071
 20
23.49999803304672
 30
0.0
 11
-42.49999779462815
 21
24.00000005960464
 31
0.0
  0
LINE
  5
1DD
330
22
100
AcDbEntity
  8
0
  6
CENTER
 62
     2
100
AcDbLine
 10
-47.49999986684507
 20
0.0
 30
0.0
 11
47.50000013315492
 21
0.0
 31
0.0
  0
LINE
  5
1DE
330
22
100
AcDbEntity
  8
0
  6
Continuous
 62
     7
100
AcDbLine
 10
43.00000019634819
 20
-23.5000069141388
 30
0.0
 11
43.00000019634819
 21
23.49999782544393
 31
0.0
  0
LINE
  5
1DF
330
22
100
AcDbEntity
  8
0
  6
Continuous
 62
     7
100
AcDbLine
 10
-42.9999998036518
 20
-23.50000041723252
 30
0.0
 11
-42.9999998036518
 21
23.49999809265137
 31
0.0
  0
LINE
  5
1E0
330
22
100
AcDbEntity
  8
0
  6
Continuous
 62
     2
100
AcDbLine
 10
17.5000001963482
 20
-4.000000000000004
 30
0.0
 11
17.5000001963482
 21
4.0
 31
0.0
  0
LINE
  5
1E1
330
22
100
AcDbEntity
  8
0
  6
Continuous
 62
     7
100
AcDbLine
 10
44.00000019634819
 20
-11.99999998521889
 30
0.0
 11
44.00000019634819
 21
12.00000001478111
 31
0.0
  0
LINE
  5
1E2
330
22
100
AcDbEntity
  8
0
  6
Continuous
 62
     7
100
AcDbLine
 10
-43.99999217425727
 20
5.500000000000004
 30
0.0
 11
-43.99999217425727
 21
-7.000007644175642
 31
0.0
  0
LINE
  5
1E3
330
22
100
AcDbEntity
  8
0
  6
Continuous
 62
     7
100
AcDbLine
 10
43.00000019634819
 20
12.0
 30
0.0
 11
44.00000019634819
 21
12.0
 31
0.0
  0
LINE
  5
1E4
330
22
100
AcDbEntity
  8
0
  6
Continuous
 62
     7
100
AcDbLine
 10
43.00000019634819
 20
-12.0
 30
0.0
 11
44.00000019634819
 21
-12.0
 31
0.0
  0
LINE
  5
1E5
330
22
100
AcDbEntity
  8
0
  6
Continuous
 62
     2
100
AcDbLine
 10
-47.49999986684507
 20
-10.5
 30
0.0
 11
-40.99999986325643
 21
-10.5
 31
0.0
  0
CIRCLE
  5
1E6
330
22
100
AcDbEntity
  8
0
  6
Continuous
 62
     7
100
AcDbCircle
 10
25.0000001963482
 20
0.0
 30
0.0
 40
2.067
  0
CIRCLE
  5
1E7
330
22
100
AcDbEntity
  8
0
  6
Continuous
 62
     7
100
AcDbCircle
 10
-24.99999217425727
 20
0.0
 30
0.0
 40
2.067
  0
LINE
  5
1E8
330
22
100
AcDbEntity
  8
0
  6
Continuous
 62
     2
100
AcDbLine
 10
-29.99999988133559
 20
22.49999999378428
 30
0.0
 11
-29.99999988133559
 21
25.49999999378428
 31
0.0
  0
LINE
  5
1E9
330
22
100
AcDbEntity
  8
0
  6
Continuous
 62
     2
100
AcDbLine
 10
30.00000011866442
 20
22.49999999378428
 30
0.0
 11
30.00000011866442
 21
25.49999999378428
 31
0.0
  0
LINE
  5
1EA
330
22
100
AcDbEntity
  8
0
  6
Continuous
 62
     2
100
AcDbLine
 10
41.00000011848422
 20
10.49999999378428
 30
0.0
 11
46.00000011848422
 21
10.49999999378428
 31
0.0
  0
LINE
  5
1EB
330
22
100
AcDbEntity
  8
0
  6
Continuous
 62
     2
100
AcDbLine
 10
41.00000011848422
 20
-10.50000000621571
 30
0.0
 11
46.00000011848422
 21
-10.50000000621571
 31
0.0
  0
LINE
  5
1EC
330
22
100
AcDbEntity
  8
0
  6
Continuous
 62
     2
100
AcDbLine
 10
25.0000001963482
 20
-4.000000000000004
 30
0.0
 11
25.0000001963482
 21
4.0
 31
0.0
  0
LINE
  5
1ED
330
22
100
AcDbEntity
  8
0
  6
Continuous
 62
     2
100
AcDbLine
 10
-24.99999217425727
 20
-4.000000000000004
 30
0.0
 11
-24.99999217425727
 21
4.0
 31
0.0
  0
LINE
  5
1EE
330
22
100
AcDbEntity
  8
0
  6
Continuous
 62
     7
100
AcDbLine
 10
-48.5999982777729
 20
13.40000152587891
 30
0.0
 11
-44.5999982777729
 21
13.40000152587891
 31
0.0
  0
LINE
  5
1EF
330
22
100
AcDbEntity
  8
0
  6
Continuous
 62
     7
100
AcDbLine
 10
-48.5999982777729
 20
7.599998474121097
 30
0.0
 11
-44.5999982777729
 21
7.599998474121097
 31
0.0
  0
LINE
  5
1F0
330
22
100
AcDbEntity
  8
0
  6
Continuous
 62
     2
100
AcDbLine
 10
-59.59999980365179
 20
10.5
 30
0.0
 11
-39.9999998036518
 21
10.5
 31
0.0
  0
LINE
  5
1F1
330
22
100
AcDbEntity
  8
0
  6
Continuous
 62
     7
100
AcDbLine
 10
-48.5999982777729
 20
4.700000762939456
 30
0.0
 11
-44.5999982777729
 21
4.700000762939456
 31
0.0
  0
LINE
  5
1F2
330
22
100
AcDbEntity
  8
0
  6
Continuous
 62
     7
100
AcDbLine
 10
-48.5999982777729
 20
16.30000305175781
 30
0.0
 11
-44.5999982777729
 21
16.30000305175781
 31
0.0
  0
LINE
  5
1F3
330
22
100
AcDbEntity
  8
0
  6
Continuous
 62
     7
100
AcDbLine
 10
-57.59999980365179
 20
8.000000000000003
 30
0.0
 11
-57.59999980365179
 21
13.0
 31
0.0
  0
LINE
  5
1F4
330
22
100
AcDbEntity
  8
0
  6
Continuous
 62
     7
100
AcDbLine
 10
-49.0999982777729
 20
6.149997711181644
 30
0.0
 11
-49.0999982777729
 21
14.84999847412109
 31
0.0
  0
LINE
  5
1F5
330
22
100
AcDbEntity
  8
0
  6
Continuous
 62
     7
100
AcDbLine
 10
-57.09999980365179
 20
7.500000000000003
 30
0.0
 11
-49.0999982777729
 21
7.500000000000003
 31
0.0
  0
LINE
  5
1F6
330
22
100
AcDbEntity
  8
0
  6
Continuous
 62
     7
100
AcDbLine
 10
-57.09999980365179
 20
13.5
 30
0.0
 11
-49.0999982777729
 21
13.5
 31
0.0
  0
LINE
  5
1F7
330
22
100
AcDbEntity
  8
0
  6
Continuous
 62
     2
100
AcDbLine
 10
-57.59999980365179
 20
8.041500000000002
 30
0.0
 11
-49.0999982777729
 21
8.041500000000002
 31
0.0
  0
LINE
  5
1F8
330
22
100
AcDbEntity
  8
0
  6
Continuous
 62
     2
100
AcDbLine
 10
-57.59999980365179
 20
12.9585
 30
0.0
 11
-49.0999982777729
 21
12.9585
 31
0.0
  0
LINE
  5
1F9
330
22
100
AcDbEntity
  8
0
  6
Continuous
 62
     7
100
AcDbLine
 10
-57.09999980365179
 20
7.500000000000003
 30
0.0
 11
-57.09999980365179
 21
13.5
 31
0.0
  0
LINE
  5
1FA
330
22
100
AcDbEntity
  8
0
  6
Continuous
 62
     7
100
AcDbLine
 10
-57.59999648044842
 20
8.000012376544649
 30
0.0
 11
-57.09999594965367
 21
7.500011845749899
 31
0.0
  0
LINE
  5
1FB
330
22
100
AcDbEntity
  8
0
  6
Continuous
 62
     7
100
AcDbLine
 10
-57.5999910856519
 20
12.99999071050957
 30
0.0
 11
-57.09999055485715
 21
13.49999124130432
 31
0.0
  0
ARC
  5
1FC
330
22
100
AcDbEntity
  8
0
  6
Continuous
 62
     7
100
AcDbCircle
 10
-46.74749736224554
 20
6.150001525878909
 30
0.0
 40
2.352500915527344
100
AcDbArc
 50
141.9488472003625
 51
218.0511837628598
  0
ARC
  5
1FD
330
22
100
AcDbEntity
  8
0
  6
Continuous
 62
     7
100
AcDbCircle
 10
-40.44000224505804
 20
10.5
 30
0.0
 40
8.659997940063474
100
AcDbArc
 50
160.4352186418656
 51
199.5647986609784
  0
ARC
  5
1FE
330
22
100
AcDbEntity
  8
0
  6
Continuous
 62
     7
100
AcDbCircle
 10
-46.74749736224554
 20
14.84999847412109
 30
0.0
 40
2.352500915527344
100
AcDbArc
 50
141.9488881814976
 51
218.0512247439948
  0
ARC
  5
1FF
330
22
100
AcDbEntity
  8
0
  6
Continuous
 62
     7
100
AcDbCircle
 10
-46.45249919330024
 20
6.150001525878909
 30
0.0
 40
2.352500915527344
100
AcDbArc
 50
321.9488522093189
 51
38.05118877181614
  0
LINE
  5
200
330
22
100
AcDbEntity
  8
0
  6
Continuous
 62
     7
100
AcDbLine
 10
-44.0999982777729
 20
15.5
 30
0.0
 11
-42.9999998036518
 21
15.5
 31
0.0
  0
LINE
  5
201
330
22
100
AcDbEntity
  8
0
  6
Continuous
 62
     7
100
AcDbLine
 10
-44.0999982777729
 20
5.500000000000004
 30
0.0
 11
-44.0999982777729
 21
15.5
 31
0.0
  0
ARC
  5
202
330
22
100
AcDbEntity
  8
0
  6
Continuous
 62
     7
100
AcDbCircle
 10
-52.76000193988226
 20
10.5
 30
0.0
 40
8.659997940063474
100
AcDbArc
 50
340.4352373112003
 51
19.56481733031307
  0
ARC
  5
203
330
22
100
AcDbEntity
  8
0
  6
Continuous
 62
     7
100
AcDbCircle
 10
-46.45249919330024
 20
14.84999847412109
 30
0.0
 40
2.352500915527344
100
AcDbArc
 50
321.9488658696972
 51
38.05120243219448
  0
LINE
  5
204
330
22
100
AcDbEntity
  8
0
  6
Continuous
 62
     7
100
AcDbLine
 10
-44.0999982777729
 20
5.500000000000004
 30
0.0
 11
-42.9999998036518
 21
5.500000000000004
 31
0.0
  0
LINE
  5
205
330
22
100
AcDbEntity
  8
0
  6
Continuous
 62
     7
100
AcDbLine
 10
-45.9999998036518
 20
-10.09999083851085
 30
0.0
 11
-44.60000590716743
 21
-10.09999083851085
 31
0.0
  0
LINE
  5
206
330
22
100
AcDbEntity
  8
0
  6
Continuous
 62
     7
100
AcDbLine
 10
-45.9999998036518
 20
-10.89999389026866
 30
0.0
 11
-44.60000590716743
 21
-10.89999389026866
 31
0.0
  0
LINE
  5
207
330
22
100
AcDbEntity
  8
0
  6
Continuous
 62
     7
100
AcDbLine
 10
-44.60000590716743
 20
-10.09999083851085
 30
0.0
 11
-44.60000590716743
 21
-10.89999389026866
 31
0.0
  0
LINE
  5
208
330
22
100
AcDbEntity
  8
0
  6
Continuous
 62
     7
100
AcDbLine
 10
-45.9999998036518
 20
-10.89999389026866
 30
0.0
 11
-45.9999998036518
 21
-12.50000762939454
 31
0.0
  0
LINE
  5
209
330
22
100
AcDbEntity
  8
0
  6
Continuous
 62
     2
100
AcDbLine
 10
-29.99999988133559
 20
-22.49999999378429
 30
0.0
 11
-29.99999988133559
 21
-25.49999999378429
 31
0.0
  0
LINE
  5
20A
330
22
100
AcDbEntity
  8
0
  6
Continuous
 62
     2
100
AcDbLine
 10
30.00000011866442
 20
-22.49999999378429
 30
0.0
 11
30.00000011866442
 21
-25.49999999378429
 31
0.0
  0
LINE
  5
20B
330
22
100
AcDbEntity
  8
0
  6
CENTER
 62
     2
100
AcDbLine
 10
0.0000000000000018
 20
-29.99999980102467
 30
0.0
 11
0.0000000000000018
 21
30.00000019897532
 31
0.0
  0
ENDBLK
  5
20C
330
22
100
AcDbEntity
  8
0
100
AcDbBlockEnd
  0
BLOCK
  5
20D
330
23
100
AcDbEntity
  8
0
100
AcDbBlockBegin
  2
AFDPG-14-JB-6
 70
     0
 10
0.0
 20
0.0
 30
0.0
  3
AFDPG-14-JB-6
  1

  0
LINE
  5
20E
330
23
100
AcDbEntity
  8
0
  6
Continuous
 62
   200
100
AcDbLine
 10
17.75230947359055
 20
-1.199999522346459
 30
0.0
 11
19.25346420800164
 21
-3.799999522346467
 31
0.0
  0
LINE
  5
20F
330
23
100
AcDbEntity
  8
0
  6
Continuous
 62
   200
100
AcDbLine
 10
0.95000000476837
 20
0.6001359972752312
 30
0.0
 11
0.95000000476837
 21
0.0
 31
0.0
  0
LINE
  5
210
330
23
100
AcDbEntity
  8
0
  6
Continuous
 62
   200
100
AcDbLine
 10
3.050000004768392
 20
0.6001359972752312
 30
0.0
 11
3.050000004768392
 21
0.0
 31
0.0
  0
LINE
  5
211
330
23
100
AcDbEntity
  8
0
  6
Continuous
 62
     4
100
AcDbLine
 10
0.7514285761969433
 20
0.4001359972752141
 30
0.0
 11
3.251428576196943
 21
0.4001359972752141
 31
0.0
  0
LINE
  5
212
330
23
100
AcDbEntity
  8
0
  6
Continuous
 62
     4
100
AcDbLine
 10
3.051428576196954
 20
0.6001359972752312
 30
0.0
 11
3.251428576196943
 21
0.4001359972752141
 31
0.0
  0
LINE
  5
213
330
23
100
AcDbEntity
  8
0
  6
Continuous
 62
     4
100
AcDbLine
 10
0.7514285761969433
 20
0.4001359972752141
 30
0.0
 11
0.9514285761969459
 21
0.6001359972752312
 31
0.0
  0
LINE
  5
214
330
23
100
AcDbEntity
  8
0
  6
Continuous
 62
     4
100
AcDbLine
 10
3.251428576196943
 20
0.4001359972752141
 30
0.0
 11
3.251428576196943
 21
0.0
 31
0.0
  0
LINE
  5
215
330
23
100
AcDbEntity
  8
0
  6
Continuous
 62
     4
100
AcDbLine
 10
0.7514285761969433
 20
0.0
 30
0.0
 11
0.7514285761969433
 21
0.4001359972752141
 31
0.0
  0
LINE
  5
216
330
23
100
AcDbEntity
  8
0
  6
Continuous
 62
   200
100
AcDbLine
 10
0.95000000476837
 20
-2.599864002724785
 30
0.0
 11
0.95000000476837
 21
-4.098435431296209
 31
0.0
  0
LINE
  5
217
330
23
100
AcDbEntity
  8
0
  6
Continuous
 62
   200
100
AcDbLine
 10
3.050000004768392
 20
-2.599864002724785
 30
0.0
 11
3.050000004768392
 21
-4.101292574153347
 31
0.0
  0
LINE
  5
218
330
23
100
AcDbEntity
  8
0
  6
Continuous
 62
     4
100
AcDbLine
 10
0.9514285761969459
 20
0.6001359972752312
 30
0.0
 11
3.051428576196954
 21
0.6001359972752312
 31
0.0
  0
LINE
  5
219
330
23
100
AcDbEntity
  8
0
  6
Continuous
 62
     4
100
AcDbLine
 10
0.000000004768367
 20
-1.799864002724774
 30
0.0
 11
0.000000004768367
 21
0.0
 31
0.0
  0
LINE
  5
21A
330
23
100
AcDbEntity
  8
0
  6
Continuous
 62
   200
100
AcDbLine
 10
2.000000004768367
 20
1.286482308440184
 30
0.0
 11
2.000000004768367
 21
-5.067036249354088
 31
0.0
  0
LINE
  5
21B
330
23
100
AcDbEntity
  8
0
  6
Continuous
 62
     4
100
AcDbLine
 10
4.00000000476838
 20
-1.800000002724772
 30
0.0
 11
4.00000000476838
 21
-2.600000002724784
 31
0.0
  0
LINE
  5
21C
330
23
100
AcDbEntity
  8
0
  6
Continuous
 62
     4
100
AcDbLine
 10
0.000000004768367
 20
-1.799864002724774
 30
0.0
 11
0.000000004768367
 21
-2.600000002724784
 31
0.0
  0
LINE
  5
21D
330
23
100
AcDbEntity
  8
0
  6
Continuous
 62
     4
100
AcDbLine
 10
0.7514285761969433
 20
-2.599864002724785
 30
0.0
 11
0.7514285761969291
 21
-3.899864002724783
 31
0.0
  0
LINE
  5
21E
330
23
100
AcDbEntity
  8
0
  6
Continuous
 62
   200
100
AcDbLine
 10
0.7514285761969291
 20
-3.899864002724783
 30
0.0
 11
3.251428576196928
 21
-3.899864002724783
 31
0.0
  0
LINE
  5
21F
330
23
100
AcDbEntity
  8
0
  6
Continuous
 62
     4
100
AcDbLine
 10
1.251428576196943
 20
-4.399864002724783
 30
0.0
 11
0.7514285761969291
 21
-3.899864002724783
 31
0.0
  0
LINE
  5
220
330
23
100
AcDbEntity
  8
0
  6
Continuous
 62
     4
100
AcDbLine
 10
1.251428576196943
 20
-4.399864002724783
 30
0.0
 11
2.751428576196943
 21
-4.399864002724783
 31
0.0
  0
LINE
  5
221
330
23
100
AcDbEntity
  8
0
  6
Continuous
 62
     4
100
AcDbLine
 10
3.251428576196928
 20
-3.899864002724783
 30
0.0
 11
2.751428576196943
 21
-4.399864002724783
 31
0.0
  0
LINE
  5
222
330
23
100
AcDbEntity
  8
0
  6
Continuous
 62
     4
100
AcDbLine
 10
3.251428576196943
 20
-2.599864002724785
 30
0.0
 11
3.251428576196928
 21
-3.899864002724783
 31
0.0
  0
LINE
  5
223
330
23
100
AcDbEntity
  8
0
  6
Continuous
 62
     4
100
AcDbLine
 10
4.300000004768392
 20
-1.800000002724772
 30
0.0
 11
4.300000004768392
 21
-4.59999952234645
 31
0.0
  0
LINE
  5
224
330
23
100
AcDbEntity
  8
0
  6
Continuous
 62
     4
100
AcDbLine
 10
15.50000000476838
 20
-4.59999952234645
 30
0.0
 11
15.50000000476838
 21
0.0
 31
0.0
  0
LINE
  5
225
330
23
100
AcDbEntity
  8
0
  6
Continuous
 62
     4
100
AcDbLine
 10
4.300000003405969
 20
-4.59999952234645
 30
0.0
 11
15.50000000000001
 21
-4.59999952234645
 31
0.0
  0
LINE
  5
226
330
23
100
AcDbEntity
  8
0
  6
Continuous
 62
     4
100
AcDbLine
 10
0.0
 20
-1.800000002724772
 30
0.0
 11
4.300000003405969
 21
-1.800000002724772
 31
0.0
  0
LINE
  5
227
330
23
100
AcDbEntity
  8
0
  6
Continuous
 62
     4
100
AcDbLine
 10
0.0
 20
-2.600000002724784
 30
0.0
 11
4.000000000000014
 21
-2.600000002724784
 31
0.0
  0
LINE
  5
228
330
23
100
AcDbEntity
  8
0
  6
Continuous
 62
     4
100
AcDbLine
 10
0.0
 20
-1.100000002724783
 30
0.0
 11
15.50000000476838
 21
-1.100000002724783
 31
0.0
  0
LINE
  5
229
330
23
100
AcDbEntity
  8
0
  6
Continuous
 62
     4
100
AcDbLine
 10
0.0
 20
-0.5499999965940106
 30
0.0
 11
15.50000000476838
 21
-0.5499999965940106
 31
0.0
  0
LINE
  5
22A
330
23
100
AcDbEntity
  8
0
  6
Continuous
 62
     4
100
AcDbLine
 10
0.0
 20
0.0
 30
0.0
 11
15.50000000476838
 21
0.0
 31
0.0
  0
LINE
  5
22B
330
23
100
AcDbEntity
  8
0
  6
Continuous
 62
     4
100
AcDbLine
 10
15.50000000476838
 20
-1.199999522346445
 30
0.0
 11
17.75230947359052
 21
-1.199999522346459
 31
0.0
  0
LINE
  5
22C
330
23
100
AcDbEntity
  8
0
  6
Continuous
 62
     4
100
AcDbLine
 10
15.50000000476837
 20
-3.799999522346453
 30
0.0
 11
19.25346420800163
 21
-3.799999522346467
 31
0.0
  0
ENDBLK
  5
22D
330
23
100
AcDbEntity
  8
0
100
AcDbBlockEnd
  0
BLOCK
  5
22E
330
24
100
AcDbEntity
  8
0
100
AcDbBlockBegin
  2
AFDPG-14-JB-7
 70
     0
 10
0.0
 20
0.0
 30
0.0
  3
AFDPG-14-JB-7
  1

  0
LINE
  5
22F
330
24
100
AcDbEntity
  8
0
  6
Continuous
 62
   200
100
AcDbLine
 10
1.050000000000011
 20
-0.0000000019073525
 30
0.0
 11
1.050000001090182
 21
0.600135998092668
 31
0.0
  0
LINE
  5
230
330
24
100
AcDbEntity
  8
0
  6
Continuous
 62
   200
100
AcDbLine
 10
-1.049999999999982
 20
0.0000000019073525
 30
0.0
 11
-1.04999999890984
 21
0.6001360019073445
 31
0.0
  0
LINE
  5
231
330
24
100
AcDbEntity
  8
0
  6
Continuous
 62
   200
100
AcDbLine
 10
1.049999992557758
 20
-4.097006859050196
 30
0.0
 11
1.04999999527709
 21
-2.600000001907361
 31
0.0
  0
LINE
  5
232
330
24
100
AcDbEntity
  8
0
  6
Continuous
 62
   200
100
AcDbLine
 10
-1.050000007442264
 20
-4.09700685523552
 30
0.0
 11
-1.050000004722932
 21
-2.59999999809267
 31
0.0
  0
LINE
  5
233
330
24
100
AcDbEntity
  8
0
  6
Continuous
 62
     4
100
AcDbLine
 10
-1.249999999273143
 20
0.4001360022706423
 30
0.0
 11
-1.04999999890984
 21
0.6001360019073445
 31
0.0
  0
LINE
  5
234
330
24
100
AcDbEntity
  8
0
  6
Continuous
 62
     4
100
AcDbLine
 10
-1.25
 20
0.0000000022706388
 30
0.0
 11
-1.249999999273143
 21
0.4001360022706423
 31
0.0
  0
LINE
  5
235
330
24
100
AcDbEntity
  8
0
  6
Continuous
 62
     4
100
AcDbLine
 10
-2.050000001998171
 20
-1.099999996276153
 30
0.0
 11
-2.050000004629282
 21
-2.548435424847582
 31
0.0
  0
LINE
  5
236
330
24
100
AcDbEntity
  8
0
  6
Continuous
 62
     4
100
AcDbLine
 10
-2.050000001998171
 20
-1.099999996276153
 30
0.0
 11
-1.501428572425055
 21
-0.5485714258440737
 31
0.0
  0
LINE
  5
237
330
24
100
AcDbEntity
  8
0
  6
Continuous
 62
     4
100
AcDbLine
 10
-1.250000004722949
 20
-2.599999997729369
 30
0.0
 11
-1.250000007078966
 21
-3.897006854872216
 31
0.0
  0
LINE
  5
238
330
24
100
AcDbEntity
  8
0
  6
Continuous
 62
     4
100
AcDbLine
 10
-0.7471428651352597
 20
-4.3998639986428
 30
0.0
 11
-1.250000007078966
 21
-3.897006854872216
 31
0.0
  0
LINE
  5
239
330
24
100
AcDbEntity
  8
0
  6
Continuous
 62
     4
100
AcDbLine
 10
-0.7471428651352597
 20
-4.3998639986428
 30
0.0
 11
0.7471428491504355
 21
-4.399864001357201
 31
0.0
  0
LINE
  5
23A
330
24
100
AcDbEntity
  8
0
  6
Continuous
 62
   200
100
AcDbLine
 10
-0.0000000092043422
 20
-5.067036246629313
 30
0.0
 11
0.0000000023369182
 21
1.286482311164959
 31
0.0
  0
LINE
  5
23B
330
24
100
AcDbEntity
  8
0
  6
Continuous
 62
     4
100
AcDbLine
 10
-1.500000000993878
 20
-0.5471354139419163
 30
0.0
 11
-1.5
 21
0.0000000054495501
 31
0.0
  0
LINE
  5
23C
330
24
100
AcDbEntity
  8
0
  6
Continuous
 62
     4
100
AcDbLine
 10
1.050000001090182
 20
0.600135998092668
 30
0.0
 11
1.250000000726828
 21
0.4001359977293504
 31
0.0
  0
LINE
  5
23D
330
24
100
AcDbEntity
  8
0
  6
Continuous
 62
     4
100
AcDbLine
 10
1.250000000726828
 20
0.4001359977293504
 30
0.0
 11
1.25
 21
-0.0000000022706388
 31
0.0
  0
LINE
  5
23E
330
24
100
AcDbEntity
  8
0
  6
Continuous
 62
     4
100
AcDbLine
 10
2.049999998001851
 20
-1.100000003723863
 30
0.0
 11
2.049999995370768
 21
-2.548435432295292
 31
0.0
  0
LINE
  5
23F
330
24
100
AcDbEntity
  8
0
  6
Continuous
 62
     4
100
AcDbLine
 10
1.249999995277335
 20
-2.599864002270649
 30
0.0
 11
1.249999992921033
 21
-3.897006859413508
 31
0.0
  0
LINE
  5
240
330
24
100
AcDbEntity
  8
0
  6
Continuous
 62
     4
100
AcDbLine
 10
1.499999999000891
 20
-0.5500000027247723
 30
0.0
 11
1.5
 21
0.0
 31
0.0
  0
LINE
  5
241
330
24
100
AcDbEntity
  8
0
  6
Continuous
 62
     4
100
AcDbLine
 10
1.499999992870186
 20
-0.5499999965940106
 30
0.0
 11
2.049999998001851
 21
-1.100000003723863
 31
0.0
  0
LINE
  5
242
330
24
100
AcDbEntity
  8
0
  6
Continuous
 62
     4
100
AcDbLine
 10
-2.05000000472296
 20
-2.599999996276153
 30
0.0
 11
2.04939071860312
 21
-2.600000003722755
 31
0.0
  0
LINE
  5
243
330
24
100
AcDbEntity
  8
0
  6
Continuous
 62
     4
100
AcDbLine
 10
-2.05000000326973
 20
-1.799999996276142
 30
0.0
 11
2.049999996730292
 21
-1.800000003723852
 31
0.0
  0
ARC
  5
244
330
24
100
AcDbEntity
  8
0
  6
Continuous
 62
     4
100
AcDbCircle
 10
-0.0000000046321134
 20
-2.549998923398334
 30
0.0
 40
2.050000596223346
100
AcDbArc
 50
179.9563015362349
 51
359.9999998959213
  0
LINE
  5
245
330
24
100
AcDbEntity
  8
0
  6
Continuous
 62
     4
100
AcDbLine
 10
1.249999992921033
 20
-3.897006859413508
 30
0.0
 11
0.7471428491504355
 21
-4.399864001357201
 31
0.0
  0
LINE
  5
246
330
24
100
AcDbEntity
  8
0
  6
Continuous
 62
     4
100
AcDbLine
 10
-1.250000007078966
 20
-3.897006854872216
 30
0.0
 11
1.249999992921033
 21
-3.897006859413508
 31
0.0
  0
LINE
  5
247
330
24
100
AcDbEntity
  8
0
  6
Continuous
 62
     4
100
AcDbLine
 10
-1.501428571428561
 20
0.0000000027273614
 30
0.0
 11
1.5
 21
-0.0000000027247751
 31
0.0
  0
LINE
  5
248
330
24
100
AcDbEntity
  8
0
  6
Continuous
 62
     4
100
AcDbLine
 10
-1.249999999273143
 20
0.4001360022706423
 30
0.0
 11
1.250000000726828
 21
0.4001359977293504
 31
0.0
  0
LINE
  5
249
330
24
100
AcDbEntity
  8
0
  6
Continuous
 62
     4
100
AcDbLine
 10
-1.04999999890984
 20
0.6001360019073445
 30
0.0
 11
1.050000001090182
 21
0.600135998092668
 31
0.0
  0
ENDBLK
  5
24A
330
24
100
AcDbEntity
  8
0
100
AcDbBlockEnd
  0
BLOCK
  5
24B
330
25
100
AcDbEntity
  8
0
100
AcDbBlockBegin
  2
AFDPG-14-JB-8
 70
     0
 10
0.0
 20
0.0
 30
0.0
  3
AFDPG-14-JB-8
  1

  0
LINE
  5
24C
330
25
100
AcDbEntity
  8
0
  6
CENTER
 62
   200
100
AcDbLine
 10
-1.410401753016884
 20
0.0
 30
0.0
 11
21.50288684079608
 21
0.0
 31
0.0
  0
LINE
  5
24D
330
25
100
AcDbEntity
  8
0
  6
Continuous
 62
   200
100
AcDbLine
 10
17.75230947359055
 20
1.300000000000011
 30
0.0
 11
19.25346420800164
 21
-1.299999999999997
 31
0.0
  0
LINE
  5
24E
330
25
100
AcDbEntity
  8
0
  6
Continuous
 62
     4
100
AcDbLine
 10
15.50000000476838
 20
-1.299999999999997
 30
0.0
 11
19.25346420800163
 21
-1.299999999999997
 31
0.0
  0
LINE
  5
24F
330
25
100
AcDbEntity
  8
0
  6
Continuous
 62
     4
100
AcDbLine
 10
15.50000000476838
 20
1.300000000000011
 30
0.0
 11
17.75230947359052
 21
1.300000000000011
 31
0.0
  0
LINE
  5
250
330
25
100
AcDbEntity
  8
0
  6
Continuous
 62
   200
100
AcDbLine
 10
2.000000004768367
 20
2.94285714285715
 30
0.0
 11
2.000000004768367
 21
-3.299984673423466
 31
0.0
  0
LINE
  5
251
330
25
100
AcDbEntity
  8
0
  6
Continuous
 62
     4
100
AcDbLine
 10
3.900000004768359
 20
-1.5
 30
0.0
 11
3.900000004768359
 21
1.5
 31
0.0
  0
LINE
  5
252
330
25
100
AcDbEntity
  8
0
  6
Continuous
 62
     4
100
AcDbLine
 10
10.40000000476836
 20
-1.5
 30
0.0
 11
10.40000000476836
 21
1.5
 31
0.0
  0
LINE
  5
253
330
25
100
AcDbEntity
  8
0
  6
Continuous
 62
     4
100
AcDbLine
 10
8.000000004768381
 20
-0.5999999999999944
 30
0.0
 11
8.000000004768381
 21
0.9000000000000056
 31
0.0
  0
LINE
  5
254
330
25
100
AcDbEntity
  8
0
  6
Continuous
 62
     4
100
AcDbLine
 10
9.600000004768375
 20
-0.5999999999999944
 30
0.0
 11
9.600000004768375
 21
0.9000000000000056
 31
0.0
  0
LINE
  5
255
330
25
100
AcDbEntity
  8
0
  6
Continuous
 62
     4
100
AcDbLine
 10
0.0
 20
-2.049999999999996
 30
0.0
 11
0.0
 21
2.050000000000011
 31
0.0
  0
LINE
  5
256
330
25
100
AcDbEntity
  8
0
  6
Continuous
 62
     4
100
AcDbLine
 10
15.50000000476838
 20
-2.049999999999996
 30
0.0
 11
15.50000000476838
 21
2.050000000000011
 31
0.0
  0
LINE
  5
257
330
25
100
AcDbEntity
  8
0
  6
Continuous
 62
     4
100
AcDbLine
 10
0.0
 20
1.5
 30
0.0
 11
15.50000000476838
 21
1.5
 31
0.0
  0
LINE
  5
258
330
25
100
AcDbEntity
  8
0
  6
Continuous
 62
     4
100
AcDbLine
 10
0.0
 20
-1.5
 30
0.0
 11
15.50000000476838
 21
-1.5
 31
0.0
  0
CIRCLE
  5
259
330
25
100
AcDbEntity
  8
0
  6
Continuous
 62
     4
100
AcDbCircle
 10
2.000000004768367
 20
0.0
 30
0.0
 40
1.399999999999999
  0
CIRCLE
  5
25A
330
25
100
AcDbEntity
  8
0
  6
Continuous
 62
     4
100
AcDbCircle
 10
2.000000004768367
 20
0.0
 30
0.0
 40
1.25
  0
CIRCLE
  5
25B
330
25
100
AcDbEntity
  8
0
  6
Continuous
 62
   200
100
AcDbCircle
 10
2.000000004768367
 20
0.0
 30
0.0
 40
1.05
  0
LINE
  5
25C
330
25
100
AcDbEntity
  8
0
  6
Continuous
 62
     4
100
AcDbLine
 10
0.9571978986753322
 20
-0.6892486978790089
 30
0.0
 11
2.68924870264739
 21
1.042802106093034
 31
0.0
  0
LINE
  5
25D
330
25
100
AcDbEntity
  8
0
  6
Continuous
 62
     4
100
AcDbLine
 10
1.310751318931579
 20
-1.042802072252555
 30
0.0
 11
3.042802112443112
 21
0.6892487212589913
 31
0.0
  0
LINE
  5
25E
330
25
100
AcDbEntity
  8
0
  6
Continuous
 62
     4
100
AcDbLine
 10
8.000000004768381
 20
0.9000000000000056
 30
0.0
 11
9.600000004768375
 21
0.9000000000000056
 31
0.0
  0
LINE
  5
25F
330
25
100
AcDbEntity
  8
0
  6
Continuous
 62
     4
100
AcDbLine
 10
8.000000004768381
 20
-0.5999999999999944
 30
0.0
 11
9.600000004768375
 21
-0.5999999999999944
 31
0.0
  0
LINE
  5
260
330
25
100
AcDbEntity
  8
0
  6
Continuous
 62
     4
100
AcDbLine
 10
0.0
 20
2.050000000000011
 30
0.0
 11
15.50000000476838
 21
2.050000000000011
 31
0.0
  0
LINE
  5
261
330
25
100
AcDbEntity
  8
0
  6
Continuous
 62
     4
100
AcDbLine
 10
0.0
 20
-2.049999999999996
 30
0.0
 11
15.50000000476838
 21
-2.049999999999996
 31
0.0
  0
ENDBLK
  5
262
330
25
100
AcDbEntity
  8
0
100
AcDbBlockEnd
  0
BLOCK
  5
263
330
26
100
AcDbEntity
  8
0
100
AcDbBlockBegin
  2
AFDPG-14-JB-9
 70
     0
 10
0.0
 20
0.0
 30
0.0
  3
AFDPG-14-JB-9
  1

  0
LINE
  5
264
330
26
100
AcDbEntity
  8
0
  6
Continuous
 62
   200
100
AcDbLine
 10
11.20000000476835
 20
8.14451211272798
 30
0.0
 11
13.80000000476838
 21
9.64566684713908
 31
0.0
  0
LINE
  5
265
330
26
100
AcDbEntity
  8
0
  6
Continuous
 62
     4
100
AcDbLine
 10
10.40000001021792
 20
0.9479762348989313
 30
0.0
 11
12.05095566806369
 21
1.497976229666193
 31
0.0
  0
LINE
  5
266
330
26
100
AcDbEntity
  8
0
  6
Continuous
 62
     4
100
AcDbLine
 10
12.05095566806369
 20
1.497976229666193
 30
0.0
 11
12.05095566806369
 21
5.897976315961244
 31
0.0
  0
LINE
  5
267
330
26
100
AcDbEntity
  8
0
  6
Continuous
 62
     4
100
AcDbLine
 10
12.94904434147304
 20
4.897976311874074
 30
0.0
 11
12.94904434147304
 21
5.897976311874074
 31
0.0
  0
LINE
  5
268
330
26
100
AcDbEntity
  8
0
  6
Continuous
 62
     4
100
AcDbLine
 10
12.94904434147304
 20
4.897976315961244
 30
0.0
 11
15.00000000476837
 21
4.897976315961244
 31
0.0
  0
LINE
  5
269
330
26
100
AcDbEntity
  8
0
  6
Continuous
 62
     4
100
AcDbLine
 10
14.60000000476839
 20
4.897976315961244
 30
0.0
 11
14.60000000476839
 21
5.897976315961244
 31
0.0
  0
LINE
  5
26A
330
26
100
AcDbEntity
  8
0
  6
Continuous
 62
     4
100
AcDbLine
 10
10.40000000476837
 20
-0.0020236840387469
 30
0.0
 11
10.40000000476837
 21
5.897976315961244
 31
0.0
  0
LINE
  5
26B
330
26
100
AcDbEntity
  8
0
  6
Continuous
 62
     4
100
AcDbLine
 10
10.40000000476837
 20
5.897976315961244
 30
0.0
 11
14.60000000476839
 21
5.897976315961244
 31
0.0
  0
LINE
  5
26C
330
26
100
AcDbEntity
  8
0
  6
Continuous
 62
     4
100
AcDbLine
 10
15.00000000476837
 20
3.897976315961244
 30
0.0
 11
10.40000000476837
 21
3.897976315961244
 31
0.0
  0
LINE
  5
26D
330
26
100
AcDbEntity
  8
0
  6
Continuous
 62
   200
100
AcDbLine
 10
0.9500000047683554
 20
0.5979763159612475
 30
0.0
 11
0.9500000047683554
 21
-0.0020236840387469
 31
0.0
  0
LINE
  5
26E
330
26
100
AcDbEntity
  8
0
  6
Continuous
 62
   200
100
AcDbLine
 10
3.050000004768378
 20
0.5979763159612475
 30
0.0
 11
3.050000004768378
 21
-0.0020236840387469
 31
0.0
  0
LINE
  5
26F
330
26
100
AcDbEntity
  8
0
  6
Continuous
 62
     4
100
AcDbLine
 10
0.7514285761969291
 20
0.3979763159612446
 30
0.0
 11
3.251428576196928
 21
0.3979763159612446
 31
0.0
  0
LINE
  5
270
330
26
100
AcDbEntity
  8
0
  6
Continuous
 62
     4
100
AcDbLine
 10
3.05142857619694
 20
0.5979763159612475
 30
0.0
 11
3.251428576196928
 21
0.3979763159612446
 31
0.0
  0
LINE
  5
271
330
26
100
AcDbEntity
  8
0
  6
Continuous
 62
     4
100
AcDbLine
 10
0.7514285761969291
 20
0.3979763159612446
 30
0.0
 11
0.9514285761969459
 21
0.5979763159612475
 31
0.0
  0
LINE
  5
272
330
26
100
AcDbEntity
  8
0
  6
Continuous
 62
     4
100
AcDbLine
 10
3.251428576196928
 20
0.3979763159612446
 30
0.0
 11
3.251428576196928
 21
-0.0020236840387469
 31
0.0
  0
LINE
  5
273
330
26
100
AcDbEntity
  8
0
  6
Continuous
 62
     4
100
AcDbLine
 10
0.7514285761969291
 20
-0.0020236840387469
 30
0.0
 11
0.7514285761969291
 21
0.3979763159612446
 31
0.0
  0
LINE
  5
274
330
26
100
AcDbEntity
  8
0
  6
Continuous
 62
   200
100
AcDbLine
 10
0.9500000047683554
 20
-2.602023684038755
 30
0.0
 11
0.9500000047683554
 21
-4.100595112610179
 31
0.0
  0
LINE
  5
275
330
26
100
AcDbEntity
  8
0
  6
Continuous
 62
   200
100
AcDbLine
 10
3.050000004768378
 20
-2.602023684038755
 30
0.0
 11
3.050000004768378
 21
-4.103452255467316
 31
0.0
  0
LINE
  5
276
330
26
100
AcDbEntity
  8
0
  6
Continuous
 62
     4
100
AcDbLine
 10
0.9514285761969459
 20
0.5979763159612475
 30
0.0
 11
3.05142857619694
 21
0.5979763159612475
 31
0.0
  0
LINE
  5
277
330
26
100
AcDbEntity
  8
0
  6
Continuous
 62
     4
100
AcDbLine
 10
0.000000004768367
 20
-1.802023684038758
 30
0.0
 11
0.000000004768367
 21
0.0
 31
0.0
  0
LINE
  5
278
330
26
100
AcDbEntity
  8
0
  6
Continuous
 62
   200
100
AcDbLine
 10
2.000000004768367
 20
1.284322627126215
 30
0.0
 11
2.000000004768367
 21
-5.069195930668072
 31
0.0
  0
LINE
  5
279
330
26
100
AcDbEntity
  8
0
  6
Continuous
 62
     4
100
AcDbLine
 10
4.000000004768367
 20
-1.802023684038758
 30
0.0
 11
4.000000004768367
 21
-2.602023684038755
 31
0.0
  0
LINE
  5
27A
330
26
100
AcDbEntity
  8
0
  6
Continuous
 62
     4
100
AcDbLine
 10
0.000000004768367
 20
-1.802023684038758
 30
0.0
 11
0.000000004768367
 21
-2.602023684038755
 31
0.0
  0
LINE
  5
27B
330
26
100
AcDbEntity
  8
0
  6
Continuous
 62
     4
100
AcDbLine
 10
0.7514285761969291
 20
-2.602023684038755
 30
0.0
 11
0.7514285761969291
 21
-3.902023684038752
 31
0.0
  0
LINE
  5
27C
330
26
100
AcDbEntity
  8
0
  6
Continuous
 62
   200
100
AcDbLine
 10
0.7514285761969291
 20
-3.902023684038752
 30
0.0
 11
3.251428576196928
 21
-3.902023684038752
 31
0.0
  0
LINE
  5
27D
330
26
100
AcDbEntity
  8
0
  6
Continuous
 62
     4
100
AcDbLine
 10
1.251428576196928
 20
-4.402023684038752
 30
0.0
 11
0.7514285761969291
 21
-3.902023684038752
 31
0.0
  0
LINE
  5
27E
330
26
100
AcDbEntity
  8
0
  6
Continuous
 62
     4
100
AcDbLine
 10
1.251428576196928
 20
-4.402023684038752
 30
0.0
 11
2.751428576196929
 21
-4.402023684038752
 31
0.0
  0
LINE
  5
27F
330
26
100
AcDbEntity
  8
0
  6
Continuous
 62
     4
100
AcDbLine
 10
3.251428576196928
 20
-3.902023684038752
 30
0.0
 11
2.751428576196929
 21
-4.402023684038752
 31
0.0
  0
LINE
  5
280
330
26
100
AcDbEntity
  8
0
  6
Continuous
 62
     4
100
AcDbLine
 10
3.251428576196928
 20
-2.602023684038755
 30
0.0
 11
3.251428576196928
 21
-3.902023684038752
 31
0.0
  0
LINE
  5
281
330
26
100
AcDbEntity
  8
0
  6
Continuous
 62
     4
100
AcDbLine
 10
4.300000004768377
 20
-1.800000000000011
 30
0.0
 11
4.300000004768377
 21
-4.600000000000008
 31
0.0
  0
LINE
  5
282
330
26
100
AcDbEntity
  8
0
  6
Continuous
 62
     4
100
AcDbLine
 10
15.00000000476837
 20
-4.600000000000008
 30
0.0
 11
15.00000000476837
 21
4.897976315961244
 31
0.0
  0
LINE
  5
283
330
26
100
AcDbEntity
  8
0
  6
Continuous
 62
     4
100
AcDbLine
 10
11.20000000476835
 20
5.897976315961244
 30
0.0
 11
11.20000000476835
 21
8.14451211272798
 31
0.0
  0
LINE
  5
284
330
26
100
AcDbEntity
  8
0
  6
Continuous
 62
     4
100
AcDbLine
 10
13.80000000476838
 20
5.897976315961244
 30
0.0
 11
13.80000000476838
 21
9.64566684713908
 31
0.0
  0
LINE
  5
285
330
26
100
AcDbEntity
  8
0
  6
Continuous
 62
     4
100
AcDbLine
 10
4.300000003405983
 20
-4.600000000000008
 30
0.0
 11
15.0
 21
-4.600000000000008
 31
0.0
  0
LINE
  5
286
330
26
100
AcDbEntity
  8
0
  6
Continuous
 62
     4
100
AcDbLine
 10
0.0
 20
0.0
 30
0.0
 11
15.0
 21
0.0
 31
0.0
  0
LINE
  5
287
330
26
100
AcDbEntity
  8
0
  6
Continuous
 62
     4
100
AcDbLine
 10
0.000000004768367
 20
-1.800000000000011
 30
0.0
 11
4.300000004768377
 21
-1.800000000000011
 31
0.0
  0
LINE
  5
288
330
26
100
AcDbEntity
  8
0
  6
Continuous
 62
     4
100
AcDbLine
 10
0.0
 20
-2.600000000000008
 30
0.0
 11
4.0
 21
-2.600000000000008
 31
0.0
  0
LINE
  5
289
330
26
100
AcDbEntity
  8
0
  6
Continuous
 62
     4
100
AcDbLine
 10
0.0
 20
-1.100000008256415
 30
0.0
 11
15.0
 21
-1.100000008256415
 31
0.0
  0
LINE
  5
28A
330
26
100
AcDbEntity
  8
0
  6
Continuous
 62
     4
100
AcDbLine
 10
0.0
 20
-0.5500000000000114
 30
0.0
 11
15.00000000476837
 21
-0.5500000000000114
 31
0.0
  0
LINE
  5
28B
330
26
100
AcDbEntity
  8
0
  6
Continuous
 62
     4
100
AcDbLine
 10
10.39999999318803
 20
0.9479762301305639
 30
0.0
 11
15.0
 21
0.9479762301305639
 31
0.0
  0
LINE
  5
28C
330
26
100
AcDbEntity
  8
0
  6
Continuous
 62
     4
100
AcDbLine
 10
10.40000001021792
 20
1.497976233536533
 30
0.0
 11
15.00000000476837
 21
1.497976233536533
 31
0.0
  0
ENDBLK
  5
28D
330
26
100
AcDbEntity
  8
0
100
AcDbBlockEnd
  0
BLOCK
  5
28E
330
27
100
AcDbEntity
  8
0
100
AcDbBlockBegin
  2
AFDPG-14-JB-10
 70
     0
 10
0.0
 20
0.0
 30
0.0
  3
AFDPG-14-JB-10
  1

  0
LINE
  5
28F
330
27
100
AcDbEntity
  8
0
  6
Continuous
 62
   200
100
AcDbLine
 10
-1.299999999999986
 20
8.14451202643292
 30
0.0
 11
1.300000000000018
 21
9.645666760843994
 31
0.0
  0
LINE
  5
290
330
27
100
AcDbEntity
  8
0
  6
Continuous
 62
     4
100
AcDbLine
 10
-2.049999999999988
 20
5.897976229666184
 30
0.0
 11
2.050000000000007
 21
5.897976229666169
 31
0.0
  0
LINE
  5
291
330
27
100
AcDbEntity
  8
0
  6
Continuous
 62
     4
100
AcDbLine
 10
-2.049999999999996
 20
3.897976229666199
 30
0.0
 11
2.049999999999996
 21
3.897976229666169
 31
0.0
  0
LINE
  5
292
330
27
100
AcDbEntity
  8
0
  6
Continuous
 62
     4
100
AcDbLine
 10
-1.050000000000011
 20
0.5979763159612475
 30
0.0
 11
1.049999999999986
 21
0.5979763159612475
 31
0.0
  0
LINE
  5
293
330
27
100
AcDbEntity
  8
0
  6
Continuous
 62
     4
100
AcDbLine
 10
-1.25
 20
0.3979763159612446
 30
0.0
 11
-1.050000000000011
 21
0.5979763159612475
 31
0.0
  0
LINE
  5
294
330
27
100
AcDbEntity
  8
0
  6
Continuous
 62
     4
100
AcDbLine
 10
1.049999999999986
 20
0.5979763159612475
 30
0.0
 11
1.25
 21
0.3979763159612446
 31
0.0
  0
LINE
  5
295
330
27
100
AcDbEntity
  8
0
  6
Continuous
 62
     4
100
AcDbLine
 10
-1.25
 20
0.3979763159612446
 30
0.0
 11
1.25
 21
0.3979763159612446
 31
0.0
  0
LINE
  5
296
330
27
100
AcDbEntity
  8
0
  6
Continuous
 62
     4
100
AcDbLine
 10
1.25
 20
0.3979763159612446
 30
0.0
 11
1.25
 21
0.0
 31
0.0
  0
LINE
  5
297
330
27
100
AcDbEntity
  8
0
  6
Continuous
 62
     4
100
AcDbLine
 10
-1.25
 20
0.0
 30
0.0
 11
-1.25
 21
0.3979763159612446
 31
0.0
  0
LINE
  5
298
330
27
100
AcDbEntity
  8
0
  6
Continuous
 62
     4
100
AcDbLine
 10
-2.047976315961256
 20
-1.102023684038741
 30
0.0
 11
-1.500000000000003
 21
-0.5511933247651939
 31
0.0
  0
LINE
  5
299
330
27
100
AcDbEntity
  8
0
  6
Continuous
 62
     4
100
AcDbLine
 10
2.049999999999979
 20
-1.100000000000022
 30
0.0
 11
1.5
 21
-0.5500000000000114
 31
0.0
  0
LINE
  5
29A
330
27
100
AcDbEntity
  8
0
  6
Continuous
 62
     4
100
AcDbLine
 10
1.249999999999989
 20
-2.600000000000022
 30
0.0
 11
1.249999999999985
 21
-3.899166541181614
 31
0.0
  0
LINE
  5
29B
330
27
100
AcDbEntity
  8
0
  6
Continuous
 62
     4
100
AcDbLine
 10
-1.25000000000001
 20
-2.600000000000008
 30
0.0
 11
-1.250000000000014
 21
-3.899166541181614
 31
0.0
  0
LINE
  5
29C
330
27
100
AcDbEntity
  8
0
  6
Continuous
 62
     4
100
AcDbLine
 10
-1.250000000000014
 20
-3.899166541181614
 30
0.0
 11
1.249999999999985
 21
-3.899166541181614
 31
0.0
  0
LINE
  5
29D
330
27
100
AcDbEntity
  8
0
  6
Continuous
 62
     4
100
AcDbLine
 10
1.249999999999985
 20
-3.899166541181614
 30
0.0
 11
0.7471428571428298
 21
-4.402023684038752
 31
0.0
  0
LINE
  5
29E
330
27
100
AcDbEntity
  8
0
  6
Continuous
 62
     4
100
AcDbLine
 10
-0.7471428571428618
 20
-4.402023684038752
 30
0.0
 11
-1.250000000000014
 21
-3.899166541181614
 31
0.0
  0
LINE
  5
29F
330
27
100
AcDbEntity
  8
0
  6
Continuous
 62
     4
100
AcDbLine
 10
2.000595112610163
 20
-1.800000000000025
 30
0.0
 11
2.000595112610159
 21
-2.602023684038769
 31
0.0
  0
LINE
  5
2A0
330
27
100
AcDbEntity
  8
0
  6
Continuous
 62
     4
100
AcDbLine
 10
-1.999404887389836
 20
-1.799999999999997
 30
0.0
 11
-1.99940488738984
 21
-2.602023684038755
 31
0.0
  0
LINE
  5
2A1
330
27
100
AcDbEntity
  8
0
  6
Continuous
 62
     4
100
AcDbLine
 10
-0.7471428571428618
 20
-4.402023684038752
 30
0.0
 11
0.7471428571428298
 21
-4.402023684038752
 31
0.0
  0
LINE
  5
2A2
330
27
100
AcDbEntity
  8
0
  6
Continuous
 62
     4
100
AcDbLine
 10
-2.05000000000002
 20
-2.550595112610167
 30
0.0
 11
-2.050000000000016
 21
-1.102023684038741
 31
0.0
  0
LINE
  5
2A3
330
27
100
AcDbEntity
  8
0
  6
Continuous
 62
     4
100
AcDbLine
 10
2.049999999999972
 20
-2.641112856947004
 30
0.0
 11
2.049999999999979
 21
-1.10000000825643
 31
0.0
  0
ARC
  5
2A4
330
27
100
AcDbEntity
  8
0
  6
Continuous
 62
     4
100
AcDbCircle
 10
-0.0000000000000107
 20
-2.550000000000011
 30
0.0
 40
2.049999999999999
100
AcDbArc
 50
179.9999999999998
 51
359.9999999999998
  0
LINE
  5
2A5
330
27
100
AcDbEntity
  8
0
  6
Continuous
 62
     4
100
AcDbLine
 10
-2.050000000000006
 20
1.497976228169036
 30
0.0
 11
-2.049999999999988
 21
5.897976229666184
 31
0.0
  0
LINE
  5
2A6
330
27
100
AcDbEntity
  8
0
  6
Continuous
 62
     4
100
AcDbLine
 10
2.049999999999986
 20
1.497976232092085
 30
0.0
 11
2.050000000000007
 21
5.897976229666169
 31
0.0
  0
LINE
  5
2A7
330
27
100
AcDbEntity
  8
0
  6
Continuous
 62
     4
100
AcDbLine
 10
1.500000000000003
 20
0.9479762320920883
 30
0.0
 11
2.050000001444466
 21
1.497976233536519
 31
0.0
  0
LINE
  5
2A8
330
27
100
AcDbEntity
  8
0
  6
Continuous
 62
     4
100
AcDbLine
 10
-2.0500000053675
 20
1.497976233536533
 30
0.0
 11
-1.499999999999996
 21
0.9479762281690398
 31
0.0
  0
LINE
  5
2A9
330
27
100
AcDbEntity
  8
0
  6
Continuous
 62
     4
100
AcDbLine
 10
-1.5
 20
-0.5511933238986302
 30
0.0
 11
-1.499999999999996
 21
0.9479762301305784
 31
0.0
  0
LINE
  5
2AA
330
27
100
AcDbEntity
  8
0
  6
Continuous
 62
     4
100
AcDbLine
 10
1.5
 20
-0.5500000048504319
 30
0.0
 11
1.500000000000003
 21
0.9479762301305639
 31
0.0
  0
LINE
  5
2AB
330
27
100
AcDbEntity
  8
0
  6
Continuous
 62
     4
100
AcDbLine
 10
-1.500000001961524
 20
0.0
 30
0.0
 11
1.499999998038475
 21
0.0
 31
0.0
  0
LINE
  5
2AC
330
27
100
AcDbEntity
  8
0
  6
Continuous
 62
     4
100
AcDbLine
 10
-2.050000000000018
 20
-1.800000000000011
 30
0.0
 11
2.049999999999975
 21
-1.800000000000025
 31
0.0
  0
LINE
  5
2AD
330
27
100
AcDbEntity
  8
0
  6
Continuous
 62
     4
100
AcDbLine
 10
-1.999404887389838
 20
-2.600000000000008
 30
0.0
 11
2.000595112610159
 21
-2.600000000000022
 31
0.0
  0
LINE
  5
2AE
330
27
100
AcDbEntity
  8
0
  6
Continuous
 62
     4
100
AcDbLine
 10
-1.299999999999986
 20
5.897976229666198
 30
0.0
 11
-1.299999999999982
 21
8.14451202643292
 31
0.0
  0
LINE
  5
2AF
330
27
100
AcDbEntity
  8
0
  6
Continuous
 62
     4
100
AcDbLine
 10
1.300000000000007
 20
5.897976229666184
 30
0.0
 11
1.300000000000018
 21
9.645666760844008
 31
0.0
  0
LINE
  5
2B0
330
27
100
AcDbEntity
  8
0
  6
Continuous
 62
   200
100
AcDbLine
 10
-1.025000000000019
 20
-4.124166541181608
 30
0.0
 11
-1.025000000000012
 21
-2.599999999999994
 31
0.0
  0
LINE
  5
2B1
330
27
100
AcDbEntity
  8
0
  6
Continuous
 62
   200
100
AcDbLine
 10
1.024999999999987
 20
-4.124166541181608
 30
0.0
 11
1.024999999999995
 21
-2.600000000000008
 31
0.0
  0
LINE
  5
2B2
330
27
100
AcDbEntity
  8
0
  6
Continuous
 62
   200
100
AcDbLine
 10
1.025000000000005
 20
-0.0000000014444481
 30
0.0
 11
1.025000000000009
 21
0.5979763159612475
 31
0.0
  0
LINE
  5
2B3
330
27
100
AcDbEntity
  8
0
  6
Continuous
 62
   200
100
AcDbLine
 10
-1.025000000000005
 20
-0.0000000014444481
 30
0.0
 11
-1.025000000000005
 21
0.5979763159612475
 31
0.0
  0
LINE
  5
2B4
330
27
100
AcDbEntity
  8
0
  6
Continuous
 62
   200
100
AcDbLine
 10
-0.0000000000000213
 20
-5.546406049129259
 30
0.0
 11
0.0000000000000391
 21
9.669348017065544
 31
0.0
  0
ENDBLK
  5
2B5
330
27
100
AcDbEntity
  8
0
100
AcDbBlockEnd
  0
BLOCK
  5
2B6
330
28
100
AcDbEntity
  8
0
100
AcDbBlockBegin
  2
AFDPG-14-JB-11
 70
     0
 10
0.0
 20
0.0
 30
0.0
  3
AFDPG-14-JB-11
  1

  0
CIRCLE
  5
2B7
330
28
100
AcDbEntity
  8
0
  6
Continuous
 62
     4
100
AcDbCircle
 10
12.5
 20
0.0
 30
0.0
 40
1.3
  0
ARC
  5
2B8
330
28
100
AcDbEntity
  8
0
  6
Continuous
 62
     4
100
AcDbCircle
 10
12.5
 20
0.0
 30
0.0
 40
2.1
100
AcDbArc
 50
282.3469323674128
 51
77.2936581615705
  0
ARC
  5
2B9
330
28
100
AcDbEntity
  8
0
  6
Continuous
 62
     4
100
AcDbCircle
 10
12.5
 20
0.0
 30
0.0
 40
2.1
100
AcDbArc
 50
102.7063418384295
 51
257.6530676325873
  0
LINE
  5
2BA
330
28
100
AcDbEntity
  8
0
  6
Continuous
 62
     4
100
AcDbLine
 10
0.0
 20
1.5
 30
0.0
 11
11.0303061543301
 21
1.500000000000014
 31
0.0
  0
LINE
  5
2BB
330
28
100
AcDbEntity
  8
0
  6
Continuous
 62
     4
100
AcDbLine
 10
0.0
 20
2.049999999999996
 30
0.0
 11
0.0
 21
-2.049999999999996
 31
0.0
  0
LINE
  5
2BC
330
28
100
AcDbEntity
  8
0
  6
Continuous
 62
     4
100
AcDbLine
 10
15.0
 20
2.050000000000011
 30
0.0
 11
15.0
 21
-2.049999999999996
 31
0.0
  0
LINE
  5
2BD
330
28
100
AcDbEntity
  8
0
  6
Continuous
 62
     4
100
AcDbLine
 10
0.9571428571428556
 20
-0.7142857142857082
 30
0.0
 11
2.688571428571436
 21
1.019999999999996
 31
0.0
  0
LINE
  5
2BE
330
28
100
AcDbEntity
  8
0
  6
Continuous
 62
     4
100
AcDbLine
 10
1.30857142857144
 20
-1.068571428571416
 30
0.0
 11
3.051993036971481
 21
0.6748501798286242
 31
0.0
  0
LINE
  5
2BF
330
28
100
AcDbEntity
  8
0
  6
Continuous
 62
     4
100
AcDbLine
 10
3.900000000000005
 20
-1.502857150350294
 30
0.0
 11
3.900000000000005
 21
1.500000006811958
 31
0.0
  0
LINE
  5
2C0
330
28
100
AcDbEntity
  8
0
  6
Continuous
 62
     4
100
AcDbLine
 10
10.4
 20
-1.50285715035028
 30
0.0
 11
10.4
 21
1.500000006811958
 31
0.0
  0
LINE
  5
2C1
330
28
100
AcDbEntity
  8
0
  6
Continuous
 62
     4
100
AcDbLine
 10
8.0
 20
-0.7000000068119477
 30
0.0
 11
8.0
 21
0.9000000000000056
 31
0.0
  0
LINE
  5
2C2
330
28
100
AcDbEntity
  8
0
  6
Continuous
 62
     4
100
AcDbLine
 10
9.600000000000022
 20
-0.7000000068119477
 30
0.0
 11
9.600000000000022
 21
0.9000000000000056
 31
0.0
  0
LINE
  5
2C3
330
28
100
AcDbEntity
  8
0
  6
Continuous
 62
     4
100
AcDbLine
 10
8.0
 20
0.9000000000000056
 30
0.0
 11
9.600000000000022
 21
0.9000000000000056
 31
0.0
  0
LINE
  5
2C4
330
28
100
AcDbEntity
  8
0
  6
Continuous
 62
     4
100
AcDbLine
 10
8.0
 20
-0.7000000000000029
 30
0.0
 11
9.600000000000022
 21
-0.7000000000000029
 31
0.0
  0
LINE
  5
2C5
330
28
100
AcDbEntity
  8
0
  6
Continuous
 62
     4
100
AcDbLine
 10
0.0
 20
2.049999999999996
 30
0.0
 11
15.0
 21
2.050000000000011
 31
0.0
  0
LINE
  5
2C6
330
28
100
AcDbEntity
  8
0
  6
Continuous
 62
     4
100
AcDbLine
 10
0.0
 20
-2.049999999999996
 30
0.0
 11
15.0
 21
-2.049999999999996
 31
0.0
  0
LINE
  5
2C7
330
28
100
AcDbEntity
  8
0
  6
Continuous
 62
     4
100
AcDbLine
 10
0.0
 20
-1.5
 30
0.0
 11
11.0303061543301
 21
-1.5
 31
0.0
  0
CIRCLE
  5
2C8
330
28
100
AcDbEntity
  8
0
  6
Continuous
 62
     4
100
AcDbCircle
 10
2.0
 20
0.0
 30
0.0
 40
1.399999999999999
  0
CIRCLE
  5
2C9
330
28
100
AcDbEntity
  8
0
  6
Continuous
 62
   200
100
AcDbCircle
 10
2.0
 20
0.0
 30
0.0
 40
1.05
  0
CIRCLE
  5
2CA
330
28
100
AcDbEntity
  8
0
  6
Continuous
 62
     4
100
AcDbCircle
 10
2.0
 20
0.0
 30
0.0
 40
1.25
  0
CIRCLE
  5
2CB
330
28
100
AcDbEntity
  8
0
  6
Continuous
 62
     4
100
AcDbCircle
 10
13.15000000272479
 20
0.0
 30
0.0
 40
0.5
  0
CIRCLE
  5
2CC
330
28
100
AcDbEntity
  8
0
  6
Continuous
 62
     4
100
AcDbCircle
 10
11.84999999727523
 20
0.0000000000000142
 30
0.0
 40
0.5
  0
CIRCLE
  5
2CD
330
28
100
AcDbEntity
  8
0
  6
Continuous
 62
     4
100
AcDbCircle
 10
13.15000000272479
 20
0.0
 30
0.0
 40
0.29
  0
CIRCLE
  5
2CE
330
28
100
AcDbEntity
  8
0
  6
Continuous
 62
     4
100
AcDbCircle
 10
11.84999999727523
 20
0.0000000000000142
 30
0.0
 40
0.29
  0
LINE
  5
2CF
330
28
100
AcDbEntity
  8
0
  6
CENTER
 62
   200
100
AcDbLine
 10
-1.324720577365496
 20
0.0
 30
0.0
 11
16.23761911485022
 21
0.0
 31
0.0
  0
LINE
  5
2D0
330
28
100
AcDbEntity
  8
0
  6
Continuous
 62
   200
100
AcDbLine
 10
2.0
 20
2.834285714285712
 30
0.0
 11
2.000000000000014
 21
-3.351413244852025
 31
0.0
  0
ENDBLK
  5
2D1
330
28
100
AcDbEntity
  8
0
100
AcDbBlockEnd
  0
ENDSEC
  0
SECTION
  2
ENTITIES
  0
INSERT
  5
2D2
330
A
100
AcDbEntity
  8
0
  6
ByBlock
100
AcDbBlockReference
  2
AFDPG-14-JB-11
 10
60.0
 20
-90.0
 30
0.0
  0
INSERT
  5
2D3
330
A
100
AcDbEntity
  8
0
  6
ByBlock
100
AcDbBlockReference
  2
AFDPG-14-JB-10
 10
10.0
 20
-120.0
 30
0.0
  0
INSERT
  5
2D4
330
A
100
AcDbEntity
  8
0
  6
ByBlock
100
AcDbBlockReference
  2
AFDPG-14-JB-9
 10
60.0
 20
-120.0
 30
0.0
  0
INSERT
  5
2D5
330
A
100
AcDbEntity
  8
0
  6
ByBlock
100
AcDbBlockReference
  2
AFDPG-14-JB-8
 10
-90.0
 20
-90.0
 30
0.0
  0
INSERT
  5
2D6
330
A
100
AcDbEntity
  8
0
  6
ByBlock
100
AcDbBlockReference
  2
AFDPG-14-JB-7
 10
-140.0
 20
-120.0
 30
0.0
  0
INSERT
  5
2D7
330
A
100
AcDbEntity
  8
0
  6
ByBlock
100
AcDbBlockReference
  2
AFDPG-14-JB-6
 10
-90.0
 20
-120.0
 30
0.0
  0
INSERT
  5
2DA
330
A
100
AcDbEntity
  8
0
  6
ByBlock
100
AcDbBlockReference
  2
AFDPG-14-JB-3
 10
120.0
 20
20.0
 30
0.0
  0
LINE
  5
2DD
330
A
100
AcDbEntity
  8
0
  6
Continuous
 62
     7
100
AcDbLine
 10
-104.25
 20
132.6000061035156
 30
0.0
 11
-104.25
 21
117.6000061035156
 31
0.0
  0
MTEXT
  5
2DE
330
A
100
AcDbEntity
  8
0
  6
Continuous
 62
     7
100
AcDbMText
 10
-191.1841603062715
 20
125.1000061035156
 30
0.0
 40
4.5
 41
0.0
 71
     4
 72
     5
  1
\W1.088;\A1;FLAT TYPE AIR HANDS
 73
     1
 44
1.0
1001
ACAD
1000
MTEXTBEGIN
1070
    73
1070
     1
1070
    44
1040
1.0
1070
    74
1070
     0
1000
MTEXTEND
  0
LINE
  5
2DF
330
A
100
AcDbEntity
  8
0
  6
Continuous
 62
     7
100
AcDbLine
 10
-194.25
 20
117.6000061035156
 30
0.0
 11
-104.25
 21
117.6000061035156
 31
0.0
  0
MTEXT
  5
2E0
330
A
100
AcDbEntity
  8
0
  6
Continuous
 62
     7
100
AcDbMText
 10
-16.60666195310813
 20
-70.76439655085533
 30
0.0
 40
4.5
 41
0.0
 71
     1
 72
     5
  1
\A1;ZE235
 73
     1
 44
1.0
1001
ACAD
1000
MTEXTBEGIN
1070
    73
1070
     1
1070
    44
1040
1.0
1070
    74
1070
     0
1000
MTEXTEND
  0
MTEXT
  5
2E1
330
A
100
AcDbEntity
  8
0
  6
Continuous
 62
     7
100
AcDbMText
 10
-16.60666195310813
 20
-77.70745925240344
 30
0.0
 40
4.5
 41
0.0
 71
     1
 72
     5
  1
\A1;ZE255
 73
     1
 44
1.0
1001
ACAD
1000
MTEXTBEGIN
1070
    73
1070
     1
1070
    44
1040
1.0
1070
    74
1070
     0
1000
MTEXTEND
  0
LINE
  5
2E2
330
A
100
AcDbEntity
  8
0
  6
Continuous
 62
     7
100
AcDbLine
 10
-20.19876846057571
 20
-66.97500000000002
 30
0.0
 11
-20.19876846057571
 21
-133.4267309136421
 31
0.0
  0
MTEXT
  5
2E3
330
A
100
AcDbEntity
  8
0
  6
Continuous
 62
     7
100
AcDbMText
 10
-189.9764605299341
 20
-70.76439655085533
 30
0.0
 40
4.5
 41
0.0
 71
     1
 72
     5
  1
\W1.071;\A1;ZE135
 73
     1
 44
1.0
1001
ACAD
1000
MTEXTBEGIN
1070
    73
1070
     1
1070
    44
1040
1.0
1070
    74
1070
     0
1000
MTEXTEND
  0
MTEXT
  5
2E4
330
A
100
AcDbEntity
  8
0
  6
Continuous
 62
     7
100
AcDbMText
 10
-189.9764605299341
 20
-77.70745925240344
 30
0.0
 40
4.5
 41
0.0
 71
     1
 72
     5
  1
\W1.071;\A1;ZE155
 73
     1
 44
1.0
1001
ACAD
1000
MTEXTBEGIN
1070
    73
1070
     1
1070
    44
1040
1.0
1070
    74
1070
     0
1000
MTEXTEND
  0
LINE
  5
2E5
330
A
100
AcDbEntity
  8
0
  6
Continuous
 62
     7
100
AcDbLine
 10
-194.25
 20
-66.97500000000002
 30
0.0
 11
194.8000000119209
 21
-66.97500000000002
 31
0.0
  0
LINE
  5
2E6
330
A
100
AcDbEntity
  8
0
  6
Continuous
 62
     7
100
AcDbLine
 10
-194.25
 20
-133.5
 30
0.0
 11
194.8000030517578
 21
-133.5
 31
0.0
  0
LINE
  5
2E7
330
A
100
AcDbEntity
  8
0
  6
Continuous
 62
     7
100
AcDbLine
 10
-194.25
 20
132.6000061035156
 30
0.0
 11
-194.25
 21
-133.5
 31
0.0
  0
MTEXT
  5
2E8
330
A
100
AcDbEntity
  8
0
  6
Continuous
 62
     7
100
AcDbMText
 10
-185.7031250014843
 20
107.6000061035156
 30
0.0
 40
4.5
 41
0.0
 71
     4
 72
     5
  1
{\W1.062;MODEL:AFDPG-14-JA}
 73
     1
 44
1.0
1001
ACAD
1000
ACAD_MTEXT_DEFINED_HEIGHT_BEGIN
1070
    46
1040
0.0
1000
ACAD_MTEXT_DEFINED_HEIGHT_END
1000
MTEXTBEGIN
1070
    73
1070
     1
1070
    44
1040
1.0
1070
    74
1070
     0
1000
MTEXTEND
  0
LINE
  5
2E9
330
A
100
AcDbEntity
  8
0
  6
Continuous
 62
     7
100
AcDbLine
 10
-194.25
 20
132.6000061035156
 30
0.0
 11
194.8000030517578
 21
132.6000061035156
 31
0.0
  0
LINE
  5
2EA
330
A
100
AcDbEntity
  8
0
  6
Continuous
 62
     7
100
AcDbLine
 10
194.8000030517578
 20
132.6000061035156
 30
0.0
 11
194.8000030517578
 21
-133.5
 31
0.0
  0
LINE
  5
2EB
330
A
100
AcDbEntity
  8
0
  6
Continuous
 62
     7
100
AcDbLine
 10
109.8000030517578
 20
-118.5
 30
0.0
 11
109.8000030517578
 21
-133.5
 31
0.0
  0
LINE
  5
2EC
330
A
100
AcDbEntity
  8
0
  6
Continuous
 62
     7
100
AcDbLine
 10
109.8000030517578
 20
-118.5
 30
0.0
 11
194.8000030517578
 21
-118.5
 31
0.0
  0
LINE
  5
2ED
330
A
100
AcDbEntity
  8
0
  6
Continuous
 62
     7
100
AcDbLine
 10
109.8000030517578
 20
132.6000061035156
 30
0.0
 11
109.8000030517578
 21
117.6000061035156
 31
0.0
  0
LINE
  5
2EE
330
A
100
AcDbEntity
  8
0
  6
Continuous
 62
     7
100
AcDbLine
 10
109.8000030517578
 20
117.6000061035156
 30
0.0
 11
194.8000030517578
 21
117.6000061035156
 31
0.0
  0
MTEXT
  5
2EF
330
A
100
AcDbEntity
  8
0
  6
Continuous
 62
     7
100
AcDbMText
 10
135.3112389898829
 20
125.1000061035156
 30
0.0
 40
4.5
 41
0.0
 71
     4
 72
     5
  1
\W1.348;\A1;Ver. 1.1
 73
     1
 44
1.0
1001
ACAD
1000
MTEXTBEGIN
1070
    73
1070
     1
1070
    44
1040
1.0
1070
    74
1070
     0
1000
MTEXTEND
  0
MTEXT
  5
2F0
330
A
100
AcDbEntity
  8
0
  6
Continuous
 62
     7
100
AcDbMText
 10
115.5267259825148
 20
-126.0
 30
0.0
 40
6.300000190734863
 41
0.0
 71
     4
 72
     5
  1
\W1.121;\A1;KOGANEI CORP.
 73
     1
 44
1.0
1001
ACAD
1000
MTEXTBEGIN
1070
    73
1070
     1
1070
    44
1040
1.0
1070
    74
1070
     0
1000
MTEXTEND
  0
CIRCLE
  5
5D0
330
A
100
AcDbEntity
  8
0
  6
Continuous
 62
     2
100
AcDbCircle
 10
22.50000000358864
 20
89.99999999378429
 30
0.0
 40
1.5
  0
CIRCLE
  5
5D1
330
A
100
AcDbEntity
  8
0
  6
Continuous
 62
     2
100
AcDbCircle
 10
22.50000000358864
 20
109.9999999937843
 30
0.0
 40
1.5
  0
CIRCLE
  5
5D2
330
A
100
AcDbEntity
  8
0
  6
Continuous
 62
     2
100
AcDbCircle
 10
-37.49999236701683
 20
109.9999999937843
 30
0.0
 40
1.5
  0
CIRCLE
  5
5D3
330
A
100
AcDbEntity
  8
0
  6
Continuous
 62
     2
100
AcDbCircle
 10
-37.49999236701683
 20
89.99999999378429
 30
0.0
 40
1.5
  0
CIRCLE
  5
5D4
330
A
100
AcDbEntity
  8
0
  6
Continuous
 62
     2
100
AcDbCircle
 10
-19.99999999641136
 20
79.99999999378428
 30
0.0
 40
2.0
  0
CIRCLE
  5
5D5
330
A
100
AcDbEntity
  8
0
  6
Continuous
 62
     2
100
AcDbCircle
 10
20.00000000358864
 20
79.99999999378428
 30
0.0
 40
2.0
  0
CIRCLE
  5
5D6
330
A
100
AcDbEntity
  8
0
  6
Continuous
 62
     2
100
AcDbCircle
 10
20.00000000358864
 20
119.9999999937843
 30
0.0
 40
2.0
  0
CIRCLE
  5
5D7
330
A
100
AcDbEntity
  8
0
  6
Continuous
 62
     2
100
AcDbCircle
 10
-19.99999999641136
 20
119.9999999937843
 30
0.0
 40
2.0
  0
CIRCLE
  5
5D8
330
A
100
AcDbEntity
  8
0
  6
Continuous
 62
     2
100
AcDbCircle
 10
-22.49999236701683
 20
89.99999999378429
 30
0.0
 40
1.5
  0
CIRCLE
  5
5D9
330
A
100
AcDbEntity
  8
0
  6
Continuous
 62
     2
100
AcDbCircle
 10
-22.49999236701683
 20
109.9999999937843
 30
0.0
 40
1.5
  0
CIRCLE
  5
5DA
330
A
100
AcDbEntity
  8
0
  6
Continuous
 62
     2
100
AcDbCircle
 10
37.50000000358864
 20
109.9999999937843
 30
0.0
 40
1.5
  0
CIRCLE
  5
5DB
330
A
100
AcDbEntity
  8
0
  6
Continuous
 62
     2
100
AcDbCircle
 10
37.50000000358864
 20
89.99999999378429
 30
0.0
 40
1.5
  0
LINE
  5
5DC
330
A
100
AcDbEntity
  8
0
  6
Continuous
 62
     2
100
AcDbLine
 10
30.00000000358864
 20
113.4999999937843
 30
0.0
 11
30.00000000358864
 21
86.49999999378428
 31
0.0
  0
LINE
  5
5DD
330
A
100
AcDbEntity
  8
0
  6
Continuous
 62
     2
100
AcDbLine
 10
-29.99999236701683
 20
113.4999999937843
 30
0.0
 11
-29.99999236701683
 21
86.49999999378428
 31
0.0
  0
LINE
  5
5E1
330
A
100
AcDbEntity
  8
0
  6
Continuous
 62
     7
100
AcDbLine
 10
17.00000000358864
 20
106.4999999937843
 30
0.0
 11
43.00000000358863
 21
106.4999999937843
 31
0.0
  0
LINE
  5
5E2
330
A
100
AcDbEntity
  8
0
  6
Continuous
 62
     7
100
AcDbLine
 10
17.00000000358864
 20
105.9999999937843
 30
0.0
 11
43.00000000358863
 21
105.9999999937843
 31
0.0
  0
LINE
  5
5E3
330
A
100
AcDbEntity
  8
0
  6
Continuous
 62
     7
100
AcDbLine
 10
-42.99999236701682
 20
106.4999999937843
 30
0.0
 11
-16.99999236701683
 21
106.4999999937843
 31
0.0
  0
LINE
  5
5E4
330
A
100
AcDbEntity
  8
0
  6
Continuous
 62
     7
100
AcDbLine
 10
-42.99999236701682
 20
105.9999999937843
 30
0.0
 11
-16.99999236701683
 21
105.9999999937843
 31
0.0
  0
LINE
  5
5E5
330
A
100
AcDbEntity
  8
0
  6
Continuous
 62
     7
100
AcDbLine
 10
17.00000000358864
 20
93.99999236438976
 30
0.0
 11
43.00000000358863
 21
93.99999236438976
 31
0.0
  0
LINE
  5
5E6
330
A
100
AcDbEntity
  8
0
  6
Continuous
 62
     7
100
AcDbLine
 10
17.00000000358864
 20
93.49999236438975
 30
0.0
 11
43.00000000358863
 21
93.49999236438975
 31
0.0
  0
LINE
  5
5E7
330
A
100
AcDbEntity
  8
0
  6
Continuous
 62
     7
100
AcDbLine
 10
-42.99999236701682
 20
93.49999236438975
 30
0.0
 11
-16.99999236701683
 21
93.49999236438975
 31
0.0
  0
LINE
  5
5E8
330
A
100
AcDbEntity
  8
0
  6
Continuous
 62
     7
100
AcDbLine
 10
-42.99999236701682
 20
93.99999236438976
 30
0.0
 11
-16.99999236701683
 21
93.99999236438976
 31
0.0
  0
LINE
  5
5E9
330
A
100
AcDbEntity
  8
0
  6
Continuous
 62
     7
100
AcDbLine
 10
-42.99999999641136
 20
84.99999999378429
 30
0.0
 11
43.00000000358863
 21
84.99999999378429
 31
0.0
  0
LINE
  5
5EA
330
A
100
AcDbEntity
  8
0
  6
Continuous
 62
     7
100
AcDbLine
 10
-42.99999999641136
 20
114.9999999937843
 30
0.0
 11
43.00000000358863
 21
114.9999999937843
 31
0.0
  0
LINE
  5
5EB
330
A
100
AcDbEntity
  8
0
  6
Continuous
 62
     7
100
AcDbLine
 10
17.00000000358864
 20
87.99999999378428
 30
0.0
 11
16.00000000358864
 21
87.99999999378428
 31
0.0
  0
LINE
  5
5EC
330
A
100
AcDbEntity
  8
0
  6
Continuous
 62
     7
100
AcDbLine
 10
17.00000000358864
 20
111.9999999937843
 30
0.0
 11
16.00000000358864
 21
111.9999999937843
 31
0.0
  0
LINE
  5
5ED
330
A
100
AcDbEntity
  8
0
  6
Continuous
 62
     7
100
AcDbLine
 10
44.00000000358864
 20
87.99999999378428
 30
0.0
 11
43.00000000358863
 21
87.99999999378428
 31
0.0
  0
LINE
  5
5EE
330
A
100
AcDbEntity
  8
0
  6
Continuous
 62
     7
100
AcDbLine
 10
44.00000000358864
 20
111.9999999937843
 30
0.0
 11
43.00000000358863
 21
111.9999999937843
 31
0.0
  0
LINE
  5
5EF
330
A
100
AcDbEntity
  8
0
  6
Continuous
 62
     7
100
AcDbLine
 10
44.00000000358864
 20
111.9999999937843
 30
0.0
 11
44.00000000358864
 21
87.99999999378428
 31
0.0
  0
LINE
  5
5F0
330
A
100
AcDbEntity
  8
0
  6
Continuous
 62
     7
100
AcDbLine
 10
17.00000000358864
 20
113.4999999937843
 30
0.0
 11
17.00000000358864
 21
86.49999999378428
 31
0.0
  0
LINE
  5
5F1
330
A
100
AcDbEntity
  8
0
  6
Continuous
 62
     7
100
AcDbLine
 10
16.00000000358864
 20
111.9999999937843
 30
0.0
 11
16.00000000358864
 21
87.99999999378428
 31
0.0
  0
LINE
  5
5F2
330
A
100
AcDbEntity
  8
0
  6
Continuous
 62
     7
100
AcDbLine
 10
-16.99999236701683
 20
87.99999999378428
 30
0.0
 11
-15.99999236701683
 21
87.99999999378428
 31
0.0
  0
LINE
  5
5F4
330
A
100
AcDbEntity
  8
0
  6
Continuous
 62
     7
100
AcDbLine
 10
-16.99999236701683
 20
111.9999999937843
 30
0.0
 11
-15.99999236701683
 21
111.9999999937843
 31
0.0
  0
LINE
  5
5F6
330
A
100
AcDbEntity
  8
0
  6
Continuous
 62
     7
100
AcDbLine
 10
-16.99999236701683
 20
113.4999999937843
 30
0.0
 11
-16.99999236701683
 21
86.49999999378428
 31
0.0
  0
LINE
  5
5F7
330
A
100
AcDbEntity
  8
0
  6
Continuous
 62
     7
100
AcDbLine
 10
-15.99999236701683
 20
111.9999999937843
 30
0.0
 11
-15.99999236701683
 21
87.99999999378428
 31
0.0
  0
LINE
  5
5F9
330
A
100
AcDbEntity
  8
0
  6
Continuous
 62
     7
100
AcDbLine
 10
42.49999403953552
 20
76.0
 30
0.0
 11
43.00000000358862
 21
76.50000592190576
 31
0.0
  0
LINE
  5
5FA
330
A
100
AcDbEntity
  8
0
  6
Continuous
 62
     7
100
AcDbLine
 10
-42.49999696016312
 20
75.99999999378429
 30
0.0
 11
42.49999403952251
 21
75.99999999378429
 31
0.0
  0
LINE
  5
5FB
330
A
100
AcDbEntity
  8
0
  6
Continuous
 62
     7
100
AcDbLine
 10
-43.0
 20
123.5000149607658
 30
0.0
 11
-42.5000149011612
 21
124.0
 31
0.0
  0
LINE
  5
5FC
330
A
100
AcDbEntity
  8
0
  6
Continuous
 62
     7
100
AcDbLine
 10
43.0
 20
123.5000033378601
 30
0.0
 11
42.50000339746475
 21
124.0
 31
0.0
  0
LINE
  5
5FD
330
A
100
AcDbEntity
  8
0
  6
Continuous
 62
     7
100
AcDbLine
 10
-42.5000149011612
 20
123.9999999937843
 30
0.0
 11
42.50000339746475
 21
123.9999999937843
 31
0.0
  0
LINE
  5
5FE
330
A
100
AcDbEntity
  8
0
  6
Continuous
 62
     7
100
AcDbLine
 10
-43.0
 20
76.50000298023224
 30
0.0
 11
-42.49999697140495
 21
75.99999999378429
 31
0.0
  0
LINE
  5
5FF
330
A
100
AcDbEntity
  8
0
  6
Continuous
 62
     7
100
AcDbLine
 10
-15.99999236701683
 20
93.99999999378428
 30
0.0
 11
16.00000000358864
 21
93.99999999378428
 31
0.0
  0
LINE
  5
600
330
A
100
AcDbEntity
  8
0
  6
Continuous
 62
     7
100
AcDbLine
 10
-15.99999236701683
 20
105.9999999937843
 30
0.0
 11
16.00000000358864
 21
105.9999999937843
 31
0.0
  0
LINE
  5
601
330
A
100
AcDbEntity
  8
0
  6
Continuous
 62
     7
100
AcDbLine
 10
17.00000000358864
 20
86.49999999378428
 30
0.0
 11
43.00000000358863
 21
86.49999999378428
 31
0.0
  0
LINE
  5
602
330
A
100
AcDbEntity
  8
0
  6
Continuous
 62
     7
100
AcDbLine
 10
17.00000000358864
 20
113.4999999937843
 30
0.0
 11
43.00000000358863
 21
113.4999999937843
 31
0.0
  0
LINE
  5
603
330
A
100
AcDbEntity
  8
0
  6
Continuous
 62
     7
100
AcDbLine
 10
-42.99999999641136
 20
76.50000298023224
 30
0.0
 11
-42.99999999641136
 21
123.5000149011612
 31
0.0
  0
LINE
  5
604
330
A
100
AcDbEntity
  8
0
  6
Continuous
 62
     7
100
AcDbLine
 10
-42.99999236701682
 20
113.4999999937843
 30
0.0
 11
-16.99999236701683
 21
113.4999999937843
 31
0.0
  0
LINE
  5
605
330
A
100
AcDbEntity
  8
0
  6
Continuous
 62
     7
100
AcDbLine
 10
-42.99999236701682
 20
86.49999999378428
 30
0.0
 11
-16.99999236701683
 21
86.49999999378428
 31
0.0
  0
LINE
  5
606
330
A
100
AcDbEntity
  8
0
  6
Continuous
 62
     7
100
AcDbLine
 10
43.00000000358863
 20
76.50000590085983
 30
0.0
 11
43.00000000358863
 21
123.5000034078248
 31
0.0
  0
LINE
  5
607
330
A
100
AcDbEntity
  8
0
  6
Continuous
 62
     2
100
AcDbLine
 10
-34.99999236701683
 20
109.9999999937843
 30
0.0
 11
-39.99999236701683
 21
109.9999999937843
 31
0.0
  0
LINE
  5
609
330
A
100
AcDbEntity
  8
0
  6
Continuous
 62
     2
100
AcDbLine
 10
-19.99999236701683
 20
109.9999999937843
 30
0.0
 11
-24.99999236701683
 21
109.9999999937843
 31
0.0
  0
LINE
  5
60A
330
A
100
AcDbEntity
  8
0
  6
Continuous
 62
     2
100
AcDbLine
 10
-22.49999236701683
 20
112.4999999937843
 30
0.0
 11
-22.49999236701683
 21
107.4999999937843
 31
0.0
  0
LINE
  5
60B
330
A
100
AcDbEntity
  8
0
  6
Continuous
 62
     2
100
AcDbLine
 10
-34.99999236701683
 20
89.99999999378429
 30
0.0
 11
-39.99999236701683
 21
89.99999999378429
 31
0.0
  0
LINE
  5
60D
330
A
100
AcDbEntity
  8
0
  6
Continuous
 62
     2
100
AcDbLine
 10
-19.99999236701683
 20
89.99999999378429
 30
0.0
 11
-24.99999236701683
 21
89.99999999378429
 31
0.0
  0
LINE
  5
60E
330
A
100
AcDbEntity
  8
0
  6
Continuous
 62
     2
100
AcDbLine
 10
-22.49999236701683
 20
92.49999999378429
 30
0.0
 11
-22.49999236701683
 21
87.49999999378429
 31
0.0
  0
LINE
  5
60F
330
A
100
AcDbEntity
  8
0
  6
Continuous
 62
     2
100
AcDbLine
 10
25.00000000358864
 20
109.9999999937843
 30
0.0
 11
20.00000000358864
 21
109.9999999937843
 31
0.0
  0
LINE
  5
610
330
A
100
AcDbEntity
  8
0
  6
Continuous
 62
     2
100
AcDbLine
 10
22.50000000358864
 20
112.4999999937843
 30
0.0
 11
22.50000000358864
 21
107.4999999937843
 31
0.0
  0
LINE
  5
611
330
A
100
AcDbEntity
  8
0
  6
Continuous
 62
     2
100
AcDbLine
 10
40.00000000358864
 20
109.9999999937843
 30
0.0
 11
35.00000000358864
 21
109.9999999937843
 31
0.0
  0
LINE
  5
612
330
A
100
AcDbEntity
  8
0
  6
Continuous
 62
     2
100
AcDbLine
 10
37.50000000358864
 20
112.4999999937843
 30
0.0
 11
37.50000000358864
 21
107.4999999937843
 31
0.0
  0
LINE
  5
613
330
A
100
AcDbEntity
  8
0
  6
Continuous
 62
     2
100
AcDbLine
 10
40.00000000358864
 20
89.99999999378429
 30
0.0
 11
35.00000000358864
 21
89.99999999378429
 31
0.0
  0
LINE
  5
614
330
A
100
AcDbEntity
  8
0
  6
Continuous
 62
     2
100
AcDbLine
 10
37.50000000358864
 20
92.49999999378429
 30
0.0
 11
37.50000000358864
 21
87.49999999378429
 31
0.0
  0
LINE
  5
615
330
A
100
AcDbEntity
  8
0
  6
Continuous
 62
     2
100
AcDbLine
 10
25.00000000358864
 20
89.99999999378429
 30
0.0
 11
20.00000000358864
 21
89.99999999378429
 31
0.0
  0
LINE
  5
616
330
A
100
AcDbEntity
  8
0
  6
Continuous
 62
     2
100
AcDbLine
 10
22.50000000358864
 20
92.49999999378429
 30
0.0
 11
22.50000000358864
 21
87.49999999378429
 31
0.0
  0
LINE
  5
618
330
A
100
AcDbEntity
  8
0
  6
CENTER
 62
     2
100
AcDbLine
 10
-47.5
 20
100.0
 30
0.0
 11
47.5
 21
100.0
 31
0.0
  0
CIRCLE
  5
619
330
A
100
AcDbEntity
  8
0
  6
Continuous
 62
     7
100
AcDbCircle
 10
20.00000000358864
 20
119.9999999937843
 30
0.0
 40
1.620999999999999
  0
CIRCLE
  5
61A
330
A
100
AcDbEntity
  8
0
  6
Continuous
 62
     7
100
AcDbCircle
 10
-19.99999999641136
 20
119.9999999937843
 30
0.0
 40
1.620999999999999
  0
CIRCLE
  5
61B
330
A
100
AcDbEntity
  8
0
  6
Continuous
 62
     7
100
AcDbCircle
 10
-19.99999999641136
 20
79.99999999378428
 30
0.0
 40
1.620999999999999
  0
CIRCLE
  5
61C
330
A
100
AcDbEntity
  8
0
  6
Continuous
 62
     7
100
AcDbCircle
 10
20.00000000358864
 20
79.99999999378428
 30
0.0
 40
1.620999999999999
  0
CIRCLE
  5
61D
330
A
100
AcDbEntity
  8
0
  6
Continuous
 62
     7
100
AcDbCircle
 10
37.50000000358864
 20
109.9999999937843
 30
0.0
 40
1.2295
  0
CIRCLE
  5
61E
330
A
100
AcDbEntity
  8
0
  6
Continuous
 62
     7
100
AcDbCircle
 10
22.50000000358864
 20
109.9999999937843
 30
0.0
 40
1.2295
  0
CIRCLE
  5
61F
330
A
100
AcDbEntity
  8
0
  6
Continuous
 62
     7
100
AcDbCircle
 10
22.50000000358864
 20
89.99999999378429
 30
0.0
 40
1.2295
  0
CIRCLE
  5
620
330
A
100
AcDbEntity
  8
0
  6
Continuous
 62
     7
100
AcDbCircle
 10
37.50000000358864
 20
89.99999999378429
 30
0.0
 40
1.2295
  0
CIRCLE
  5
621
330
A
100
AcDbEntity
  8
0
  6
Continuous
 62
     7
100
AcDbCircle
 10
-22.49999236701683
 20
109.9999999937843
 30
0.0
 40
1.2295
  0
CIRCLE
  5
622
330
A
100
AcDbEntity
  8
0
  6
Continuous
 62
     7
100
AcDbCircle
 10
-37.49999236701683
 20
109.9999999937843
 30
0.0
 40
1.2295
  0
CIRCLE
  5
623
330
A
100
AcDbEntity
  8
0
  6
Continuous
 62
     7
100
AcDbCircle
 10
-37.49999236701683
 20
89.99999999378429
 30
0.0
 40
1.2295
  0
CIRCLE
  5
624
330
A
100
AcDbEntity
  8
0
  6
Continuous
 62
     7
100
AcDbCircle
 10
-22.49999236701683
 20
89.99999999378429
 30
0.0
 40
1.2295
  0
LINE
  5
625
330
A
100
AcDbEntity
  8
0
  6
Continuous
 62
     2
100
AcDbLine
 10
30.00000000376883
 20
122.4999999937843
 30
0.0
 11
30.00000000376883
 21
125.4999999937843
 31
0.0
  0
LINE
  5
626
330
A
100
AcDbEntity
  8
0
  6
Continuous
 62
     2
100
AcDbLine
 10
-29.99999999623117
 20
122.4999999937843
 30
0.0
 11
-29.99999999623117
 21
125.4999999937843
 31
0.0
  0
LINE
  5
627
330
A
100
AcDbEntity
  8
0
  6
Continuous
 62
     2
100
AcDbLine
 10
41.00000000358863
 20
89.49999999378428
 30
0.0
 11
46.00000000358863
 21
89.49999999378428
 31
0.0
  0
LINE
  5
628
330
A
100
AcDbEntity
  8
0
  6
Continuous
 62
     2
100
AcDbLine
 10
41.00000000358863
 20
110.4999999937843
 30
0.0
 11
46.00000000358863
 21
110.4999999937843
 31
0.0
  0
LINE
  5
629
330
A
100
AcDbEntity
  8
0
  6
Continuous
 62
     2
100
AcDbLine
 10
-29.99999999623117
 20
77.50000000621572
 30
0.0
 11
-29.99999999623117
 21
74.50000000621571
 31
0.0
  0
LINE
  5
62A
330
A
100
AcDbEntity
  8
0
  6
Continuous
 62
     2
100
AcDbLine
 10
30.00000000376883
 20
77.50000000621572
 30
0.0
 11
30.00000000376883
 21
74.50000000621571
 31
0.0
  0
LINE
  5
62B
330
A
100
AcDbEntity
  8
0
  6
Continuous
 62
     2
100
AcDbLine
 10
20.00000000358864
 20
116.2499999937843
 30
0.0
 11
20.00000000358864
 21
123.7499999937843
 31
0.0
  0
LINE
  5
62C
330
A
100
AcDbEntity
  8
0
  6
Continuous
 62
     2
100
AcDbLine
 10
-19.99999999641136
 20
116.2499999937843
 30
0.0
 11
-19.99999999641136
 21
123.7499999937843
 31
0.0
  0
LINE
  5
62D
330
A
100
AcDbEntity
  8
0
  6
Continuous
 62
     2
100
AcDbLine
 10
16.25000000358864
 20
119.9999999937843
 30
0.0
 11
23.75000000358864
 21
119.9999999937843
 31
0.0
  0
LINE
  5
62E
330
A
100
AcDbEntity
  8
0
  6
Continuous
 62
     2
100
AcDbLine
 10
-23.74999999641136
 20
119.9999999937843
 30
0.0
 11
-16.24999999641136
 21
119.9999999937843
 31
0.0
  0
LINE
  5
62F
330
A
100
AcDbEntity
  8
0
  6
Continuous
 62
     2
100
AcDbLine
 10
20.00000000358864
 20
76.24999999378428
 30
0.0
 11
20.00000000358864
 21
83.74999999378429
 31
0.0
  0
LINE
  5
630
330
A
100
AcDbEntity
  8
0
  6
Continuous
 62
     2
100
AcDbLine
 10
16.25000000358864
 20
79.99999999378428
 30
0.0
 11
23.75000000358864
 21
79.99999999378428
 31
0.0
  0
LINE
  5
631
330
A
100
AcDbEntity
  8
0
  6
Continuous
 62
     2
100
AcDbLine
 10
-19.99999999641136
 20
76.24999999378428
 30
0.0
 11
-19.99999999641136
 21
83.74999999378429
 31
0.0
  0
LINE
  5
632
330
A
100
AcDbEntity
  8
0
  6
Continuous
 62
     2
100
AcDbLine
 10
-23.74999999641136
 20
79.99999999378428
 30
0.0
 11
-16.24999999641136
 21
79.99999999378428
 31
0.0
  0
CIRCLE
  5
648
330
A
100
AcDbEntity
  8
0
  6
Continuous
 62
     7
100
AcDbCircle
 10
30.00000000358864
 20
100.0
 30
0.0
 40
2.0
  0
CIRCLE
  5
649
330
A
100
AcDbEntity
  8
0
  6
Continuous
 62
     7
100
AcDbCircle
 10
-29.99999236701683
 20
100.0
 30
0.0
 40
2.0
  0
LINE
  5
64E
330
A
100
AcDbEntity
  8
0
  6
CENTER
 62
     2
100
AcDbLine
 10
0.0
 20
70.0
 30
0.0
 11
0.0
 21
130.0
 31
0.0
  0
CIRCLE
  5
651
330
A
100
AcDbEntity
  8
0
  6
Continuous
 62
     2
100
AcDbCircle
 10
0.0
 20
38.5
 30
0.0
 40
2.0
  0
CIRCLE
  5
652
330
A
100
AcDbEntity
  8
0
  6
Continuous
 62
     2
100
AcDbCircle
 10
-30.0
 20
38.5
 30
0.0
 40
2.0
  0
CIRCLE
  5
653
330
A
100
AcDbEntity
  8
0
  6
Continuous
 62
     2
100
AcDbCircle
 10
30.0
 20
38.5
 30
0.0
 40
2.0
  0
LINE
  5
654
330
A
100
AcDbEntity
  8
0
  6
Continuous
 62
     7
100
AcDbLine
 10
-43.0
 20
30.13397216796875
 30
0.0
 11
43.0
 21
30.13397216796875
 31
0.0
  0
LINE
  5
655
330
A
100
AcDbEntity
  8
0
  6
Continuous
 62
     7
100
AcDbLine
 10
-43.0
 20
31.86602783203125
 30
0.0
 11
43.0
 21
31.86602783203125
 31
0.0
  0
LINE
  5
656
330
A
100
AcDbEntity
  8
0
  6
Continuous
 62
     7
100
AcDbLine
 10
-43.0
 20
26.59999847412109
 30
0.0
 11
43.0
 21
26.59999847412109
 31
0.0
  0
LINE
  5
657
330
A
100
AcDbEntity
  8
0
  6
Continuous
 62
     7
100
AcDbLine
 10
-43.0
 20
23.40000152587891
 30
0.0
 11
43.0
 21
23.40000152587891
 31
0.0
  0
LINE
  5
658
330
A
100
AcDbEntity
  8
0
  6
CENTER
 62
     2
100
AcDbLine
 10
-59.60000000018018
 20
29.0
 30
0.0
 11
47.49999999623117
 21
29.0
 31
0.0
  0
LINE
  5
659
330
A
100
AcDbEntity
  8
0
  6
Continuous
 62
     7
100
AcDbLine
 10
17.0
 20
49.5
 30
0.0
 11
16.0
 21
49.5
 31
0.0
  0
LINE
  5
65A
330
A
100
AcDbEntity
  8
0
  6
Continuous
 62
     7
100
AcDbLine
 10
44.0
 20
49.5
 30
0.0
 11
43.0
 21
49.5
 31
0.0
  0
LINE
  5
65B
330
A
100
AcDbEntity
  8
0
  6
Continuous
 62
     7
100
AcDbLine
 10
44.0
 20
49.5
 30
0.0
 11
44.0
 21
43.00000381469726
 31
0.0
  0
LINE
  5
65C
330
A
100
AcDbEntity
  8
0
  6
Continuous
 62
     7
100
AcDbLine
 10
43.0
 20
51.0
 30
0.0
 11
43.0
 21
43.00000381469726
 31
0.0
  0
LINE
  5
65D
330
A
100
AcDbEntity
  8
0
  6
Continuous
 62
     7
100
AcDbLine
 10
16.0
 20
49.5
 30
0.0
 11
16.0
 21
43.00000381469726
 31
0.0
  0
LINE
  5
65E
330
A
100
AcDbEntity
  8
0
  6
Continuous
 62
     7
100
AcDbLine
 10
17.0
 20
51.0
 30
0.0
 11
17.0
 21
43.00000381469726
 31
0.0
  0
LINE
  5
65F
330
A
100
AcDbEntity
  8
0
  6
Continuous
 62
     7
100
AcDbLine
 10
-17.0
 20
49.5
 30
0.0
 11
-16.0
 21
49.5
 31
0.0
  0
LINE
  5
660
330
A
100
AcDbEntity
  8
0
  6
Continuous
 62
     7
100
AcDbLine
 10
-44.0
 20
49.5
 30
0.0
 11
-43.0
 21
49.5
 31
0.0
  0
LINE
  5
661
330
A
100
AcDbEntity
  8
0
  6
Continuous
 62
     7
100
AcDbLine
 10
-44.0
 20
49.5
 30
0.0
 11
-44.0
 21
43.00000381469726
 31
0.0
  0
LINE
  5
662
330
A
100
AcDbEntity
  8
0
  6
Continuous
 62
     7
100
AcDbLine
 10
-43.0
 20
51.0
 30
0.0
 11
-43.0
 21
43.00000381469726
 31
0.0
  0
LINE
  5
663
330
A
100
AcDbEntity
  8
0
  6
Continuous
 62
     7
100
AcDbLine
 10
-16.0
 20
49.5
 30
0.0
 11
-16.0
 21
43.00000381469726
 31
0.0
  0
LINE
  5
664
330
A
100
AcDbEntity
  8
0
  6
Continuous
 62
     7
100
AcDbLine
 10
-17.0
 20
51.0
 30
0.0
 11
-17.0
 21
43.00000381469726
 31
0.0
  0
LINE
  5
665
330
A
100
AcDbEntity
  8
0
  6
Continuous
 62
     7
100
AcDbLine
 10
-16.0
 20
45.50000381469726
 30
0.0
 11
16.0
 21
45.50000381469726
 31
0.0
  0
LINE
  5
666
330
A
100
AcDbEntity
  8
0
  6
Continuous
 62
     7
100
AcDbLine
 10
17.0
 20
51.0
 30
0.0
 11
43.0
 21
51.0
 31
0.0
  0
LINE
  5
667
330
A
100
AcDbEntity
  8
0
  6
Continuous
 62
     7
100
AcDbLine
 10
-43.0
 20
51.0
 30
0.0
 11
-17.0
 21
51.0
 31
0.0
  0
LINE
  5
668
330
A
100
AcDbEntity
  8
0
  6
Continuous
 62
     7
100
AcDbLine
 10
-43.0
 20
43.00000381469726
 30
0.0
 11
43.0
 21
43.00000381469726
 31
0.0
  0
LINE
  5
669
330
A
100
AcDbEntity
  8
0
  6
Continuous
 62
     7
100
AcDbLine
 10
-43.0
 20
20.0
 30
0.0
 11
43.0
 21
20.0
 31
0.0
  0
LINE
  5
66A
330
A
100
AcDbEntity
  8
0
  6
Continuous
 62
     7
100
AcDbLine
 10
43.0
 20
43.00000381469726
 30
0.0
 11
43.0
 21
20.0
 31
0.0
  0
LINE
  5
66B
330
A
100
AcDbEntity
  8
0
  6
Continuous
 62
     7
100
AcDbLine
 10
-43.0
 20
43.00000381469726
 30
0.0
 11
-43.0
 21
20.0
 31
0.0
  0
LINE
  5
66C
330
A
100
AcDbEntity
  8
0
  6
Continuous
 62
     7
100
AcDbLine
 10
43.0
 20
43.00000381469726
 30
0.0
 11
44.0
 21
43.00000381469726
 31
0.0
  0
LINE
  5
66D
330
A
100
AcDbEntity
  8
0
  6
Continuous
 62
     7
100
AcDbLine
 10
-44.0
 20
43.00000381469726
 30
0.0
 11
-43.0
 21
43.00000381469726
 31
0.0
  0
CIRCLE
  5
66E
330
A
100
AcDbEntity
  8
0
  6
Continuous
 62
     7
100
AcDbCircle
 10
30.0
 20
38.5
 30
0.0
 40
1.620999999999999
  0
CIRCLE
  5
66F
330
A
100
AcDbEntity
  8
0
  6
Continuous
 62
     7
100
AcDbCircle
 10
0.0
 20
38.5
 30
0.0
 40
1.620999999999999
  0
CIRCLE
  5
670
330
A
100
AcDbEntity
  8
0
  6
Continuous
 62
     7
100
AcDbCircle
 10
-30.0
 20
38.5
 30
0.0
 40
1.620999999999999
  0
LINE
  5
671
330
A
100
AcDbEntity
  8
0
  6
Continuous
 62
     2
100
AcDbLine
 10
37.49999999981981
 20
49.5
 30
0.0
 11
37.49999999981981
 21
52.5
 31
0.0
  0
LINE
  5
672
330
A
100
AcDbEntity
  8
0
  6
Continuous
 62
     2
100
AcDbLine
 10
22.49999999981981
 20
49.5
 30
0.0
 11
22.49999999981981
 21
52.5
 31
0.0
  0
LINE
  5
673
330
A
100
AcDbEntity
  8
0
  6
Continuous
 62
     2
100
AcDbLine
 10
-22.49999237078567
 20
49.5
 30
0.0
 11
-22.49999237078567
 21
52.5
 31
0.0
  0
LINE
  5
674
330
A
100
AcDbEntity
  8
0
  6
Continuous
 62
     2
100
AcDbLine
 10
-37.49999237078566
 20
49.5
 30
0.0
 11
-37.49999237078566
 21
52.5
 31
0.0
  0
LINE
  5
675
330
A
100
AcDbEntity
  8
0
  6
Continuous
 62
     2
100
AcDbLine
 10
-20.00000000018019
 20
41.50000381469726
 30
0.0
 11
-20.00000000018019
 21
44.50000381469727
 31
0.0
  0
LINE
  5
676
330
A
100
AcDbEntity
  8
0
  6
Continuous
 62
     2
100
AcDbLine
 10
19.9999999998198
 20
41.50000381469726
 30
0.0
 11
19.9999999998198
 21
44.50000381469727
 31
0.0
  0
LINE
  5
677
330
A
100
AcDbEntity
  8
0
  6
Continuous
 62
     2
100
AcDbLine
 10
30.0
 20
34.75
 30
0.0
 11
30.0
 21
42.25
 31
0.0
  0
LINE
  5
678
330
A
100
AcDbEntity
  8
0
  6
Continuous
 62
     2
100
AcDbLine
 10
26.25
 20
38.5
 30
0.0
 11
33.75
 21
38.5
 31
0.0
  0
LINE
  5
679
330
A
100
AcDbEntity
  8
0
  6
Continuous
 62
     2
100
AcDbLine
 10
-30.0
 20
34.75
 30
0.0
 11
-30.0
 21
42.25
 31
0.0
  0
LINE
  5
67A
330
A
100
AcDbEntity
  8
0
  6
Continuous
 62
     2
100
AcDbLine
 10
-33.75
 20
38.5
 30
0.0
 11
-26.25
 21
38.5
 31
0.0
  0
LINE
  5
67B
330
A
100
AcDbEntity
  8
0
  6
Continuous
 62
     2
100
AcDbLine
 10
-3.75
 20
38.5
 30
0.0
 11
3.75
 21
38.5
 31
0.0
  0
LINE
  5
68F
330
A
100
AcDbEntity
  8
0
  6
Continuous
 62
     2
100
AcDbLine
 10
-24.99999231118102
 20
18.5
 30
0.0
 11
-24.99999231118102
 21
21.5
 31
0.0
  0
LINE
  5
690
330
A
100
AcDbEntity
  8
0
  6
Continuous
 62
     2
100
AcDbLine
 10
-17.49999231118102
 20
18.5
 30
0.0
 11
-17.49999231118102
 21
21.5
 31
0.0
  0
LINE
  5
691
330
A
100
AcDbEntity
  8
0
  6
Continuous
 62
     2
100
AcDbLine
 10
17.50000005942445
 20
18.5
 30
0.0
 11
17.50000005942445
 21
21.5
 31
0.0
  0
LINE
  5
692
330
A
100
AcDbEntity
  8
0
  6
Continuous
 62
     2
100
AcDbLine
 10
25.00000005942445
 20
18.5
 30
0.0
 11
25.00000005942445
 21
21.5
 31
0.0
  0
LINE
  5
693
330
A
100
AcDbEntity
  8
0
  6
CENTER
 62
     2
100
AcDbLine
 10
0.0
 20
14.36602783203125
 30
0.0
 11
0.0
 21
54.36602783203125
 31
0.0
  0
CIRCLE
  5
694
330
A
100
AcDbEntity
  8
0
  6
Continuous
 62
     7
100
AcDbCircle
 10
0.0000001963482035
 20
-30.0
 30
0.0
 40
5.0
  0
CIRCLE
  5
695
330
A
100
AcDbEntity
  8
0
  6
Continuous
 62
     7
100
AcDbCircle
 10
0.0000001963482035
 20
-30.0
 30
0.0
 40
2.0
  0
ARC
  5
696
330
A
100
AcDbEntity
  8
0
  6
Continuous
 62
     7
100
AcDbCircle
 10
16.0000001963482
 20
-30.0
 30
0.0
 40
1.5
100
AcDbArc
 50
90.00000250447815
 51
270.0000006832453
  0
ARC
  5
697
330
A
100
AcDbEntity
  8
0
  6
Continuous
 62
     7
100
AcDbCircle
 10
19.0000001963482
 20
-30.0
 30
0.0
 40
1.5
100
AcDbArc
 50
269.9999974955218
 51
90.00000250447815
  0
CIRCLE
  5
698
330
A
100
AcDbEntity
  8
0
  6
Continuous
 62
     7
100
AcDbCircle
 10
-17.49999217425726
 20
-30.0
 30
0.0
 40
1.5
  0
CIRCLE
  5
699
330
A
100
AcDbEntity
  8
0
  6
Continuous
 62
     2
100
AcDbCircle
 10
-24.99999217425727
 20
-30.0
 30
0.0
 40
2.5
  0
CIRCLE
  5
69A
330
A
100
AcDbEntity
  8
0
  6
Continuous
 62
     2
100
AcDbCircle
 10
25.0000001963482
 20
-30.0
 30
0.0
 40
2.5
  0
LINE
  5
69D
330
A
100
AcDbEntity
  8
0
  6
Continuous
 62
     7
100
AcDbLine
 10
16.0000001963482
 20
-28.5
 30
0.0
 11
19.0000001963482
 21
-28.5
 31
0.0
  0
LINE
  5
69E
330
A
100
AcDbEntity
  8
0
  6
Continuous
 62
     7
100
AcDbLine
 10
16.0000001963482
 20
-31.5
 30
0.0
 11
19.0000001963482
 21
-31.5
 31
0.0
  0
LINE
  5
69F
330
A
100
AcDbEntity
  8
0
  6
Continuous
 62
     2
100
AcDbLine
 10
16.0000001963482
 20
-33.50000000000001
 30
0.0
 11
16.0000001963482
 21
-26.5
 31
0.0
  0
LINE
  5
6A0
330
A
100
AcDbEntity
  8
0
  6
Continuous
 62
     2
100
AcDbLine
 10
19.0000001963482
 20
-33.50000000000001
 30
0.0
 11
19.0000001963482
 21
-26.5
 31
0.0
  0
LINE
  5
6A4
330
A
100
AcDbEntity
  8
0
  6
Continuous
 62
     2
100
AcDbLine
 10
-17.49999217425726
 20
-33.50000000000001
 30
0.0
 11
-17.49999217425726
 21
-26.5
 31
0.0
  0
LINE
  5
6A5
330
A
100
AcDbEntity
  8
0
  6
Continuous
 62
     7
100
AcDbLine
 10
42.49999791383742
 20
-6.0
 30
0.0
 11
43.00000017881393
 21
-6.500002205371856
 31
0.0
  0
LINE
  5
6A6
330
A
100
AcDbEntity
  8
0
  6
Continuous
 62
     7
100
AcDbLine
 10
-42.49999779462815
 20
-6.0
 30
0.0
 11
42.49999791383742
 21
-6.0
 31
0.0
  0
LINE
  5
6A7
330
A
100
AcDbEntity
  8
0
  6
Continuous
 62
     7
100
AcDbLine
 10
-42.99999982118606
 20
-53.50000041723252
 30
0.0
 11
-42.50000019627177
 21
-54.0
 31
0.0
  0
LINE
  5
6A8
330
A
100
AcDbEntity
  8
0
  6
Continuous
 62
     7
100
AcDbLine
 10
42.50000703334808
 20
-54.00000005960464
 30
0.0
 11
43.00000017881393
 21
-53.50000691413879
 31
0.0
  0
LINE
  5
6A9
330
A
100
AcDbEntity
  8
0
  6
Continuous
 62
     7
100
AcDbLine
 10
-42.50000017881394
 20
-54.0
 30
0.0
 11
42.50000709295273
 21
-54.0
 31
0.0
  0
LINE
  5
6AA
330
A
100
AcDbEntity
  8
0
  6
Continuous
 62
     7
100
AcDbLine
 10
-42.99999988079071
 20
-6.500001966953281
 30
0.0
 11
-42.49999779462815
 21
-5.999999940395355
 31
0.0
  0
LINE
  5
6AB
330
A
100
AcDbEntity
  8
0
  6
CENTER
 62
     2
100
AcDbLine
 10
-47.49999986684507
 20
-30.0
 30
0.0
 11
47.50000013315492
 21
-30.0
 31
0.0
  0
LINE
  5
6AC
330
A
100
AcDbEntity
  8
0
  6
Continuous
 62
     7
100
AcDbLine
 10
43.00000019634819
 20
-53.50000691413879
 30
0.0
 11
43.00000019634819
 21
-6.500002174556069
 31
0.0
  0
LINE
  5
6AD
330
A
100
AcDbEntity
  8
0
  6
Continuous
 62
     7
100
AcDbLine
 10
-42.9999998036518
 20
-53.50000041723252
 30
0.0
 11
-42.9999998036518
 21
-6.500001907348629
 31
0.0
  0
LINE
  5
6AE
330
A
100
AcDbEntity
  8
0
  6
Continuous
 62
     2
100
AcDbLine
 10
17.5000001963482
 20
-34.00000000000001
 30
0.0
 11
17.5000001963482
 21
-26.0
 31
0.0
  0
LINE
  5
6AF
330
A
100
AcDbEntity
  8
0
  6
Continuous
 62
     7
100
AcDbLine
 10
44.00000019634819
 20
-41.99999998521889
 30
0.0
 11
44.00000019634819
 21
-17.99999998521889
 31
0.0
  0
LINE
  5
6B1
330
A
100
AcDbEntity
  8
0
  6
Continuous
 62
     7
100
AcDbLine
 10
43.00000019634819
 20
-18.0
 30
0.0
 11
44.00000019634819
 21
-18.0
 31
0.0
  0
LINE
  5
6B2
330
A
100
AcDbEntity
  8
0
  6
Continuous
 62
     7
100
AcDbLine
 10
43.00000019634819
 20
-42.00000000000001
 30
0.0
 11
44.00000019634819
 21
-42.00000000000001
 31
0.0
  0
CIRCLE
  5
6B4
330
A
100
AcDbEntity
  8
0
  6
Continuous
 62
     7
100
AcDbCircle
 10
25.0000001963482
 20
-30.0
 30
0.0
 40
2.067
  0
CIRCLE
  5
6B5
330
A
100
AcDbEntity
  8
0
  6
Continuous
 62
     7
100
AcDbCircle
 10
-24.99999217425727
 20
-30.0
 30
0.0
 40
2.067
  0
LINE
  5
6B6
330
A
100
AcDbEntity
  8
0
  6
Continuous
 62
     2
100
AcDbLine
 10
-29.99999988133559
 20
-7.500000006215721
 30
0.0
 11
-29.99999988133559
 21
-4.500000006215721
 31
0.0
  0
LINE
  5
6B7
330
A
100
AcDbEntity
  8
0
  6
Continuous
 62
     2
100
AcDbLine
 10
30.00000011866442
 20
-7.500000006215721
 30
0.0
 11
30.00000011866442
 21
-4.500000006215721
 31
0.0
  0
LINE
  5
6B8
330
A
100
AcDbEntity
  8
0
  6
Continuous
 62
     2
100
AcDbLine
 10
41.00000011848422
 20
-19.50000000621571
 30
0.0
 11
46.00000011848422
 21
-19.50000000621571
 31
0.0
  0
LINE
  5
6B9
330
A
100
AcDbEntity
  8
0
  6
Continuous
 62
     2
100
AcDbLine
 10
41.00000011848422
 20
-40.50000000621571
 30
0.0
 11
46.00000011848422
 21
-40.50000000621571
 31
0.0
  0
LINE
  5
6BA
330
A
100
AcDbEntity
  8
0
  6
Continuous
 62
     2
100
AcDbLine
 10
25.0000001963482
 20
-34.00000000000001
 30
0.0
 11
25.0000001963482
 21
-26.0
 31
0.0
  0
LINE
  5
6BB
330
A
100
AcDbEntity
  8
0
  6
Continuous
 62
     2
100
AcDbLine
 10
-24.99999217425727
 20
-34.00000000000001
 30
0.0
 11
-24.99999217425727
 21
-26.0
 31
0.0
  0
LINE
  5
6D7
330
A
100
AcDbEntity
  8
0
  6
Continuous
 62
     2
100
AcDbLine
 10
-29.99999988133559
 20
-52.49999999378428
 30
0.0
 11
-29.99999988133559
 21
-55.49999999378428
 31
0.0
  0
LINE
  5
6D8
330
A
100
AcDbEntity
  8
0
  6
Continuous
 62
     2
100
AcDbLine
 10
30.00000011866442
 20
-52.49999999378428
 30
0.0
 11
30.00000011866442
 21
-55.49999999378428
 31
0.0
  0
LINE
  5
6D9
330
A
100
AcDbEntity
  8
0
  6
CENTER
 62
     2
100
AcDbLine
 10
0.0000000000000018
 20
-59.99999980102467
 30
0.0
 11
0.0000000000000018
 21
0.0000001989753251
 31
0.0
  0
LINE
  5
6DA
330
A
100
AcDbEntity
  8
0
  6
Continuous
 62
     7
100
AcDbLine
 10
-142.5000879292646
 20
22.9
 30
0.0
 11
-140.9000015258789
 21
22.9
 31
0.0
  0
LINE
  5
6DB
330
A
100
AcDbEntity
  8
0
  6
Continuous
 62
     7
100
AcDbLine
 10
-142.4999427356063
 20
27.1
 30
0.0
 11
-140.9000015258789
 21
27.1
 31
0.0
  0
LINE
  5
6DC
330
A
100
AcDbEntity
  8
0
  6
Continuous
 62
     7
100
AcDbLine
 10
-99.10000610351563
 20
22.9
 30
0.0
 11
-97.49997734477103
 21
22.9
 31
0.0
  0
LINE
  5
6DD
330
A
100
AcDbEntity
  8
0
  6
Continuous
 62
     7
100
AcDbLine
 10
-99.10000610351563
 20
27.1
 30
0.0
 11
-97.5000578008656
 21
27.1
 31
0.0
  0
ARC
  5
6DE
330
A
100
AcDbEntity
  8
0
  6
Continuous
 62
     7
100
AcDbCircle
 10
-140.9000015258789
 20
25.0
 30
0.0
 40
2.099999904632568
100
AcDbArc
 50
270.0
 51
90.00000250447845
  0
CIRCLE
  5
6DF
330
A
100
AcDbEntity
  8
0
  6
Continuous
 62
     7
100
AcDbCircle
 10
-109.5
 20
29.0
 30
0.0
 40
3.5
  0
ARC
  5
6E0
330
A
100
AcDbEntity
  8
0
  6
Continuous
 62
     7
100
AcDbCircle
 10
-113.5
 20
43.69999694824218
 30
0.0
 40
1.0
100
AcDbArc
 50
90.00000250447845
 51
269.9999733624887
  0
ARC
  5
6E1
330
A
100
AcDbEntity
  8
0
  6
Continuous
 62
     7
100
AcDbCircle
 10
-113.75
 20
43.69999694824218
 30
0.0
 40
1.299999952316284
100
AcDbArc
 50
78.91250178328296
 51
281.0874194421708
  0
ARC
  5
6E2
330
A
100
AcDbEntity
  8
0
  6
Continuous
 62
     7
100
AcDbCircle
 10
-126.25
 20
43.69999694824218
 30
0.0
 40
1.299999952316284
100
AcDbArc
 50
258.9125172648946
 51
98.29745974218218
  0
ARC
  5
6E3
330
A
100
AcDbEntity
  8
0
  6
Continuous
 62
     7
100
AcDbCircle
 10
-126.5
 20
43.69999694824218
 30
0.0
 40
1.0
100
AcDbArc
 50
269.999977004954
 51
90.00000250447845
  0
ARC
  5
6E4
330
A
100
AcDbEntity
  8
0
  6
Continuous
 62
     7
100
AcDbCircle
 10
-143.5
 20
42.5
 30
0.0
 40
0.5
100
AcDbArc
 50
90.00000250447845
 51
179.9999776881996
  0
ARC
  5
6E5
330
A
100
AcDbEntity
  8
0
  6
Continuous
 62
     7
100
AcDbCircle
 10
-96.5
 20
42.5
 30
0.0
 40
0.5
100
AcDbArc
 50
0.0000179860890374
 51
90.00000250447845
  0
ARC
  5
6E6
330
A
100
AcDbEntity
  8
0
  6
Continuous
 62
     7
100
AcDbCircle
 10
-99.10000610351563
 20
25.0
 30
0.0
 40
2.099999904632568
100
AcDbArc
 50
90.0
 51
270.0000006832454
  0
CIRCLE
  5
6E7
330
A
100
AcDbEntity
  8
0
  6
Continuous
 62
     7
100
AcDbCircle
 10
-109.5
 20
29.0
 30
0.0
 40
7.5
  0
CIRCLE
  5
6E8
330
A
100
AcDbEntity
  8
0
  6
Continuous
 62
     7
100
AcDbCircle
 10
-130.5
 20
29.0
 30
0.0
 40
7.5
  0
ARC
  5
6E9
330
A
100
AcDbEntity
  8
0
  6
Continuous
 62
     7
100
AcDbCircle
 10
-95.5
 20
31.0
 30
0.0
 40
1.0
100
AcDbArc
 50
119.9999350374128
 51
240.0000886408788
  0
LINE
  5
6EA
330
A
100
AcDbEntity
  8
0
  6
Continuous
 62
     7
100
AcDbLine
 10
-142.999936674237
 20
26.60000610351563
 30
0.0
 11
-144.0
 21
26.60000610351563
 31
0.0
  0
LINE
  5
6EB
330
A
100
AcDbEntity
  8
0
  6
Continuous
 62
     7
100
AcDbLine
 10
-142.4999427356063
 20
27.1
 30
0.0
 11
-142.999936674237
 21
26.60000610351563
 31
0.0
  0
LINE
  5
6EC
330
A
100
AcDbEntity
  8
0
  6
Continuous
 62
     7
100
AcDbLine
 10
-142.500045432414
 20
22.89995750315302
 30
0.0
 11
-143.0000818678953
 21
23.39999389648438
 31
0.0
  0
LINE
  5
6ED
330
A
100
AcDbEntity
  8
0
  6
Continuous
 62
     7
100
AcDbLine
 10
-143.0000818678953
 20
23.39999389648438
 30
0.0
 11
-144.0
 21
23.39999389648438
 31
0.0
  0
LINE
  5
6EE
330
A
100
AcDbEntity
  8
0
  6
Continuous
 62
     7
100
AcDbLine
 10
-96.0
 20
31.86602783203125
 30
0.0
 11
-96.0
 21
42.5
 31
0.0
  0
LINE
  5
6EF
330
A
100
AcDbEntity
  8
0
  6
Continuous
 62
     7
100
AcDbLine
 10
-107.500023657346
 20
49.49999760851732
 30
0.0
 11
-108.0000245253159
 21
49.99999784428382
 31
0.0
  0
LINE
  5
6F0
330
A
100
AcDbEntity
  8
0
  6
Continuous
 62
     7
100
AcDbLine
 10
-107.9999965857078
 20
41.50000965696199
 30
0.0
 11
-107.499996054913
 21
42.00001018775674
 31
0.0
  0
LINE
  5
6F1
330
A
100
AcDbEntity
  8
0
  6
Continuous
 62
     7
100
AcDbLine
 10
-132.4999956206679
 20
49.50002354447452
 30
0.0
 11
-131.9999950898732
 21
50.00002407526927
 31
0.0
  0
LINE
  5
6F2
330
A
100
AcDbEntity
  8
0
  6
Continuous
 62
     7
100
AcDbLine
 10
-131.9999735106871
 20
41.50002584135154
 30
0.0
 11
-132.4999740414819
 21
42.00002637214629
 31
0.0
  0
LINE
  5
6F3
330
A
100
AcDbEntity
  8
0
  6
Continuous
 62
     7
100
AcDbLine
 10
-107.5
 20
42.0
 30
0.0
 11
-107.5
 21
49.5
 31
0.0
  0
LINE
  5
6F4
330
A
100
AcDbEntity
  8
0
  6
Continuous
 62
     7
100
AcDbLine
 10
-113.5
 20
41.5
 30
0.0
 11
-108.0
 21
41.5
 31
0.0
  0
LINE
  5
6F5
330
A
100
AcDbEntity
  8
0
  6
Continuous
 62
     7
100
AcDbLine
 10
-114.0
 20
44.97573852539062
 30
0.0
 11
-114.0
 21
45.49999999999999
 31
0.0
  0
LINE
  5
6F6
330
A
100
AcDbEntity
  8
0
  6
Continuous
 62
     7
100
AcDbLine
 10
-113.5
 20
44.69999694824219
 30
0.0
 11
-113.5
 21
46.30000305175781
 31
0.0
  0
LINE
  5
6F7
330
A
100
AcDbEntity
  8
0
  6
Continuous
 62
     7
100
AcDbLine
 10
-113.75
 20
45.0
 30
0.0
 11
-113.75
 21
46.0
 31
0.0
  0
LINE
  5
6F8
330
A
100
AcDbEntity
  8
0
  6
Continuous
 62
     7
100
AcDbLine
 10
-113.5
 20
41.5
 30
0.0
 11
-113.5
 21
42.69999694824218
 31
0.0
  0
LINE
  5
6F9
330
A
100
AcDbEntity
  8
0
  6
Continuous
 62
     7
100
AcDbLine
 10
-113.75
 20
41.0
 30
0.0
 11
-113.75
 21
42.39999389648438
 31
0.0
  0
LINE
  5
6FA
330
A
100
AcDbEntity
  8
0
  6
Continuous
 62
     7
100
AcDbLine
 10
-126.5
 20
46.30000305175781
 30
0.0
 11
-113.5
 21
46.30000305175781
 31
0.0
  0
LINE
  5
6FB
330
A
100
AcDbEntity
  8
0
  6
Continuous
 62
     7
100
AcDbLine
 10
-126.25
 20
45.0
 30
0.0
 11
-126.25
 21
46.0
 31
0.0
  0
LINE
  5
6FC
330
A
100
AcDbEntity
  8
0
  6
Continuous
 62
     7
100
AcDbLine
 10
-126.25
 20
41.0
 30
0.0
 11
-126.25
 21
42.39999389648438
 31
0.0
  0
LINE
  5
6FD
330
A
100
AcDbEntity
  8
0
  6
Continuous
 62
     7
100
AcDbLine
 10
-132.0
 20
50.0
 30
0.0
 11
-108.0
 21
50.0
 31
0.0
  0
LINE
  5
6FE
330
A
100
AcDbEntity
  8
0
  6
Continuous
 62
     7
100
AcDbLine
 10
-132.5
 20
42.0
 30
0.0
 11
-132.5
 21
49.5
 31
0.0
  0
LINE
  5
6FF
330
A
100
AcDbEntity
  8
0
  6
Continuous
 62
     7
100
AcDbLine
 10
-113.499959032502
 20
51.0
 30
0.0
 11
-106.5
 21
51.0
 31
0.0
  0
LINE
  5
700
330
A
100
AcDbEntity
  8
0
  6
Continuous
 62
     7
100
AcDbLine
 10
-113.9999589903552
 20
50.5
 30
0.0
 11
-113.499959032502
 21
51.0
 31
0.0
  0
LINE
  5
701
330
A
100
AcDbEntity
  8
0
  6
Continuous
 62
     7
100
AcDbLine
 10
-126.0000380800233
 20
50.5
 30
0.0
 11
-113.9999589903552
 21
50.5
 31
0.0
  0
LINE
  5
702
330
A
100
AcDbEntity
  8
0
  6
Continuous
 62
     7
100
AcDbLine
 10
-126.0000380800233
 20
50.5
 30
0.0
 11
-126.5000380378765
 21
51.0
 31
0.0
  0
LINE
  5
703
330
A
100
AcDbEntity
  8
0
  6
Continuous
 62
     7
100
AcDbLine
 10
-132.0
 20
41.5
 30
0.0
 11
-126.5
 21
41.5
 31
0.0
  0
LINE
  5
704
330
A
100
AcDbEntity
  8
0
  6
Continuous
 62
     7
100
AcDbLine
 10
-126.5
 20
44.69999694824219
 30
0.0
 11
-126.5
 21
46.30000305175781
 31
0.0
  0
LINE
  5
705
330
A
100
AcDbEntity
  8
0
  6
Continuous
 62
     7
100
AcDbLine
 10
-126.0
 20
44.97573852539062
 30
0.0
 11
-126.0
 21
45.49999999999999
 31
0.0
  0
LINE
  5
706
330
A
100
AcDbEntity
  8
0
  6
Continuous
 62
     7
100
AcDbLine
 10
-126.5
 20
41.5
 30
0.0
 11
-126.5
 21
42.69999694824218
 31
0.0
  0
LINE
  5
707
330
A
100
AcDbEntity
  8
0
  6
Continuous
 62
     7
100
AcDbLine
 10
-126.25
 20
46.0
 30
0.0
 11
-113.75
 21
46.0
 31
0.0
  0
LINE
  5
708
330
A
100
AcDbEntity
  8
0
  6
Continuous
 62
     7
100
AcDbLine
 10
-123.0427856445312
 20
28.19999694824219
 30
0.0
 11
-116.9572143554687
 21
28.19999694824219
 31
0.0
  0
LINE
  5
709
330
A
100
AcDbEntity
  8
0
  6
Continuous
 62
     7
100
AcDbLine
 10
-123.0427856445312
 20
29.80000305175781
 30
0.0
 11
-116.9572143554687
 21
29.80000305175781
 31
0.0
  0
LINE
  5
70A
330
A
100
AcDbEntity
  8
0
  6
Continuous
 62
     7
100
AcDbLine
 10
-135.0
 20
37.0
 30
0.0
 11
-135.0
 21
43.0
 31
0.0
  0
LINE
  5
70B
330
A
100
AcDbEntity
  8
0
  6
Continuous
 62
     7
100
AcDbLine
 10
-105.0
 20
37.0
 30
0.0
 11
-105.0
 21
43.0
 31
0.0
  0
LINE
  5
70C
330
A
100
AcDbEntity
  8
0
  6
Continuous
 62
     7
100
AcDbLine
 10
-106.0
 20
37.30000305175781
 30
0.0
 11
-106.0
 21
41.0
 31
0.0
  0
LINE
  5
70D
330
A
100
AcDbEntity
  8
0
  6
Continuous
 62
     7
100
AcDbLine
 10
-106.0
 20
37.30000305175781
 30
0.0
 11
-113.0
 21
37.30000305175781
 31
0.0
  0
LINE
  5
70E
330
A
100
AcDbEntity
  8
0
  6
Continuous
 62
     7
100
AcDbLine
 10
-113.0
 20
37.30000305175781
 30
0.0
 11
-113.0
 21
41.0
 31
0.0
  0
LINE
  5
70F
330
A
100
AcDbEntity
  8
0
  6
Continuous
 62
     7
100
AcDbLine
 10
-126.0
 20
45.49999999999999
 30
0.0
 11
-114.0
 21
45.49999999999999
 31
0.0
  0
LINE
  5
710
330
A
100
AcDbEntity
  8
0
  6
Continuous
 62
     7
100
AcDbLine
 10
-113.0
 20
40.69999694824218
 30
0.0
 11
-106.0
 21
40.69999694824218
 31
0.0
  0
LINE
  5
711
330
A
100
AcDbEntity
  8
0
  6
Continuous
 62
     7
100
AcDbLine
 10
-134.0
 20
40.69999694824218
 30
0.0
 11
-127.0
 21
40.69999694824218
 31
0.0
  0
LINE
  5
712
330
A
100
AcDbEntity
  8
0
  6
Continuous
 62
     7
100
AcDbLine
 10
-127.0
 20
37.30000305175781
 30
0.0
 11
-127.0
 21
41.0
 31
0.0
  0
LINE
  5
713
330
A
100
AcDbEntity
  8
0
  6
Continuous
 62
     7
100
AcDbLine
 10
-134.0
 20
37.30000305175781
 30
0.0
 11
-134.0
 21
41.0
 31
0.0
  0
LINE
  5
714
330
A
100
AcDbEntity
  8
0
  6
Continuous
 62
     7
100
AcDbLine
 10
-105.0
 20
43.0
 30
0.0
 11
-96.5
 21
43.0
 31
0.0
  0
LINE
  5
715
330
A
100
AcDbEntity
  8
0
  6
Continuous
 62
     7
100
AcDbLine
 10
-143.5
 20
43.0
 30
0.0
 11
-135.0
 21
43.0
 31
0.0
  0
LINE
  5
716
330
A
100
AcDbEntity
  8
0
  6
Continuous
 62
     7
100
AcDbLine
 10
-144.0
 20
26.60000610351563
 30
0.0
 11
-144.0
 21
42.5
 31
0.0
  0
LINE
  5
717
330
A
100
AcDbEntity
  8
0
  6
Continuous
 62
     7
100
AcDbLine
 10
-144.0
 20
20.0
 30
0.0
 11
-144.0
 21
23.39999389648438
 31
0.0
  0
LINE
  5
718
330
A
100
AcDbEntity
  8
0
  6
Continuous
 62
     7
100
AcDbLine
 10
-144.0
 20
20.0
 30
0.0
 11
-96.0
 21
20.0
 31
0.0
  0
LINE
  5
719
330
A
100
AcDbEntity
  8
0
  6
Continuous
 62
     7
100
AcDbLine
 10
-96.0
 20
26.60000610351563
 30
0.0
 11
-96.0
 21
30.13397216796875
 31
0.0
  0
LINE
  5
71A
330
A
100
AcDbEntity
  8
0
  6
Continuous
 62
     7
100
AcDbLine
 10
-96.99998340614033
 20
23.39999389648438
 30
0.0
 11
-96.0
 21
23.39999389648438
 31
0.0
  0
LINE
  5
71B
330
A
100
AcDbEntity
  8
0
  6
Continuous
 62
     7
100
AcDbLine
 10
-97.49997734477103
 20
22.9
 30
0.0
 11
-96.99998516684855
 21
23.3999921357763
 31
0.0
  0
LINE
  5
71C
330
A
100
AcDbEntity
  8
0
  6
Continuous
 62
     7
100
AcDbLine
 10
-97.0000638622349
 20
26.60000610351563
 30
0.0
 11
-96.0
 21
26.60000610351563
 31
0.0
  0
LINE
  5
71D
330
A
100
AcDbEntity
  8
0
  6
Continuous
 62
     7
100
AcDbLine
 10
-97.5000578008656
 20
27.1
 30
0.0
 11
-97.0000638622349
 21
26.60000610351563
 31
0.0
  0
LINE
  5
71E
330
A
100
AcDbEntity
  8
0
  6
Continuous
 62
     7
100
AcDbLine
 10
-96.0
 20
20.0
 30
0.0
 11
-96.0
 21
23.39999389648438
 31
0.0
  0
LINE
  5
71F
330
A
100
AcDbEntity
  8
0
  6
Continuous
 62
     7
100
AcDbLine
 10
-134.0
 20
41.0
 30
0.0
 11
-126.25
 21
41.0
 31
0.0
  0
LINE
  5
720
330
A
100
AcDbEntity
  8
0
  6
Continuous
 62
     7
100
AcDbLine
 10
-133.5
 20
41.0
 30
0.0
 11
-133.5
 21
51.0
 31
0.0
  0
LINE
  5
721
330
A
100
AcDbEntity
  8
0
  6
Continuous
 62
     7
100
AcDbLine
 10
-134.0
 20
37.30000305175781
 30
0.0
 11
-127.0
 21
37.30000305175781
 31
0.0
  0
LINE
  5
722
330
A
100
AcDbEntity
  8
0
  6
Continuous
 62
     7
100
AcDbLine
 10
-114.0
 20
37.0
 30
0.0
 11
-105.0
 21
37.0
 31
0.0
  0
LINE
  5
723
330
A
100
AcDbEntity
  8
0
  6
Continuous
 62
     7
100
AcDbLine
 10
-126.0
 20
37.0
 30
0.0
 11
-126.0
 21
42.42427062988281
 31
0.0
  0
LINE
  5
724
330
A
100
AcDbEntity
  8
0
  6
Continuous
 62
     7
100
AcDbLine
 10
-114.0
 20
37.0
 30
0.0
 11
-114.0
 21
42.42427062988281
 31
0.0
  0
LINE
  5
725
330
A
100
AcDbEntity
  8
0
  6
Continuous
 62
     7
100
AcDbLine
 10
-113.75
 20
41.0
 30
0.0
 11
-106.0
 21
41.0
 31
0.0
  0
LINE
  5
726
330
A
100
AcDbEntity
  8
0
  6
Continuous
 62
     7
100
AcDbLine
 10
-106.5
 20
41.0
 30
0.0
 11
-106.5
 21
51.0
 31
0.0
  0
LINE
  5
727
330
A
100
AcDbEntity
  8
0
  6
Continuous
 62
     7
100
AcDbLine
 10
-135.0
 20
37.0
 30
0.0
 11
-126.0
 21
37.0
 31
0.0
  0
LINE
  5
728
330
A
100
AcDbEntity
  8
0
  6
Continuous
 62
     7
100
AcDbLine
 10
-126.0
 20
38.0
 30
0.0
 11
-114.0
 21
38.0
 31
0.0
  0
LINE
  5
729
330
A
100
AcDbEntity
  8
0
  6
Continuous
 62
     7
100
AcDbLine
 10
-133.5
 20
51.0
 30
0.0
 11
-126.5000380378765
 21
51.0
 31
0.0
  0
LINE
  5
72A
330
A
100
AcDbEntity
  8
0
  6
Continuous
 62
     2
100
AcDbLine
 10
-109.5
 20
18.0
 30
0.0
 11
-109.5
 21
43.0
 31
0.0
  0
LINE
  5
72B
330
A
100
AcDbEntity
  8
0
  6
Continuous
 62
     2
100
AcDbLine
 10
-130.5
 20
18.0
 30
0.0
 11
-130.5
 21
43.0
 31
0.0
  0
LINE
  5
72C
330
A
100
AcDbEntity
  8
0
  6
Continuous
 62
     2
100
AcDbLine
 10
-99.10000610351563
 20
29.19999980926514
 30
0.0
 11
-99.10000610351563
 21
20.80000019073486
 31
0.0
  0
LINE
  5
72D
330
A
100
AcDbEntity
  8
0
  6
Continuous
 62
     2
100
AcDbLine
 10
-103.3000030517578
 20
25.0
 30
0.0
 11
-93.90000152587891
 21
25.0
 31
0.0
  0
LINE
  5
72E
330
A
100
AcDbEntity
  8
0
  6
Continuous
 62
     2
100
AcDbLine
 10
-140.9000015258789
 20
29.19999980926514
 30
0.0
 11
-140.9000015258789
 21
20.80000019073486
 31
0.0
  0
LINE
  5
72F
330
A
100
AcDbEntity
  8
0
  6
Continuous
 62
     2
100
AcDbLine
 10
-146.0999984741211
 20
25.0
 30
0.0
 11
-136.7000007629394
 21
25.0
 31
0.0
  0
LINE
  5
730
330
A
100
AcDbEntity
  8
0
  6
Continuous
 62
     2
100
AcDbLine
 10
-130.0
 20
49.5
 30
0.0
 11
-130.0
 21
52.5
 31
0.0
  0
LINE
  5
731
330
A
100
AcDbEntity
  8
0
  6
Continuous
 62
     2
100
AcDbLine
 10
-110.0
 20
49.5
 30
0.0
 11
-110.0
 21
52.5
 31
0.0
  0
LINE
  5
732
330
A
100
AcDbEntity
  8
0
  6
Continuous
 62
     2
100
AcDbLine
 10
-145.5
 20
38.5
 30
0.0
 11
-142.5
 21
38.5
 31
0.0
  0
LINE
  5
733
330
A
100
AcDbEntity
  8
0
  6
Continuous
 62
     2
100
AcDbLine
 10
-140.0
 20
41.5
 30
0.0
 11
-140.0
 21
44.5
 31
0.0
  0
LINE
  5
734
330
A
100
AcDbEntity
  8
0
  6
Continuous
 62
     2
100
AcDbLine
 10
-100.0
 20
41.5
 30
0.0
 11
-100.0
 21
44.5
 31
0.0
  0
LINE
  5
735
330
A
100
AcDbEntity
  8
0
  6
Continuous
 62
     2
100
AcDbLine
 10
-97.5
 20
38.5
 30
0.0
 11
-94.50000000000001
 21
38.5
 31
0.0
  0
LINE
  5
740
330
A
100
AcDbEntity
  8
0
  6
Continuous
 62
     7
100
AcDbLine
 10
-109.8999938964843
 20
25.52293395996094
 30
0.0
 11
-109.8999938964843
 21
32.47706604003906
 31
0.0
  0
LINE
  5
741
330
A
100
AcDbEntity
  8
0
  6
Continuous
 62
     7
100
AcDbLine
 10
-109.1000061035156
 20
25.52293395996094
 30
0.0
 11
-109.1000061035156
 21
32.47706604003906
 31
0.0
  0
CIRCLE
  5
742
330
A
100
AcDbEntity
  8
0
  6
Continuous
 62
     7
100
AcDbCircle
 10
-109.5
 20
29.0
 30
0.0
 40
4.5
  0
LINE
  5
743
330
A
100
AcDbEntity
  8
0
  6
CENTER
 62
     2
100
AcDbLine
 10
-147.5
 20
29.0
 30
0.0
 11
-92.5
 21
29.0
 31
0.0
  0
LINE
  5
744
330
A
100
AcDbEntity
  8
0
  6
CENTER
 62
     2
100
AcDbLine
 10
-120.0
 20
14.36602783203125
 30
0.0
 11
-120.0
 21
54.36602783203125
 31
0.0
  0
LINE
  5
745
330
A
100
AcDbEntity
  8
0
 62
     7
100
AcDbLine
 10
-124.726516
 20
28.99998309999998
 30
0.0
 11
-127.613273
 21
33.99999299999999
 31
0.0
  0
LINE
  5
746
330
A
100
AcDbEntity
  8
0
 62
     7
100
AcDbLine
 10
-133.386771
 20
23.99998309999998
 30
0.0
 11
-136.273528
 21
28.99999299999999
 31
0.0
  0
LINE
  5
747
330
A
100
AcDbEntity
  8
0
 62
     7
100
AcDbLine
 10
-127.613251
 20
34.0
 30
0.0
 11
-133.38675
 21
34.0
 31
0.0
  0
LINE
  5
748
330
A
100
AcDbEntity
  8
0
 62
     7
100
AcDbLine
 10
-127.613251
 20
23.99999999999997
 30
0.0
 11
-133.38675
 21
23.99999999999997
 31
0.0
  0
LINE
  5
749
330
A
100
AcDbEntity
  8
0
 62
     7
100
AcDbLine
 10
-127.613209
 20
23.99997359999998
 30
0.0
 11
-124.726459
 21
28.99996939999997
 31
0.0
  0
LINE
  5
74A
330
A
100
AcDbEntity
  8
0
 62
     7
100
AcDbLine
 10
-136.273482
 20
28.99996869999998
 30
0.0
 11
-133.386732
 21
33.99996459999997
 31
0.0
  0
CIRCLE
  5
74B
330
A
100
AcDbEntity
  8
0
 62
     7
100
AcDbCircle
 10
-130.5
 20
29.0
 30
0.0
 40
5.0
  0
CIRCLE
  5
74C
330
A
100
AcDbEntity
  8
0
 62
     7
100
AcDbCircle
 10
-130.5
 20
29.0
 30
0.0
 40
2.5
  0
CIRCLE
  5
74D
330
A
100
AcDbEntity
  8
0
 62
     7
100
AcDbCircle
 10
-130.5
 20
29.0
 30
0.0
 40
3.0
  0
CIRCLE
  5
74E
330
A
100
AcDbEntity
  8
0
 62
     7
100
AcDbCircle
 10
-130.5
 20
29.0
 30
0.0
 40
4.5
  0
LINE
  5
74F
330
A
100
AcDbEntity
  8
0
 62
     7
100
AcDbLine
 10
-48.59999822965181
 20
-43.4000015
 30
0.0
 11
-44.59999822965181
 21
-43.4000015
 31
0.0
  0
LINE
  5
750
330
A
100
AcDbEntity
  8
0
 62
     7
100
AcDbLine
 10
-48.59999822965181
 20
-37.5999985
 30
0.0
 11
-44.59999822965181
 21
-37.5999985
 31
0.0
  0
LINE
  5
751
330
A
100
AcDbEntity
  8
0
 62
     7
100
AcDbLine
 10
-57.59999002965181
 20
-42.9999909
 30
0.0
 11
-57.09998942965182
 21
-43.4999914
 31
0.0
  0
LINE
  5
752
330
A
100
AcDbEntity
  8
0
 62
     7
100
AcDbLine
 10
-57.59999672965181
 20
-38.00001119999999
 30
0.0
 11
-57.09999622965181
 21
-37.50001069999999
 31
0.0
  0
LINE
  5
753
330
A
100
AcDbEntity
  8
0
  6
CENTER
 62
     7
100
AcDbLine
 10
-59.59999822965181
 20
-40.49999999999999
 30
0.0
 11
-39.99999982965181
 21
-40.49999999999999
 31
0.0
  0
LINE
  5
754
330
A
100
AcDbEntity
  8
0
 62
     7
100
AcDbLine
 10
-44.09999822965181
 20
-45.49999999999999
 30
0.0
 11
-42.9999998296518
 21
-45.49999999999999
 31
0.0
  0
LINE
  5
755
330
A
100
AcDbEntity
  8
0
 62
     7
100
AcDbLine
 10
-44.09999822965181
 20
-35.5
 30
0.0
 11
-42.9999998296518
 21
-35.5
 31
0.0
  0
LINE
  5
756
330
A
100
AcDbEntity
  8
0
 62
     7
100
AcDbLine
 10
-48.59999822965181
 20
-34.7000008
 30
0.0
 11
-44.59999822965181
 21
-34.7000008
 31
0.0
  0
LINE
  5
757
330
A
100
AcDbEntity
  8
0
 62
     7
100
AcDbLine
 10
-48.59999822965181
 20
-46.30000309999999
 30
0.0
 11
-44.59999822965181
 21
-46.30000309999999
 31
0.0
  0
LINE
  5
758
330
A
100
AcDbEntity
  8
0
 62
     7
100
AcDbLine
 10
-57.09999822965181
 20
-37.5
 30
0.0
 11
-57.09999822965181
 21
-43.5
 31
0.0
  0
LINE
  5
759
330
A
100
AcDbEntity
  8
0
 62
     7
100
AcDbLine
 10
-57.5999982296518
 20
-43.0
 30
0.0
 11
-49.09999822965181
 21
-43.0
 31
0.0
  0
LINE
  5
75A
330
A
100
AcDbEntity
  8
0
 62
     7
100
AcDbLine
 10
-57.5999982296518
 20
-38.0
 30
0.0
 11
-49.09999822965181
 21
-38.0
 31
0.0
  0
LINE
  5
75B
330
A
100
AcDbEntity
  8
0
 62
     7
100
AcDbLine
 10
-57.09999822965181
 20
-43.5
 30
0.0
 11
-49.09999822965181
 21
-43.5
 31
0.0
  0
LINE
  5
75C
330
A
100
AcDbEntity
  8
0
 62
     7
100
AcDbLine
 10
-57.09999822965181
 20
-37.5
 30
0.0
 11
-49.09999822965181
 21
-37.5
 31
0.0
  0
LINE
  5
75D
330
A
100
AcDbEntity
  8
0
 62
     7
100
AcDbLine
 10
-49.09999822965181
 20
-36.1499977
 30
0.0
 11
-49.09999822965181
 21
-44.8499985
 31
0.0
  0
LINE
  5
75E
330
A
100
AcDbEntity
  8
0
 62
     7
100
AcDbLine
 10
-44.09999822965181
 20
-35.5
 30
0.0
 11
-44.09999822965181
 21
-45.49999999999999
 31
0.0
  0
LINE
  5
75F
330
A
100
AcDbEntity
  8
0
 62
     7
100
AcDbLine
 10
-57.5999982296518
 20
-38.0
 30
0.0
 11
-57.5999982296518
 21
-43.0
 31
0.0
  0
LINE
  5
760
330
A
100
AcDbEntity
  8
0
 62
     7
100
AcDbLine
 10
-45.9999998296518
 20
-19.8999939
 30
0.0
 11
-45.9999998296518
 21
-21.49999237
 31
0.0
  0
LINE
  5
761
330
A
100
AcDbEntity
  8
0
 62
     7
100
AcDbLine
 10
-44.6000059296518
 20
-19.09999083999997
 30
0.0
 11
-44.6000059296518
 21
-19.8999939
 31
0.0
  0
LINE
  5
762
330
A
100
AcDbEntity
  8
0
 62
     7
100
AcDbLine
 10
-45.9999998296518
 20
-19.8999939
 30
0.0
 11
-44.6000059296518
 21
-19.8999939
 31
0.0
  0
LINE
  5
763
330
A
100
AcDbEntity
  8
0
 62
     7
100
AcDbLine
 10
-45.9999998296518
 20
-19.09999083999997
 30
0.0
 11
-44.6000059296518
 21
-19.09999083999997
 31
0.0
  0
LINE
  5
764
330
A
100
AcDbEntity
  8
0
 62
     7
100
AcDbLine
 10
-44.4999998296518
 20
-15.99999237
 30
0.0
 11
-42.9999998296518
 21
-15.99999237
 31
0.0
  0
LINE
  5
765
330
A
100
AcDbEntity
  8
0
 62
     7
100
AcDbLine
 10
-44.4999998296518
 20
-22.99999237
 30
0.0
 11
-42.9999998296518
 21
-22.99999237
 31
0.0
  0
LINE
  5
766
330
A
100
AcDbEntity
  8
0
 62
     7
100
AcDbLine
 10
-45.9999998296518
 20
-17.49999237
 30
0.0
 11
-45.9999998296518
 21
-19.09999083999997
 31
0.0
  0
LINE
  5
767
330
A
100
AcDbEntity
  8
0
 62
     7
100
AcDbLine
 10
-43.9999921296518
 20
-35.5
 30
0.0
 11
-43.9999921296518
 21
-22.99999237
 31
0.0
  0
LINE
  5
768
330
A
100
AcDbEntity
  8
0
  6
CENTER
 62
     7
100
AcDbLine
 10
-49.57795692965181
 20
-19.5
 30
0.0
 11
-39.99999982965181
 21
-19.5
 31
0.0
  0
ARC
  5
769
330
A
100
AcDbEntity
  8
0
 62
     7
100
AcDbCircle
 10
-46.4524992296518
 20
-44.8499985
 30
0.0
 40
2.35250092
100
AcDbArc
 50
321.9487980000001
 51
38.0511341000003
  0
ARC
  5
76A
330
A
100
AcDbEntity
  8
0
 62
     7
100
AcDbCircle
 10
-46.74749732965181
 20
-44.8499985
 30
0.0
 40
2.35250092
100
AcDbArc
 50
141.9487749999994
 51
218.0511119999995
  0
ARC
  5
76B
330
A
100
AcDbEntity
  8
0
 62
     7
100
AcDbCircle
 10
-52.76000192965181
 20
-40.49999999999999
 30
0.0
 40
8.65999794
100
AcDbArc
 50
340.4351830000006
 51
19.56476270000058
  0
ARC
  5
76C
330
A
100
AcDbEntity
  8
0
 62
     7
100
AcDbCircle
 10
-40.4400022296518
 20
-40.49999999999999
 30
0.0
 40
8.65999794
100
AcDbArc
 50
160.4352010000001
 51
199.5647820000003
  0
ARC
  5
76D
330
A
100
AcDbEntity
  8
0
 62
     7
100
AcDbCircle
 10
-46.4524992296518
 20
-36.1500015
 30
0.0
 40
2.35250092
100
AcDbArc
 50
321.948811000001
 51
38.05114780000107
  0
ARC
  5
76E
330
A
100
AcDbEntity
  8
0
 62
     7
100
AcDbCircle
 10
-46.74749732965181
 20
-36.1500015
 30
0.0
 40
2.35250092
100
AcDbArc
 50
141.9488159999994
 51
218.0511530000002
  0
ARC
  5
76F
330
A
100
AcDbEntity
  8
0
 62
     7
100
AcDbCircle
 10
-44.4999998296518
 20
-21.49999237
 30
0.0
 40
1.5
100
AcDbArc
 50
179.9999770000003
 51
270.0
  0
ARC
  5
770
330
A
100
AcDbEntity
  8
0
 62
     7
100
AcDbCircle
 10
-44.4999998296518
 20
-17.49999237
 30
0.0
 40
1.5
100
AcDbArc
 50
90.00000020000062
 51
179.9999639999999
  0
LINE
  5
775
330
A
100
AcDbEntity
  8
0
 62
     7
100
AcDbLine
 10
-44.0999984
 20
25.50000150000002
 30
0.0
 11
-44.0999984
 21
24.0
 31
0.0
  0
LINE
  5
776
330
A
100
AcDbEntity
  8
0
 62
     7
100
AcDbLine
 10
-46.0
 20
31.0000019
 30
0.0
 11
-46.0
 21
27.00000150000003
 31
0.0
  0
LINE
  5
777
330
A
100
AcDbEntity
  8
0
 62
     7
100
AcDbLine
 10
-44.5
 20
32.5000019
 30
0.0
 11
-43.0
 21
32.5000019
 31
0.0
  0
LINE
  5
778
330
A
100
AcDbEntity
  8
0
 62
     7
100
AcDbLine
 10
-44.5
 20
25.50000150000002
 30
0.0
 11
-43.0
 21
25.50000150000002
 31
0.0
  0
LINE
  5
779
330
A
100
AcDbEntity
  8
0
 62
     7
100
AcDbLine
 10
-49.09999840000001
 20
34.00000000000003
 30
0.0
 11
-44.0999984
 21
34.00000000000003
 31
0.0
  0
LINE
  5
77A
330
A
100
AcDbEntity
  8
0
 62
     7
100
AcDbLine
 10
-49.09999840000001
 20
24.0
 30
0.0
 11
-44.0999984
 21
24.0
 31
0.0
  0
LINE
  5
77B
330
A
100
AcDbEntity
  8
0
 62
     7
100
AcDbLine
 10
-57.59998340000001
 20
26.50001230000001
 30
0.0
 11
-57.0999829
 21
26.00001180000001
 31
0.0
  0
LINE
  5
77C
330
A
100
AcDbEntity
  8
0
 62
     7
100
AcDbLine
 10
-57.5999969
 20
31.50000950000001
 30
0.0
 11
-57.09999640000001
 21
32.0000101
 31
0.0
  0
LINE
  5
77D
330
A
100
AcDbEntity
  8
0
 62
     7
100
AcDbLine
 10
-44.0999984
 20
24.0
 30
0.0
 11
-43.0
 21
24.0
 31
0.0
  0
LINE
  5
77E
330
A
100
AcDbEntity
  8
0
 62
     7
100
AcDbLine
 10
-44.0999984
 20
34.00000000000003
 30
0.0
 11
-43.0
 21
34.00000000000003
 31
0.0
  0
LINE
  5
77F
330
A
100
AcDbEntity
  8
0
 62
     7
100
AcDbLine
 10
-57.0999984
 20
32.00000000000003
 30
0.0
 11
-57.0999984
 21
26.00000000000003
 31
0.0
  0
LINE
  5
780
330
A
100
AcDbEntity
  8
0
 62
     7
100
AcDbLine
 10
-57.5999984
 20
26.50000000000003
 30
0.0
 11
-49.09999840000001
 21
26.50000000000003
 31
0.0
  0
LINE
  5
781
330
A
100
AcDbEntity
  8
0
 62
     7
100
AcDbLine
 10
-57.5999984
 20
31.50000000000003
 30
0.0
 11
-49.09999840000001
 21
31.50000000000003
 31
0.0
  0
LINE
  5
782
330
A
100
AcDbEntity
  8
0
 62
     7
100
AcDbLine
 10
-57.0999984
 20
26.00000000000003
 30
0.0
 11
-49.09999840000001
 21
26.00000000000003
 31
0.0
  0
LINE
  5
783
330
A
100
AcDbEntity
  8
0
 62
     7
100
AcDbLine
 10
-57.0999984
 20
32.00000000000003
 30
0.0
 11
-49.09999840000001
 21
32.00000000000003
 31
0.0
  0
LINE
  5
784
330
A
100
AcDbEntity
  8
0
 62
     7
100
AcDbLine
 10
-49.09999840000001
 20
34.00000000000003
 30
0.0
 11
-49.09999840000001
 21
24.0
 31
0.0
  0
LINE
  5
785
330
A
100
AcDbEntity
  8
0
 62
     7
100
AcDbLine
 10
-44.0999984
 20
34.00000000000003
 30
0.0
 11
-44.0999984
 21
32.5000019
 31
0.0
  0
LINE
  5
786
330
A
100
AcDbEntity
  8
0
 62
     7
100
AcDbLine
 10
-57.5999984
 20
31.50000000000003
 30
0.0
 11
-57.5999984
 21
26.50000000000003
 31
0.0
  0
ARC
  5
787
330
A
100
AcDbEntity
  8
0
 62
     7
100
AcDbCircle
 10
-44.5
 20
27.00000150000003
 30
0.0
 40
1.5
100
AcDbArc
 50
179.9999770000003
 51
270.0
  0
ARC
  5
788
330
A
100
AcDbEntity
  8
0
 62
     7
100
AcDbCircle
 10
-44.5
 20
31.0000019
 30
0.0
 40
1.5
100
AcDbArc
 50
90.00000020000062
 51
179.9999639999999
  0
ARC
  5
789
330
A
100
AcDbEntity
  8
0
 62
     7
100
AcDbCircle
 10
-50.5999984
 20
26.50000000000003
 30
0.0
 40
6.5
100
AcDbArc
 50
337.3801349999999
 51
351.1501309999991
  0
ARC
  5
78A
330
A
100
AcDbEntity
  8
0
 62
     7
100
AcDbCircle
 10
-42.5999984
 20
26.50000000000003
 30
0.0
 40
6.5
100
AcDbArc
 50
157.3800990000006
 51
202.6197750000006
  0
ARC
  5
78B
330
A
100
AcDbEntity
  8
0
 62
     7
100
AcDbCircle
 10
-50.5999984
 20
31.50000000000003
 30
0.0
 40
6.5
100
AcDbArc
 50
8.849896589999957
 51
22.61981070000077
  0
ARC
  5
78C
330
A
100
AcDbEntity
  8
0
 62
     7
100
AcDbCircle
 10
-42.5999984
 20
31.50000000000003
 30
0.0
 40
6.5
100
AcDbArc
 50
157.3801529999997
 51
202.6198289999995
  0
LINE
  5
78D
330
A
100
AcDbEntity
  8
0
 62
     7
100
AcDbLine
 10
-48.59999842600001
 20
113.4000018
 30
0.0
 11
-44.59999842600001
 21
113.4000018
 31
0.0
  0
LINE
  5
78E
330
A
100
AcDbEntity
  8
0
 62
     7
100
AcDbLine
 10
-48.59999842600001
 20
107.5999987999999
 30
0.0
 11
-44.59999842600001
 21
107.5999987999999
 31
0.0
  0
LINE
  5
78F
330
A
100
AcDbEntity
  8
0
 62
     7
100
AcDbLine
 10
-57.59999022600002
 20
112.9999957999999
 30
0.0
 11
-57.09998962600002
 21
113.4999967999999
 31
0.0
  0
LINE
  5
790
330
A
100
AcDbEntity
  8
0
 62
     7
100
AcDbLine
 10
-57.599994226
 20
108.0000088
 30
0.0
 11
-57.09999372600001
 21
107.5000078
 31
0.0
  0
LINE
  5
791
330
A
100
AcDbEntity
  8
0
  6
CENTER
 62
     7
100
AcDbLine
 10
-59.59999842600002
 20
110.4999997999999
 30
0.0
 11
-41.000000026
 21
110.4999997999999
 31
0.0
  0
LINE
  5
792
330
A
100
AcDbEntity
  8
0
 62
     7
100
AcDbLine
 10
-44.09999842600001
 20
115.4999997999999
 30
0.0
 11
-43.000000026
 21
115.4999997999999
 31
0.0
  0
LINE
  5
793
330
A
100
AcDbEntity
  8
0
 62
     7
100
AcDbLine
 10
-44.09999842600001
 20
105.4999997999999
 30
0.0
 11
-43.99999232600001
 21
105.4999997999999
 31
0.0
  0
LINE
  5
794
330
A
100
AcDbEntity
  8
0
 62
     7
100
AcDbLine
 10
-48.59999842600001
 20
104.7000048
 30
0.0
 11
-44.59999842600001
 21
104.7000048
 31
0.0
  0
LINE
  5
795
330
A
100
AcDbEntity
  8
0
 62
     7
100
AcDbLine
 10
-48.59999842600001
 20
116.2999958
 30
0.0
 11
-44.59999842600001
 21
116.2999958
 31
0.0
  0
LINE
  5
796
330
A
100
AcDbEntity
  8
0
 62
     7
100
AcDbLine
 10
-57.09999842600002
 20
107.4999997999999
 30
0.0
 11
-57.09999842600002
 21
113.4999997999999
 31
0.0
  0
LINE
  5
797
330
A
100
AcDbEntity
  8
0
 62
     7
100
AcDbLine
 10
-57.59999842600001
 20
112.9999997999999
 30
0.0
 11
-49.09999842600001
 21
112.9999997999999
 31
0.0
  0
LINE
  5
798
330
A
100
AcDbEntity
  8
0
 62
     7
100
AcDbLine
 10
-57.59999842600001
 20
107.9999997999999
 30
0.0
 11
-49.09999842600001
 21
107.9999997999999
 31
0.0
  0
LINE
  5
799
330
A
100
AcDbEntity
  8
0
 62
     7
100
AcDbLine
 10
-57.09999842600002
 20
113.4999997999999
 30
0.0
 11
-49.09999842600001
 21
113.4999997999999
 31
0.0
  0
LINE
  5
79A
330
A
100
AcDbEntity
  8
0
 62
     7
100
AcDbLine
 10
-57.09999842600002
 20
107.4999997999999
 30
0.0
 11
-49.09999842600001
 21
107.4999997999999
 31
0.0
  0
LINE
  5
79B
330
A
100
AcDbEntity
  8
0
 62
     7
100
AcDbLine
 10
-49.09999842600001
 20
106.1500018
 30
0.0
 11
-49.09999842600001
 21
114.8499987999999
 31
0.0
  0
LINE
  5
79C
330
A
100
AcDbEntity
  8
0
 62
     7
100
AcDbLine
 10
-44.09999842600001
 20
105.4999997999999
 30
0.0
 11
-44.09999842600001
 21
115.4999997999999
 31
0.0
  0
LINE
  5
79D
330
A
100
AcDbEntity
  8
0
 62
     7
100
AcDbLine
 10
-57.59999842600001
 20
107.9999997999999
 30
0.0
 11
-57.59999842600001
 21
112.9999997999999
 31
0.0
  0
LINE
  5
79E
330
A
100
AcDbEntity
  8
0
 62
     7
100
AcDbLine
 10
-46.000000026
 20
89.89999389999997
 30
0.0
 11
-46.000000026
 21
91.49999229999997
 31
0.0
  0
LINE
  5
79F
330
A
100
AcDbEntity
  8
0
 62
     7
100
AcDbLine
 10
-44.600006126
 20
89.0999908
 30
0.0
 11
-44.600006126
 21
89.89999389999997
 31
0.0
  0
LINE
  5
7A0
330
A
100
AcDbEntity
  8
0
 62
     7
100
AcDbLine
 10
-46.000000026
 20
89.89999389999997
 30
0.0
 11
-44.600006126
 21
89.89999389999997
 31
0.0
  0
LINE
  5
7A1
330
A
100
AcDbEntity
  8
0
 62
     7
100
AcDbLine
 10
-46.000000026
 20
89.0999908
 30
0.0
 11
-44.600006126
 21
89.0999908
 31
0.0
  0
LINE
  5
7A2
330
A
100
AcDbEntity
  8
0
 62
     7
100
AcDbLine
 10
-44.50000002600001
 20
85.99999229999998
 30
0.0
 11
-43.000000026
 21
85.99999229999998
 31
0.0
  0
LINE
  5
7A3
330
A
100
AcDbEntity
  8
0
 62
     7
100
AcDbLine
 10
-44.50000002600001
 20
92.99999229999997
 30
0.0
 11
-43.99999232600001
 21
92.99999229999997
 31
0.0
  0
LINE
  5
7A4
330
A
100
AcDbEntity
  8
0
 62
     7
100
AcDbLine
 10
-46.000000026
 20
87.49999229999998
 30
0.0
 11
-46.000000026
 21
89.0999908
 31
0.0
  0
LINE
  5
7A5
330
A
100
AcDbEntity
  8
0
 62
     7
100
AcDbLine
 10
-43.99999232600001
 20
88.0
 30
0.0
 11
-42.99999232600001
 21
88.0
 31
0.0
  0
LINE
  5
7A6
330
A
100
AcDbEntity
  8
0
 62
     7
100
AcDbLine
 10
-43.99999232600001
 20
111.9999997999999
 30
0.0
 11
-42.99999232600001
 21
111.9999997999999
 31
0.0
  0
LINE
  5
7A7
330
A
100
AcDbEntity
  8
0
 62
     7
100
AcDbLine
 10
-43.99999232600001
 20
111.9999997999999
 30
0.0
 11
-43.99999232600001
 21
88.0
 31
0.0
  0
LINE
  5
7A8
330
A
100
AcDbEntity
  8
0
 62
     7
100
AcDbLine
 10
-43.000000026
 20
105.9999997999999
 30
0.0
 11
-43.99999232600001
 21
105.9999997999999
 31
0.0
  0
LINE
  5
7A9
330
A
100
AcDbEntity
  8
0
 62
     7
100
AcDbLine
 10
-43.000000026
 20
113.4999997999999
 30
0.0
 11
-43.000000026
 21
86.5
 31
0.0
  0
LINE
  5
7AA
330
A
100
AcDbEntity
  8
0
  6
CENTER
 62
     2
100
AcDbLine
 10
-37.49999232600001
 20
112.4999997999999
 30
0.0
 11
-37.49999232600001
 21
107.4999997999999
 31
0.0
  0
LINE
  5
7AB
330
A
100
AcDbEntity
  8
0
  6
CENTER
 62
     2
100
AcDbLine
 10
-37.49999232600001
 20
92.5
 30
0.0
 11
-37.49999232600001
 21
87.5
 31
0.0
  0
LINE
  5
7AC
330
A
100
AcDbEntity
  8
0
  6
CENTER
 62
     7
100
AcDbLine
 10
-49.16392512600001
 20
89.50000000000001
 30
0.0
 11
-41.000000026
 21
89.50000000000001
 31
0.0
  0
ARC
  5
7AD
330
A
100
AcDbEntity
  8
0
 62
     7
100
AcDbCircle
 10
-46.452499426
 20
114.8499987999999
 30
0.0
 40
2.35250092
100
AcDbArc
 50
321.9488660000004
 51
38.0512023999992
  0
ARC
  5
7AE
330
A
100
AcDbEntity
  8
0
 62
     7
100
AcDbCircle
 10
-46.74749752600002
 20
114.8499987999999
 30
0.0
 40
2.35250092
100
AcDbArc
 50
141.9488839999996
 51
218.0512210000001
  0
ARC
  5
7AF
330
A
100
AcDbEntity
  8
0
 62
     7
100
AcDbCircle
 10
-52.76000212600002
 20
110.4999997999999
 30
0.0
 40
8.65999794
100
AcDbArc
 50
340.4352370000002
 51
19.56481730000045
  0
ARC
  5
7B0
330
A
100
AcDbEntity
  8
0
 62
     7
100
AcDbCircle
 10
-40.44000242600001
 20
110.4999997999999
 30
0.0
 40
8.65999794
100
AcDbArc
 50
160.4352150000002
 51
199.5647950000001
  0
ARC
  5
7B1
330
A
100
AcDbEntity
  8
0
 62
     7
100
AcDbCircle
 10
-46.452499426
 20
106.1500018
 30
0.0
 40
2.35250092
100
AcDbArc
 50
321.9488519999998
 51
38.05118879999935
  0
ARC
  5
7B2
330
A
100
AcDbEntity
  8
0
 62
     7
100
AcDbCircle
 10
-46.74749752600002
 20
106.1500018
 30
0.0
 40
2.35250092
100
AcDbArc
 50
141.9488439999999
 51
218.0511800000002
  0
ARC
  5
7B3
330
A
100
AcDbEntity
  8
0
 62
     7
100
AcDbCircle
 10
-44.50000002600001
 20
91.49999229999997
 30
0.0
 40
1.5
100
AcDbArc
 50
90.00000020000062
 51
180.0000189999989
  0
ARC
  5
7B4
330
A
100
AcDbEntity
  8
0
 62
     7
100
AcDbCircle
 10
-44.50000002600001
 20
87.49999229999998
 30
0.0
 40
1.5
100
AcDbArc
 50
180.000036
 51
270.0
  0
ENDSEC
  0
SECTION
  2
OBJECTS
  0
DICTIONARY
  5
19
330
0
100
AcDbDictionary
281
     1
  3
ACAD_COLOR
350
2F9
  3
ACAD_GROUP
350
1A
  3
ACAD_LAYOUT
350
2FC
  3
ACAD_MATERIAL
350
2F8
  3
ACAD_MLINESTYLE
350
1B
  3
ACAD_PLOTSETTINGS
350
2FD
  3
ACAD_PLOTSTYLENAME
350
2F6
  3
ACAD_TABLESTYLE
350
2FA
  3
ACDBHEADERROUNDTRIPXREC
350
7BA
  3
AcDbVariableDictionary
350
7B5
  0
DICTIONARY
  5
306
330
2
100
AcDbDictionary
280
     1
281
     1
  3
ACAD_LAYERSTATES
360
307
  0
DICTIONARY
  5
64F
330
A
100
AcDbDictionary
280
     1
281
     1
  3
ACAD_SORTENTS
360
650
  0
DICTIONARY
  5
2F9
102
{ACAD_REACTORS
330
19
102
}
330
19
100
AcDbDictionary
281
     1
  0
DICTIONARY
  5
1A
102
{ACAD_REACTORS
330
19
102
}
330
19
100
AcDbDictionary
281
     1
  0
DICTIONARY
  5
2FC
102
{ACAD_REACTORS
330
19
102
}
330
19
100
AcDbDictionary
281
     1
  3
Model
350
2FE
  3
レイアウト1
350
2FF
  0
DICTIONARY
  5
2F8
102
{ACAD_REACTORS
330
19
102
}
330
19
100
AcDbDictionary
281
     1
  0
DICTIONARY
  5
1B
102
{ACAD_REACTORS
330
19
102
}
330
19
100
AcDbDictionary
281
     1
  3
STANDARD
350
1C
  0
DICTIONARY
  5
2FD
102
{ACAD_REACTORS
330
19
102
}
330
19
100
AcDbDictionary
281
     1
  0
ACDBDICTIONARYWDFLT
  5
2F6
102
{ACAD_REACTORS
330
19
102
}
330
19
100
AcDbDictionary
281
     1
  3
Normal
350
2F7
100
AcDbDictionaryWithDefault
340
2F7
  0
DICTIONARY
  5
2FA
102
{ACAD_REACTORS
330
19
102
}
330
19
100
AcDbDictionary
281
     1
  3
Standard
350
2FB
  0
DICTIONARY
  5
7BA
102
{ACAD_REACTORS
330
19
102
}
330
19
100
AcDbDictionary
281
     1
  0
DICTIONARY
  5
7B5
102
{ACAD_REACTORS
330
19
102
}
330
19
100
AcDbDictionary
281
     1
  3
CTABLESTYLE
350
7B6
  3
DIMASSOC
350
7B7
  3
PROJECTNAME
350
7B8
  0
DICTIONARY
  5
307
102
{ACAD_REACTORS
330
306
102
}
330
306
100
AcDbDictionary
281
     1
  0
SORTENTSTABLE
  5
650
102
{ACAD_REACTORS
330
64F
102
}
330
64F
100
AcDbSortentsTable
330
A
331
6F3
  5
53A
331
5E3
  5
4B2
331
70D
  5
554
331
72F
  5
576
331
61E
  5
4EE
331
662
  5
59D
331
69E
  5
2E4
331
2E1
  5
5D3
331
605
  5
4D4
331
6E2
  5
529
331
5D2
  5
4A1
331
704
  5
54B
331
71E
  5
565
331
616
  5
4E6
331
740
  5
587
331
651
  5
58C
331
673
  5
5AE
331
6AF
  5
471
331
62F
  5
4FF
331
5F4
  5
4C3
331
6F1
  5
538
331
5E1
  5
4B0
331
70B
  5
552
331
603
  5
4D2
331
72D
  5
574
331
660
  5
59B
331
2DF
  5
5D1
331
61C
  5
4EC
331
6E0
  5
527
331
5D0
  5
49F
331
702
  5
549
331
71C
  5
563
331
614
  5
4E4
331
671
  5
5AC
331
6AD
  5
46F
331
62D
  5
4FD
331
5F2
  5
4C1
331
709
  5
550
331
601
  5
4D0
331
72B
  5
572
331
61A
  5
4EA
331
65E
  5
599
331
69A
  5
2E0
331
2DD
  5
5CF
331
6DE
  5
525
331
700
  5
547
331
71A
  5
561
331
612
  5
4E2
331
66F
  5
5AA
331
2EE
  5
5E0
331
6AB
  5
46D
331
62B
  5
4FB
331
6EF
  5
536
331
5F0
  5
4BF
331
729
  5
570
331
618
  5
4E8
331
65C
  5
597
331
698
  5
2DE
331
6BA
  5
47C
331
6DC
  5
523
331
6FE
  5
545
331
5EE
  5
4BD
331
718
  5
55F
331
629
  5
4F9
331
66D
  5
5A8
331
2EC
  5
5DE
331
6A9
  5
2EF
331
68F
  5
5CA
331
6ED
  5
534
331
5DD
  5
4AC
331
5FF
  5
4CE
331
610
  5
4E0
331
65A
  5
595
331
696
  5
2DC
331
6DA
  5
521
331
6B8
  5
47A
331
6FC
  5
543
331
716
  5
55D
331
60E
  5
4DE
331
627
  5
4F7
331
66B
  5
5A6
331
2EA
  5
5DC
331
6A7
  5
2ED
331
649
  5
519
331
6EB
  5
532
331
5DB
  5
4AA
331
727
  5
56E
331
5FD
  5
4CC
331
5EC
  5
4BB
331
658
  5
593
331
67A
  5
5B5
331
694
  5
2DA
331
6B6
  5
478
331
6D8
  5
49A
331
6FA
  5
541
331
5EA
  5
4B9
331
714
  5
55B
331
625
  5
4F5
331
669
  5
5A4
331
6A5
  5
2EB
331
2E8
  5
5DA
331
6E9
  5
530
331
5D9
  5
4A8
331
725
  5
56C
331
5FB
  5
4CA
331
2D7
  5
2D7
331
678
  5
5B3
331
692
  5
5CD
331
6B4
  5
476
331
6F8
  5
53F
331
5E8
  5
4B7
331
712
  5
559
331
734
  5
57B
331
623
  5
4F3
331
667
  5
5A2
331
2E6
  5
5D8
331
60A
  5
4D9
331
6E7
  5
52E
331
5D7
  5
4A6
331
723
  5
56A
331
656
  5
591
331
5F9
  5
4C8
331
2D5
  5
2D5
331
2F0
  5
5E2
331
690
  5
5CB
331
6B2
  5
474
331
6F6
  5
53D
331
5E6
  5
4B5
331
710
  5
557
331
732
  5
579
331
621
  5
4F1
331
665
  5
5A0
331
2E4
  5
5D6
331
6E5
  5
52C
331
5D5
  5
4A4
331
707
  5
54E
331
721
  5
568
331
743
  5
58A
331
654
  5
58F
331
632
  5
502
331
676
  5
5B1
331
5F7
  5
4C6
331
2D3
  5
2D3
331
6F4
  5
53B
331
5E4
  5
4B3
331
70E
  5
555
331
730
  5
577
331
61F
  5
4EF
331
663
  5
59E
331
69F
  5
2E5
331
2E2
  5
5D4
331
606
  5
4D5
331
6E3
  5
52A
331
5D3
  5
4A2
331
705
  5
54C
331
71F
  5
566
331
741
  5
588
331
652
  5
58D
331
630
  5
500
331
674
  5
5AF
331
6F2
  5
539
331
5E2
  5
4B1
331
70C
  5
553
331
72E
  5
575
331
61D
  5
4ED
331
661
  5
59C
331
69D
  5
2E3
331
2E0
  5
5D2
331
604
  5
4D3
331
6E1
  5
528
331
5D1
  5
4A0
331
703
  5
54A
331
71D
  5
564
331
615
  5
4E5
331
672
  5
5AD
331
6AE
  5
470
331
62E
  5
4FE
331
6F0
  5
537
331
70A
  5
551
331
602
  5
4D1
331
72C
  5
573
331
65F
  5
59A
331
2DE
  5
5D0
331
61B
  5
4EB
331
6DF
  5
526
331
701
  5
548
331
71B
  5
562
331
613
  5
4E3
331
670
  5
5AB
331
64E
  5
51E
331
2EF
  5
5E1
331
6AC
  5
46E
331
62C
  5
4FC
331
5F1
  5
4C0
331
708
  5
54F
331
600
  5
4CF
331
72A
  5
571
331
619
  5
4E9
331
65D
  5
598
331
699
  5
2DF
331
6BB
  5
47D
331
6DD
  5
524
331
6FF
  5
546
331
719
  5
560
331
611
  5
4E1
331
66E
  5
5A9
331
2ED
  5
5DF
331
6AA
  5
2F0
331
62A
  5
4FA
331
6EE
  5
535
331
5EF
  5
4BE
331
728
  5
56F
331
65B
  5
596
331
697
  5
2DD
331
6B9
  5
47B
331
6DB
  5
522
331
6FD
  5
544
331
5ED
  5
4BC
331
2DA
  5
51F
331
717
  5
55E
331
628
  5
4F8
331
66C
  5
5A7
331
2EB
  5
5DD
331
6A8
  5
2EE
331
6EC
  5
533
331
5DC
  5
4AB
331
5FE
  5
4CD
331
60F
  5
4DF
331
659
  5
594
331
67B
  5
5B6
331
695
  5
2DB
331
6B7
  5
479
331
6FB
  5
542
331
5EB
  5
4BA
331
715
  5
55C
331
626
  5
4F6
331
66A
  5
5A5
331
6A6
  5
2EC
331
2E9
  5
5DB
331
648
  5
518
331
60D
  5
4DD
331
6EA
  5
531
331
5DA
  5
4A9
331
726
  5
56D
331
5FC
  5
4CB
331
6D9
  5
49B
331
679
  5
5B4
331
693
  5
5CE
331
6B5
  5
477
331
6D7
  5
499
331
6F9
  5
540
331
5E9
  5
4B8
331
713
  5
55A
331
735
  5
57C
331
624
  5
4F4
331
668
  5
5A3
331
6A4
  5
2EA
331
2E7
  5
5D9
331
60B
  5
4DB
331
6E8
  5
52F
331
5D8
  5
4A7
331
724
  5
56B
331
657
  5
592
331
5FA
  5
4C9
331
2D6
  5
2D6
331
691
  5
5CC
331
6F7
  5
53E
331
5E7
  5
4B6
331
711
  5
558
331
733
  5
57A
331
622
  5
4F2
331
666
  5
5A1
331
2E5
  5
5D7
331
609
  5
4D8
331
6E6
  5
52D
331
5D6
  5
4A5
331
722
  5
569
331
744
  5
58B
331
655
  5
590
331
677
  5
5B2
331
2D4
  5
2D4
331
6B1
  5
473
331
6F5
  5
53C
331
5E5
  5
4B4
331
70F
  5
556
331
731
  5
578
331
620
  5
4F0
331
664
  5
59F
331
6A0
  5
2E6
331
2E3
  5
5D5
331
607
  5
4D6
331
6E4
  5
52B
331
5D4
  5
4A3
331
706
  5
54D
331
720
  5
567
331
742
  5
589
331
653
  5
58E
331
631
  5
501
331
675
  5
5B0
331
5F6
  5
4C5
331
2D2
  5
2D2
  0
LAYOUT
  5
2FE
102
{ACAD_XDICTIONARY
360
7BB
102
}
102
{ACAD_REACTORS
330
2FC
102
}
330
2FC
100
AcDbPlotSettings
  1

  2
DocuCentre Color f450
  4

  6

 40
0.0
 41
0.0
 42
0.0
 43
0.0
 44
0.0
 45
0.0
 46
0.0
 47
0.0
 48
0.0
 49
0.0
140
0.0
141
0.0
142
1.0
143
1.0
 70
  1712
 72
     0
 73
     0
 74
     0
  7

 75
     0
147
1.0
148
0.0
149
0.0
100
AcDbLayout
  1
Model
 70
     1
 71
     0
 10
0.0
 20
0.0
 11
12.0
 21
9.0
 12
0.0
 22
0.0
 32
0.0
 14
0.0
 24
0.0
 34
0.0
 15
0.0
 25
0.0
 35
0.0
146
0.0
 13
0.0
 23
0.0
 33
0.0
 16
1.0
 26
0.0
 36
0.0
 17
0.0
 27
1.0
 37
0.0
 76
     0
330
A
  0
LAYOUT
  5
2FF
102
{ACAD_XDICTIONARY
360
7BD
102
}
102
{ACAD_REACTORS
330
2FC
102
}
330
2FC
100
AcDbPlotSettings
  1

  2
DocuCentre Color f450
  4

  6

 40
0.0
 41
0.0
 42
0.0
 43
0.0
 44
0.0
 45
0.0
 46
0.0
 47
0.0
 48
0.0
 49
0.0
140
0.0
141
0.0
142
1.0
143
1.0
 70
   688
 72
     0
 73
     0
 74
     5
  7

 75
    16
147
1.0
148
0.0
149
0.0
100
AcDbLayout
  1
レイアウト1
 70
     0
 71
     1
 10
0.0
 20
0.0
 11
12.0
 21
9.0
 12
0.0
 22
0.0
 32
0.0
 14
1.000000000000000E+20
 24
1.000000000000000E+20
 34
1.000000000000000E+20
 15
-1.000000000000000E+20
 25
-1.000000000000000E+20
 35
-1.000000000000000E+20
146
0.0
 13
0.0
 23
0.0
 33
0.0
 16
1.0
 26
0.0
 36
0.0
 17
0.0
 27
1.0
 37
0.0
 76
     0
330
B
  0
MLINESTYLE
  5
1C
102
{ACAD_REACTORS
330
1B
102
}
330
1B
100
AcDbMlineStyle
  2
STANDARD
 70
     0
  3

 62
     0
 51
90.0
 52
90.0
 71
     2
 49
0.5
 62
   256
  6
BYLAYER
 49
-0.5
 62
   256
  6
BYLAYER
  0
ACDBPLACEHOLDER
  5
2F7
102
{ACAD_REACTORS
330
2F6
102
}
330
2F6
  0
TABLESTYLE
  5
2FB
102
{ACAD_REACTORS
330
2FA
102
}
330
2FA
100
AcDbTableStyle
  3
Standard
 70
     0
 71
     0
 40
0.06
 41
0.06
280
     0
281
     0
  7
MX_NOTE_STANDARD
140
0.18
170
     2
 62
     0
 63
     7
283
     0
274
    -2
284
     1
 64
     0
275
    -2
285
     1
 65
     0
276
    -2
286
     1
 66
     0
277
    -2
287
     1
 67
     0
278
    -2
288
     1
 68
     0
279
    -2
289
     1
 69
     0
  7
MX_NOTE_STANDARD
140
0.25
170
     5
 62
     0
 63
     7
283
     0
274
    -2
284
     1
 64
     0
275
    -2
285
     1
 65
     0
276
    -2
286
     1
 66
     0
277
    -2
287
     1
 67
     0
278
    -2
288
     1
 68
     0
279
    -2
289
     1
 69
     0
  7
MX_NOTE_STANDARD
140
0.18
170
     5
 62
     0
 63
     7
283
     0
274
    -2
284
     1
 64
     0
275
    -2
285
     1
 65
     0
276
    -2
286
     1
 66
     0
277
    -2
287
     1
 67
     0
278
    -2
288
     1
 68
     0
279
    -2
289
     1
 69
     0
  0
DICTIONARYVAR
  5
7B6
102
{ACAD_REACTORS
330
7B5
102
}
330
7B5
100
DictionaryVariables
280
     0
  1
STANDARD
  0
DICTIONARYVAR
  5
7B7
102
{ACAD_REACTORS
330
7B5
102
}
330
7B5
100
DictionaryVariables
280
     0
  1
1
  0
DICTIONARYVAR
  5
7B8
102
{ACAD_REACTORS
330
7B5
102
}
330
7B5
100
DictionaryVariables
280
     0
  1

  0
DICTIONARY
  5
7BB
330
2FE
100
AcDbDictionary
280
     1
281
     1
  3
ACAD_XREC_ROUNDTRIP
360
7BC
  0
DICTIONARY
  5
7BD
330
2FF
100
AcDbDictionary
280
     1
281
     1
  3
ACAD_XREC_ROUNDTRIP
360
7BE
  0
XRECORD
  5
7BC
102
{ACAD_REACTORS
330
7BB
102
}
330
7BB
100
AcDbXrecord
280
     1
102
SHADEPLOT
 70
     0
102
SHADEPLOTRESLEVEL
 70
     2
102
SHADEPLOTCUSTOMDPI
 70
   300
  0
XRECORD
  5
7BE
102
{ACAD_REACTORS
330
7BD
102
}
330
7BD
100
AcDbXrecord
280
     1
102
SHADEPLOT
 70
     0
102
SHADEPLOTRESLEVEL
 70
     2
102
SHADEPLOTCUSTOMDPI
 70
   300
  0
ENDSEC
  0
EOF
