  0
SECTION
  2
HEADER
  9
$ACADVER
  1
AC1012
  9
$DWGCODEPAGE
  3
dos932
  9
$INSBASE
 10
0.0
 20
0.0
 30
0.0
  9
$EXTMIN
 10
-194.25
 20
-133.5
 30
0.0
  9
$EXTMAX
 10
196.25000429153442
 20
132.60000610351562
 30
0.0
  9
$LIMMIN
 10
-194.25
 20
-133.5
  9
$LIMMAX
 10
196.25000429153442
 20
132.60000610351562
  9
$ORTHOMODE
 70
               0
  9
$REGENMODE
 70
               1
  9
$FILLMODE
 70
               1
  9
$QTEXTMODE
 70
               0
  9
$MIRRTEXT
 70
               1
  9
$DRAGMODE
 70
               2
  9
$LTSCALE
 40
1.0
  9
$OSMODE
 70
               0
  9
$ATTMODE
 70
               1
  9
$TEXTSIZE
 40
3.2000000476837158
  9
$TRACEWID
 40
0.05
  9
$TEXTSTYLE
  7
MX_NOTE_STANDARD
  9
$CLAYER
  8
0
  9
$CELTYPE
  6
CONTINUOUS
  9
$CECOLOR
 62
             256
  9
$CELTSCALE
 40
1.0
  9
$DELOBJ
 70
               1
  9
$DISPSILH
 70
               0
  9
$DIMSCALE
 40
1.0
  9
$DIMASZ
 40
2.5
  9
$DIMEXO
 40
1.5
  9
$DIMDLI
 40
3.75
  9
$DIMRND
 40
0.0
  9
$DIMDLE
 40
0.0
  9
$DIMEXE
 40
1.5
  9
$DIMTP
 40
0.0
  9
$DIMTM
 40
0.0
  9
$DIMTXT
 40
3.2000000476837158
  9
$DIMCEN
 40
2.5
  9
$DIMTSZ
 40
0.0
  9
$DIMTOL
 70
               0
  9
$DIMLIM
 70
               0
  9
$DIMTIH
 70
               0
  9
$DIMTOH
 70
               0
  9
$DIMSE1
 70
               0
  9
$DIMSE2
 70
               0
  9
$DIMTAD
 70
               1
  9
$DIMZIN
 70
               8
  9
$DIMBLK
  1

  9
$DIMASO
 70
               1
  9
$DIMSHO
 70
               1
  9
$DIMPOST
  1

  9
$DIMAPOST
  1

  9
$DIMALT
 70
               0
  9
$DIMALTD
 70
               4
  9
$DIMALTF
 40
0.03937007874016
  9
$DIMLFAC
 40
1.0
  9
$DIMTOFL
 70
               1
  9
$DIMTVP
 40
0.0
  9
$DIMTIX
 70
               0
  9
$DIMSOXD
 70
               0
  9
$DIMSAH
 70
               0
  9
$DIMBLK1
  1

  9
$DIMBLK2
  1

  9
$DIMSTYLE
  2
MXDIMSTYLE
  9
$DIMCLRD
 70
               0
  9
$DIMCLRE
 70
               0
  9
$DIMCLRT
 70
               0
  9
$DIMTFAC
 40
1.0
  9
$DIMGAP
 40
1.0
  9
$DIMJUST
 70
               0
  9
$DIMSD1
 70
               0
  9
$DIMSD2
 70
               0
  9
$DIMTOLJ
 70
               1
  9
$DIMTZIN
 70
               0
  9
$DIMALTZ
 70
               0
  9
$DIMALTTZ
 70
               0
  9
$DIMFIT
 70
               3
  9
$DIMUPT
 70
               1
  9
$DIMUNIT
 70
               2
  9
$DIMDEC
 70
               4
  9
$DIMTDEC
 70
               4
  9
$DIMALTU
 70
               2
  9
$DIMALTTD
 70
               4
  9
$DIMTXSTY
  7
MX_NOTE_STANDARD
  9
$DIMAUNIT
 70
               0
  9
$LUNITS
 70
               2
  9
$LUPREC
 70
               4
  9
$SKETCHINC
 40
0.1
  9
$FILLETRAD
 40
0.0
  9
$AUNITS
 70
               0
  9
$AUPREC
 70
               0
  9
$MENU
  1
acad
  9
$ELEVATION
 40
0.0
  9
$PELEVATION
 40
0.0
  9
$THICKNESS
 40
0.0
  9
$LIMCHECK
 70
               0
  9
$BLIPMODE
 70
               1
  9
$CHAMFERA
 40
0.0
  9
$CHAMFERB
 40
0.0
  9
$CHAMFERC
 40
0.0
  9
$CHAMFERD
 40
0.0
  9
$SKPOLY
 70
               0
  9
$TDCREATE
 40
2453690.590763889
  9
$TDUPDATE
 40
2453690.590763889
  9
$TDINDWG
 40
0.0000000000
  9
$TDUSRTIMER
 40
0.0000000000
  9
$USRTIMER
 70
               1
  9
$ANGBASE
 50
0.0
  9
$ANGDIR
 70
               0
  9
$PDMODE
 70
               0
  9
$PDSIZE
 40
0.0
  9
$PLINEWID
 40
0.0
  9
$COORDS
 70
               1
  9
$SPLFRAME
 70
               0
  9
$SPLINETYPE
 70
               6
  9
$SPLINESEGS
 70
               8
  9
$ATTDIA
 70
               0
  9
$ATTREQ
 70
               1
  9
$HANDLING
 70
               1
  9
$HANDSEED
  5
2CA
  9
$SURFTAB1
 70
               6
  9
$SURFTAB2
 70
               6
  9
$SURFTYPE
 70
               6
  9
$SURFU
 70
               6
  9
$SURFV
 70
               6
  9
$UCSNAME
  2

  9
$UCSORG
 10
0.0
 20
0.0
 30
0.0
  9
$UCSXDIR
 10
1.0
 20
0.0
 30
0.0
  9
$UCSYDIR
 10
0.0
 20
1.0
 30
0.0
  9
$PUCSNAME
  2

  9
$PUCSORG
 10
0.0
 20
0.0
 30
0.0
  9
$PUCSXDIR
 10
1.0
 20
0.0
 30
0.0
  9
$PUCSYDIR
 10
0.0
 20
1.0
 30
0.0
  9
$USERI1
 70
               0
  9
$USERI2
 70
               0
  9
$USERI3
 70
               0
  9
$USERI4
 70
               0
  9
$USERI5
 70
               0
  9
$USERR1
 40
0.0
  9
$USERR2
 40
0.0
  9
$USERR3
 40
0.0
  9
$USERR4
 40
0.0
  9
$USERR5
 40
0.0
  9
$WORLDVIEW
 70
               1
  9
$SHADEDGE
 70
               3
  9
$SHADEDIF
 70
              70
  9
$TILEMODE
 70
               1
  9
$MAXACTVP
 70
              16
  9
$PINSBASE
 10
0.0
 20
0.0
 30
0.0
  9
$PLIMCHECK
 70
               0
  9
$PEXTMIN
 10
1.0000000000000000E+20
 20
1.0000000000000000E+20
 30
1.0000000000000000E+20
  9
$PEXTMAX
 10
-1.0000000000000000E+20
 20
-1.0000000000000000E+20
 30
-1.0000000000000000E+20
  9
$PLIMMIN
 10
0.0
 20
0.0
  9
$PLIMMAX
 10
12.0
 20
9.0
  9
$UNITMODE
 70
               0
  9
$VISRETAIN
 70
               0
  9
$PLINEGEN
 70
               1
  9
$PSLTSCALE
 70
               0
  9
$TREEDEPTH
 70
            3020
  9
$PICKSTYLE
 70
               1
  9
$CMLSTYLE
  2
Standard
  9
$CMLJUST
 70
               0
  9
$CMLSCALE
 40
1.0
  9
$SAVEIMAGES
 70
               0
  0
ENDSEC
  0
SECTION
  2
CLASSES
  0
CLASS
  1
LWPOLYLINE
  2
AcDbPolyline
  3
"AutoCAD"
 90
        0
280
               0
281
               1
  0
CLASS
  1
IMAGE
  2
AcDbRasterImage
  3
ISM
 90
      127
280
               0
281
               1
  0
CLASS
  1
OLE2FRAME
  2
AcDbOle2Frame
  3
""
 90
        0
280
               0
281
               1
  0
CLASS
  1
HATCH
  2
AcDbHatch
  3
"ACAD_SEDONA"
 90
        0
280
               0
281
               1
  0
CLASS
  1
DICTIONARYVAR
  2
AcDbDictionaryVar
  3
"AutoCAD"
 90
        0
280
               0
281
               0
  0
CLASS
  1
RASTERVARIABLES
  2
AcDbRasterVariables
  3
ISM
 90
        0
280
               0
281
               0
  0
CLASS
  1
IMAGEDEF
  2
AcDbRasterImageDef
  3
ISM
 90
        0
280
               0
281
               0
  0
CLASS
  1
IMAGEDEF_REACTOR
  2
AcDbRasterImageDefReactor
  3
ISM
 90
        1
280
               0
281
               0
  0
CLASS
  1
IDBUFFER
  2
AcDbIdBuffer
  3
"Acad"
 90
        0
280
               0
281
               0
  0
CLASS
  1
SPATIAL_FILTER
  2
AcDbSpatialFilter
  3
"Acad"
 90
        0
280
               0
281
               0
  0
CLASS
  1
XRECORD
  2
AcDbXrecord
  3
"<Built In>"
 90
        0
280
               0
281
               0
  0
CLASS
  1
SORTENTSTABLE
  2
AcDbSortentsTable
  3
"AutoCAD"
 90
        0
280
               0
281
               0
  0
CLASS
  1
LAYER_INDEX
  2
AcDbLayerIndex
  3
"Acad"
 90
        0
280
               0
281
               0
  0
CLASS
  1
SPATIAL_INDEX
  2
AcDbSpatialIndex
  3
"Acad"
 90
        0
280
               0
281
               0
  0
CLASS
  1
OBJECT_PTR
  2
CAseDLPNTableRecord
  3
"ASE-LPNTableRecord"
 90
        1
280
               0
281
               0
  0
CLASS
  1
LAYOUT
  2
AcDbLayout
  3
"AutoCAD 2000"
 90
        1
280
               0
281
               0
  0
CLASS
  1
PLOTSETTINGS
  2
AcDbPlotSettings
  3
"AutoCAD 2000"
 90
        1
280
               0
281
               0
  0
CLASS
  1
ACDBDICTIONARYWDFLT
  2
AcDbDictionaryWithDefault
  3
"AutoCAD 2000"
 90
        1
280
               0
281
               0
  0
CLASS
  1
ACDBPLACEHOLDER
  2
AcDbPlaceHolder
  3
"AutoCAD 2000"
 90
        1
280
               0
281
               0
  0
ENDSEC
  0
SECTION
  2
TABLES
  0
TABLE
  2
VPORT
  5
7
100
AcDbSymbolTable
 70
               1
  0
VPORT
  5
15
100
AcDbSymbolTableRecord
100
AcDbViewportTableRecord
  2
*ACTIVE
 70
               0
 10
0.0
 20
0.0
 11
1.0
 21
1.0
 12
1.0000021457672119
 22
-0.4499969482421875
 13
0.0
 23
0.0
 14
1.0
 24
1.0
 15
0.0
 25
0.0
 16
0.0
 26
0.0
 36
1.0
 17
0.0
 27
0.0
 37
0.0
 40
268.76100616455079
 41
1.7320508075688772
 42
50.0
 43
0.0
 44
0.0
 50
0.0
 51
0.0
 71
               0
 72
             100
 73
               1
 74
               1
 75
               0
 76
               0
 77
               0
 78
               0
  0
ENDTAB
  0
TABLE
  2
LTYPE
  5
4
100
AcDbSymbolTable
 70
               4
  0
LTYPE
  5
11
100
AcDbSymbolTableRecord
100
AcDbLinetypeTableRecord
  2
BYBLOCK
 70
              64
  3

 72
              65
 73
               0
 40
0.0
  0
LTYPE
  5
12
100
AcDbSymbolTableRecord
100
AcDbLinetypeTableRecord
  2
BYLAYER
 70
              64
  3

 72
              65
 73
               0
 40
0.0
  0
LTYPE
  5
13
100
AcDbSymbolTableRecord
100
AcDbLinetypeTableRecord
  2
CONTINUOUS
 70
              64
  3
Solid line
 72
              65
 73
               0
 40
0.0
  0
LTYPE
  5
36
100
AcDbSymbolTableRecord
100
AcDbLinetypeTableRecord
  2
CENTER
 70
              64
  3
Center ____ _ ____ _ ____ _ ____ _ ____ _ ____
 72
              65
 73
               4
 40
26.0
 49
20.0
 74
               0
 49
-2.0
 74
               0
 49
2.0
 74
               0
 49
-2.0
 74
               0
  0
ENDTAB
  0
TABLE
  2
LAYER
  5
2
100
AcDbSymbolTable
 70
               2
  0
LAYER
  5
14
100
AcDbSymbolTableRecord
100
AcDbLayerTableRecord
  2
0
 70
               0
 62
               7
  6
CONTINUOUS
  0
LAYER
  5
1D
100
AcDbSymbolTableRecord
100
AcDbLayerTableRecord
  2
DEFPOINTS
 70
               0
 62
               7
  6
CONTINUOUS
  0
ENDTAB
  0
TABLE
  2
STYLE
  5
3
100
AcDbSymbolTable
 70
               1
  0
STYLE
  5
17
100
AcDbSymbolTableRecord
100
AcDbTextStyleTableRecord
  2
MX_NOTE_STANDARD
 70
               0
 40
0.0
 41
1.0
 50
0.0
 71
               0
 42
3.2000000476837158
  3
txt.shx
  4
extfont.shx
  0
ENDTAB
  0
TABLE
  2
VIEW
  5
5
100
AcDbSymbolTable
 70
               0
  0
ENDTAB
  0
TABLE
  2
UCS
  5
6
100
AcDbSymbolTable
 70
               0
  0
ENDTAB
  0
TABLE
  2
APPID
  5
8
100
AcDbSymbolTable
 70
               1
  0
APPID
  5
16
100
AcDbSymbolTableRecord
100
AcDbRegAppTableRecord
  2
ACAD
 70
               0
  0
ENDTAB
  0
TABLE
  2
DIMSTYLE
  5
9
100
AcDbSymbolTable
 70
               1
  0
DIMSTYLE
105
18
100
AcDbSymbolTableRecord
100
AcDbDimStyleTableRecord
  2
MXDIMSTYLE
 70
               0
  3

  4

  5

  6

  7

 40
1.0
 41
2.5
 42
1.5
 43
3.75
 44
1.5
 45
0.0
 46
0.0
 47
0.0
 48
0.0
 71
               0
 72
               0
 73
               0
 74
               0
 75
               0
 76
               0
 77
               1
 78
               8
140
3.2000000476837158
141
2.5
142
0.0
143
0.03937007874016
144
1.0
145
0.0
146
1.0
147
1.0
170
               0
171
               4
172
               1
173
               0
174
               0
175
               0
176
               0
177
               0
178
               0
270
               2
271
               4
272
               4
273
               2
274
               4
275
               0
280
               0
281
               0
282
               0
283
               1
284
               0
285
               0
286
               0
287
               3
288
               1
340
17
  0
ENDTAB
  0
TABLE
  2
BLOCK_RECORD
  5
1
100
AcDbSymbolTable
 70
              11
  0
BLOCK_RECORD
  5
A
100
AcDbSymbolTableRecord
100
AcDbBlockTableRecord
  2
*MODEL_SPACE
  0
BLOCK_RECORD
  5
B
100
AcDbSymbolTableRecord
100
AcDbBlockTableRecord
  2
*PAPER_SPACE
  0
BLOCK_RECORD
  5
1E
100
AcDbSymbolTableRecord
100
AcDbBlockTableRecord
  2
AFDPG-14-1
  0
BLOCK_RECORD
  5
1F
100
AcDbSymbolTableRecord
100
AcDbBlockTableRecord
  2
AFDPG-14-2
  0
BLOCK_RECORD
  5
20
100
AcDbSymbolTableRecord
100
AcDbBlockTableRecord
  2
AFDPG-14-3
  0
BLOCK_RECORD
  5
21
100
AcDbSymbolTableRecord
100
AcDbBlockTableRecord
  2
AFDPG-14-4
  0
BLOCK_RECORD
  5
22
100
AcDbSymbolTableRecord
100
AcDbBlockTableRecord
  2
AFDPG-14-5
  0
BLOCK_RECORD
  5
23
100
AcDbSymbolTableRecord
100
AcDbBlockTableRecord
  2
AFDPG-14-6
  0
BLOCK_RECORD
  5
24
100
AcDbSymbolTableRecord
100
AcDbBlockTableRecord
  2
AFDPG-14-7
  0
BLOCK_RECORD
  5
25
100
AcDbSymbolTableRecord
100
AcDbBlockTableRecord
  2
AFDPG-14-8
  0
BLOCK_RECORD
  5
26
100
AcDbSymbolTableRecord
100
AcDbBlockTableRecord
  2
AFDPG-14-9
  0
BLOCK_RECORD
  5
27
100
AcDbSymbolTableRecord
100
AcDbBlockTableRecord
  2
AFDPG-14-10
  0
BLOCK_RECORD
  5
28
100
AcDbSymbolTableRecord
100
AcDbBlockTableRecord
  2
AFDPG-14-11
  0
ENDTAB
  0
ENDSEC
  0
SECTION
  2
BLOCKS
  0
BLOCK
  5
D
100
AcDbEntity
  8
0
100
AcDbBlockBegin
  2
*MODEL_SPACE
 70
               0
 10
0.0
 20
0.0
 30
0.0
  3
*MODEL_SPACE
  1

  0
ENDBLK
  5
E
100
AcDbEntity
  8
0
100
AcDbBlockEnd
  0
BLOCK
  5
F
100
AcDbEntity
 67
               1
  8
0
100
AcDbBlockBegin
  2
*PAPER_SPACE
 70
               0
 10
0.0
 20
0.0
 30
0.0
  3
*PAPER_SPACE
  1

  0
ENDBLK
  5
10
100
AcDbEntity
 67
               1
  8
0
100
AcDbBlockEnd
  0
BLOCK
  5
29
100
AcDbEntity
  8
0
100
AcDbBlockBegin
  2
AFDPG-14-1
 70
               0
 10
0.0
 20
0.0
 30
0.0
  3
AFDPG-14-1
  1

  0
ARC
  5
2A
100
AcDbEntity
  8
0
  6
CONTINUOUS
 62
               7
100
AcDbCircle
 10
-44.5
 20
7.0000014305114746
 30
0.0
 40
1.5
100
AcDbArc
 50
179.99997768819966
 51
270.00002800400199
  0
ARC
  5
2B
100
AcDbEntity
  8
0
  6
CONTINUOUS
 62
               7
100
AcDbCircle
 10
-44.5
 20
11.000001549720764
 30
0.0
 40
1.5
100
AcDbArc
 50
89.999982013910653
 51
179.99996402782131
  0
CIRCLE
  5
2C
100
AcDbEntity
  8
0
  6
CONTINUOUS
 62
               2
100
AcDbCircle
 10
0.0
 20
18.5
 30
0.0
 40
2.0
  0
CIRCLE
  5
2D
100
AcDbEntity
  8
0
  6
CONTINUOUS
 62
               2
100
AcDbCircle
 10
-30.0
 20
18.5
 30
0.0
 40
2.0
  0
CIRCLE
  5
2E
100
AcDbEntity
  8
0
  6
CONTINUOUS
 62
               2
100
AcDbCircle
 10
30.0
 20
18.5
 30
0.0
 40
2.0
  0
LINE
  5
2F
100
AcDbEntity
  8
0
  6
CONTINUOUS
 62
               7
100
AcDbLine
 10
-46.0
 20
11.000001549720764
 30
0.0
 11
-46.0
 21
7.0000014305114746
 31
0.0
  0
LINE
  5
30
100
AcDbEntity
  8
0
  6
CONTINUOUS
 62
               7
100
AcDbLine
 10
-44.5
 20
12.500001549720764
 30
0.0
 11
-43.0
 21
12.500001549720764
 31
0.0
  0
LINE
  5
31
100
AcDbEntity
  8
0
  6
CONTINUOUS
 62
               7
100
AcDbLine
 10
-44.5
 20
5.5000014305114746
 30
0.0
 11
-43.0
 21
5.5000014305114746
 31
0.0
  0
LINE
  5
32
100
AcDbEntity
  8
0
  6
CONTINUOUS
 62
               7
100
AcDbLine
 10
-43.0
 20
10.13397216796875
 30
0.0
 11
43.0
 21
10.13397216796875
 31
0.0
  0
LINE
  5
33
100
AcDbEntity
  8
0
  6
CONTINUOUS
 62
               7
100
AcDbLine
 10
-43.0
 20
11.86602783203125
 30
0.0
 11
43.0
 21
11.86602783203125
 31
0.0
  0
LINE
  5
34
100
AcDbEntity
  8
0
  6
CONTINUOUS
 62
               7
100
AcDbLine
 10
-43.0
 20
6.5999984741210938
 30
0.0
 11
43.0
 21
6.5999984741210938
 31
0.0
  0
LINE
  5
35
100
AcDbEntity
  8
0
  6
CONTINUOUS
 62
               7
100
AcDbLine
 10
-43.0
 20
3.4000015258789063
 30
0.0
 11
43.0
 21
3.4000015258789063
 31
0.0
  0
LINE
  5
37
100
AcDbEntity
  8
0
  6
CENTER
 62
               2
100
AcDbLine
 10
-47.500000003768832
 20
9.0
 30
0.0
 11
47.499999996231168
 21
9.0
 31
0.0
  0
LINE
  5
38
100
AcDbEntity
  8
0
  6
CONTINUOUS
 62
               7
100
AcDbLine
 10
17.0
 20
29.5
 30
0.0
 11
16.0
 21
29.5
 31
0.0
  0
LINE
  5
39
100
AcDbEntity
  8
0
  6
CONTINUOUS
 62
               7
100
AcDbLine
 10
44.0
 20
29.5
 30
0.0
 11
43.0
 21
29.5
 31
0.0
  0
LINE
  5
3A
100
AcDbEntity
  8
0
  6
CONTINUOUS
 62
               7
100
AcDbLine
 10
44.0
 20
29.5
 30
0.0
 11
44.0
 21
23.000003814697266
 31
0.0
  0
LINE
  5
3B
100
AcDbEntity
  8
0
  6
CONTINUOUS
 62
               7
100
AcDbLine
 10
43.0
 20
31.0
 30
0.0
 11
43.0
 21
23.000003814697266
 31
0.0
  0
LINE
  5
3C
100
AcDbEntity
  8
0
  6
CONTINUOUS
 62
               7
100
AcDbLine
 10
16.0
 20
29.5
 30
0.0
 11
16.0
 21
23.000003814697266
 31
0.0
  0
LINE
  5
3D
100
AcDbEntity
  8
0
  6
CONTINUOUS
 62
               7
100
AcDbLine
 10
17.0
 20
31.0
 30
0.0
 11
17.0
 21
23.000003814697266
 31
0.0
  0
LINE
  5
3E
100
AcDbEntity
  8
0
  6
CONTINUOUS
 62
               7
100
AcDbLine
 10
-17.0
 20
29.5
 30
0.0
 11
-16.0
 21
29.5
 31
0.0
  0
LINE
  5
3F
100
AcDbEntity
  8
0
  6
CONTINUOUS
 62
               7
100
AcDbLine
 10
-44.0
 20
29.5
 30
0.0
 11
-43.0
 21
29.5
 31
0.0
  0
LINE
  5
40
100
AcDbEntity
  8
0
  6
CONTINUOUS
 62
               7
100
AcDbLine
 10
-44.0
 20
29.5
 30
0.0
 11
-44.0
 21
23.000003814697266
 31
0.0
  0
LINE
  5
41
100
AcDbEntity
  8
0
  6
CONTINUOUS
 62
               7
100
AcDbLine
 10
-43.0
 20
31.0
 30
0.0
 11
-43.0
 21
23.000003814697266
 31
0.0
  0
LINE
  5
42
100
AcDbEntity
  8
0
  6
CONTINUOUS
 62
               7
100
AcDbLine
 10
-16.0
 20
29.5
 30
0.0
 11
-16.0
 21
23.000003814697266
 31
0.0
  0
LINE
  5
43
100
AcDbEntity
  8
0
  6
CONTINUOUS
 62
               7
100
AcDbLine
 10
-17.0
 20
31.0
 30
0.0
 11
-17.0
 21
23.000003814697266
 31
0.0
  0
LINE
  5
44
100
AcDbEntity
  8
0
  6
CONTINUOUS
 62
               7
100
AcDbLine
 10
-16.0
 20
25.500003814697266
 30
0.0
 11
16.0
 21
25.500003814697266
 31
0.0
  0
LINE
  5
45
100
AcDbEntity
  8
0
  6
CONTINUOUS
 62
               7
100
AcDbLine
 10
17.0
 20
31.0
 30
0.0
 11
43.0
 21
31.0
 31
0.0
  0
LINE
  5
46
100
AcDbEntity
  8
0
  6
CONTINUOUS
 62
               7
100
AcDbLine
 10
-43.0
 20
31.0
 30
0.0
 11
-17.0
 21
31.0
 31
0.0
  0
LINE
  5
47
100
AcDbEntity
  8
0
  6
CONTINUOUS
 62
               7
100
AcDbLine
 10
-43.0
 20
23.000003814697266
 30
0.0
 11
43.0
 21
23.000003814697266
 31
0.0
  0
LINE
  5
48
100
AcDbEntity
  8
0
  6
CONTINUOUS
 62
               7
100
AcDbLine
 10
-43.0
 20
0.0
 30
0.0
 11
43.0
 21
0.0
 31
0.0
  0
LINE
  5
49
100
AcDbEntity
  8
0
  6
CONTINUOUS
 62
               7
100
AcDbLine
 10
43.0
 20
23.000003814697266
 30
0.0
 11
43.0
 21
0.0
 31
0.0
  0
LINE
  5
4A
100
AcDbEntity
  8
0
  6
CONTINUOUS
 62
               7
100
AcDbLine
 10
-43.0
 20
23.000003814697266
 30
0.0
 11
-43.0
 21
0.0
 31
0.0
  0
LINE
  5
4B
100
AcDbEntity
  8
0
  6
CONTINUOUS
 62
               7
100
AcDbLine
 10
43.0
 20
23.000003814697266
 30
0.0
 11
44.0
 21
23.000003814697266
 31
0.0
  0
LINE
  5
4C
100
AcDbEntity
  8
0
  6
CONTINUOUS
 62
               7
100
AcDbLine
 10
-44.0
 20
23.000003814697266
 30
0.0
 11
-43.0
 21
23.000003814697266
 31
0.0
  0
CIRCLE
  5
4D
100
AcDbEntity
  8
0
  6
CONTINUOUS
 62
               7
100
AcDbCircle
 10
30.0
 20
18.5
 30
0.0
 40
1.621
  0
CIRCLE
  5
4E
100
AcDbEntity
  8
0
  6
CONTINUOUS
 62
               7
100
AcDbCircle
 10
0.0
 20
18.5
 30
0.0
 40
1.621
  0
CIRCLE
  5
4F
100
AcDbEntity
  8
0
  6
CONTINUOUS
 62
               7
100
AcDbCircle
 10
-30.0
 20
18.5
 30
0.0
 40
1.621
  0
LINE
  5
50
100
AcDbEntity
  8
0
  6
CONTINUOUS
 62
               2
100
AcDbLine
 10
37.499999999819806
 20
29.5
 30
0.0
 11
37.499999999819806
 21
32.5
 31
0.0
  0
LINE
  5
51
100
AcDbEntity
  8
0
  6
CONTINUOUS
 62
               2
100
AcDbLine
 10
22.499999999819806
 20
29.5
 30
0.0
 11
22.499999999819806
 21
32.5
 31
0.0
  0
LINE
  5
52
100
AcDbEntity
  8
0
  6
CONTINUOUS
 62
               2
100
AcDbLine
 10
-22.499992370785662
 20
29.5
 30
0.0
 11
-22.499992370785662
 21
32.5
 31
0.0
  0
LINE
  5
53
100
AcDbEntity
  8
0
  6
CONTINUOUS
 62
               2
100
AcDbLine
 10
-37.499992370785662
 20
29.5
 30
0.0
 11
-37.499992370785662
 21
32.5
 31
0.0
  0
LINE
  5
54
100
AcDbEntity
  8
0
  6
CONTINUOUS
 62
               2
100
AcDbLine
 10
-20.000000000180194
 20
21.500003814697266
 30
0.0
 11
-20.000000000180194
 21
24.500003814697266
 31
0.0
  0
LINE
  5
55
100
AcDbEntity
  8
0
  6
CONTINUOUS
 62
               2
100
AcDbLine
 10
19.999999999819806
 20
21.500003814697266
 30
0.0
 11
19.999999999819806
 21
24.500003814697266
 31
0.0
  0
LINE
  5
56
100
AcDbEntity
  8
0
  6
CONTINUOUS
 62
               2
100
AcDbLine
 10
25.000000059424451
 20
-1.5
 30
0.0
 11
25.000000059424451
 21
1.5
 31
0.0
  0
LINE
  5
57
100
AcDbEntity
  8
0
  6
CONTINUOUS
 62
               2
100
AcDbLine
 10
17.500000059424451
 20
-1.5
 30
0.0
 11
17.500000059424451
 21
1.5
 31
0.0
  0
LINE
  5
58
100
AcDbEntity
  8
0
  6
CONTINUOUS
 62
               2
100
AcDbLine
 10
-17.499992311181021
 20
-1.5
 30
0.0
 11
-17.499992311181021
 21
1.5
 31
0.0
  0
LINE
  5
59
100
AcDbEntity
  8
0
  6
CONTINUOUS
 62
               2
100
AcDbLine
 10
-24.999992311181018
 20
-1.5
 30
0.0
 11
-24.999992311181018
 21
1.5
 31
0.0
  0
LINE
  5
5A
100
AcDbEntity
  8
0
  6
CONTINUOUS
 62
               2
100
AcDbLine
 10
30.0
 20
14.75
 30
0.0
 11
30.0
 21
22.25
 31
0.0
  0
LINE
  5
5B
100
AcDbEntity
  8
0
  6
CONTINUOUS
 62
               2
100
AcDbLine
 10
26.25
 20
18.5
 30
0.0
 11
33.75
 21
18.5
 31
0.0
  0
LINE
  5
5C
100
AcDbEntity
  8
0
  6
CONTINUOUS
 62
               2
100
AcDbLine
 10
-30.0
 20
14.75
 30
0.0
 11
-30.0
 21
22.25
 31
0.0
  0
LINE
  5
5D
100
AcDbEntity
  8
0
  6
CONTINUOUS
 62
               2
100
AcDbLine
 10
-33.75
 20
18.5
 30
0.0
 11
-26.25
 21
18.5
 31
0.0
  0
LINE
  5
5E
100
AcDbEntity
  8
0
  6
CONTINUOUS
 62
               2
100
AcDbLine
 10
-3.75
 20
18.5
 30
0.0
 11
3.75
 21
18.5
 31
0.0
  0
LINE
  5
5F
100
AcDbEntity
  8
0
  6
CENTER
 62
               2
100
AcDbLine
 10
0.0
 20
-5.63397216796875
 30
0.0
 11
0.0
 21
34.36602783203125
 31
0.0
  0
ENDBLK
  5
60
100
AcDbEntity
  8
0
100
AcDbBlockEnd
  0
BLOCK
  5
61
100
AcDbEntity
  8
0
100
AcDbBlockBegin
  2
AFDPG-14-2
 70
               0
 10
0.0
 20
0.0
 30
0.0
  3
AFDPG-14-2
  1

  0
LINE
  5
62
100
AcDbEntity
  8
0
  6
CONTINUOUS
 62
               7
100
AcDbLine
 10
20.900001525878906
 20
2.8999999999999999
 30
0.0
 11
22.500022655228964
 21
2.8999999999999999
 31
0.0
  0
LINE
  5
63
100
AcDbEntity
  8
0
  6
CONTINUOUS
 62
               7
100
AcDbLine
 10
20.900001525878906
 20
7.0999999999999996
 30
0.0
 11
22.499942199134392
 21
7.0999999999999996
 31
0.0
  0
LINE
  5
64
100
AcDbEntity
  8
0
  6
CONTINUOUS
 62
               7
100
AcDbLine
 10
-20.899993896484375
 20
7.0999999999999996
 30
0.0
 11
-22.499942735606353
 21
7.0999999999999996
 31
0.0
  0
ARC
  5
65
100
AcDbEntity
  8
0
  6
CONTINUOUS
 62
               7
100
AcDbCircle
 10
-20.899993896484375
 20
5.0
 30
0.0
 40
2.0999999046325684
100
AcDbArc
 50
269.99992236344099
 51
90.000002504478161
  0
CIRCLE
  5
66
100
AcDbEntity
  8
0
  6
CONTINUOUS
 62
               7
100
AcDbCircle
 10
10.5
 20
9.0
 30
0.0
 40
3.5
  0
ARC
  5
67
100
AcDbEntity
  8
0
  6
CONTINUOUS
 62
               7
100
AcDbCircle
 10
6.5
 20
23.699996948242188
 30
0.0
 40
1.0
100
AcDbArc
 50
90.000002504478161
 51
269.99997336248867
  0
ARC
  5
68
100
AcDbEntity
  8
0
  6
CONTINUOUS
 62
               7
100
AcDbCircle
 10
6.25
 20
23.699996948242188
 30
0.0
 40
1.2999999523162842
100
AcDbArc
 50
78.912501783283105
 51
281.08741944217036
  0
ARC
  5
69
100
AcDbEntity
  8
0
  6
CONTINUOUS
 62
               7
100
AcDbCircle
 10
-6.25
 20
23.699996948242188
 30
0.0
 40
1.2999999523162842
100
AcDbArc
 50
258.91251726489429
 51
98.297459742182227
  0
ARC
  5
6A
100
AcDbEntity
  8
0
  6
CONTINUOUS
 62
               7
100
AcDbCircle
 10
-6.5
 20
23.699996948242188
 30
0.0
 40
1.0
100
AcDbArc
 50
269.9999770049543
 51
90.000002504478161
  0
ARC
  5
6B
100
AcDbEntity
  8
0
  6
CONTINUOUS
 62
               7
100
AcDbCircle
 10
-23.5
 20
22.5
 30
0.0
 40
0.5
100
AcDbArc
 50
90.000002504478161
 51
179.99997768819966
  0
ARC
  5
6C
100
AcDbEntity
  8
0
  6
CONTINUOUS
 62
               7
100
AcDbCircle
 10
23.5
 20
22.5
 30
0.0
 40
0.5
100
AcDbArc
 50
0.0000179860890374
 51
90.000002504478161
  0
ARC
  5
6D
100
AcDbEntity
  8
0
  6
CONTINUOUS
 62
               7
100
AcDbCircle
 10
20.900001525878906
 20
5.0
 30
0.0
 40
2.0999999046325684
100
AcDbArc
 50
90.000016164856504
 51
270.00000068324533
  0
CIRCLE
  5
6E
100
AcDbEntity
  8
0
  6
CONTINUOUS
 62
               7
100
AcDbCircle
 10
10.5
 20
9.0
 30
0.0
 40
7.5
  0
CIRCLE
  5
6F
100
AcDbEntity
  8
0
  6
CONTINUOUS
 62
               7
100
AcDbCircle
 10
-10.5
 20
9.0
 30
0.0
 40
7.5
  0
ARC
  5
70
100
AcDbEntity
  8
0
  6
CONTINUOUS
 62
               7
100
AcDbCircle
 10
24.5
 20
11.0
 30
0.0
 40
1.0
100
AcDbArc
 50
119.99993503741253
 51
240.00008864087849
  0
LINE
  5
71
100
AcDbEntity
  8
0
  6
CONTINUOUS
 62
               7
100
AcDbLine
 10
-22.999936674237063
 20
6.600006103515625
 30
0.0
 11
-24.0
 21
6.600006103515625
 31
0.0
  0
LINE
  5
72
100
AcDbEntity
  8
0
  6
CONTINUOUS
 62
               7
100
AcDbLine
 10
-22.499942735606353
 20
7.1000000000000005
 30
0.0
 11
-22.999936674237063
 21
6.600006103515625
 31
0.0
  0
LINE
  5
73
100
AcDbEntity
  8
0
  6
CONTINUOUS
 62
               7
100
AcDbLine
 10
-20.899993896484375
 20
2.9000000953693594
 30
0.0
 11
-22.500088024633957
 21
2.9000000953693594
 31
0.0
  0
LINE
  5
74
100
AcDbEntity
  8
0
  6
CONTINUOUS
 62
               7
100
AcDbLine
 10
-22.500088024633957
 20
2.900000095369359
 30
0.0
 11
-23.0000818678953
 21
3.399993896484375
 31
0.0
  0
LINE
  5
75
100
AcDbEntity
  8
0
  6
CONTINUOUS
 62
               7
100
AcDbLine
 10
-23.0000818678953
 20
3.399993896484375
 30
0.0
 11
-24.0
 21
3.399993896484375
 31
0.0
  0
LINE
  5
76
100
AcDbEntity
  8
0
  6
CONTINUOUS
 62
               7
100
AcDbLine
 10
24.0
 20
11.86602783203125
 30
0.0
 11
24.0
 21
22.5
 31
0.0
  0
LINE
  5
77
100
AcDbEntity
  8
0
  6
CONTINUOUS
 62
               7
100
AcDbLine
 10
12.499976342654008
 20
29.499997608517333
 30
0.0
 11
11.999975474684106
 21
29.999997844283826
 31
0.0
  0
LINE
  5
78
100
AcDbEntity
  8
0
  6
CONTINUOUS
 62
               7
100
AcDbLine
 10
12.000003414292223
 20
21.500009656961993
 30
0.0
 11
12.500003945086974
 21
22.000010187756743
 31
0.0
  0
LINE
  5
79
100
AcDbEntity
  8
0
  6
CONTINUOUS
 62
               7
100
AcDbLine
 10
-12.49999562066796
 20
29.500023544474516
 30
0.0
 11
-11.99999508987321
 21
30.000024075269266
 31
0.0
  0
LINE
  5
7A
100
AcDbEntity
  8
0
  6
CONTINUOUS
 62
               7
100
AcDbLine
 10
-11.999973510687141
 20
21.500025841351544
 30
0.0
 11
-12.499974041481892
 21
22.000026372146294
 31
0.0
  0
LINE
  5
7B
100
AcDbEntity
  8
0
  6
CONTINUOUS
 62
               7
100
AcDbLine
 10
12.5
 20
22.0
 30
0.0
 11
12.5
 21
29.5
 31
0.0
  0
LINE
  5
7C
100
AcDbEntity
  8
0
  6
CONTINUOUS
 62
               7
100
AcDbLine
 10
6.5
 20
21.5
 30
0.0
 11
12.0
 21
21.5
 31
0.0
  0
LINE
  5
7D
100
AcDbEntity
  8
0
  6
CONTINUOUS
 62
               7
100
AcDbLine
 10
6.0
 20
24.975738525390625
 30
0.0
 11
6.0
 21
25.5
 31
0.0
  0
LINE
  5
7E
100
AcDbEntity
  8
0
  6
CONTINUOUS
 62
               7
100
AcDbLine
 10
6.5
 20
24.699996948242188
 30
0.0
 11
6.5
 21
26.300003051757812
 31
0.0
  0
LINE
  5
7F
100
AcDbEntity
  8
0
  6
CONTINUOUS
 62
               7
100
AcDbLine
 10
6.25
 20
25.0
 30
0.0
 11
6.25
 21
26.0
 31
0.0
  0
LINE
  5
80
100
AcDbEntity
  8
0
  6
CONTINUOUS
 62
               7
100
AcDbLine
 10
6.5
 20
21.5
 30
0.0
 11
6.5
 21
22.699996948242188
 31
0.0
  0
LINE
  5
81
100
AcDbEntity
  8
0
  6
CONTINUOUS
 62
               7
100
AcDbLine
 10
6.25
 20
21.0
 30
0.0
 11
6.25
 21
22.399993896484375
 31
0.0
  0
LINE
  5
82
100
AcDbEntity
  8
0
  6
CONTINUOUS
 62
               7
100
AcDbLine
 10
-6.5
 20
26.300003051757812
 30
0.0
 11
6.5
 21
26.300003051757812
 31
0.0
  0
LINE
  5
83
100
AcDbEntity
  8
0
  6
CONTINUOUS
 62
               7
100
AcDbLine
 10
-6.25
 20
25.0
 30
0.0
 11
-6.25
 21
26.0
 31
0.0
  0
LINE
  5
84
100
AcDbEntity
  8
0
  6
CONTINUOUS
 62
               7
100
AcDbLine
 10
-6.25
 20
21.0
 30
0.0
 11
-6.25
 21
22.399993896484375
 31
0.0
  0
LINE
  5
85
100
AcDbEntity
  8
0
  6
CONTINUOUS
 62
               7
100
AcDbLine
 10
-12.0
 20
30.0
 30
0.0
 11
12.0
 21
30.0
 31
0.0
  0
LINE
  5
86
100
AcDbEntity
  8
0
  6
CONTINUOUS
 62
               7
100
AcDbLine
 10
-12.5
 20
22.0
 30
0.0
 11
-12.5
 21
29.5
 31
0.0
  0
LINE
  5
87
100
AcDbEntity
  8
0
  6
CONTINUOUS
 62
               7
100
AcDbLine
 10
6.5000409674979425
 20
31.0
 30
0.0
 11
13.5
 21
31.0
 31
0.0
  0
LINE
  5
88
100
AcDbEntity
  8
0
  6
CONTINUOUS
 62
               7
100
AcDbLine
 10
6.0000410096447885
 20
30.5
 30
0.0
 11
6.5000409674979425
 21
31.0
 31
0.0
  0
LINE
  5
89
100
AcDbEntity
  8
0
  6
CONTINUOUS
 62
               7
100
AcDbLine
 10
-6.0000380800233479
 20
30.5
 30
0.0
 11
6.0000410096447894
 21
30.5
 31
0.0
  0
LINE
  5
8A
100
AcDbEntity
  8
0
  6
CONTINUOUS
 62
               7
100
AcDbLine
 10
-6.0000380800233479
 20
30.5
 30
0.0
 11
-6.5000380378765019
 21
31.0
 31
0.0
  0
LINE
  5
8B
100
AcDbEntity
  8
0
  6
CONTINUOUS
 62
               7
100
AcDbLine
 10
-12.0
 20
21.5
 30
0.0
 11
-6.5
 21
21.5
 31
0.0
  0
LINE
  5
8C
100
AcDbEntity
  8
0
  6
CONTINUOUS
 62
               7
100
AcDbLine
 10
-6.5
 20
24.699996948242188
 30
0.0
 11
-6.5
 21
26.300003051757812
 31
0.0
  0
LINE
  5
8D
100
AcDbEntity
  8
0
  6
CONTINUOUS
 62
               7
100
AcDbLine
 10
-6.0
 20
24.975738525390625
 30
0.0
 11
-6.0
 21
25.5
 31
0.0
  0
LINE
  5
8E
100
AcDbEntity
  8
0
  6
CONTINUOUS
 62
               7
100
AcDbLine
 10
-6.5
 20
21.5
 30
0.0
 11
-6.5
 21
22.699996948242188
 31
0.0
  0
LINE
  5
8F
100
AcDbEntity
  8
0
  6
CONTINUOUS
 62
               7
100
AcDbLine
 10
-6.25
 20
26.0
 30
0.0
 11
6.25
 21
26.0
 31
0.0
  0
LINE
  5
90
100
AcDbEntity
  8
0
  6
CONTINUOUS
 62
               7
100
AcDbLine
 10
-3.04278564453125
 20
8.1999969482421875
 30
0.0
 11
3.04278564453125
 21
8.1999969482421875
 31
0.0
  0
LINE
  5
91
100
AcDbEntity
  8
0
  6
CONTINUOUS
 62
               7
100
AcDbLine
 10
-3.04278564453125
 20
9.8000030517578125
 30
0.0
 11
3.04278564453125
 21
9.8000030517578125
 31
0.0
  0
LINE
  5
92
100
AcDbEntity
  8
0
  6
CONTINUOUS
 62
               7
100
AcDbLine
 10
-15.0
 20
17.0
 30
0.0
 11
-15.0
 21
23.0
 31
0.0
  0
LINE
  5
93
100
AcDbEntity
  8
0
  6
CONTINUOUS
 62
               7
100
AcDbLine
 10
15.0
 20
17.0
 30
0.0
 11
15.0
 21
23.0
 31
0.0
  0
LINE
  5
94
100
AcDbEntity
  8
0
  6
CONTINUOUS
 62
               7
100
AcDbLine
 10
14.0
 20
17.300003051757813
 30
0.0
 11
14.0
 21
21.0
 31
0.0
  0
LINE
  5
95
100
AcDbEntity
  8
0
  6
CONTINUOUS
 62
               7
100
AcDbLine
 10
14.0
 20
17.300003051757813
 30
0.0
 11
7.0
 21
17.300003051757813
 31
0.0
  0
LINE
  5
96
100
AcDbEntity
  8
0
  6
CONTINUOUS
 62
               7
100
AcDbLine
 10
7.0
 20
17.300003051757813
 30
0.0
 11
7.0
 21
21.0
 31
0.0
  0
LINE
  5
97
100
AcDbEntity
  8
0
  6
CONTINUOUS
 62
               7
100
AcDbLine
 10
-6.0
 20
25.5
 30
0.0
 11
6.0
 21
25.5
 31
0.0
  0
LINE
  5
98
100
AcDbEntity
  8
0
  6
CONTINUOUS
 62
               7
100
AcDbLine
 10
7.0
 20
20.699996948242188
 30
0.0
 11
14.0
 21
20.699996948242188
 31
0.0
  0
LINE
  5
99
100
AcDbEntity
  8
0
  6
CONTINUOUS
 62
               7
100
AcDbLine
 10
-14.0
 20
20.699996948242188
 30
0.0
 11
-7.0
 21
20.699996948242188
 31
0.0
  0
LINE
  5
9A
100
AcDbEntity
  8
0
  6
CONTINUOUS
 62
               7
100
AcDbLine
 10
-7.0
 20
17.300003051757813
 30
0.0
 11
-7.0
 21
21.0
 31
0.0
  0
LINE
  5
9B
100
AcDbEntity
  8
0
  6
CONTINUOUS
 62
               7
100
AcDbLine
 10
-14.0
 20
17.300003051757813
 30
0.0
 11
-14.0
 21
21.0
 31
0.0
  0
LINE
  5
9C
100
AcDbEntity
  8
0
  6
CONTINUOUS
 62
               7
100
AcDbLine
 10
15.0
 20
23.0
 30
0.0
 11
23.5
 21
23.0
 31
0.0
  0
LINE
  5
9D
100
AcDbEntity
  8
0
  6
CONTINUOUS
 62
               7
100
AcDbLine
 10
-23.5
 20
23.0
 30
0.0
 11
-15.0
 21
23.0
 31
0.0
  0
LINE
  5
9E
100
AcDbEntity
  8
0
  6
CONTINUOUS
 62
               7
100
AcDbLine
 10
-24.0
 20
6.600006103515625
 30
0.0
 11
-24.0
 21
22.5
 31
0.0
  0
LINE
  5
9F
100
AcDbEntity
  8
0
  6
CONTINUOUS
 62
               7
100
AcDbLine
 10
-24.0
 20
0.0
 30
0.0
 11
-24.0
 21
3.399993896484375
 31
0.0
  0
LINE
  5
A0
100
AcDbEntity
  8
0
  6
CONTINUOUS
 62
               7
100
AcDbLine
 10
-24.0
 20
0.0
 30
0.0
 11
24.0
 21
0.0
 31
0.0
  0
LINE
  5
A1
100
AcDbEntity
  8
0
  6
CONTINUOUS
 62
               7
100
AcDbLine
 10
24.0
 20
6.600006103515625
 30
0.0
 11
24.0
 21
10.13397216796875
 31
0.0
  0
LINE
  5
A2
100
AcDbEntity
  8
0
  6
CONTINUOUS
 62
               7
100
AcDbLine
 10
23.000016593859677
 20
3.399993896484375
 30
0.0
 11
24.0
 21
3.399993896484375
 31
0.0
  0
LINE
  5
A3
100
AcDbEntity
  8
0
  6
CONTINUOUS
 62
               7
100
AcDbLine
 10
22.500016551712825
 20
2.899993896484375
 30
0.0
 11
23.000016593859677
 21
3.3999938964843754
 31
0.0
  0
LINE
  5
A4
100
AcDbEntity
  8
0
  6
CONTINUOUS
 62
               7
100
AcDbLine
 10
22.999936137765101
 20
6.600006103515625
 30
0.0
 11
24.0
 21
6.600006103515625
 31
0.0
  0
LINE
  5
A5
100
AcDbEntity
  8
0
  6
CONTINUOUS
 62
               7
100
AcDbLine
 10
22.499942199134392
 20
7.0999999999999996
 30
0.0
 11
22.999936137765101
 21
6.600006103515625
 31
0.0
  0
LINE
  5
A6
100
AcDbEntity
  8
0
  6
CONTINUOUS
 62
               7
100
AcDbLine
 10
24.0
 20
0.0
 30
0.0
 11
24.0
 21
3.399993896484375
 31
0.0
  0
LINE
  5
A7
100
AcDbEntity
  8
0
  6
CONTINUOUS
 62
               7
100
AcDbLine
 10
-14.0
 20
21.0
 30
0.0
 11
-6.25
 21
21.0
 31
0.0
  0
LINE
  5
A8
100
AcDbEntity
  8
0
  6
CONTINUOUS
 62
               7
100
AcDbLine
 10
-13.5
 20
21.0
 30
0.0
 11
-13.5
 21
31.0
 31
0.0
  0
LINE
  5
A9
100
AcDbEntity
  8
0
  6
CONTINUOUS
 62
               7
100
AcDbLine
 10
-14.0
 20
17.300003051757813
 30
0.0
 11
-7.0
 21
17.300003051757813
 31
0.0
  0
LINE
  5
AA
100
AcDbEntity
  8
0
  6
CONTINUOUS
 62
               7
100
AcDbLine
 10
6.0
 20
17.0
 30
0.0
 11
15.0
 21
17.0
 31
0.0
  0
LINE
  5
AB
100
AcDbEntity
  8
0
  6
CONTINUOUS
 62
               7
100
AcDbLine
 10
-6.0
 20
17.0
 30
0.0
 11
-6.0
 21
22.424270629882812
 31
0.0
  0
LINE
  5
AC
100
AcDbEntity
  8
0
  6
CONTINUOUS
 62
               7
100
AcDbLine
 10
6.0
 20
17.0
 30
0.0
 11
6.0
 21
22.424270629882812
 31
0.0
  0
LINE
  5
AD
100
AcDbEntity
  8
0
  6
CONTINUOUS
 62
               7
100
AcDbLine
 10
6.25
 20
21.0
 30
0.0
 11
14.0
 21
21.0
 31
0.0
  0
LINE
  5
AE
100
AcDbEntity
  8
0
  6
CONTINUOUS
 62
               7
100
AcDbLine
 10
13.5
 20
21.0
 30
0.0
 11
13.5
 21
31.0
 31
0.0
  0
LINE
  5
AF
100
AcDbEntity
  8
0
  6
CONTINUOUS
 62
               7
100
AcDbLine
 10
-15.0
 20
17.0
 30
0.0
 11
-6.0
 21
17.0
 31
0.0
  0
LINE
  5
B0
100
AcDbEntity
  8
0
  6
CONTINUOUS
 62
               7
100
AcDbLine
 10
-6.0
 20
18.0
 30
0.0
 11
6.0
 21
18.0
 31
0.0
  0
LINE
  5
B1
100
AcDbEntity
  8
0
  6
CONTINUOUS
 62
               7
100
AcDbLine
 10
-13.5
 20
31.0
 30
0.0
 11
-6.5000380378765019
 21
31.0
 31
0.0
  0
LINE
  5
B2
100
AcDbEntity
  8
0
  6
CONTINUOUS
 62
               2
100
AcDbLine
 10
10.5
 20
-2.0
 30
0.0
 11
10.5
 21
23.0
 31
0.0
  0
LINE
  5
B3
100
AcDbEntity
  8
0
  6
CONTINUOUS
 62
               2
100
AcDbLine
 10
-10.5
 20
-2.0
 30
0.0
 11
-10.5
 21
23.0
 31
0.0
  0
LINE
  5
B4
100
AcDbEntity
  8
0
  6
CONTINUOUS
 62
               2
100
AcDbLine
 10
20.899993896484375
 20
9.1999998092651367
 30
0.0
 11
20.899993896484375
 21
0.8000001907348633
 31
0.0
  0
LINE
  5
B5
100
AcDbEntity
  8
0
  6
CONTINUOUS
 62
               2
100
AcDbLine
 10
16.699996948242188
 20
5.0
 30
0.0
 11
26.099998474121094
 21
5.0
 31
0.0
  0
LINE
  5
B6
100
AcDbEntity
  8
0
  6
CONTINUOUS
 62
               2
100
AcDbLine
 10
-20.900001525878906
 20
9.1999998092651367
 30
0.0
 11
-20.900001525878906
 21
0.8000001907348633
 31
0.0
  0
LINE
  5
B7
100
AcDbEntity
  8
0
  6
CONTINUOUS
 62
               2
100
AcDbLine
 10
-26.099998474121094
 20
5.0
 30
0.0
 11
-16.700000762939453
 21
5.0
 31
0.0
  0
LINE
  5
B8
100
AcDbEntity
  8
0
  6
CONTINUOUS
 62
               2
100
AcDbLine
 10
-10.0
 20
29.5
 30
0.0
 11
-10.0
 21
32.5
 31
0.0
  0
LINE
  5
B9
100
AcDbEntity
  8
0
  6
CONTINUOUS
 62
               2
100
AcDbLine
 10
10.0
 20
29.5
 30
0.0
 11
10.0
 21
32.5
 31
0.0
  0
LINE
  5
BA
100
AcDbEntity
  8
0
  6
CONTINUOUS
 62
               2
100
AcDbLine
 10
-25.5
 20
18.5
 30
0.0
 11
-22.5
 21
18.5
 31
0.0
  0
LINE
  5
BB
100
AcDbEntity
  8
0
  6
CONTINUOUS
 62
               2
100
AcDbLine
 10
-20.0
 20
21.5
 30
0.0
 11
-20.0
 21
24.5
 31
0.0
  0
LINE
  5
BC
100
AcDbEntity
  8
0
  6
CONTINUOUS
 62
               2
100
AcDbLine
 10
20.0
 20
21.5
 30
0.0
 11
20.0
 21
24.5
 31
0.0
  0
LINE
  5
BD
100
AcDbEntity
  8
0
  6
CONTINUOUS
 62
               2
100
AcDbLine
 10
22.5
 20
18.5
 30
0.0
 11
25.5
 21
18.5
 31
0.0
  0
CIRCLE
  5
BE
100
AcDbEntity
  8
0
  6
CONTINUOUS
 62
               7
100
AcDbCircle
 10
-10.5
 20
9.0
 30
0.0
 40
3.5
  0
LINE
  5
BF
100
AcDbEntity
  8
0
  6
CONTINUOUS
 62
               7
100
AcDbLine
 10
-10.100006103515625
 20
5.5229339599609375
 30
0.0
 11
-10.100006103515625
 21
12.477066040039063
 31
0.0
  0
LINE
  5
C0
100
AcDbEntity
  8
0
  6
CONTINUOUS
 62
               7
100
AcDbLine
 10
-10.899993896484375
 20
5.5229339599609375
 30
0.0
 11
-10.899993896484375
 21
12.477066040039063
 31
0.0
  0
CIRCLE
  5
C1
100
AcDbEntity
  8
0
  6
CONTINUOUS
 62
               7
100
AcDbCircle
 10
-10.5
 20
9.0
 30
0.0
 40
4.5
  0
CIRCLE
  5
C2
100
AcDbEntity
  8
0
  6
CONTINUOUS
 62
               7
100
AcDbCircle
 10
10.5
 20
9.0
 30
0.0
 40
4.5
  0
LINE
  5
C3
100
AcDbEntity
  8
0
  6
CONTINUOUS
 62
               7
100
AcDbLine
 10
10.100006103515625
 20
5.5229339599609375
 30
0.0
 11
10.100006103515625
 21
12.477066040039063
 31
0.0
  0
LINE
  5
C4
100
AcDbEntity
  8
0
  6
CONTINUOUS
 62
               7
100
AcDbLine
 10
10.899993896484375
 20
5.5229339599609375
 30
0.0
 11
10.899993896484375
 21
12.477066040039063
 31
0.0
  0
LINE
  5
C5
100
AcDbEntity
  8
0
  6
CENTER
 62
               2
100
AcDbLine
 10
-27.5
 20
9.0
 30
0.0
 11
27.5
 21
9.0
 31
0.0
  0
LINE
  5
C6
100
AcDbEntity
  8
0
  6
CENTER
 62
               2
100
AcDbLine
 10
0.0
 20
-5.63397216796875
 30
0.0
 11
0.0
 21
34.36602783203125
 31
0.0
  0
ENDBLK
  5
C7
100
AcDbEntity
  8
0
100
AcDbBlockEnd
  0
BLOCK
  5
C8
100
AcDbEntity
  8
0
100
AcDbBlockBegin
  2
AFDPG-14-3
 70
               0
 10
0.0
 20
0.0
 30
0.0
  3
AFDPG-14-3
  1

  0
LINE
  5
C9
100
AcDbEntity
  8
0
  6
CONTINUOUS
 62
               7
100
AcDbLine
 10
-22.500024096254446
 20
2.8999999999999999
 30
0.0
 11
-20.900001525878906
 21
2.8999999999999999
 31
0.0
  0
LINE
  5
CA
100
AcDbEntity
  8
0
  6
CONTINUOUS
 62
               7
100
AcDbLine
 10
-22.499954429753814
 20
7.0999999999999996
 30
0.0
 11
-20.900001525878906
 21
7.0999999999999996
 31
0.0
  0
LINE
  5
CB
100
AcDbEntity
  8
0
  6
CONTINUOUS
 62
               7
100
AcDbLine
 10
20.899993896484375
 20
2.8999999999999999
 30
0.0
 11
22.500075698645166
 21
2.8999999999999999
 31
0.0
  0
LINE
  5
CC
100
AcDbEntity
  8
0
  6
CONTINUOUS
 62
               7
100
AcDbLine
 10
20.899993896484375
 20
7.0999999999999996
 30
0.0
 11
22.499941294580871
 21
7.0999999999999996
 31
0.0
  0
ARC
  5
CD
100
AcDbEntity
  8
0
  6
CONTINUOUS
 62
               7
100
AcDbCircle
 10
-24.5
 20
11.0
 30
0.0
 40
1.0
100
AcDbArc
 50
299.9999095378887
 51
60.000069971543809
  0
CIRCLE
  5
CE
100
AcDbEntity
  8
0
  6
CONTINUOUS
 62
               2
100
AcDbCircle
 10
10.5
 20
9.0
 30
0.0
 40
2.5
  0
CIRCLE
  5
CF
100
AcDbEntity
  8
0
  6
CONTINUOUS
 62
               7
100
AcDbCircle
 10
10.5
 20
9.0
 30
0.0
 40
7.5
  0
CIRCLE
  5
D0
100
AcDbEntity
  8
0
  6
CONTINUOUS
 62
               7
100
AcDbCircle
 10
-10.5
 20
9.0
 30
0.0
 40
7.5
  0
ARC
  5
D1
100
AcDbEntity
  8
0
  6
CONTINUOUS
 62
               7
100
AcDbCircle
 10
-20.900001525878906
 20
5.0
 30
0.0
 40
2.0999999046325684
100
AcDbArc
 50
269.99999749552182
 51
89.999988844099832
  0
ARC
  5
D2
100
AcDbEntity
  8
0
  6
CONTINUOUS
 62
               7
100
AcDbCircle
 10
-23.5
 20
22.5
 30
0.0
 40
0.5
100
AcDbArc
 50
90.000002504478161
 51
179.99997768819966
  0
ARC
  5
D3
100
AcDbEntity
  8
0
  6
CONTINUOUS
 62
               7
100
AcDbCircle
 10
23.5
 20
22.5
 30
0.0
 40
0.5
100
AcDbArc
 50
0.0000179860890374
 51
90.000002504478161
  0
CIRCLE
  5
D4
100
AcDbEntity
  8
0
  6
CONTINUOUS
 62
               7
100
AcDbCircle
 10
10.5
 20
9.0
 30
0.0
 40
4.5
  0
CIRCLE
  5
D5
100
AcDbEntity
  8
0
  6
CONTINUOUS
 62
               7
100
AcDbCircle
 10
-10.5
 20
9.0
 30
0.0
 40
4.5
  0
ARC
  5
D6
100
AcDbEntity
  8
0
  6
CONTINUOUS
 62
               7
100
AcDbCircle
 10
6.5
 20
23.699996948242188
 30
0.0
 40
1.0
100
AcDbArc
 50
90.000002504478161
 51
270.00002800400199
  0
ARC
  5
D7
100
AcDbEntity
  8
0
  6
CONTINUOUS
 62
               7
100
AcDbCircle
 10
6.25
 20
23.699996948242188
 30
0.0
 40
1.2999999523162842
100
AcDbArc
 50
81.702538436584931
 51
281.08747408368373
  0
ARC
  5
D8
100
AcDbEntity
  8
0
  6
CONTINUOUS
 62
               7
100
AcDbCircle
 10
-6.25
 20
23.699996948242188
 30
0.0
 40
1.2999999523162842
100
AcDbArc
 50
258.91259239697513
 51
101.08749639548405
  0
ARC
  5
D9
100
AcDbEntity
  8
0
  6
CONTINUOUS
 62
               7
100
AcDbCircle
 10
-6.5
 20
23.699996948242188
 30
0.0
 40
1.0
100
AcDbArc
 50
270.00003847665687
 51
90.000002504478161
  0
CIRCLE
  5
DA
100
AcDbEntity
  8
0
  6
CONTINUOUS
 62
               2
100
AcDbCircle
 10
-10.5
 20
9.0
 30
0.0
 40
2.5
  0
ARC
  5
DB
100
AcDbEntity
  8
0
  6
CONTINUOUS
 62
               7
100
AcDbCircle
 10
20.899993896484375
 20
5.0
 30
0.0
 40
2.0999999046325684
100
AcDbArc
 50
90.000002504478161
 51
270.00008264551536
  0
LINE
  5
DC
100
AcDbEntity
  8
0
  6
CONTINUOUS
 62
               2
100
AcDbLine
 10
16.699996948242188
 20
5.0
 30
0.0
 11
26.099998474121094
 21
5.0
 31
0.0
  0
LINE
  5
DD
100
AcDbEntity
  8
0
  6
CONTINUOUS
 62
               2
100
AcDbLine
 10
-26.099998474121094
 20
5.0
 30
0.0
 11
-16.700000762939453
 21
5.0
 31
0.0
  0
LINE
  5
DE
100
AcDbEntity
  8
0
  6
CONTINUOUS
 62
               2
100
AcDbLine
 10
-20.900001525878906
 20
9.1999998092651367
 30
0.0
 11
-20.900001525878906
 21
0.8000001907348633
 31
0.0
  0
LINE
  5
DF
100
AcDbEntity
  8
0
  6
CONTINUOUS
 62
               2
100
AcDbLine
 10
20.899993896484375
 20
9.0
 30
0.0
 11
20.899993896484375
 21
0.8000001907348633
 31
0.0
  0
LINE
  5
E0
100
AcDbEntity
  8
0
  6
CONTINUOUS
 62
               7
100
AcDbLine
 10
13.5
 20
31.0
 30
0.0
 11
6.500031684152634
 21
31.0
 31
0.0
  0
LINE
  5
E1
100
AcDbEntity
  8
0
  6
CONTINUOUS
 62
               7
100
AcDbLine
 10
6.0
 20
18.0
 30
0.0
 11
-6.0
 21
18.0
 31
0.0
  0
LINE
  5
E2
100
AcDbEntity
  8
0
  6
CONTINUOUS
 62
               7
100
AcDbLine
 10
15.0
 20
17.0
 30
0.0
 11
6.0
 21
17.0
 31
0.0
  0
LINE
  5
E3
100
AcDbEntity
  8
0
  6
CONTINUOUS
 62
               7
100
AcDbLine
 10
-13.5
 20
21.0
 30
0.0
 11
-13.5
 21
31.0
 31
0.0
  0
LINE
  5
E4
100
AcDbEntity
  8
0
  6
CONTINUOUS
 62
               7
100
AcDbLine
 10
-6.25
 20
21.0
 30
0.0
 11
-14.0
 21
21.0
 31
0.0
  0
LINE
  5
E5
100
AcDbEntity
  8
0
  6
CONTINUOUS
 62
               7
100
AcDbLine
 10
-6.0
 20
17.0
 30
0.0
 11
-6.0
 21
22.424270629882812
 31
0.0
  0
LINE
  5
E6
100
AcDbEntity
  8
0
  6
CONTINUOUS
 62
               7
100
AcDbLine
 10
6.0
 20
17.0
 30
0.0
 11
6.0
 21
22.424270629882812
 31
0.0
  0
LINE
  5
E7
100
AcDbEntity
  8
0
  6
CONTINUOUS
 62
               7
100
AcDbLine
 10
-6.0
 20
17.0
 30
0.0
 11
-15.0
 21
17.0
 31
0.0
  0
LINE
  5
E8
100
AcDbEntity
  8
0
  6
CONTINUOUS
 62
               7
100
AcDbLine
 10
14.0
 20
17.300003051757813
 30
0.0
 11
7.0
 21
17.300003051757813
 31
0.0
  0
LINE
  5
E9
100
AcDbEntity
  8
0
  6
CONTINUOUS
 62
               7
100
AcDbLine
 10
13.5
 20
21.0
 30
0.0
 11
13.5
 21
31.0
 31
0.0
  0
LINE
  5
EA
100
AcDbEntity
  8
0
  6
CONTINUOUS
 62
               7
100
AcDbLine
 10
14.0
 20
21.0
 30
0.0
 11
6.25
 21
21.0
 31
0.0
  0
LINE
  5
EB
100
AcDbEntity
  8
0
  6
CONTINUOUS
 62
               2
100
AcDbLine
 10
-10.5
 20
-2.0
 30
0.0
 11
-10.5
 21
23.0
 31
0.0
  0
LINE
  5
EC
100
AcDbEntity
  8
0
  6
CONTINUOUS
 62
               2
100
AcDbLine
 10
10.5
 20
-2.0
 30
0.0
 11
10.5
 21
23.0
 31
0.0
  0
LINE
  5
ED
100
AcDbEntity
  8
0
  6
CONTINUOUS
 62
               7
100
AcDbLine
 10
-24.0
 20
0.0
 30
0.0
 11
-24.0
 21
3.399993896484375
 31
0.0
  0
LINE
  5
EE
100
AcDbEntity
  8
0
  6
CONTINUOUS
 62
               7
100
AcDbLine
 10
-22.499954429753814
 20
7.0999999999999996
 30
0.0
 11
-22.999948368384526
 21
6.6000061035156241
 31
0.0
  0
LINE
  5
EF
100
AcDbEntity
  8
0
  6
CONTINUOUS
 62
               7
100
AcDbLine
 10
-22.999948368384526
 20
6.600006103515625
 30
0.0
 11
-24.0
 21
6.600006103515625
 31
0.0
  0
LINE
  5
F0
100
AcDbEntity
  8
0
  6
CONTINUOUS
 62
               7
100
AcDbLine
 10
-22.500024096254446
 20
2.8999999999999995
 30
0.0
 11
-23.000018730526335
 21
3.3999945921254948
 31
0.0
  0
LINE
  5
F1
100
AcDbEntity
  8
0
  6
CONTINUOUS
 62
               7
100
AcDbLine
 10
-23.000018034885155
 20
3.399993896484375
 30
0.0
 11
-24.0
 21
3.399993896484375
 31
0.0
  0
LINE
  5
F2
100
AcDbEntity
  8
0
  6
CONTINUOUS
 62
               7
100
AcDbLine
 10
-24.0
 20
6.600006103515625
 30
0.0
 11
-24.0
 21
10.13397216796875
 31
0.0
  0
LINE
  5
F3
100
AcDbEntity
  8
0
  6
CONTINUOUS
 62
               7
100
AcDbLine
 10
24.0
 20
0.0
 30
0.0
 11
-24.0
 21
0.0
 31
0.0
  0
LINE
  5
F4
100
AcDbEntity
  8
0
  6
CONTINUOUS
 62
               7
100
AcDbLine
 10
24.0
 20
0.0
 30
0.0
 11
24.0
 21
3.399993896484375
 31
0.0
  0
LINE
  5
F5
100
AcDbEntity
  8
0
  6
CONTINUOUS
 62
               7
100
AcDbLine
 10
24.0
 20
6.600006103515625
 30
0.0
 11
24.0
 21
22.5
 31
0.0
  0
LINE
  5
F6
100
AcDbEntity
  8
0
  6
CONTINUOUS
 62
               7
100
AcDbLine
 10
23.5
 20
23.0
 30
0.0
 11
15.0
 21
23.0
 31
0.0
  0
LINE
  5
F7
100
AcDbEntity
  8
0
  6
CONTINUOUS
 62
               7
100
AcDbLine
 10
-15.0
 20
23.0
 30
0.0
 11
-23.5
 21
23.0
 31
0.0
  0
LINE
  5
F8
100
AcDbEntity
  8
0
  6
CONTINUOUS
 62
               7
100
AcDbLine
 10
14.0
 20
17.300003051757813
 30
0.0
 11
14.0
 21
21.0
 31
0.0
  0
LINE
  5
F9
100
AcDbEntity
  8
0
  6
CONTINUOUS
 62
               7
100
AcDbLine
 10
7.0
 20
17.300003051757813
 30
0.0
 11
7.0
 21
21.0
 31
0.0
  0
LINE
  5
FA
100
AcDbEntity
  8
0
  6
CONTINUOUS
 62
               7
100
AcDbLine
 10
14.0
 20
20.699996948242188
 30
0.0
 11
7.0
 21
20.699996948242188
 31
0.0
  0
LINE
  5
FB
100
AcDbEntity
  8
0
  6
CONTINUOUS
 62
               7
100
AcDbLine
 10
-7.0
 20
20.699996948242188
 30
0.0
 11
-14.0
 21
20.699996948242188
 31
0.0
  0
LINE
  5
FC
100
AcDbEntity
  8
0
  6
CONTINUOUS
 62
               7
100
AcDbLine
 10
6.0
 20
25.5
 30
0.0
 11
-6.0
 21
25.5
 31
0.0
  0
LINE
  5
FD
100
AcDbEntity
  8
0
  6
CONTINUOUS
 62
               7
100
AcDbLine
 10
-7.0
 20
17.300003051757813
 30
0.0
 11
-7.0
 21
21.0
 31
0.0
  0
LINE
  5
FE
100
AcDbEntity
  8
0
  6
CONTINUOUS
 62
               7
100
AcDbLine
 10
-14.0
 20
17.300003051757813
 30
0.0
 11
-7.0
 21
17.300003051757813
 31
0.0
  0
LINE
  5
FF
100
AcDbEntity
  8
0
  6
CONTINUOUS
 62
               7
100
AcDbLine
 10
-14.0
 20
17.300003051757813
 30
0.0
 11
-14.0
 21
21.0
 31
0.0
  0
LINE
  5
100
100
AcDbEntity
  8
0
  6
CONTINUOUS
 62
               7
100
AcDbLine
 10
-15.0
 20
17.0
 30
0.0
 11
-15.0
 21
23.0
 31
0.0
  0
LINE
  5
101
100
AcDbEntity
  8
0
  6
CONTINUOUS
 62
               7
100
AcDbLine
 10
15.0
 20
17.0
 30
0.0
 11
15.0
 21
23.0
 31
0.0
  0
LINE
  5
102
100
AcDbEntity
  8
0
  6
CONTINUOUS
 62
               2
100
AcDbLine
 10
3.04278564453125
 20
9.8000030517578125
 30
0.0
 11
-3.04278564453125
 21
9.8000030517578125
 31
0.0
  0
LINE
  5
103
100
AcDbEntity
  8
0
  6
CONTINUOUS
 62
               2
100
AcDbLine
 10
3.04278564453125
 20
8.1999969482421875
 30
0.0
 11
-3.04278564453125
 21
8.1999969482421875
 31
0.0
  0
LINE
  5
104
100
AcDbEntity
  8
0
  6
CONTINUOUS
 62
               7
100
AcDbLine
 10
6.25
 20
26.0
 30
0.0
 11
-6.25
 21
26.0
 31
0.0
  0
LINE
  5
105
100
AcDbEntity
  8
0
  6
CONTINUOUS
 62
               7
100
AcDbLine
 10
6.5
 20
21.5
 30
0.0
 11
6.5
 21
22.699996948242188
 31
0.0
  0
LINE
  5
106
100
AcDbEntity
  8
0
  6
CONTINUOUS
 62
               7
100
AcDbLine
 10
6.0
 20
24.975738525390625
 30
0.0
 11
6.0
 21
25.5
 31
0.0
  0
LINE
  5
107
100
AcDbEntity
  8
0
  6
CONTINUOUS
 62
               7
100
AcDbLine
 10
6.5
 20
24.699996948242188
 30
0.0
 11
6.5
 21
26.300003051757812
 31
0.0
  0
LINE
  5
108
100
AcDbEntity
  8
0
  6
CONTINUOUS
 62
               7
100
AcDbLine
 10
12.0
 20
21.5
 30
0.0
 11
6.5
 21
21.5
 31
0.0
  0
LINE
  5
109
100
AcDbEntity
  8
0
  6
CONTINUOUS
 62
               7
100
AcDbLine
 10
6.00003172629948
 20
30.5
 30
0.0
 11
6.500031684152634
 21
31.0
 31
0.0
  0
LINE
  5
10A
100
AcDbEntity
  8
0
  6
CONTINUOUS
 62
               7
100
AcDbLine
 10
6.00003172629948
 20
30.5
 30
0.0
 11
-6.0000365737756232
 21
30.5
 31
0.0
  0
LINE
  5
10B
100
AcDbEntity
  8
0
  6
CONTINUOUS
 62
               7
100
AcDbLine
 10
-6.0000365737756223
 20
30.5
 30
0.0
 11
-6.5000365316287763
 21
31.0
 31
0.0
  0
LINE
  5
10C
100
AcDbEntity
  8
0
  6
CONTINUOUS
 62
               7
100
AcDbLine
 10
-6.5000365316287763
 20
31.0
 30
0.0
 11
-13.5
 21
31.0
 31
0.0
  0
LINE
  5
10D
100
AcDbEntity
  8
0
  6
CONTINUOUS
 62
               7
100
AcDbLine
 10
12.5
 20
22.0
 30
0.0
 11
12.5
 21
29.5
 31
0.0
  0
LINE
  5
10E
100
AcDbEntity
  8
0
  6
CONTINUOUS
 62
               7
100
AcDbLine
 10
12.0
 20
30.0
 30
0.0
 11
-12.0
 21
30.0
 31
0.0
  0
LINE
  5
10F
100
AcDbEntity
  8
0
  6
CONTINUOUS
 62
               7
100
AcDbLine
 10
6.25
 20
21.0
 30
0.0
 11
6.25
 21
22.399993896484375
 31
0.0
  0
LINE
  5
110
100
AcDbEntity
  8
0
  6
CONTINUOUS
 62
               7
100
AcDbLine
 10
6.25
 20
25.0
 30
0.0
 11
6.25
 21
26.0
 31
0.0
  0
LINE
  5
111
100
AcDbEntity
  8
0
  6
CONTINUOUS
 62
               7
100
AcDbLine
 10
6.5
 20
26.300003051757812
 30
0.0
 11
-6.5
 21
26.300003051757812
 31
0.0
  0
LINE
  5
112
100
AcDbEntity
  8
0
  6
CONTINUOUS
 62
               7
100
AcDbLine
 10
-6.25
 20
21.0
 30
0.0
 11
-6.25
 21
22.399993896484375
 31
0.0
  0
LINE
  5
113
100
AcDbEntity
  8
0
  6
CONTINUOUS
 62
               7
100
AcDbLine
 10
-6.5
 20
21.5
 30
0.0
 11
-6.5
 21
22.699996948242188
 31
0.0
  0
LINE
  5
114
100
AcDbEntity
  8
0
  6
CONTINUOUS
 62
               7
100
AcDbLine
 10
-6.25
 20
25.0
 30
0.0
 11
-6.25
 21
26.0
 31
0.0
  0
LINE
  5
115
100
AcDbEntity
  8
0
  6
CONTINUOUS
 62
               7
100
AcDbLine
 10
-6.5
 20
24.699996948242188
 30
0.0
 11
-6.5
 21
26.300003051757812
 31
0.0
  0
LINE
  5
116
100
AcDbEntity
  8
0
  6
CONTINUOUS
 62
               7
100
AcDbLine
 10
-6.0
 20
24.975738525390625
 30
0.0
 11
-6.0
 21
25.5
 31
0.0
  0
LINE
  5
117
100
AcDbEntity
  8
0
  6
CONTINUOUS
 62
               7
100
AcDbLine
 10
-6.5
 20
21.5
 30
0.0
 11
-12.0
 21
21.5
 31
0.0
  0
LINE
  5
118
100
AcDbEntity
  8
0
  6
CONTINUOUS
 62
               7
100
AcDbLine
 10
-12.5
 20
22.0
 30
0.0
 11
-12.5
 21
29.5
 31
0.0
  0
LINE
  5
119
100
AcDbEntity
  8
0
  6
CONTINUOUS
 62
               7
100
AcDbLine
 10
11.999972551760038
 20
21.500031236148061
 30
0.0
 11
12.499973082554789
 21
22.000031766942811
 31
0.0
  0
LINE
  5
11A
100
AcDbEntity
  8
0
  6
CONTINUOUS
 62
               7
100
AcDbLine
 10
12.499994661740857
 20
29.500028939271033
 30
0.0
 11
11.999994130946106
 21
30.000029470065783
 31
0.0
  0
LINE
  5
11B
100
AcDbEntity
  8
0
  6
CONTINUOUS
 62
               7
100
AcDbLine
 10
-12.000004373219326
 20
21.50001505175851
 30
0.0
 11
-12.500004904014077
 21
22.00001558255326
 31
0.0
  0
LINE
  5
11C
100
AcDbEntity
  8
0
  6
CONTINUOUS
 62
               7
100
AcDbLine
 10
-12.499982937452614
 20
29.500001224256721
 30
0.0
 11
-11.999982069482712
 21
30.000001460023213
 31
0.0
  0
LINE
  5
11D
100
AcDbEntity
  8
0
  6
CONTINUOUS
 62
               7
100
AcDbLine
 10
-24.0
 20
11.86602783203125
 30
0.0
 11
-24.0
 21
22.5
 31
0.0
  0
LINE
  5
11E
100
AcDbEntity
  8
0
  6
CONTINUOUS
 62
               7
100
AcDbLine
 10
23.000069637275875
 20
3.399993896484375
 30
0.0
 11
24.0
 21
3.399993896484375
 31
0.0
  0
LINE
  5
11F
100
AcDbEntity
  8
0
  6
CONTINUOUS
 62
               7
100
AcDbLine
 10
22.500075698645166
 20
2.8999999999999999
 30
0.0
 11
23.000069637275875
 21
3.3999938964843746
 31
0.0
  0
LINE
  5
120
100
AcDbEntity
  8
0
  6
CONTINUOUS
 62
               7
100
AcDbLine
 10
22.499941294580871
 20
7.0999999999999996
 30
0.0
 11
22.999935233211581
 21
6.600006103515625
 31
0.0
  0
LINE
  5
121
100
AcDbEntity
  8
0
  6
CONTINUOUS
 62
               7
100
AcDbLine
 10
22.999935233211581
 20
6.600006103515625
 30
0.0
 11
24.0
 21
6.600006103515625
 31
0.0
  0
LINE
  5
122
100
AcDbEntity
  8
0
  6
CENTER
 62
               2
100
AcDbLine
 10
-27.5
 20
9.0
 30
0.0
 11
27.5
 21
9.0
 31
0.0
  0
CIRCLE
  5
123
100
AcDbEntity
  8
0
  6
CONTINUOUS
 62
               7
100
AcDbCircle
 10
10.5
 20
9.0
 30
0.0
 40
2.0670000000000002
  0
CIRCLE
  5
124
100
AcDbEntity
  8
0
  6
CONTINUOUS
 62
               7
100
AcDbCircle
 10
-10.5
 20
9.0
 30
0.0
 40
2.0670000000000002
  0
LINE
  5
125
100
AcDbEntity
  8
0
  6
CONTINUOUS
 62
               2
100
AcDbLine
 10
20.0
 20
21.5
 30
0.0
 11
20.0
 21
24.5
 31
0.0
  0
LINE
  5
126
100
AcDbEntity
  8
0
  6
CONTINUOUS
 62
               2
100
AcDbLine
 10
22.5
 20
18.5
 30
0.0
 11
25.5
 21
18.5
 31
0.0
  0
LINE
  5
127
100
AcDbEntity
  8
0
  6
CONTINUOUS
 62
               2
100
AcDbLine
 10
-25.5
 20
18.5
 30
0.0
 11
-22.5
 21
18.5
 31
0.0
  0
LINE
  5
128
100
AcDbEntity
  8
0
  6
CONTINUOUS
 62
               2
100
AcDbLine
 10
10.0
 20
29.5
 30
0.0
 11
10.0
 21
32.5
 31
0.0
  0
LINE
  5
129
100
AcDbEntity
  8
0
  6
CONTINUOUS
 62
               2
100
AcDbLine
 10
-10.0
 20
29.5
 30
0.0
 11
-10.0
 21
32.5
 31
0.0
  0
LINE
  5
12A
100
AcDbEntity
  8
0
  6
CONTINUOUS
 62
               2
100
AcDbLine
 10
-20.0
 20
21.5
 30
0.0
 11
-20.0
 21
24.5
 31
0.0
  0
LINE
  5
12B
100
AcDbEntity
  8
0
  6
CENTER
 62
               2
100
AcDbLine
 10
0.0
 20
-5.63397216796875
 30
0.0
 11
0.0
 21
34.36602783203125
 31
0.0
  0
ENDBLK
  5
12C
100
AcDbEntity
  8
0
100
AcDbBlockEnd
  0
BLOCK
  5
12D
100
AcDbEntity
  8
0
100
AcDbBlockBegin
  2
AFDPG-14-4
 70
               0
 10
0.0
 20
0.0
 30
0.0
  3
AFDPG-14-4
  1

  0
ARC
  5
12E
100
AcDbEntity
  8
0
  6
CONTINUOUS
 62
               7
100
AcDbCircle
 10
-44.499999996411361
 20
-8.5000076356102454
 30
0.0
 40
1.5
100
AcDbArc
 50
89.999975183721489
 51
180.00001866933468
  0
ARC
  5
12F
100
AcDbEntity
  8
0
  6
CONTINUOUS
 62
               7
100
AcDbCircle
 10
-44.499999996411361
 20
-12.500007635610245
 30
0.0
 40
1.5
100
AcDbArc
 50
180.00003597217869
 51
270.00001798608935
  0
CIRCLE
  5
130
100
AcDbEntity
  8
0
  6
CONTINUOUS
 62
               2
100
AcDbCircle
 10
22.500000003588639
 20
-10.000000006215714
 30
0.0
 40
1.5
  0
CIRCLE
  5
131
100
AcDbEntity
  8
0
  6
CONTINUOUS
 62
               2
100
AcDbCircle
 10
22.500000003588639
 20
9.9999999937842858
 30
0.0
 40
1.5
  0
CIRCLE
  5
132
100
AcDbEntity
  8
0
  6
CONTINUOUS
 62
               2
100
AcDbCircle
 10
-37.49999236701683
 20
9.9999999937842858
 30
0.0
 40
1.5
  0
CIRCLE
  5
133
100
AcDbEntity
  8
0
  6
CONTINUOUS
 62
               2
100
AcDbCircle
 10
-37.49999236701683
 20
-10.000000006215714
 30
0.0
 40
1.5
  0
CIRCLE
  5
134
100
AcDbEntity
  8
0
  6
CONTINUOUS
 62
               2
100
AcDbCircle
 10
-19.999999996411361
 20
-20.000000006215714
 30
0.0
 40
2.0
  0
CIRCLE
  5
135
100
AcDbEntity
  8
0
  6
CONTINUOUS
 62
               2
100
AcDbCircle
 10
20.000000003588639
 20
-20.000000006215714
 30
0.0
 40
2.0
  0
CIRCLE
  5
136
100
AcDbEntity
  8
0
  6
CONTINUOUS
 62
               2
100
AcDbCircle
 10
20.000000003588639
 20
19.999999993784286
 30
0.0
 40
2.0
  0
CIRCLE
  5
137
100
AcDbEntity
  8
0
  6
CONTINUOUS
 62
               2
100
AcDbCircle
 10
-19.999999996411361
 20
19.999999993784286
 30
0.0
 40
2.0
  0
CIRCLE
  5
138
100
AcDbEntity
  8
0
  6
CONTINUOUS
 62
               2
100
AcDbCircle
 10
-22.49999236701683
 20
-10.000000006215714
 30
0.0
 40
1.5
  0
CIRCLE
  5
139
100
AcDbEntity
  8
0
  6
CONTINUOUS
 62
               2
100
AcDbCircle
 10
-22.49999236701683
 20
9.9999999937842858
 30
0.0
 40
1.5
  0
CIRCLE
  5
13A
100
AcDbEntity
  8
0
  6
CONTINUOUS
 62
               2
100
AcDbCircle
 10
37.500000003588639
 20
9.9999999937842858
 30
0.0
 40
1.5
  0
CIRCLE
  5
13B
100
AcDbEntity
  8
0
  6
CONTINUOUS
 62
               2
100
AcDbCircle
 10
37.500000003588639
 20
-10.000000006215714
 30
0.0
 40
1.5
  0
LINE
  5
13C
100
AcDbEntity
  8
0
  6
CONTINUOUS
 62
               2
100
AcDbLine
 10
30.000000003588639
 20
13.499999993784286
 30
0.0
 11
30.000000003588639
 21
-13.500000006215714
 31
0.0
  0
LINE
  5
13D
100
AcDbEntity
  8
0
  6
CONTINUOUS
 62
               2
100
AcDbLine
 10
-29.99999236701683
 20
13.499999993784286
 30
0.0
 11
-29.99999236701683
 21
-13.500000006215714
 31
0.0
  0
LINE
  5
13E
100
AcDbEntity
  8
0
  6
CONTINUOUS
 62
               2
100
AcDbLine
 10
-47.5
 20
10.499999993784286
 30
0.0
 11
-40.999999996411361
 21
10.499999993784286
 31
0.0
  0
LINE
  5
13F
100
AcDbEntity
  8
0
  6
CONTINUOUS
 62
               7
100
AcDbLine
 10
-45.999999996411361
 20
-12.500007635610245
 30
0.0
 11
-45.999999996411361
 21
-10.900001525878906
 31
0.0
  0
LINE
  5
140
100
AcDbEntity
  8
0
  6
CONTINUOUS
 62
               7
100
AcDbLine
 10
-44.499999996411361
 20
-14.000007635610245
 30
0.0
 11
-42.999999996411361
 21
-14.000007635610245
 31
0.0
  0
LINE
  5
141
100
AcDbEntity
  8
0
  6
CONTINUOUS
 62
               7
100
AcDbLine
 10
-44.499999996411361
 20
-7.0000076356102454
 30
0.0
 11
-43.99999236701683
 21
-7.0000076356102454
 31
0.0
  0
LINE
  5
142
100
AcDbEntity
  8
0
  6
CONTINUOUS
 62
               7
100
AcDbLine
 10
17.000000003588639
 20
6.4999999937842858
 30
0.0
 11
43.000000003588639
 21
6.4999999937842858
 31
0.0
  0
LINE
  5
143
100
AcDbEntity
  8
0
  6
CONTINUOUS
 62
               7
100
AcDbLine
 10
17.000000003588639
 20
5.9999999937842858
 30
0.0
 11
43.000000003588639
 21
5.9999999937842858
 31
0.0
  0
LINE
  5
144
100
AcDbEntity
  8
0
  6
CONTINUOUS
 62
               7
100
AcDbLine
 10
-42.99999236701683
 20
6.4999999937842858
 30
0.0
 11
-16.99999236701683
 21
6.4999999937842858
 31
0.0
  0
LINE
  5
145
100
AcDbEntity
  8
0
  6
CONTINUOUS
 62
               7
100
AcDbLine
 10
-42.99999236701683
 20
5.9999999937842858
 30
0.0
 11
-16.99999236701683
 21
5.9999999937842858
 31
0.0
  0
LINE
  5
146
100
AcDbEntity
  8
0
  6
CONTINUOUS
 62
               7
100
AcDbLine
 10
17.000000003588639
 20
-6.0000076356102454
 30
0.0
 11
43.000000003588639
 21
-6.0000076356102454
 31
0.0
  0
LINE
  5
147
100
AcDbEntity
  8
0
  6
CONTINUOUS
 62
               7
100
AcDbLine
 10
17.000000003588639
 20
-6.5000076356102454
 30
0.0
 11
43.000000003588639
 21
-6.5000076356102454
 31
0.0
  0
LINE
  5
148
100
AcDbEntity
  8
0
  6
CONTINUOUS
 62
               7
100
AcDbLine
 10
-42.99999236701683
 20
-6.5000076356102454
 30
0.0
 11
-16.99999236701683
 21
-6.5000076356102454
 31
0.0
  0
LINE
  5
149
100
AcDbEntity
  8
0
  6
CONTINUOUS
 62
               7
100
AcDbLine
 10
-42.99999236701683
 20
-6.0000076356102454
 30
0.0
 11
-16.99999236701683
 21
-6.0000076356102454
 31
0.0
  0
LINE
  5
14A
100
AcDbEntity
  8
0
  6
CONTINUOUS
 62
               7
100
AcDbLine
 10
-42.999999996411361
 20
-15.000000006215714
 30
0.0
 11
43.000000003588639
 21
-15.000000006215714
 31
0.0
  0
LINE
  5
14B
100
AcDbEntity
  8
0
  6
CONTINUOUS
 62
               7
100
AcDbLine
 10
-42.999999996411361
 20
14.999999993784286
 30
0.0
 11
43.000000003588639
 21
14.999999993784286
 31
0.0
  0
LINE
  5
14C
100
AcDbEntity
  8
0
  6
CONTINUOUS
 62
               7
100
AcDbLine
 10
17.000000003588639
 20
-12.000000006215714
 30
0.0
 11
16.000000003588639
 21
-12.000000006215714
 31
0.0
  0
LINE
  5
14D
100
AcDbEntity
  8
0
  6
CONTINUOUS
 62
               7
100
AcDbLine
 10
17.000000003588639
 20
11.999999993784286
 30
0.0
 11
16.000000003588639
 21
11.999999993784286
 31
0.0
  0
LINE
  5
14E
100
AcDbEntity
  8
0
  6
CONTINUOUS
 62
               7
100
AcDbLine
 10
44.000000003588639
 20
-12.000000006215714
 30
0.0
 11
43.000000003588639
 21
-12.000000006215714
 31
0.0
  0
LINE
  5
14F
100
AcDbEntity
  8
0
  6
CONTINUOUS
 62
               7
100
AcDbLine
 10
44.000000003588639
 20
11.999999993784286
 30
0.0
 11
43.000000003588639
 21
11.999999993784286
 31
0.0
  0
LINE
  5
150
100
AcDbEntity
  8
0
  6
CONTINUOUS
 62
               7
100
AcDbLine
 10
44.000000003588639
 20
11.999999993784286
 30
0.0
 11
44.000000003588639
 21
-12.000000006215714
 31
0.0
  0
LINE
  5
151
100
AcDbEntity
  8
0
  6
CONTINUOUS
 62
               7
100
AcDbLine
 10
17.000000003588639
 20
13.499999993784286
 30
0.0
 11
17.000000003588639
 21
-13.500000006215714
 31
0.0
  0
LINE
  5
152
100
AcDbEntity
  8
0
  6
CONTINUOUS
 62
               7
100
AcDbLine
 10
16.000000003588639
 20
11.999999993784286
 30
0.0
 11
16.000000003588639
 21
-12.000000006215714
 31
0.0
  0
LINE
  5
153
100
AcDbEntity
  8
0
  6
CONTINUOUS
 62
               7
100
AcDbLine
 10
-16.99999236701683
 20
-12.000000006215714
 30
0.0
 11
-15.99999236701683
 21
-12.000000006215714
 31
0.0
  0
LINE
  5
154
100
AcDbEntity
  8
0
  6
CONTINUOUS
 62
               7
100
AcDbLine
 10
-43.99999236701683
 20
-12.000000006215714
 30
0.0
 11
-42.99999236701683
 21
-12.000000006215714
 31
0.0
  0
LINE
  5
155
100
AcDbEntity
  8
0
  6
CONTINUOUS
 62
               7
100
AcDbLine
 10
-16.99999236701683
 20
11.999999993784286
 30
0.0
 11
-15.99999236701683
 21
11.999999993784286
 31
0.0
  0
LINE
  5
156
100
AcDbEntity
  8
0
  6
CONTINUOUS
 62
               7
100
AcDbLine
 10
-43.99999236701683
 20
11.999999993784286
 30
0.0
 11
-42.99999236701683
 21
11.999999993784286
 31
0.0
  0
LINE
  5
157
100
AcDbEntity
  8
0
  6
CONTINUOUS
 62
               7
100
AcDbLine
 10
-16.99999236701683
 20
13.499999993784286
 30
0.0
 11
-16.99999236701683
 21
-13.500000006215714
 31
0.0
  0
LINE
  5
158
100
AcDbEntity
  8
0
  6
CONTINUOUS
 62
               7
100
AcDbLine
 10
-15.99999236701683
 20
11.999999993784286
 30
0.0
 11
-15.99999236701683
 21
-12.000000006215714
 31
0.0
  0
LINE
  5
159
100
AcDbEntity
  8
0
  6
CONTINUOUS
 62
               7
100
AcDbLine
 10
-43.99999236701683
 20
11.999999993784286
 30
0.0
 11
-43.99999236701683
 21
-12.000000006215714
 31
0.0
  0
LINE
  5
15A
100
AcDbEntity
  8
0
  6
CONTINUOUS
 62
               7
100
AcDbLine
 10
43.000000003588639
 20
-23.499994109728831
 30
0.0
 11
42.499994064954414
 21
-24.000000006215714
 31
0.0
  0
LINE
  5
15B
100
AcDbEntity
  8
0
  6
CONTINUOUS
 62
               7
100
AcDbLine
 10
-42.49999696546201
 20
-24.000000006215714
 30
0.0
 11
42.499994064954421
 21
-24.000000006215714
 31
0.0
  0
LINE
  5
15C
100
AcDbEntity
  8
0
  6
CONTINUOUS
 62
               7
100
AcDbLine
 10
-42.999999996411361
 20
23.500014934656008
 30
0.0
 11
-42.50001489513749
 21
23.999999993784286
 31
0.0
  0
LINE
  5
15D
100
AcDbEntity
  8
0
  6
CONTINUOUS
 62
               7
100
AcDbLine
 10
42.500003445812084
 20
23.999999993784286
 30
0.0
 11
43.000000003588639
 21
23.500003393861171
 31
0.0
  0
LINE
  5
15E
100
AcDbEntity
  8
0
  6
CONTINUOUS
 62
               7
100
AcDbLine
 10
-42.50001489513749
 20
23.999999993784286
 30
0.0
 11
42.500003445812077
 21
23.999999993784286
 31
0.0
  0
LINE
  5
15F
100
AcDbEntity
  8
0
  6
CONTINUOUS
 62
               7
100
AcDbLine
 10
-42.999999996411361
 20
-23.499997017413467
 30
0.0
 11
-42.49999696546201
 21
-24.000000006215714
 31
0.0
  0
LINE
  5
160
100
AcDbEntity
  8
0
  6
CONTINUOUS
 62
               7
100
AcDbLine
 10
-15.99999236701683
 20
-6.0000000062157142
 30
0.0
 11
16.000000003588639
 21
-6.0000000062157142
 31
0.0
  0
LINE
  5
161
100
AcDbEntity
  8
0
  6
CONTINUOUS
 62
               7
100
AcDbLine
 10
-15.99999236701683
 20
5.9999999937842858
 30
0.0
 11
16.000000003588639
 21
5.9999999937842858
 31
0.0
  0
LINE
  5
162
100
AcDbEntity
  8
0
  6
CONTINUOUS
 62
               7
100
AcDbLine
 10
17.000000003588639
 20
-13.500000006215714
 30
0.0
 11
43.000000003588639
 21
-13.500000006215714
 31
0.0
  0
LINE
  5
163
100
AcDbEntity
  8
0
  6
CONTINUOUS
 62
               7
100
AcDbLine
 10
17.000000003588639
 20
13.499999993784286
 30
0.0
 11
43.000000003588639
 21
13.499999993784286
 31
0.0
  0
LINE
  5
164
100
AcDbEntity
  8
0
  6
CONTINUOUS
 62
               7
100
AcDbLine
 10
-42.999999996411361
 20
23.500014934656008
 30
0.0
 11
-42.999999996411361
 21
13.499999993784286
 31
0.0
  0
LINE
  5
165
100
AcDbEntity
  8
0
  6
CONTINUOUS
 62
               7
100
AcDbLine
 10
-42.99999236701683
 20
13.499999993784286
 30
0.0
 11
-16.99999236701683
 21
13.499999993784286
 31
0.0
  0
LINE
  5
166
100
AcDbEntity
  8
0
  6
CONTINUOUS
 62
               7
100
AcDbLine
 10
-42.99999236701683
 20
-13.500000006215714
 30
0.0
 11
-16.99999236701683
 21
-13.500000006215714
 31
0.0
  0
LINE
  5
167
100
AcDbEntity
  8
0
  6
CONTINUOUS
 62
               7
100
AcDbLine
 10
43.000000003588639
 20
23.500003393861171
 30
0.0
 11
43.000000003588639
 21
13.499999993784286
 31
0.0
  0
LINE
  5
168
100
AcDbEntity
  8
0
  6
CONTINUOUS
 62
               7
100
AcDbLine
 10
43.000000003588639
 20
13.499999993784286
 30
0.0
 11
43.000000003588639
 21
-13.500000006215714
 31
0.0
  0
LINE
  5
169
100
AcDbEntity
  8
0
  6
CONTINUOUS
 62
               7
100
AcDbLine
 10
43.000000003588639
 20
-13.500000006215714
 30
0.0
 11
43.000000003588639
 21
-23.499994109728831
 31
0.0
  0
LINE
  5
16A
100
AcDbEntity
  8
0
  6
CONTINUOUS
 62
               7
100
AcDbLine
 10
-42.999999996411361
 20
-13.500000006215714
 30
0.0
 11
-42.999999996411361
 21
-23.499997017413467
 31
0.0
  0
LINE
  5
16B
100
AcDbEntity
  8
0
  6
CONTINUOUS
 62
               7
100
AcDbLine
 10
-42.999999996411361
 20
13.499999993784286
 30
0.0
 11
-42.999999996411361
 21
-13.500000006215714
 31
0.0
  0
LINE
  5
16C
100
AcDbEntity
  8
0
  6
CONTINUOUS
 62
               2
100
AcDbLine
 10
-34.99999236701683
 20
9.9999999937842858
 30
0.0
 11
-39.99999236701683
 21
9.9999999937842858
 31
0.0
  0
LINE
  5
16D
100
AcDbEntity
  8
0
  6
CONTINUOUS
 62
               2
100
AcDbLine
 10
-37.49999236701683
 20
12.499999993784286
 30
0.0
 11
-37.49999236701683
 21
7.4999999937842858
 31
0.0
  0
LINE
  5
16E
100
AcDbEntity
  8
0
  6
CONTINUOUS
 62
               2
100
AcDbLine
 10
-19.99999236701683
 20
9.9999999937842858
 30
0.0
 11
-24.99999236701683
 21
9.9999999937842858
 31
0.0
  0
LINE
  5
16F
100
AcDbEntity
  8
0
  6
CONTINUOUS
 62
               2
100
AcDbLine
 10
-22.49999236701683
 20
12.499999993784286
 30
0.0
 11
-22.49999236701683
 21
7.4999999937842858
 31
0.0
  0
LINE
  5
170
100
AcDbEntity
  8
0
  6
CONTINUOUS
 62
               2
100
AcDbLine
 10
-34.99999236701683
 20
-10.000000006215714
 30
0.0
 11
-39.99999236701683
 21
-10.000000006215714
 31
0.0
  0
LINE
  5
171
100
AcDbEntity
  8
0
  6
CONTINUOUS
 62
               2
100
AcDbLine
 10
-37.49999236701683
 20
-7.5000000062157142
 30
0.0
 11
-37.49999236701683
 21
-12.500000006215714
 31
0.0
  0
LINE
  5
172
100
AcDbEntity
  8
0
  6
CONTINUOUS
 62
               2
100
AcDbLine
 10
-19.99999236701683
 20
-10.000000006215714
 30
0.0
 11
-24.99999236701683
 21
-10.000000006215714
 31
0.0
  0
LINE
  5
173
100
AcDbEntity
  8
0
  6
CONTINUOUS
 62
               2
100
AcDbLine
 10
-22.49999236701683
 20
-7.5000000062157142
 30
0.0
 11
-22.49999236701683
 21
-12.500000006215714
 31
0.0
  0
LINE
  5
174
100
AcDbEntity
  8
0
  6
CONTINUOUS
 62
               2
100
AcDbLine
 10
25.000000003588639
 20
9.9999999937842858
 30
0.0
 11
20.000000003588639
 21
9.9999999937842858
 31
0.0
  0
LINE
  5
175
100
AcDbEntity
  8
0
  6
CONTINUOUS
 62
               2
100
AcDbLine
 10
22.500000003588639
 20
12.499999993784286
 30
0.0
 11
22.500000003588639
 21
7.4999999937842858
 31
0.0
  0
LINE
  5
176
100
AcDbEntity
  8
0
  6
CONTINUOUS
 62
               2
100
AcDbLine
 10
40.000000003588639
 20
9.9999999937842858
 30
0.0
 11
35.000000003588639
 21
9.9999999937842858
 31
0.0
  0
LINE
  5
177
100
AcDbEntity
  8
0
  6
CONTINUOUS
 62
               2
100
AcDbLine
 10
37.500000003588639
 20
12.499999993784286
 30
0.0
 11
37.500000003588639
 21
7.4999999937842858
 31
0.0
  0
LINE
  5
178
100
AcDbEntity
  8
0
  6
CONTINUOUS
 62
               2
100
AcDbLine
 10
40.000000003588639
 20
-10.000000006215714
 30
0.0
 11
35.000000003588639
 21
-10.000000006215714
 31
0.0
  0
LINE
  5
179
100
AcDbEntity
  8
0
  6
CONTINUOUS
 62
               2
100
AcDbLine
 10
37.500000003588639
 20
-7.5000000062157142
 30
0.0
 11
37.500000003588639
 21
-12.500000006215714
 31
0.0
  0
LINE
  5
17A
100
AcDbEntity
  8
0
  6
CONTINUOUS
 62
               2
100
AcDbLine
 10
25.000000003588639
 20
-10.000000006215714
 30
0.0
 11
20.000000003588639
 21
-10.000000006215714
 31
0.0
  0
LINE
  5
17B
100
AcDbEntity
  8
0
  6
CONTINUOUS
 62
               2
100
AcDbLine
 10
22.500000003588639
 20
-7.5000000062157142
 30
0.0
 11
22.500000003588639
 21
-12.500000006215714
 31
0.0
  0
LINE
  5
17C
100
AcDbEntity
  8
0
  6
CONTINUOUS
 62
               2
100
AcDbLine
 10
-47.5
 20
-10.500000006215714
 30
0.0
 11
-40.999999996411361
 21
-10.500000006215714
 31
0.0
  0
LINE
  5
17D
100
AcDbEntity
  8
0
  6
CONTINUOUS
 62
               7
100
AcDbLine
 10
-44.499999996411361
 20
7.0000076231788171
 30
0.0
 11
-43.99999236701683
 21
7.0000076231788171
 31
0.0
  0
ARC
  5
17E
100
AcDbEntity
  8
0
  6
CONTINUOUS
 62
               7
100
AcDbCircle
 10
-44.499999996411361
 20
8.5000076231788171
 30
0.0
 40
1.5
100
AcDbArc
 50
179.99998133066532
 51
270.00002481627854
  0
ARC
  5
17F
100
AcDbEntity
  8
0
  6
CONTINUOUS
 62
               7
100
AcDbCircle
 10
-44.499999996411361
 20
12.500007623178817
 30
0.0
 40
1.5
100
AcDbArc
 50
89.999982013910653
 51
179.99996402782131
  0
LINE
  5
180
100
AcDbEntity
  8
0
  6
CONTINUOUS
 62
               7
100
AcDbLine
 10
-45.999999996411361
 20
8.5000076231788171
 30
0.0
 11
-45.999999996411361
 21
10.100006103515625
 31
0.0
  0
LINE
  5
181
100
AcDbEntity
  8
0
  6
CONTINUOUS
 62
               7
100
AcDbLine
 10
-44.499999996411361
 20
14.000007623178817
 30
0.0
 11
-42.999999996411361
 21
14.000007623178817
 31
0.0
  0
LINE
  5
182
100
AcDbEntity
  8
0
  6
CENTER
 62
               2
100
AcDbLine
 10
-47.5
 20
0.0
 30
0.0
 11
47.5
 21
0.0
 31
0.0
  0
CIRCLE
  5
183
100
AcDbEntity
  8
0
  6
CONTINUOUS
 62
               7
100
AcDbCircle
 10
20.000000003588639
 20
19.999999993784286
 30
0.0
 40
1.621
  0
CIRCLE
  5
184
100
AcDbEntity
  8
0
  6
CONTINUOUS
 62
               7
100
AcDbCircle
 10
-19.999999996411361
 20
19.999999993784286
 30
0.0
 40
1.621
  0
CIRCLE
  5
185
100
AcDbEntity
  8
0
  6
CONTINUOUS
 62
               7
100
AcDbCircle
 10
-19.999999996411361
 20
-20.000000006215714
 30
0.0
 40
1.621
  0
CIRCLE
  5
186
100
AcDbEntity
  8
0
  6
CONTINUOUS
 62
               7
100
AcDbCircle
 10
20.000000003588639
 20
-20.000000006215714
 30
0.0
 40
1.621
  0
CIRCLE
  5
187
100
AcDbEntity
  8
0
  6
CONTINUOUS
 62
               7
100
AcDbCircle
 10
37.500000003588639
 20
9.9999999937842858
 30
0.0
 40
1.2295
  0
CIRCLE
  5
188
100
AcDbEntity
  8
0
  6
CONTINUOUS
 62
               7
100
AcDbCircle
 10
22.500000003588639
 20
9.9999999937842858
 30
0.0
 40
1.2295
  0
CIRCLE
  5
189
100
AcDbEntity
  8
0
  6
CONTINUOUS
 62
               7
100
AcDbCircle
 10
22.500000003588639
 20
-10.000000006215714
 30
0.0
 40
1.2295
  0
CIRCLE
  5
18A
100
AcDbEntity
  8
0
  6
CONTINUOUS
 62
               7
100
AcDbCircle
 10
37.500000003588639
 20
-10.000000006215714
 30
0.0
 40
1.2295
  0
CIRCLE
  5
18B
100
AcDbEntity
  8
0
  6
CONTINUOUS
 62
               7
100
AcDbCircle
 10
-22.49999236701683
 20
9.9999999937842858
 30
0.0
 40
1.2295
  0
CIRCLE
  5
18C
100
AcDbEntity
  8
0
  6
CONTINUOUS
 62
               7
100
AcDbCircle
 10
-37.49999236701683
 20
9.9999999937842858
 30
0.0
 40
1.2295
  0
CIRCLE
  5
18D
100
AcDbEntity
  8
0
  6
CONTINUOUS
 62
               7
100
AcDbCircle
 10
-37.49999236701683
 20
-10.000000006215714
 30
0.0
 40
1.2295
  0
CIRCLE
  5
18E
100
AcDbEntity
  8
0
  6
CONTINUOUS
 62
               7
100
AcDbCircle
 10
-22.49999236701683
 20
-10.000000006215714
 30
0.0
 40
1.2295
  0
LINE
  5
18F
100
AcDbEntity
  8
0
  6
CONTINUOUS
 62
               2
100
AcDbLine
 10
30.000000003768832
 20
22.499999993784286
 30
0.0
 11
30.000000003768832
 21
25.499999993784286
 31
0.0
  0
LINE
  5
190
100
AcDbEntity
  8
0
  6
CONTINUOUS
 62
               2
100
AcDbLine
 10
-29.999999996231168
 20
22.499999993784286
 30
0.0
 11
-29.999999996231168
 21
25.499999993784286
 31
0.0
  0
LINE
  5
191
100
AcDbEntity
  8
0
  6
CONTINUOUS
 62
               2
100
AcDbLine
 10
41.000000003588639
 20
-10.500000006215714
 30
0.0
 11
46.000000003588639
 21
-10.500000006215714
 31
0.0
  0
LINE
  5
192
100
AcDbEntity
  8
0
  6
CONTINUOUS
 62
               2
100
AcDbLine
 10
41.000000003588639
 20
10.499999993784286
 30
0.0
 11
46.000000003588639
 21
10.499999993784286
 31
0.0
  0
LINE
  5
193
100
AcDbEntity
  8
0
  6
CONTINUOUS
 62
               2
100
AcDbLine
 10
-29.999999996231168
 20
-22.499999993784286
 30
0.0
 11
-29.999999996231168
 21
-25.499999993784286
 31
0.0
  0
LINE
  5
194
100
AcDbEntity
  8
0
  6
CONTINUOUS
 62
               2
100
AcDbLine
 10
30.000000003768832
 20
-22.499999993784286
 30
0.0
 11
30.000000003768832
 21
-25.499999993784286
 31
0.0
  0
LINE
  5
195
100
AcDbEntity
  8
0
  6
CONTINUOUS
 62
               2
100
AcDbLine
 10
20.000000003588639
 20
16.249999993784286
 30
0.0
 11
20.000000003588639
 21
23.749999993784286
 31
0.0
  0
LINE
  5
196
100
AcDbEntity
  8
0
  6
CONTINUOUS
 62
               2
100
AcDbLine
 10
-19.999999996411361
 20
16.249999993784286
 30
0.0
 11
-19.999999996411361
 21
23.749999993784286
 31
0.0
  0
LINE
  5
197
100
AcDbEntity
  8
0
  6
CONTINUOUS
 62
               2
100
AcDbLine
 10
16.250000003588639
 20
19.999999993784286
 30
0.0
 11
23.750000003588639
 21
19.999999993784286
 31
0.0
  0
LINE
  5
198
100
AcDbEntity
  8
0
  6
CONTINUOUS
 62
               2
100
AcDbLine
 10
-23.749999996411361
 20
19.999999993784286
 30
0.0
 11
-16.249999996411361
 21
19.999999993784286
 31
0.0
  0
LINE
  5
199
100
AcDbEntity
  8
0
  6
CONTINUOUS
 62
               2
100
AcDbLine
 10
20.000000003588639
 20
-23.750000006215714
 30
0.0
 11
20.000000003588639
 21
-16.250000006215714
 31
0.0
  0
LINE
  5
19A
100
AcDbEntity
  8
0
  6
CONTINUOUS
 62
               2
100
AcDbLine
 10
16.250000003588639
 20
-20.000000006215714
 30
0.0
 11
23.750000003588639
 21
-20.000000006215714
 31
0.0
  0
LINE
  5
19B
100
AcDbEntity
  8
0
  6
CONTINUOUS
 62
               2
100
AcDbLine
 10
-19.999999996411361
 20
-23.750000006215714
 30
0.0
 11
-19.999999996411361
 21
-16.250000006215714
 31
0.0
  0
LINE
  5
19C
100
AcDbEntity
  8
0
  6
CONTINUOUS
 62
               2
100
AcDbLine
 10
-23.749999996411361
 20
-20.000000006215714
 30
0.0
 11
-16.249999996411361
 21
-20.000000006215714
 31
0.0
  0
CIRCLE
  5
19D
100
AcDbEntity
  8
0
  6
CONTINUOUS
 62
               7
100
AcDbCircle
 10
30.000000003588639
 20
0.0
 30
0.0
 40
2.0
  0
CIRCLE
  5
19E
100
AcDbEntity
  8
0
  6
CONTINUOUS
 62
               7
100
AcDbCircle
 10
-29.99999236701683
 20
0.0
 30
0.0
 40
2.0
  0
LINE
  5
19F
100
AcDbEntity
  8
0
  6
CONTINUOUS
 62
               7
100
AcDbLine
 10
-45.999999996411361
 20
10.900009155273437
 30
0.0
 11
-44.600006099926986
 21
10.900009155273437
 31
0.0
  0
LINE
  5
1A0
100
AcDbEntity
  8
0
  6
CONTINUOUS
 62
               7
100
AcDbLine
 10
-45.999999996411361
 20
10.100006103515625
 30
0.0
 11
-44.600006099926986
 21
10.100006103515625
 31
0.0
  0
LINE
  5
1A1
100
AcDbEntity
  8
0
  6
CONTINUOUS
 62
               7
100
AcDbLine
 10
-44.600006099926986
 20
10.900009155273437
 30
0.0
 11
-44.600006099926986
 21
10.100006103515625
 31
0.0
  0
LINE
  5
1A2
100
AcDbEntity
  8
0
  6
CONTINUOUS
 62
               7
100
AcDbLine
 10
-45.999999996411361
 20
-10.099998474121094
 30
0.0
 11
-44.600006099926986
 21
-10.099998474121094
 31
0.0
  0
LINE
  5
1A3
100
AcDbEntity
  8
0
  6
CONTINUOUS
 62
               7
100
AcDbLine
 10
-45.999999996411361
 20
-10.900001525878906
 30
0.0
 11
-44.600006099926986
 21
-10.900001525878906
 31
0.0
  0
LINE
  5
1A4
100
AcDbEntity
  8
0
  6
CONTINUOUS
 62
               7
100
AcDbLine
 10
-44.600006099926986
 20
-10.900001525878906
 30
0.0
 11
-44.600006099926986
 21
-10.099998474121094
 31
0.0
  0
LINE
  5
1A5
100
AcDbEntity
  8
0
  6
CONTINUOUS
 62
               7
100
AcDbLine
 10
-45.999999996411361
 20
10.900009155273437
 30
0.0
 11
-45.999999996411361
 21
12.500007623178817
 31
0.0
  0
LINE
  5
1A6
100
AcDbEntity
  8
0
  6
CONTINUOUS
 62
               7
100
AcDbLine
 10
-45.999999996411361
 20
-10.099998474121094
 30
0.0
 11
-45.999999996411361
 21
-8.5000076356102454
 31
0.0
  0
LINE
  5
1A7
100
AcDbEntity
  8
0
  6
CENTER
 62
               2
100
AcDbLine
 10
0.0000000000000018
 20
-30.0
 30
0.0
 11
0.0000000000000018
 21
30.0
 31
0.0
  0
ENDBLK
  5
1A8
100
AcDbEntity
  8
0
100
AcDbBlockEnd
  0
BLOCK
  5
1A9
100
AcDbEntity
  8
0
100
AcDbBlockBegin
  2
AFDPG-14-5
 70
               0
 10
0.0
 20
0.0
 30
0.0
  3
AFDPG-14-5
  1

  0
CIRCLE
  5
1AA
100
AcDbEntity
  8
0
  6
CONTINUOUS
 62
               7
100
AcDbCircle
 10
0.0000001963482035
 20
0.0
 30
0.0
 40
5.0
  0
CIRCLE
  5
1AB
100
AcDbEntity
  8
0
  6
CONTINUOUS
 62
               7
100
AcDbCircle
 10
0.0000001963482035
 20
0.0
 30
0.0
 40
2.0
  0
ARC
  5
1AC
100
AcDbEntity
  8
0
  6
CONTINUOUS
 62
               7
100
AcDbCircle
 10
16.000000196348203
 20
0.0
 30
0.0
 40
1.5
100
AcDbArc
 50
90.000002504478161
 51
270.00000068324533
  0
ARC
  5
1AD
100
AcDbEntity
  8
0
  6
CONTINUOUS
 62
               7
100
AcDbCircle
 10
19.000000196348203
 20
0.0
 30
0.0
 40
1.5
100
AcDbArc
 50
269.99999749552182
 51
90.000002504478161
  0
CIRCLE
  5
1AE
100
AcDbEntity
  8
0
  6
CONTINUOUS
 62
               7
100
AcDbCircle
 10
-17.499992174257265
 20
0.0
 30
0.0
 40
1.5
  0
CIRCLE
  5
1AF
100
AcDbEntity
  8
0
  6
CONTINUOUS
 62
               2
100
AcDbCircle
 10
-24.999992174257265
 20
0.0
 30
0.0
 40
2.5
  0
CIRCLE
  5
1B0
100
AcDbEntity
  8
0
  6
CONTINUOUS
 62
               2
100
AcDbCircle
 10
25.000000196348203
 20
0.0
 30
0.0
 40
2.5
  0
ARC
  5
1B1
100
AcDbEntity
  8
0
  6
CONTINUOUS
 62
               7
100
AcDbCircle
 10
-44.499999803651797
 20
8.5000076293945313
 30
0.0
 40
1.5
100
AcDbArc
 50
179.99997768819966
 51
270.00002800400199
  0
ARC
  5
1B2
100
AcDbEntity
  8
0
  6
CONTINUOUS
 62
               7
100
AcDbCircle
 10
-44.499999803651797
 20
12.500007629394531
 30
0.0
 40
1.5
100
AcDbArc
 50
89.999982013910653
 51
179.99996402782131
  0
LINE
  5
1B3
100
AcDbEntity
  8
0
  6
CONTINUOUS
 62
               7
100
AcDbLine
 10
16.000000196348203
 20
1.5
 30
0.0
 11
19.000000196348203
 21
1.5
 31
0.0
  0
LINE
  5
1B4
100
AcDbEntity
  8
0
  6
CONTINUOUS
 62
               7
100
AcDbLine
 10
16.000000196348203
 20
-1.5000000000000036
 30
0.0
 11
19.000000196348203
 21
-1.5000000000000036
 31
0.0
  0
LINE
  5
1B5
100
AcDbEntity
  8
0
  6
CONTINUOUS
 62
               2
100
AcDbLine
 10
16.000000196348203
 20
-3.5000000000000036
 30
0.0
 11
16.000000196348203
 21
3.5
 31
0.0
  0
LINE
  5
1B6
100
AcDbEntity
  8
0
  6
CONTINUOUS
 62
               2
100
AcDbLine
 10
19.000000196348203
 20
-3.5000000000000036
 30
0.0
 11
19.000000196348203
 21
3.5
 31
0.0
  0
LINE
  5
1B7
100
AcDbEntity
  8
0
  6
CONTINUOUS
 62
               2
100
AcDbLine
 10
-47.49999986684508
 20
-10.500000000000004
 30
0.0
 11
-40.999999863256441
 21
-10.500000000000004
 31
0.0
  0
LINE
  5
1B8
100
AcDbEntity
  8
0
  6
CONTINUOUS
 62
               7
100
AcDbLine
 10
-44.499999803651797
 20
14.000007629394531
 30
0.0
 11
-42.999999803651797
 21
14.000007629394531
 31
0.0
  0
LINE
  5
1B9
100
AcDbEntity
  8
0
  6
CONTINUOUS
 62
               7
100
AcDbLine
 10
-44.499999803651797
 20
7.0000076293945313
 30
0.0
 11
-42.999999803651797
 21
7.0000076293945313
 31
0.0
  0
LINE
  5
1BA
100
AcDbEntity
  8
0
  6
CONTINUOUS
 62
               7
100
AcDbLine
 10
-45.999999803651797
 20
8.5000076293945313
 30
0.0
 11
-45.999999803651797
 21
10.100006109731336
 31
0.0
  0
LINE
  5
1BB
100
AcDbEntity
  8
0
  6
CONTINUOUS
 62
               2
100
AcDbLine
 10
-17.499992174257265
 20
-3.5000000000000036
 30
0.0
 11
-17.499992174257265
 21
3.5
 31
0.0
  0
LINE
  5
1BC
100
AcDbEntity
  8
0
  6
CONTINUOUS
 62
               7
100
AcDbLine
 10
42.499997913837433
 20
24.0
 30
0.0
 11
43.000000178813934
 21
23.499997794628143
 31
0.0
  0
LINE
  5
1BD
100
AcDbEntity
  8
0
  6
CONTINUOUS
 62
               7
100
AcDbLine
 10
-42.499997794628143
 20
24.0
 30
0.0
 11
42.499997913837433
 21
24.0
 31
0.0
  0
LINE
  5
1BE
100
AcDbEntity
  8
0
  6
CONTINUOUS
 62
               7
100
AcDbLine
 10
-42.999999821186066
 20
-23.500000417232513
 30
0.0
 11
-42.50000019627177
 21
-23.999999999999993
 31
0.0
  0
LINE
  5
1BF
100
AcDbEntity
  8
0
  6
CONTINUOUS
 62
               7
100
AcDbLine
 10
42.500007212162018
 20
-24.0
 30
0.0
 11
43.000000196348203
 21
-23.50000697366756
 31
0.0
  0
LINE
  5
1C0
100
AcDbEntity
  8
0
  6
CONTINUOUS
 62
               7
100
AcDbLine
 10
-42.500000178813934
 20
-24.000000000000004
 30
0.0
 11
42.500007149048045
 21
-24.000000000000004
 31
0.0
  0
LINE
  5
1C1
100
AcDbEntity
  8
0
  6
CONTINUOUS
 62
               7
100
AcDbLine
 10
-42.99999988079071
 20
23.499998033046722
 30
0.0
 11
-42.499997794628143
 21
24.000000059604645
 31
0.0
  0
LINE
  5
1C2
100
AcDbEntity
  8
0
  6
CENTER
 62
               2
100
AcDbLine
 10
-47.49999986684508
 20
0.0
 30
0.0
 11
47.50000013315492
 21
0.0
 31
0.0
  0
LINE
  5
1C3
100
AcDbEntity
  8
0
  6
CONTINUOUS
 62
               7
100
AcDbLine
 10
43.000000196348203
 20
-23.500006973743439
 30
0.0
 11
43.000000196348203
 21
23.499997854232788
 31
0.0
  0
LINE
  5
1C4
100
AcDbEntity
  8
0
  6
CONTINUOUS
 62
               7
100
AcDbLine
 10
-42.999999803651797
 20
-23.500000417232513
 30
0.0
 11
-42.999999803651797
 21
23.499998092651367
 31
0.0
  0
LINE
  5
1C5
100
AcDbEntity
  8
0
  6
CONTINUOUS
 62
               2
100
AcDbLine
 10
17.500000196348203
 20
-4.0000000000000036
 30
0.0
 11
17.500000196348203
 21
4.0
 31
0.0
  0
LINE
  5
1C6
100
AcDbEntity
  8
0
  6
CONTINUOUS
 62
               7
100
AcDbLine
 10
44.000000196348203
 20
-11.999999985218896
 30
0.0
 11
44.000000196348203
 21
12.000000014781108
 31
0.0
  0
LINE
  5
1C7
100
AcDbEntity
  8
0
  6
CONTINUOUS
 62
               7
100
AcDbLine
 10
-43.999992174257265
 20
-7.0000076293945348
 30
0.0
 11
-43.999992174257265
 21
7.0000076441756391
 31
0.0
  0
LINE
  5
1C8
100
AcDbEntity
  8
0
  6
CONTINUOUS
 62
               7
100
AcDbLine
 10
43.000000196348203
 20
12.0
 30
0.0
 11
44.000000196348203
 21
12.0
 31
0.0
  0
LINE
  5
1C9
100
AcDbEntity
  8
0
  6
CONTINUOUS
 62
               7
100
AcDbLine
 10
43.000000196348203
 20
-12.000000000000004
 30
0.0
 11
44.000000196348203
 21
-12.000000000000004
 31
0.0
  0
ARC
  5
1CA
100
AcDbEntity
  8
0
  6
CONTINUOUS
 62
               7
100
AcDbCircle
 10
-44.499999803651797
 20
-8.5000076293945348
 30
0.0
 40
1.5
100
AcDbArc
 50
89.999971995997981
 51
180.00002231180034
  0
LINE
  5
1CB
100
AcDbEntity
  8
0
  6
CONTINUOUS
 62
               7
100
AcDbLine
 10
-44.499999803651797
 20
-14.000007629394535
 30
0.0
 11
-42.999999803651797
 21
-14.000007629394535
 31
0.0
  0
LINE
  5
1CC
100
AcDbEntity
  8
0
  6
CONTINUOUS
 62
               7
100
AcDbLine
 10
-45.999999803651797
 20
-12.500007629394535
 30
0.0
 11
-45.999999803651797
 21
-10.900001519663196
 31
0.0
  0
ARC
  5
1CD
100
AcDbEntity
  8
0
  6
CONTINUOUS
 62
               7
100
AcDbCircle
 10
-44.499999803651797
 20
-12.500007629394535
 30
0.0
 40
1.5
100
AcDbArc
 50
180.00003597217869
 51
270.00001798608935
  0
LINE
  5
1CE
100
AcDbEntity
  8
0
  6
CONTINUOUS
 62
               7
100
AcDbLine
 10
-44.499999803651797
 20
-7.0000076293945348
 30
0.0
 11
-42.999999803651797
 21
-7.0000076293945348
 31
0.0
  0
LINE
  5
1CF
100
AcDbEntity
  8
0
  6
CONTINUOUS
 62
               2
100
AcDbLine
 10
-47.49999986684508
 20
10.5
 30
0.0
 11
-40.999999863256441
 21
10.5
 31
0.0
  0
CIRCLE
  5
1D0
100
AcDbEntity
  8
0
  6
CONTINUOUS
 62
               7
100
AcDbCircle
 10
25.000000196348203
 20
0.0
 30
0.0
 40
2.0670000000000002
  0
CIRCLE
  5
1D1
100
AcDbEntity
  8
0
  6
CONTINUOUS
 62
               7
100
AcDbCircle
 10
-24.999992174257265
 20
0.0
 30
0.0
 40
2.0670000000000002
  0
LINE
  5
1D2
100
AcDbEntity
  8
0
  6
CONTINUOUS
 62
               2
100
AcDbLine
 10
-29.99999988133559
 20
22.499999993784282
 30
0.0
 11
-29.99999988133559
 21
25.499999993784282
 31
0.0
  0
LINE
  5
1D3
100
AcDbEntity
  8
0
  6
CONTINUOUS
 62
               2
100
AcDbLine
 10
30.00000011866441
 20
22.499999993784282
 30
0.0
 11
30.00000011866441
 21
25.499999993784282
 31
0.0
  0
LINE
  5
1D4
100
AcDbEntity
  8
0
  6
CONTINUOUS
 62
               2
100
AcDbLine
 10
41.000000118484216
 20
10.499999993784282
 30
0.0
 11
46.000000118484216
 21
10.499999993784282
 31
0.0
  0
LINE
  5
1D5
100
AcDbEntity
  8
0
  6
CONTINUOUS
 62
               2
100
AcDbLine
 10
41.000000118484216
 20
-10.500000006215718
 30
0.0
 11
46.000000118484216
 21
-10.500000006215718
 31
0.0
  0
LINE
  5
1D6
100
AcDbEntity
  8
0
  6
CONTINUOUS
 62
               2
100
AcDbLine
 10
25.000000196348203
 20
-4.0000000000000036
 30
0.0
 11
25.000000196348203
 21
4.0
 31
0.0
  0
LINE
  5
1D7
100
AcDbEntity
  8
0
  6
CONTINUOUS
 62
               2
100
AcDbLine
 10
-24.999992174257265
 20
-4.0000000000000036
 30
0.0
 11
-24.999992174257265
 21
4.0
 31
0.0
  0
LINE
  5
1D8
100
AcDbEntity
  8
0
  6
CONTINUOUS
 62
               7
100
AcDbLine
 10
-45.999999803651797
 20
10.900009161489148
 30
0.0
 11
-44.600005907167422
 21
10.900009161489148
 31
0.0
  0
LINE
  5
1D9
100
AcDbEntity
  8
0
  6
CONTINUOUS
 62
               7
100
AcDbLine
 10
-45.999999803651797
 20
10.100006109731336
 30
0.0
 11
-44.600005907167422
 21
10.100006109731336
 31
0.0
  0
LINE
  5
1DA
100
AcDbEntity
  8
0
  6
CONTINUOUS
 62
               7
100
AcDbLine
 10
-44.600005907167422
 20
10.900009161489148
 30
0.0
 11
-44.600005907167422
 21
10.100006109731336
 31
0.0
  0
LINE
  5
1DB
100
AcDbEntity
  8
0
  6
CONTINUOUS
 62
               7
100
AcDbLine
 10
-45.999999803651797
 20
-10.099998467905383
 30
0.0
 11
-44.600005907167422
 21
-10.099998467905383
 31
0.0
  0
LINE
  5
1DC
100
AcDbEntity
  8
0
  6
CONTINUOUS
 62
               7
100
AcDbLine
 10
-45.999999803651797
 20
-10.900001519663196
 30
0.0
 11
-44.600005907167422
 21
-10.900001519663196
 31
0.0
  0
LINE
  5
1DD
100
AcDbEntity
  8
0
  6
CONTINUOUS
 62
               7
100
AcDbLine
 10
-44.600005907167422
 20
-10.900001519663196
 30
0.0
 11
-44.600005907167422
 21
-10.099998467905383
 31
0.0
  0
LINE
  5
1DE
100
AcDbEntity
  8
0
  6
CONTINUOUS
 62
               7
100
AcDbLine
 10
-45.999999803651797
 20
10.900009161489148
 30
0.0
 11
-45.999999803651797
 21
12.500007629394531
 31
0.0
  0
LINE
  5
1DF
100
AcDbEntity
  8
0
  6
CONTINUOUS
 62
               7
100
AcDbLine
 10
-45.999999803651797
 20
-10.099998467905383
 30
0.0
 11
-45.999999803651797
 21
-8.5000076293945348
 31
0.0
  0
LINE
  5
1E0
100
AcDbEntity
  8
0
  6
CONTINUOUS
 62
               2
100
AcDbLine
 10
-29.99999988133559
 20
-22.499999993784289
 30
0.0
 11
-29.99999988133559
 21
-25.499999993784289
 31
0.0
  0
LINE
  5
1E1
100
AcDbEntity
  8
0
  6
CONTINUOUS
 62
               2
100
AcDbLine
 10
30.00000011866441
 20
-22.499999993784289
 30
0.0
 11
30.00000011866441
 21
-25.499999993784289
 31
0.0
  0
LINE
  5
1E2
100
AcDbEntity
  8
0
  6
CENTER
 62
               2
100
AcDbLine
 10
0.0000000000000018
 20
-29.999999801024675
 30
0.0
 11
0.0000000000000018
 21
30.000000198975325
 31
0.0
  0
ENDBLK
  5
1E3
100
AcDbEntity
  8
0
100
AcDbBlockEnd
  0
BLOCK
  5
1E4
100
AcDbEntity
  8
0
100
AcDbBlockBegin
  2
AFDPG-14-6
 70
               0
 10
0.0
 20
0.0
 30
0.0
  3
AFDPG-14-6
  1

  0
LINE
  5
1E5
100
AcDbEntity
  8
0
  6
CONTINUOUS
 62
             200
100
AcDbLine
 10
17.752309473590557
 20
-1.1999995223464595
 30
0.0
 11
19.253464208001638
 21
-3.799999522346468
 31
0.0
  0
LINE
  5
1E6
100
AcDbEntity
  8
0
  6
CONTINUOUS
 62
             200
100
AcDbLine
 10
0.9500000047683699
 20
0.6001359972752312
 30
0.0
 11
0.9500000047683699
 21
0.0
 31
0.0
  0
LINE
  5
1E7
100
AcDbEntity
  8
0
  6
CONTINUOUS
 62
             200
100
AcDbLine
 10
3.0500000047683926
 20
0.6001359972752312
 30
0.0
 11
3.0500000047683926
 21
0.0
 31
0.0
  0
LINE
  5
1E8
100
AcDbEntity
  8
0
  6
CONTINUOUS
 62
               4
100
AcDbLine
 10
0.7514285761969433
 20
0.4001359972752141
 30
0.0
 11
3.2514285761969433
 21
0.4001359972752141
 31
0.0
  0
LINE
  5
1E9
100
AcDbEntity
  8
0
  6
CONTINUOUS
 62
               4
100
AcDbLine
 10
3.0514285761969546
 20
0.6001359972752312
 30
0.0
 11
3.2514285761969433
 21
0.4001359972752141
 31
0.0
  0
LINE
  5
1EA
100
AcDbEntity
  8
0
  6
CONTINUOUS
 62
               4
100
AcDbLine
 10
0.7514285761969433
 20
0.4001359972752141
 30
0.0
 11
0.9514285761969461
 21
0.6001359972752312
 31
0.0
  0
LINE
  5
1EB
100
AcDbEntity
  8
0
  6
CONTINUOUS
 62
               4
100
AcDbLine
 10
3.2514285761969433
 20
0.4001359972752141
 30
0.0
 11
3.2514285761969433
 21
0.0
 31
0.0
  0
LINE
  5
1EC
100
AcDbEntity
  8
0
  6
CONTINUOUS
 62
               4
100
AcDbLine
 10
0.7514285761969433
 20
0.0
 30
0.0
 11
0.7514285761969433
 21
0.4001359972752141
 31
0.0
  0
LINE
  5
1ED
100
AcDbEntity
  8
0
  6
CONTINUOUS
 62
             200
100
AcDbLine
 10
0.9500000047683699
 20
-2.5998640027247859
 30
0.0
 11
0.9500000047683699
 21
-4.0984354312962097
 31
0.0
  0
LINE
  5
1EE
100
AcDbEntity
  8
0
  6
CONTINUOUS
 62
             200
100
AcDbLine
 10
3.0500000047683926
 20
-2.5998640027247859
 30
0.0
 11
3.0500000047683926
 21
-4.1012925741533479
 31
0.0
  0
LINE
  5
1EF
100
AcDbEntity
  8
0
  6
CONTINUOUS
 62
               4
100
AcDbLine
 10
0.9514285761969461
 20
0.6001359972752312
 30
0.0
 11
3.0514285761969546
 21
0.6001359972752312
 31
0.0
  0
LINE
  5
1F0
100
AcDbEntity
  8
0
  6
CONTINUOUS
 62
               4
100
AcDbLine
 10
0.000000004768367
 20
-1.7998640027247745
 30
0.0
 11
0.000000004768367
 21
0.0
 31
0.0
  0
LINE
  5
1F1
100
AcDbEntity
  8
0
  6
CONTINUOUS
 62
               4
100
AcDbLine
 10
4.0000000047683812
 20
-1.8000000027247722
 30
0.0
 11
4.0000000047683812
 21
-2.6000000027247836
 31
0.0
  0
LINE
  5
1F2
100
AcDbEntity
  8
0
  6
CONTINUOUS
 62
               4
100
AcDbLine
 10
0.000000004768367
 20
-1.7998640027247745
 30
0.0
 11
0.000000004768367
 21
-2.6000000027247836
 31
0.0
  0
LINE
  5
1F3
100
AcDbEntity
  8
0
  6
CONTINUOUS
 62
               4
100
AcDbLine
 10
0.7514285761969433
 20
-2.5998640027247859
 30
0.0
 11
0.751428576196929
 21
-3.8998640027247831
 31
0.0
  0
LINE
  5
1F4
100
AcDbEntity
  8
0
  6
CONTINUOUS
 62
             200
100
AcDbLine
 10
0.751428576196929
 20
-3.8998640027247831
 30
0.0
 11
3.251428576196929
 21
-3.8998640027247831
 31
0.0
  0
LINE
  5
1F5
100
AcDbEntity
  8
0
  6
CONTINUOUS
 62
               4
100
AcDbLine
 10
1.2514285761969433
 20
-4.3998640027247831
 30
0.0
 11
0.751428576196929
 21
-3.8998640027247831
 31
0.0
  0
LINE
  5
1F6
100
AcDbEntity
  8
0
  6
CONTINUOUS
 62
               4
100
AcDbLine
 10
1.2514285761969433
 20
-4.3998640027247831
 30
0.0
 11
2.7514285761969433
 21
-4.3998640027247831
 31
0.0
  0
LINE
  5
1F7
100
AcDbEntity
  8
0
  6
CONTINUOUS
 62
               4
100
AcDbLine
 10
3.251428576196929
 20
-3.8998640027247831
 30
0.0
 11
2.7514285761969433
 21
-4.3998640027247831
 31
0.0
  0
LINE
  5
1F8
100
AcDbEntity
  8
0
  6
CONTINUOUS
 62
               4
100
AcDbLine
 10
3.2514285761969433
 20
-2.5998640027247859
 30
0.0
 11
3.251428576196929
 21
-3.8998640027247831
 31
0.0
  0
LINE
  5
1F9
100
AcDbEntity
  8
0
  6
CONTINUOUS
 62
               4
100
AcDbLine
 10
4.3000000047683926
 20
-1.8000000027247722
 30
0.0
 11
4.3000000047683926
 21
-4.5999995223464509
 31
0.0
  0
LINE
  5
1FA
100
AcDbEntity
  8
0
  6
CONTINUOUS
 62
               4
100
AcDbLine
 10
15.500000004768381
 20
-4.5999995223464509
 30
0.0
 11
15.500000004768381
 21
0.0
 31
0.0
  0
LINE
  5
1FB
100
AcDbEntity
  8
0
  6
CONTINUOUS
 62
               4
100
AcDbLine
 10
4.3000000034059696
 20
-4.5999995223464509
 30
0.0
 11
15.500000000000014
 21
-4.5999995223464509
 31
0.0
  0
LINE
  5
1FC
100
AcDbEntity
  8
0
  6
CONTINUOUS
 62
               4
100
AcDbLine
 10
0.0
 20
-1.8000000027247722
 30
0.0
 11
4.3000000034059696
 21
-1.8000000027247722
 31
0.0
  0
LINE
  5
1FD
100
AcDbEntity
  8
0
  6
CONTINUOUS
 62
               4
100
AcDbLine
 10
0.0
 20
-2.6000000027247836
 30
0.0
 11
4.0000000000000142
 21
-2.6000000027247836
 31
0.0
  0
LINE
  5
1FE
100
AcDbEntity
  8
0
  6
CONTINUOUS
 62
               4
100
AcDbLine
 10
0.0
 20
-1.1000000027247836
 30
0.0
 11
15.500000004768381
 21
-1.1000000027247836
 31
0.0
  0
LINE
  5
1FF
100
AcDbEntity
  8
0
  6
CONTINUOUS
 62
               4
100
AcDbLine
 10
0.0
 20
-0.5499999965940106
 30
0.0
 11
15.500000004768381
 21
-0.5499999965940106
 31
0.0
  0
LINE
  5
200
100
AcDbEntity
  8
0
  6
CONTINUOUS
 62
               4
100
AcDbLine
 10
0.0
 20
0.0
 30
0.0
 11
15.500000004768381
 21
0.0
 31
0.0
  0
LINE
  5
201
100
AcDbEntity
  8
0
  6
CONTINUOUS
 62
               4
100
AcDbLine
 10
15.500000004768381
 20
-1.1999995223464452
 30
0.0
 11
17.752309473590529
 21
-1.1999995223464595
 31
0.0
  0
LINE
  5
202
100
AcDbEntity
  8
0
  6
CONTINUOUS
 62
               4
100
AcDbLine
 10
15.500000004768367
 20
-3.7999995223464538
 30
0.0
 11
19.253464208001631
 21
-3.799999522346468
 31
0.0
  0
LINE
  5
203
100
AcDbEntity
  8
0
  6
CONTINUOUS
 62
             200
100
AcDbLine
 10
2.000000004768367
 20
1.2864823084401849
 30
0.0
 11
2.000000004768367
 21
-5.0670362493540893
 31
0.0
  0
ENDBLK
  5
204
100
AcDbEntity
  8
0
100
AcDbBlockEnd
  0
BLOCK
  5
205
100
AcDbEntity
  8
0
100
AcDbBlockBegin
  2
AFDPG-14-7
 70
               0
 10
0.0
 20
0.0
 30
0.0
  3
AFDPG-14-7
  1

  0
LINE
  5
206
100
AcDbEntity
  8
0
  6
CONTINUOUS
 62
             200
100
AcDbLine
 10
1.0500000000000114
 20
-0.0000000019073525
 30
0.0
 11
1.0500000010901829
 21
0.6001359980926679
 31
0.0
  0
LINE
  5
207
100
AcDbEntity
  8
0
  6
CONTINUOUS
 62
             200
100
AcDbLine
 10
-1.0499999999999829
 20
0.0000000019073525
 30
0.0
 11
-1.0499999989098399
 21
0.6001360019073445
 31
0.0
  0
LINE
  5
208
100
AcDbEntity
  8
0
  6
CONTINUOUS
 62
             200
100
AcDbLine
 10
1.0499999925577583
 20
-4.0970068590501967
 30
0.0
 11
1.0499999952770906
 21
-2.600000001907361
 31
0.0
  0
LINE
  5
209
100
AcDbEntity
  8
0
  6
CONTINUOUS
 62
             200
100
AcDbLine
 10
-1.0500000074422644
 20
-4.0970068552355201
 30
0.0
 11
-1.0500000047229321
 21
-2.5999999980926702
 31
0.0
  0
LINE
  5
20A
100
AcDbEntity
  8
0
  6
CONTINUOUS
 62
               4
100
AcDbLine
 10
-1.2499999992731432
 20
0.4001360022706422
 30
0.0
 11
-1.0499999989098399
 21
0.6001360019073445
 31
0.0
  0
LINE
  5
20B
100
AcDbEntity
  8
0
  6
CONTINUOUS
 62
               4
100
AcDbLine
 10
-1.25
 20
0.0000000022706388
 30
0.0
 11
-1.2499999992731432
 21
0.4001360022706422
 31
0.0
  0
LINE
  5
20C
100
AcDbEntity
  8
0
  6
CONTINUOUS
 62
               4
100
AcDbLine
 10
-2.0500000019981712
 20
-1.0999999962761535
 30
0.0
 11
-2.0500000046292826
 21
-2.5484354248475825
 31
0.0
  0
LINE
  5
20D
100
AcDbEntity
  8
0
  6
CONTINUOUS
 62
               4
100
AcDbLine
 10
-2.0500000019981712
 20
-1.0999999962761535
 30
0.0
 11
-1.5014285724250556
 21
-0.5485714258440737
 31
0.0
  0
LINE
  5
20E
100
AcDbEntity
  8
0
  6
CONTINUOUS
 62
               4
100
AcDbLine
 10
-1.2500000047229491
 20
-2.5999999977293697
 30
0.0
 11
-1.2500000070789667
 21
-3.8970068548722168
 31
0.0
  0
LINE
  5
20F
100
AcDbEntity
  8
0
  6
CONTINUOUS
 62
               4
100
AcDbLine
 10
-0.7471428651352596
 20
-4.3998639986428003
 30
0.0
 11
-1.2500000070789667
 21
-3.8970068548722168
 31
0.0
  0
LINE
  5
210
100
AcDbEntity
  8
0
  6
CONTINUOUS
 62
               4
100
AcDbLine
 10
-0.7471428651352596
 20
-4.3998639986428003
 30
0.0
 11
0.7471428491504355
 21
-4.3998640013572015
 31
0.0
  0
LINE
  5
211
100
AcDbEntity
  8
0
  6
CONTINUOUS
 62
             200
100
AcDbLine
 10
-0.0000000092043422
 20
-5.0670362466293142
 30
0.0
 11
0.0000000023369182
 21
1.2864823111649599
 31
0.0
  0
LINE
  5
212
100
AcDbEntity
  8
0
  6
CONTINUOUS
 62
               4
100
AcDbLine
 10
-1.5000000009938788
 20
-0.5471354139419162
 30
0.0
 11
-1.5
 21
0.0000000054495501
 31
0.0
  0
LINE
  5
213
100
AcDbEntity
  8
0
  6
CONTINUOUS
 62
               4
100
AcDbLine
 10
1.0500000010901829
 20
0.6001359980926679
 30
0.0
 11
1.2500000007268284
 21
0.4001359977293504
 31
0.0
  0
LINE
  5
214
100
AcDbEntity
  8
0
  6
CONTINUOUS
 62
               4
100
AcDbLine
 10
1.2500000007268284
 20
0.4001359977293504
 30
0.0
 11
1.25
 21
-0.0000000022706388
 31
0.0
  0
LINE
  5
215
100
AcDbEntity
  8
0
  6
CONTINUOUS
 62
               4
100
AcDbLine
 10
2.0499999980018515
 20
-1.1000000037238635
 30
0.0
 11
2.0499999953707686
 21
-2.5484354322952925
 31
0.0
  0
LINE
  5
216
100
AcDbEntity
  8
0
  6
CONTINUOUS
 62
               4
100
AcDbLine
 10
1.2499999952773351
 20
-2.5998640022706496
 30
0.0
 11
1.2499999929210333
 21
-3.8970068594135086
 31
0.0
  0
LINE
  5
217
100
AcDbEntity
  8
0
  6
CONTINUOUS
 62
               4
100
AcDbLine
 10
1.4999999990008916
 20
-0.5500000027247722
 30
0.0
 11
1.5
 21
0.0
 31
0.0
  0
LINE
  5
218
100
AcDbEntity
  8
0
  6
CONTINUOUS
 62
               4
100
AcDbLine
 10
1.4999999928701868
 20
-0.5499999965940106
 30
0.0
 11
2.0499999980018515
 21
-1.1000000037238635
 31
0.0
  0
LINE
  5
219
100
AcDbEntity
  8
0
  6
CONTINUOUS
 62
               4
100
AcDbLine
 10
-2.0500000047229605
 20
-2.5999999962761535
 30
0.0
 11
2.0493907186031208
 21
-2.6000000037227551
 31
0.0
  0
LINE
  5
21A
100
AcDbEntity
  8
0
  6
CONTINUOUS
 62
               4
100
AcDbLine
 10
-2.0500000032697301
 20
-1.7999999962761422
 30
0.0
 11
2.0499999967302927
 21
-1.8000000037238522
 31
0.0
  0
ARC
  5
21B
100
AcDbEntity
  8
0
  6
CONTINUOUS
 62
               4
100
AcDbCircle
 10
-0.0000000046321134
 20
-2.5499989233983342
 30
0.0
 40
2.050000596223347
100
AcDbArc
 50
179.95630153623492
 51
359.99999989592135
  0
LINE
  5
21C
100
AcDbEntity
  8
0
  6
CONTINUOUS
 62
               4
100
AcDbLine
 10
1.2499999929210333
 20
-3.8970068594135086
 30
0.0
 11
0.7471428491504355
 21
-4.3998640013572015
 31
0.0
  0
LINE
  5
21D
100
AcDbEntity
  8
0
  6
CONTINUOUS
 62
               4
100
AcDbLine
 10
-1.2500000070789667
 20
-3.8970068548722168
 30
0.0
 11
1.2499999929210333
 21
-3.8970068594135086
 31
0.0
  0
LINE
  5
21E
100
AcDbEntity
  8
0
  6
CONTINUOUS
 62
               4
100
AcDbLine
 10
-1.501428571428562
 20
0.0000000027273614
 30
0.0
 11
1.5
 21
-0.0000000027247751
 31
0.0
  0
LINE
  5
21F
100
AcDbEntity
  8
0
  6
CONTINUOUS
 62
               4
100
AcDbLine
 10
-1.2499999992731432
 20
0.4001360022706422
 30
0.0
 11
1.2500000007268284
 21
0.4001359977293504
 31
0.0
  0
LINE
  5
220
100
AcDbEntity
  8
0
  6
CONTINUOUS
 62
               4
100
AcDbLine
 10
-1.0499999989098399
 20
0.6001360019073445
 30
0.0
 11
1.0500000010901829
 21
0.6001359980926679
 31
0.0
  0
ENDBLK
  5
221
100
AcDbEntity
  8
0
100
AcDbBlockEnd
  0
BLOCK
  5
222
100
AcDbEntity
  8
0
100
AcDbBlockBegin
  2
AFDPG-14-8
 70
               0
 10
0.0
 20
0.0
 30
0.0
  3
AFDPG-14-8
  1

  0
LINE
  5
223
100
AcDbEntity
  8
0
  6
CENTER
 62
             200
100
AcDbLine
 10
-1.4104017530168846
 20
0.0
 30
0.0
 11
21.50288684079608
 21
0.0
 31
0.0
  0
LINE
  5
224
100
AcDbEntity
  8
0
  6
CONTINUOUS
 62
             200
100
AcDbLine
 10
17.75230947359055
 20
1.3000000000000114
 30
0.0
 11
19.253464208001638
 21
-1.2999999999999972
 31
0.0
  0
LINE
  5
225
100
AcDbEntity
  8
0
  6
CONTINUOUS
 62
               4
100
AcDbLine
 10
15.500000004768381
 20
-1.2999999999999972
 30
0.0
 11
19.253464208001631
 21
-1.2999999999999972
 31
0.0
  0
LINE
  5
226
100
AcDbEntity
  8
0
  6
CONTINUOUS
 62
               4
100
AcDbLine
 10
15.500000004768381
 20
1.3000000000000114
 30
0.0
 11
17.752309473590529
 21
1.3000000000000114
 31
0.0
  0
LINE
  5
227
100
AcDbEntity
  8
0
  6
CONTINUOUS
 62
             200
100
AcDbLine
 10
2.000000004768367
 20
2.9428571428571502
 30
0.0
 11
2.000000004768367
 21
-3.2999846734234666
 31
0.0
  0
LINE
  5
228
100
AcDbEntity
  8
0
  6
CONTINUOUS
 62
               4
100
AcDbLine
 10
3.9000000047683585
 20
-1.5
 30
0.0
 11
3.9000000047683585
 21
1.5
 31
0.0
  0
LINE
  5
229
100
AcDbEntity
  8
0
  6
CONTINUOUS
 62
               4
100
AcDbLine
 10
10.400000004768359
 20
-1.5
 30
0.0
 11
10.400000004768359
 21
1.5
 31
0.0
  0
LINE
  5
22A
100
AcDbEntity
  8
0
  6
CONTINUOUS
 62
               4
100
AcDbLine
 10
8.0000000047683812
 20
-0.5999999999999943
 30
0.0
 11
8.0000000047683812
 21
0.9000000000000057
 31
0.0
  0
LINE
  5
22B
100
AcDbEntity
  8
0
  6
CONTINUOUS
 62
               4
100
AcDbLine
 10
9.6000000047683756
 20
-0.5999999999999943
 30
0.0
 11
9.6000000047683756
 21
0.9000000000000057
 31
0.0
  0
LINE
  5
22C
100
AcDbEntity
  8
0
  6
CONTINUOUS
 62
               4
100
AcDbLine
 10
0.0
 20
-2.0499999999999972
 30
0.0
 11
0.0
 21
2.0500000000000114
 31
0.0
  0
LINE
  5
22D
100
AcDbEntity
  8
0
  6
CONTINUOUS
 62
               4
100
AcDbLine
 10
15.500000004768381
 20
-2.0499999999999972
 30
0.0
 11
15.500000004768381
 21
2.0500000000000114
 31
0.0
  0
LINE
  5
22E
100
AcDbEntity
  8
0
  6
CONTINUOUS
 62
               4
100
AcDbLine
 10
0.0
 20
1.5
 30
0.0
 11
15.500000004768381
 21
1.5
 31
0.0
  0
LINE
  5
22F
100
AcDbEntity
  8
0
  6
CONTINUOUS
 62
               4
100
AcDbLine
 10
0.0
 20
-1.5
 30
0.0
 11
15.500000004768381
 21
-1.5
 31
0.0
  0
CIRCLE
  5
230
100
AcDbEntity
  8
0
  6
CONTINUOUS
 62
               4
100
AcDbCircle
 10
2.000000004768367
 20
0.0
 30
0.0
 40
1.3999999999999997
  0
CIRCLE
  5
231
100
AcDbEntity
  8
0
  6
CONTINUOUS
 62
               4
100
AcDbCircle
 10
2.000000004768367
 20
0.0
 30
0.0
 40
1.25
  0
CIRCLE
  5
232
100
AcDbEntity
  8
0
  6
CONTINUOUS
 62
             200
100
AcDbCircle
 10
2.000000004768367
 20
0.0
 30
0.0
 40
1.05
  0
LINE
  5
233
100
AcDbEntity
  8
0
  6
CONTINUOUS
 62
               4
100
AcDbLine
 10
0.9571978986753322
 20
-0.6892486978790089
 30
0.0
 11
2.6892487026473901
 21
1.0428021060930348
 31
0.0
  0
LINE
  5
234
100
AcDbEntity
  8
0
  6
CONTINUOUS
 62
               4
100
AcDbLine
 10
1.3107513189315796
 20
-1.0428020722525559
 30
0.0
 11
3.0428021124431126
 21
0.6892487212589913
 31
0.0
  0
LINE
  5
235
100
AcDbEntity
  8
0
  6
CONTINUOUS
 62
               4
100
AcDbLine
 10
8.0000000047683812
 20
0.9000000000000057
 30
0.0
 11
9.6000000047683756
 21
0.9000000000000057
 31
0.0
  0
LINE
  5
236
100
AcDbEntity
  8
0
  6
CONTINUOUS
 62
               4
100
AcDbLine
 10
8.0000000047683812
 20
-0.5999999999999943
 30
0.0
 11
9.6000000047683756
 21
-0.5999999999999943
 31
0.0
  0
LINE
  5
237
100
AcDbEntity
  8
0
  6
CONTINUOUS
 62
               4
100
AcDbLine
 10
0.0
 20
2.0500000000000114
 30
0.0
 11
15.500000004768381
 21
2.0500000000000114
 31
0.0
  0
LINE
  5
238
100
AcDbEntity
  8
0
  6
CONTINUOUS
 62
               4
100
AcDbLine
 10
0.0
 20
-2.0499999999999972
 30
0.0
 11
15.500000004768381
 21
-2.0499999999999972
 31
0.0
  0
ENDBLK
  5
239
100
AcDbEntity
  8
0
100
AcDbBlockEnd
  0
BLOCK
  5
23A
100
AcDbEntity
  8
0
100
AcDbBlockBegin
  2
AFDPG-14-9
 70
               0
 10
0.0
 20
0.0
 30
0.0
  3
AFDPG-14-9
  1

  0
LINE
  5
23B
100
AcDbEntity
  8
0
  6
CONTINUOUS
 62
             200
100
AcDbLine
 10
11.200000004768356
 20
8.1445121127279805
 30
0.0
 11
13.800000004768378
 21
9.6456668471390827
 31
0.0
  0
LINE
  5
23C
100
AcDbEntity
  8
0
  6
CONTINUOUS
 62
               4
100
AcDbLine
 10
10.400000010217923
 20
0.9479762348989311
 30
0.0
 11
12.050955668063693
 21
1.4979762296661931
 31
0.0
  0
LINE
  5
23D
100
AcDbEntity
  8
0
  6
CONTINUOUS
 62
               4
100
AcDbLine
 10
12.050955668063693
 20
1.4979762296661931
 30
0.0
 11
12.050955668063693
 21
5.8979763159612446
 31
0.0
  0
LINE
  5
23E
100
AcDbEntity
  8
0
  6
CONTINUOUS
 62
               4
100
AcDbLine
 10
12.949044341473041
 20
4.8979763118740749
 30
0.0
 11
12.949044341473041
 21
5.8979763118740749
 31
0.0
  0
LINE
  5
23F
100
AcDbEntity
  8
0
  6
CONTINUOUS
 62
               4
100
AcDbLine
 10
12.949044341473041
 20
4.8979763159612446
 30
0.0
 11
15.000000004768367
 21
4.8979763159612446
 31
0.0
  0
LINE
  5
240
100
AcDbEntity
  8
0
  6
CONTINUOUS
 62
               4
100
AcDbLine
 10
14.60000000476839
 20
4.8979763159612446
 30
0.0
 11
14.60000000476839
 21
5.8979763159612446
 31
0.0
  0
LINE
  5
241
100
AcDbEntity
  8
0
  6
CONTINUOUS
 62
               4
100
AcDbLine
 10
10.400000004768373
 20
-0.0020236840387469
 30
0.0
 11
10.400000004768373
 21
5.8979763159612446
 31
0.0
  0
LINE
  5
242
100
AcDbEntity
  8
0
  6
CONTINUOUS
 62
               4
100
AcDbLine
 10
10.400000004768373
 20
5.8979763159612446
 30
0.0
 11
14.60000000476839
 21
5.8979763159612446
 31
0.0
  0
LINE
  5
243
100
AcDbEntity
  8
0
  6
CONTINUOUS
 62
               4
100
AcDbLine
 10
15.000000004768367
 20
3.8979763159612446
 30
0.0
 11
10.400000004768373
 21
3.8979763159612446
 31
0.0
  0
LINE
  5
244
100
AcDbEntity
  8
0
  6
CONTINUOUS
 62
             200
100
AcDbLine
 10
0.9500000047683557
 20
0.5979763159612475
 30
0.0
 11
0.9500000047683557
 21
-0.0020236840387469
 31
0.0
  0
LINE
  5
245
100
AcDbEntity
  8
0
  6
CONTINUOUS
 62
             200
100
AcDbLine
 10
3.0500000047683784
 20
0.5979763159612475
 30
0.0
 11
3.0500000047683784
 21
-0.0020236840387469
 31
0.0
  0
LINE
  5
246
100
AcDbEntity
  8
0
  6
CONTINUOUS
 62
               4
100
AcDbLine
 10
0.751428576196929
 20
0.3979763159612446
 30
0.0
 11
3.251428576196929
 21
0.3979763159612446
 31
0.0
  0
LINE
  5
247
100
AcDbEntity
  8
0
  6
CONTINUOUS
 62
               4
100
AcDbLine
 10
3.0514285761969404
 20
0.5979763159612475
 30
0.0
 11
3.251428576196929
 21
0.3979763159612446
 31
0.0
  0
LINE
  5
248
100
AcDbEntity
  8
0
  6
CONTINUOUS
 62
               4
100
AcDbLine
 10
0.751428576196929
 20
0.3979763159612446
 30
0.0
 11
0.9514285761969461
 21
0.5979763159612475
 31
0.0
  0
LINE
  5
249
100
AcDbEntity
  8
0
  6
CONTINUOUS
 62
               4
100
AcDbLine
 10
3.251428576196929
 20
0.3979763159612446
 30
0.0
 11
3.251428576196929
 21
-0.0020236840387469
 31
0.0
  0
LINE
  5
24A
100
AcDbEntity
  8
0
  6
CONTINUOUS
 62
               4
100
AcDbLine
 10
0.751428576196929
 20
-0.0020236840387469
 30
0.0
 11
0.751428576196929
 21
0.3979763159612446
 31
0.0
  0
LINE
  5
24B
100
AcDbEntity
  8
0
  6
CONTINUOUS
 62
             200
100
AcDbLine
 10
0.9500000047683557
 20
-2.6020236840387554
 30
0.0
 11
0.9500000047683557
 21
-4.1005951126101792
 31
0.0
  0
LINE
  5
24C
100
AcDbEntity
  8
0
  6
CONTINUOUS
 62
             200
100
AcDbLine
 10
3.0500000047683784
 20
-2.6020236840387554
 30
0.0
 11
3.0500000047683784
 21
-4.1034522554673174
 31
0.0
  0
LINE
  5
24D
100
AcDbEntity
  8
0
  6
CONTINUOUS
 62
               4
100
AcDbLine
 10
0.9514285761969461
 20
0.5979763159612475
 30
0.0
 11
3.0514285761969404
 21
0.5979763159612475
 31
0.0
  0
LINE
  5
24E
100
AcDbEntity
  8
0
  6
CONTINUOUS
 62
               4
100
AcDbLine
 10
0.000000004768367
 20
-1.8020236840387582
 30
0.0
 11
0.000000004768367
 21
0.0
 31
0.0
  0
LINE
  5
24F
100
AcDbEntity
  8
0
  6
CONTINUOUS
 62
             200
100
AcDbLine
 10
2.000000004768367
 20
1.2843226271262154
 30
0.0
 11
2.000000004768367
 21
-5.0691959306680729
 31
0.0
  0
LINE
  5
250
100
AcDbEntity
  8
0
  6
CONTINUOUS
 62
               4
100
AcDbLine
 10
4.000000004768367
 20
-1.8020236840387582
 30
0.0
 11
4.000000004768367
 21
-2.6020236840387554
 31
0.0
  0
LINE
  5
251
100
AcDbEntity
  8
0
  6
CONTINUOUS
 62
               4
100
AcDbLine
 10
0.000000004768367
 20
-1.8020236840387582
 30
0.0
 11
0.000000004768367
 21
-2.6020236840387554
 31
0.0
  0
LINE
  5
252
100
AcDbEntity
  8
0
  6
CONTINUOUS
 62
               4
100
AcDbLine
 10
0.751428576196929
 20
-2.6020236840387554
 30
0.0
 11
0.751428576196929
 21
-3.9020236840387525
 31
0.0
  0
LINE
  5
253
100
AcDbEntity
  8
0
  6
CONTINUOUS
 62
             200
100
AcDbLine
 10
0.751428576196929
 20
-3.9020236840387525
 30
0.0
 11
3.251428576196929
 21
-3.9020236840387525
 31
0.0
  0
LINE
  5
254
100
AcDbEntity
  8
0
  6
CONTINUOUS
 62
               4
100
AcDbLine
 10
1.251428576196929
 20
-4.4020236840387525
 30
0.0
 11
0.751428576196929
 21
-3.9020236840387525
 31
0.0
  0
LINE
  5
255
100
AcDbEntity
  8
0
  6
CONTINUOUS
 62
               4
100
AcDbLine
 10
1.251428576196929
 20
-4.4020236840387525
 30
0.0
 11
2.751428576196929
 21
-4.4020236840387525
 31
0.0
  0
LINE
  5
256
100
AcDbEntity
  8
0
  6
CONTINUOUS
 62
               4
100
AcDbLine
 10
3.251428576196929
 20
-3.9020236840387525
 30
0.0
 11
2.751428576196929
 21
-4.4020236840387525
 31
0.0
  0
LINE
  5
257
100
AcDbEntity
  8
0
  6
CONTINUOUS
 62
               4
100
AcDbLine
 10
3.251428576196929
 20
-2.6020236840387554
 30
0.0
 11
3.251428576196929
 21
-3.9020236840387525
 31
0.0
  0
LINE
  5
258
100
AcDbEntity
  8
0
  6
CONTINUOUS
 62
               4
100
AcDbLine
 10
4.3000000047683784
 20
-1.8000000000000114
 30
0.0
 11
4.3000000047683784
 21
-4.6000000000000085
 31
0.0
  0
LINE
  5
259
100
AcDbEntity
  8
0
  6
CONTINUOUS
 62
               4
100
AcDbLine
 10
15.000000004768367
 20
-4.6000000000000085
 30
0.0
 11
15.000000004768367
 21
4.8979763159612446
 31
0.0
  0
LINE
  5
25A
100
AcDbEntity
  8
0
  6
CONTINUOUS
 62
               4
100
AcDbLine
 10
11.200000004768356
 20
5.8979763159612446
 30
0.0
 11
11.200000004768356
 21
8.1445121127279805
 31
0.0
  0
LINE
  5
25B
100
AcDbEntity
  8
0
  6
CONTINUOUS
 62
               4
100
AcDbLine
 10
13.800000004768378
 20
5.8979763159612446
 30
0.0
 11
13.800000004768378
 21
9.6456668471390827
 31
0.0
  0
LINE
  5
25C
100
AcDbEntity
  8
0
  6
CONTINUOUS
 62
               4
100
AcDbLine
 10
4.3000000034059838
 20
-4.6000000000000085
 30
0.0
 11
15.0
 21
-4.6000000000000085
 31
0.0
  0
LINE
  5
25D
100
AcDbEntity
  8
0
  6
CONTINUOUS
 62
               4
100
AcDbLine
 10
0.0
 20
0.0
 30
0.0
 11
15.0
 21
0.0
 31
0.0
  0
LINE
  5
25E
100
AcDbEntity
  8
0
  6
CONTINUOUS
 62
               4
100
AcDbLine
 10
0.000000004768367
 20
-1.8000000000000114
 30
0.0
 11
4.3000000047683784
 21
-1.8000000000000114
 31
0.0
  0
LINE
  5
25F
100
AcDbEntity
  8
0
  6
CONTINUOUS
 62
               4
100
AcDbLine
 10
0.0
 20
-2.6000000000000085
 30
0.0
 11
4.0
 21
-2.6000000000000085
 31
0.0
  0
LINE
  5
260
100
AcDbEntity
  8
0
  6
CONTINUOUS
 62
               4
100
AcDbLine
 10
0.0
 20
-1.1000000082564156
 30
0.0
 11
15.0
 21
-1.1000000082564156
 31
0.0
  0
LINE
  5
261
100
AcDbEntity
  8
0
  6
CONTINUOUS
 62
               4
100
AcDbLine
 10
0.0
 20
-0.5500000000000114
 30
0.0
 11
15.000000004768367
 21
-0.5500000000000114
 31
0.0
  0
LINE
  5
262
100
AcDbEntity
  8
0
  6
CONTINUOUS
 62
               4
100
AcDbLine
 10
10.399999993188032
 20
0.9479762301305641
 30
0.0
 11
15.0
 21
0.9479762301305641
 31
0.0
  0
LINE
  5
263
100
AcDbEntity
  8
0
  6
CONTINUOUS
 62
               4
100
AcDbLine
 10
10.400000010217923
 20
1.4979762335365336
 30
0.0
 11
15.000000004768367
 21
1.4979762335365336
 31
0.0
  0
ENDBLK
  5
264
100
AcDbEntity
  8
0
100
AcDbBlockEnd
  0
BLOCK
  5
265
100
AcDbEntity
  8
0
100
AcDbBlockBegin
  2
AFDPG-14-10
 70
               0
 10
0.0
 20
0.0
 30
0.0
  3
AFDPG-14-10
  1

  0
LINE
  5
266
100
AcDbEntity
  8
0
  6
CONTINUOUS
 62
             200
100
AcDbLine
 10
-1.2999999999999865
 20
8.1445120264329205
 30
0.0
 11
1.3000000000000185
 21
9.6456667608439943
 31
0.0
  0
LINE
  5
267
100
AcDbEntity
  8
0
  6
CONTINUOUS
 62
               4
100
AcDbLine
 10
-2.0499999999999883
 20
5.8979762296661846
 30
0.0
 11
2.0500000000000078
 21
5.8979762296661704
 31
0.0
  0
LINE
  5
268
100
AcDbEntity
  8
0
  6
CONTINUOUS
 62
               4
100
AcDbLine
 10
-2.0499999999999972
 20
3.8979762296661988
 30
0.0
 11
2.0499999999999972
 21
3.8979762296661704
 31
0.0
  0
LINE
  5
269
100
AcDbEntity
  8
0
  6
CONTINUOUS
 62
               4
100
AcDbLine
 10
-1.0500000000000114
 20
0.5979763159612475
 30
0.0
 11
1.0499999999999865
 21
0.5979763159612475
 31
0.0
  0
LINE
  5
26A
100
AcDbEntity
  8
0
  6
CONTINUOUS
 62
               4
100
AcDbLine
 10
-1.25
 20
0.3979763159612446
 30
0.0
 11
-1.0500000000000114
 21
0.5979763159612475
 31
0.0
  0
LINE
  5
26B
100
AcDbEntity
  8
0
  6
CONTINUOUS
 62
               4
100
AcDbLine
 10
1.0499999999999865
 20
0.5979763159612475
 30
0.0
 11
1.25
 21
0.3979763159612446
 31
0.0
  0
LINE
  5
26C
100
AcDbEntity
  8
0
  6
CONTINUOUS
 62
               4
100
AcDbLine
 10
-1.25
 20
0.3979763159612446
 30
0.0
 11
1.25
 21
0.3979763159612446
 31
0.0
  0
LINE
  5
26D
100
AcDbEntity
  8
0
  6
CONTINUOUS
 62
               4
100
AcDbLine
 10
1.25
 20
0.3979763159612446
 30
0.0
 11
1.25
 21
0.0
 31
0.0
  0
LINE
  5
26E
100
AcDbEntity
  8
0
  6
CONTINUOUS
 62
               4
100
AcDbLine
 10
-1.25
 20
0.0
 30
0.0
 11
-1.25
 21
0.3979763159612446
 31
0.0
  0
LINE
  5
26F
100
AcDbEntity
  8
0
  6
CONTINUOUS
 62
               4
100
AcDbLine
 10
-2.0479763159612556
 20
-1.1020236840387412
 30
0.0
 11
-1.5000000000000036
 21
-0.5511933247651939
 31
0.0
  0
LINE
  5
270
100
AcDbEntity
  8
0
  6
CONTINUOUS
 62
               4
100
AcDbLine
 10
2.0499999999999794
 20
-1.1000000000000227
 30
0.0
 11
1.5
 21
-0.5500000000000114
 31
0.0
  0
LINE
  5
271
100
AcDbEntity
  8
0
  6
CONTINUOUS
 62
               4
100
AcDbLine
 10
1.2499999999999893
 20
-2.6000000000000227
 30
0.0
 11
1.2499999999999858
 21
-3.8991665411816143
 31
0.0
  0
LINE
  5
272
100
AcDbEntity
  8
0
  6
CONTINUOUS
 62
               4
100
AcDbLine
 10
-1.2500000000000107
 20
-2.6000000000000085
 30
0.0
 11
-1.2500000000000142
 21
-3.8991665411816143
 31
0.0
  0
LINE
  5
273
100
AcDbEntity
  8
0
  6
CONTINUOUS
 62
               4
100
AcDbLine
 10
-1.2500000000000142
 20
-3.8991665411816143
 30
0.0
 11
1.2499999999999858
 21
-3.8991665411816143
 31
0.0
  0
LINE
  5
274
100
AcDbEntity
  8
0
  6
CONTINUOUS
 62
               4
100
AcDbLine
 10
1.2499999999999858
 20
-3.8991665411816143
 30
0.0
 11
0.7471428571428298
 21
-4.4020236840387525
 31
0.0
  0
LINE
  5
275
100
AcDbEntity
  8
0
  6
CONTINUOUS
 62
               4
100
AcDbLine
 10
-0.7471428571428618
 20
-4.4020236840387525
 30
0.0
 11
-1.2500000000000142
 21
-3.8991665411816143
 31
0.0
  0
LINE
  5
276
100
AcDbEntity
  8
0
  6
CONTINUOUS
 62
               4
100
AcDbLine
 10
2.0005951126101635
 20
-1.8000000000000256
 30
0.0
 11
2.00059511261016
 21
-2.6020236840387696
 31
0.0
  0
LINE
  5
277
100
AcDbEntity
  8
0
  6
CONTINUOUS
 62
               4
100
AcDbLine
 10
-1.9994048873898365
 20
-1.7999999999999972
 30
0.0
 11
-1.99940488738984
 21
-2.6020236840387554
 31
0.0
  0
LINE
  5
278
100
AcDbEntity
  8
0
  6
CONTINUOUS
 62
               4
100
AcDbLine
 10
-0.7471428571428618
 20
-4.4020236840387525
 30
0.0
 11
0.7471428571428298
 21
-4.4020236840387525
 31
0.0
  0
LINE
  5
279
100
AcDbEntity
  8
0
  6
CONTINUOUS
 62
               4
100
AcDbLine
 10
-2.0500000000000203
 20
-2.5505951126101678
 30
0.0
 11
-2.0500000000000167
 21
-1.1020236840387412
 31
0.0
  0
LINE
  5
27A
100
AcDbEntity
  8
0
  6
CONTINUOUS
 62
               4
100
AcDbLine
 10
2.0499999999999723
 20
-2.6411128569470037
 30
0.0
 11
2.0499999999999794
 21
-1.1000000082564299
 31
0.0
  0
ARC
  5
27B
100
AcDbEntity
  8
0
  6
CONTINUOUS
 62
               4
100
AcDbCircle
 10
-0.0000000000000107
 20
-2.5500000000000114
 30
0.0
 40
2.0499999999999994
100
AcDbArc
 50
179.9999999999998
 51
359.99999999999977
  0
LINE
  5
27C
100
AcDbEntity
  8
0
  6
CONTINUOUS
 62
               4
100
AcDbLine
 10
-2.050000000000006
 20
1.497976228169037
 30
0.0
 11
-2.0499999999999883
 21
5.8979762296661846
 31
0.0
  0
LINE
  5
27D
100
AcDbEntity
  8
0
  6
CONTINUOUS
 62
               4
100
AcDbLine
 10
2.0499999999999865
 20
1.4979762320920855
 30
0.0
 11
2.0500000000000078
 21
5.8979762296661704
 31
0.0
  0
LINE
  5
27E
100
AcDbEntity
  8
0
  6
CONTINUOUS
 62
               4
100
AcDbLine
 10
1.5000000000000036
 20
0.9479762320920884
 30
0.0
 11
2.0500000014444666
 21
1.4979762335365194
 31
0.0
  0
LINE
  5
27F
100
AcDbEntity
  8
0
  6
CONTINUOUS
 62
               4
100
AcDbLine
 10
-2.0500000053675009
 20
1.4979762335365336
 30
0.0
 11
-1.4999999999999964
 21
0.9479762281690398
 31
0.0
  0
LINE
  5
280
100
AcDbEntity
  8
0
  6
CONTINUOUS
 62
               4
100
AcDbLine
 10
-1.5
 20
-0.5511933238986302
 30
0.0
 11
-1.4999999999999964
 21
0.9479762301305783
 31
0.0
  0
LINE
  5
281
100
AcDbEntity
  8
0
  6
CONTINUOUS
 62
               4
100
AcDbLine
 10
1.5
 20
-0.5500000048504319
 30
0.0
 11
1.5000000000000036
 21
0.9479762301305641
 31
0.0
  0
LINE
  5
282
100
AcDbEntity
  8
0
  6
CONTINUOUS
 62
               4
100
AcDbLine
 10
-1.5000000019615243
 20
0.0
 30
0.0
 11
1.4999999980384757
 21
0.0
 31
0.0
  0
LINE
  5
283
100
AcDbEntity
  8
0
  6
CONTINUOUS
 62
               4
100
AcDbLine
 10
-2.0500000000000185
 20
-1.8000000000000114
 30
0.0
 11
2.0499999999999758
 21
-1.8000000000000256
 31
0.0
  0
LINE
  5
284
100
AcDbEntity
  8
0
  6
CONTINUOUS
 62
               4
100
AcDbLine
 10
-1.9994048873898382
 20
-2.6000000000000085
 30
0.0
 11
2.00059511261016
 21
-2.6000000000000227
 31
0.0
  0
LINE
  5
285
100
AcDbEntity
  8
0
  6
CONTINUOUS
 62
               4
100
AcDbLine
 10
-1.2999999999999865
 20
5.8979762296661988
 30
0.0
 11
-1.2999999999999829
 21
8.1445120264329205
 31
0.0
  0
LINE
  5
286
100
AcDbEntity
  8
0
  6
CONTINUOUS
 62
               4
100
AcDbLine
 10
1.3000000000000078
 20
5.8979762296661846
 30
0.0
 11
1.3000000000000185
 21
9.6456667608440085
 31
0.0
  0
LINE
  5
287
100
AcDbEntity
  8
0
  6
CONTINUOUS
 62
             200
100
AcDbLine
 10
-1.0250000000000199
 20
-4.1241665411816086
 30
0.0
 11
-1.0250000000000128
 21
-2.5999999999999943
 31
0.0
  0
LINE
  5
288
100
AcDbEntity
  8
0
  6
CONTINUOUS
 62
             200
100
AcDbLine
 10
1.0249999999999879
 20
-4.1241665411816086
 30
0.0
 11
1.024999999999995
 21
-2.6000000000000085
 31
0.0
  0
LINE
  5
289
100
AcDbEntity
  8
0
  6
CONTINUOUS
 62
             200
100
AcDbLine
 10
1.0250000000000057
 20
-0.0000000014444481
 30
0.0
 11
1.0250000000000092
 21
0.5979763159612475
 31
0.0
  0
LINE
  5
28A
100
AcDbEntity
  8
0
  6
CONTINUOUS
 62
             200
100
AcDbLine
 10
-1.0250000000000057
 20
-0.0000000014444481
 30
0.0
 11
-1.0250000000000057
 21
0.5979763159612475
 31
0.0
  0
LINE
  5
28B
100
AcDbEntity
  8
0
  6
CONTINUOUS
 62
             200
100
AcDbLine
 10
-0.0000000000000213
 20
-5.5464060491292599
 30
0.0
 11
0.0000000000000391
 21
9.6693480170655448
 31
0.0
  0
ENDBLK
  5
28C
100
AcDbEntity
  8
0
100
AcDbBlockEnd
  0
BLOCK
  5
28D
100
AcDbEntity
  8
0
100
AcDbBlockBegin
  2
AFDPG-14-11
 70
               0
 10
0.0
 20
0.0
 30
0.0
  3
AFDPG-14-11
  1

  0
CIRCLE
  5
28E
100
AcDbEntity
  8
0
  6
CONTINUOUS
 62
               4
100
AcDbCircle
 10
12.5
 20
0.0
 30
0.0
 40
1.3
  0
ARC
  5
28F
100
AcDbEntity
  8
0
  6
CONTINUOUS
 62
               4
100
AcDbCircle
 10
12.5
 20
0.0
 30
0.0
 40
2.1000000000000001
100
AcDbArc
 50
282.34693236741288
 51
77.293658161570505
  0
ARC
  5
290
100
AcDbEntity
  8
0
  6
CONTINUOUS
 62
               4
100
AcDbCircle
 10
12.5
 20
0.0
 30
0.0
 40
2.1000000000000001
100
AcDbArc
 50
102.70634183842959
 51
257.65306763258724
  0
LINE
  5
291
100
AcDbEntity
  8
0
  6
CONTINUOUS
 62
               4
100
AcDbLine
 10
0.0
 20
1.5
 30
0.0
 11
11.030306154330106
 21
1.5000000000000142
 31
0.0
  0
LINE
  5
292
100
AcDbEntity
  8
0
  6
CONTINUOUS
 62
               4
100
AcDbLine
 10
0.0
 20
2.0499999999999972
 30
0.0
 11
0.0
 21
-2.0499999999999972
 31
0.0
  0
LINE
  5
293
100
AcDbEntity
  8
0
  6
CONTINUOUS
 62
               4
100
AcDbLine
 10
15.0
 20
2.0500000000000114
 30
0.0
 11
15.0
 21
-2.0499999999999972
 31
0.0
  0
LINE
  5
294
100
AcDbEntity
  8
0
  6
CONTINUOUS
 62
               4
100
AcDbLine
 10
0.9571428571428555
 20
-0.7142857142857082
 30
0.0
 11
2.6885714285714357
 21
1.019999999999996
 31
0.0
  0
LINE
  5
295
100
AcDbEntity
  8
0
  6
CONTINUOUS
 62
               4
100
AcDbLine
 10
1.3085714285714403
 20
-1.068571428571417
 30
0.0
 11
3.0519930369714814
 21
0.6748501798286242
 31
0.0
  0
LINE
  5
296
100
AcDbEntity
  8
0
  6
CONTINUOUS
 62
               4
100
AcDbLine
 10
3.9000000000000057
 20
-1.5028571503502945
 30
0.0
 11
3.9000000000000057
 21
1.500000006811959
 31
0.0
  0
LINE
  5
297
100
AcDbEntity
  8
0
  6
CONTINUOUS
 62
               4
100
AcDbLine
 10
10.400000000000006
 20
-1.5028571503502803
 30
0.0
 11
10.400000000000006
 21
1.500000006811959
 31
0.0
  0
LINE
  5
298
100
AcDbEntity
  8
0
  6
CONTINUOUS
 62
               4
100
AcDbLine
 10
8.0
 20
-0.7000000068119476
 30
0.0
 11
8.0
 21
0.9000000000000057
 31
0.0
  0
LINE
  5
299
100
AcDbEntity
  8
0
  6
CONTINUOUS
 62
               4
100
AcDbLine
 10
9.6000000000000227
 20
-0.7000000068119476
 30
0.0
 11
9.6000000000000227
 21
0.9000000000000057
 31
0.0
  0
LINE
  5
29A
100
AcDbEntity
  8
0
  6
CONTINUOUS
 62
               4
100
AcDbLine
 10
8.0
 20
0.9000000000000057
 30
0.0
 11
9.6000000000000227
 21
0.9000000000000057
 31
0.0
  0
LINE
  5
29B
100
AcDbEntity
  8
0
  6
CONTINUOUS
 62
               4
100
AcDbLine
 10
8.0
 20
-0.7000000000000028
 30
0.0
 11
9.6000000000000227
 21
-0.7000000000000028
 31
0.0
  0
LINE
  5
29C
100
AcDbEntity
  8
0
  6
CONTINUOUS
 62
               4
100
AcDbLine
 10
0.0
 20
2.0499999999999972
 30
0.0
 11
15.0
 21
2.0500000000000114
 31
0.0
  0
LINE
  5
29D
100
AcDbEntity
  8
0
  6
CONTINUOUS
 62
               4
100
AcDbLine
 10
0.0
 20
-2.0499999999999972
 30
0.0
 11
15.0
 21
-2.0499999999999972
 31
0.0
  0
LINE
  5
29E
100
AcDbEntity
  8
0
  6
CONTINUOUS
 62
               4
100
AcDbLine
 10
0.0
 20
-1.5
 30
0.0
 11
11.030306154330106
 21
-1.5
 31
0.0
  0
CIRCLE
  5
29F
100
AcDbEntity
  8
0
  6
CONTINUOUS
 62
               4
100
AcDbCircle
 10
2.0
 20
0.0
 30
0.0
 40
1.3999999999999997
  0
CIRCLE
  5
2A0
100
AcDbEntity
  8
0
  6
CONTINUOUS
 62
             200
100
AcDbCircle
 10
2.0
 20
0.0
 30
0.0
 40
1.05
  0
CIRCLE
  5
2A1
100
AcDbEntity
  8
0
  6
CONTINUOUS
 62
               4
100
AcDbCircle
 10
2.0
 20
0.0
 30
0.0
 40
1.25
  0
CIRCLE
  5
2A2
100
AcDbEntity
  8
0
  6
CONTINUOUS
 62
               4
100
AcDbCircle
 10
13.150000002724795
 20
0.0
 30
0.0
 40
0.5
  0
CIRCLE
  5
2A3
100
AcDbEntity
  8
0
  6
CONTINUOUS
 62
               4
100
AcDbCircle
 10
11.849999997275233
 20
0.0000000000000142
 30
0.0
 40
0.5
  0
CIRCLE
  5
2A4
100
AcDbEntity
  8
0
  6
CONTINUOUS
 62
               4
100
AcDbCircle
 10
13.150000002724795
 20
0.0
 30
0.0
 40
0.29
  0
CIRCLE
  5
2A5
100
AcDbEntity
  8
0
  6
CONTINUOUS
 62
               4
100
AcDbCircle
 10
11.849999997275233
 20
0.0000000000000142
 30
0.0
 40
0.29
  0
LINE
  5
2A6
100
AcDbEntity
  8
0
  6
CENTER
 62
             200
100
AcDbLine
 10
-1.3247205773654969
 20
0.0
 30
0.0
 11
16.237619114850219
 21
0.0
 31
0.0
  0
LINE
  5
2A7
100
AcDbEntity
  8
0
  6
CONTINUOUS
 62
             200
100
AcDbLine
 10
2.0
 20
2.8342857142857127
 30
0.0
 11
2.0000000000000142
 21
-3.3514132448520257
 31
0.0
  0
ENDBLK
  5
2A8
100
AcDbEntity
  8
0
100
AcDbBlockEnd
  0
ENDSEC
  0
SECTION
  2
ENTITIES
  0
INSERT
  5
2A9
100
AcDbEntity
  8
0
  6
ByBlock
100
AcDbBlockReference
  2
AFDPG-14-11
 10
60.0
 20
-90.0
 30
0.0
  0
INSERT
  5
2AA
100
AcDbEntity
  8
0
  6
ByBlock
100
AcDbBlockReference
  2
AFDPG-14-10
 10
10.0
 20
-120.0
 30
0.0
  0
INSERT
  5
2AB
100
AcDbEntity
  8
0
  6
ByBlock
100
AcDbBlockReference
  2
AFDPG-14-9
 10
60.0
 20
-120.0
 30
0.0
  0
INSERT
  5
2AC
100
AcDbEntity
  8
0
  6
ByBlock
100
AcDbBlockReference
  2
AFDPG-14-8
 10
-90.0
 20
-90.0
 30
0.0
  0
INSERT
  5
2AD
100
AcDbEntity
  8
0
  6
ByBlock
100
AcDbBlockReference
  2
AFDPG-14-7
 10
-140.0
 20
-120.0
 30
0.0
  0
INSERT
  5
2AE
100
AcDbEntity
  8
0
  6
ByBlock
100
AcDbBlockReference
  2
AFDPG-14-6
 10
-90.0
 20
-120.0
 30
0.0
  0
INSERT
  5
2AF
100
AcDbEntity
  8
0
  6
ByBlock
100
AcDbBlockReference
  2
AFDPG-14-5
 10
0.0
 20
-30.0
 30
0.0
  0
INSERT
  5
2B0
100
AcDbEntity
  8
0
  6
ByBlock
100
AcDbBlockReference
  2
AFDPG-14-4
 10
0.0
 20
100.0
 30
0.0
  0
INSERT
  5
2B1
100
AcDbEntity
  8
0
  6
ByBlock
100
AcDbBlockReference
  2
AFDPG-14-3
 10
120.0
 20
20.0
 30
0.0
  0
INSERT
  5
2B2
100
AcDbEntity
  8
0
  6
ByBlock
100
AcDbBlockReference
  2
AFDPG-14-2
 10
-120.0
 20
20.0
 30
0.0
  0
INSERT
  5
2B3
100
AcDbEntity
  8
0
  6
ByBlock
100
AcDbBlockReference
  2
AFDPG-14-1
 10
0.0
 20
20.0
 30
0.0
  0
LINE
  5
2B4
100
AcDbEntity
  8
0
  6
CONTINUOUS
 62
               7
100
AcDbLine
 10
-104.25
 20
132.60000610351562
 30
0.0
 11
-104.25
 21
117.60000610351562
 31
0.0
  0
MTEXT
  5
2B5
100
AcDbEntity
  8
0
  6
CONTINUOUS
 62
               7
100
AcDbMText
 10
-191.18416030627154
 20
125.10000610351562
 30
0.0
 40
4.5
 41
0.0
 71
               4
 72
               1
  1
\W1.088;\A1;FLAT TYPE AIR HANDS
  0
LINE
  5
2B6
100
AcDbEntity
  8
0
  6
CONTINUOUS
 62
               7
100
AcDbLine
 10
-194.25
 20
117.60000610351562
 30
0.0
 11
-104.25
 21
117.60000610351562
 31
0.0
  0
MTEXT
  5
2B7
100
AcDbEntity
  8
0
  6
CONTINUOUS
 62
               7
100
AcDbMText
 10
-16.60666195310813
 20
-70.764396550855338
 30
0.0
 40
4.5
 41
0.0
 71
               1
 72
               1
  1
\A1;ZE235
  0
MTEXT
  5
2B8
100
AcDbEntity
  8
0
  6
CONTINUOUS
 62
               7
100
AcDbMText
 10
-16.60666195310813
 20
-77.707459252403439
 30
0.0
 40
4.5
 41
0.0
 71
               1
 72
               1
  1
\A1;ZE255
  0
LINE
  5
2B9
100
AcDbEntity
  8
0
  6
CONTINUOUS
 62
               7
100
AcDbLine
 10
-20.198768460575707
 20
-66.975000000000023
 30
0.0
 11
-20.198768460575707
 21
-133.4267309136421
 31
0.0
  0
MTEXT
  5
2BA
100
AcDbEntity
  8
0
  6
CONTINUOUS
 62
               7
100
AcDbMText
 10
-189.97646052993406
 20
-70.764396550855338
 30
0.0
 40
4.5
 41
0.0
 71
               1
 72
               1
  1
\W1.071;\A1;ZE135
  0
MTEXT
  5
2BB
100
AcDbEntity
  8
0
  6
CONTINUOUS
 62
               7
100
AcDbMText
 10
-189.97646052993406
 20
-77.707459252403439
 30
0.0
 40
4.5
 41
0.0
 71
               1
 72
               1
  1
\W1.071;\A1;ZE155
  0
LINE
  5
2BC
100
AcDbEntity
  8
0
  6
CONTINUOUS
 62
               7
100
AcDbLine
 10
-194.25
 20
-66.975000000000023
 30
0.0
 11
194.80000001192093
 21
-66.975000000000023
 31
0.0
  0
LINE
  5
2BD
100
AcDbEntity
  8
0
  6
CONTINUOUS
 62
               7
100
AcDbLine
 10
-194.25
 20
-133.5
 30
0.0
 11
194.80000305175781
 21
-133.5
 31
0.0
  0
LINE
  5
2BE
100
AcDbEntity
  8
0
  6
CONTINUOUS
 62
               7
100
AcDbLine
 10
-194.25
 20
132.60000610351562
 30
0.0
 11
-194.25
 21
-133.5
 31
0.0
  0
MTEXT
  5
2BF
100
AcDbEntity
  8
0
  6
CONTINUOUS
 62
               7
100
AcDbMText
 10
-185.69230769415933
 20
107.60000610351562
 30
0.0
 40
4.5
 41
0.0
 71
               4
 72
               1
  1
\W1.077;\A1;MODEL:AFDPG-14
  0
LINE
  5
2C0
100
AcDbEntity
  8
0
  6
CONTINUOUS
 62
               7
100
AcDbLine
 10
-194.25
 20
132.60000610351562
 30
0.0
 11
194.80000305175781
 21
132.60000610351562
 31
0.0
  0
LINE
  5
2C1
100
AcDbEntity
  8
0
  6
CONTINUOUS
 62
               7
100
AcDbLine
 10
194.80000305175781
 20
132.60000610351562
 30
0.0
 11
194.80000305175781
 21
-133.5
 31
0.0
  0
LINE
  5
2C2
100
AcDbEntity
  8
0
  6
CONTINUOUS
 62
               7
100
AcDbLine
 10
109.80000305175781
 20
-118.5
 30
0.0
 11
109.80000305175781
 21
-133.5
 31
0.0
  0
LINE
  5
2C3
100
AcDbEntity
  8
0
  6
CONTINUOUS
 62
               7
100
AcDbLine
 10
109.80000305175781
 20
-118.5
 30
0.0
 11
194.80000305175781
 21
-118.5
 31
0.0
  0
LINE
  5
2C4
100
AcDbEntity
  8
0
  6
CONTINUOUS
 62
               7
100
AcDbLine
 10
109.80000305175781
 20
132.60000610351562
 30
0.0
 11
109.80000305175781
 21
117.60000610351562
 31
0.0
  0
LINE
  5
2C5
100
AcDbEntity
  8
0
  6
CONTINUOUS
 62
               7
100
AcDbLine
 10
109.80000305175781
 20
117.60000610351562
 30
0.0
 11
194.80000305175781
 21
117.60000610351562
 31
0.0
  0
MTEXT
  5
2C6
100
AcDbEntity
  8
0
  6
CONTINUOUS
 62
               7
100
AcDbMText
 10
135.31123898988298
 20
125.10000610351562
 30
0.0
 40
4.5
 41
0.0
 71
               4
 72
               1
  1
\W1.348;\A1;Ver. 1.1
  0
MTEXT
  5
2C7
100
AcDbEntity
  8
0
  6
CONTINUOUS
 62
               7
100
AcDbMText
 10
115.5267259825148
 20
-126.0
 30
0.0
 40
6.3000001907348633
 41
0.0
 71
               4
 72
               1
  1
\W1.121;\A1;KOGANEI CORP.
  0
ENDSEC
  0
SECTION
  2
OBJECTS
  0
DICTIONARY
  5
19
100
AcDbDictionary
  3
ACAD_GROUP
350
1A
  3
ACAD_MLINESTYLE
350
1B
  0
DICTIONARY
  5
1A
102
{ACAD_REACTORS
330
19
102
}
100
AcDbDictionary
  0
DICTIONARY
  5
1B
102
{ACAD_REACTORS
330
19
102
}
100
AcDbDictionary
  3
STANDARD
350
1C
  0
MLINESTYLE
  5
1C
102
{ACAD_REACTORS
330
1B
102
}
100
AcDbMlineStyle
  2
Standard
 70
               0
  3

 62
               0
 51
90.0
 52
90.0
 71
               2
 49
0.5
 62
             256
  6
ByLayer
 49
-0.5
 62
             256
  6
ByLayer
  0
ENDSEC
  0
EOF
