  0
SECTION
  2
HEADER
  0
ENDSEC
  0
SECTION
  2
TABLES
  0
TABLE
  2
LTYPE
 70
     4
  0
LTYPE
  2
CONTINUOUS
 70
    64
  3
Solid line
 72
    65
 73
     0
 40
0.000000
  0
LTYPE
  2
DASHED
 70
    64
  3
__ __ __ __ __ __ __ __ __ __ __ __ __ __ __
 72
    65
 73
     2
 40
3.500000
 49
2.000000
 49
-1.500000
  0
LTYPE
  2
CENTER
 70
    64
  3
____ _ ____ _ ____ _ ____ _ ____ _ ____ _ ____
 72
    65
 73
     4
 40
17.500000
 49
13.000000
 49
-1.500000
 49
1.500000
 49
-1.500000
  0
LTYPE
  2
PHANTOM
 70
    64
  3
_____ _ _ _____ _ _ _____ _ _ _____ _ _ ____  
 72
    65
 73
     6
 40
15.500000
 49
8.000000
 49
-1.500000
 49
1.500000
 49
-1.500000
 49
1.500000
 49
-1.500000
  0
LTYPE
  2
DASHED1
 70
    64
  3
__ __ __ __ __ __ __ __ __ __ __ __ __ __ __
 72
    65
 73
     2
 40
1.500000
 49
1.000000
 49
-0.500000
  0
LTYPE
  2
DASHED2
 70
    64
  3
__ __ __ __ __ __ __ __ __ __ __ __ __ __ __
 72
    65
 73
     2
 40
3.500000
 49
2.500000
 49
-1.000000
  0
LTYPE
  2
DASHED3
 70
    64
  3
__ __ __ __ __ __ __ __ __ __ __ __ __ __ __
 72
    65
 73
     2
 40
6.000000
 49
4.000000
 49
-2.000000
  0
LTYPE
  2
DASHED4
 70
    64
  3
__ __ __ __ __ __ __ __ __ __ __ __ __ __ __
 72
    65
 73
     2
 40
12.000000
 49
10.000000
 49
-2.000000
  0
LTYPE
  2
DASHED5
 70
    64
  3
__ __ __ __ __ __ __ __ __ __ __ __ __ __ __
 72
    65
 73
     2
 40
17.000000
 49
15.000000
 49
-2.000000
  0
LTYPE
  2
DASHED6
 70
    64
  3
__ __ __ __ __ __ __ __ __ __ __ __ __ __ __
 72
    65
 73
     2
 40
29.000000
 49
27.000000
 49
-2.000000
  0
LTYPE
  2
PHANTOM1
 70
    64
  3
_____ _ _ _____ _ _ _____ _ _ _____ _ _ ____  
 72
    65
 73
     6
 40
31.000000
 49
25.000000
 49
-1.500000
 49
1.000000
 49
-1.000000
 49
1.000000
 49
-1.500000
  0
LTYPE
  2
PHANTOM2
 70
    64
  3
_____ _ _ _____ _ _ _____ _ _ _____ _ _ ____  
 72
    65
 73
     6
 40
36.000000
 49
27.000000
 49
-1.500000
 49
2.500000
 49
-1.000000
 49
2.500000
 49
-1.500000
  0
LTYPE
  2
PHANTOM3
 70
    64
  3
_____ _ _ _____ _ _ _____ _ _ _____ _ _ ____  
 72
    65
 73
     6
 40
78.000000
 49
64.000000
 49
-2.000000
 49
4.000000
 49
-2.000000
 49
4.000000
 49
-2.000000
  0
LTYPE
  2
CENTER1
 70
    64
  3
____ _ ____ _ ____ _ ____ _ ____ _ ____ _ ____
 72
    65
 73
     4
 40
19.000000
 49
14.000000
 49
-1.000000
 49
3.000000
 49
-1.000000
  0
LTYPE
  2
CENTER2
 70
    64
  3
____ _ ____ _ ____ _ ____ _ ____ _ ____ _ ____
 72
    65
 73
     4
 40
28.500000
 49
25.000000
 49
-1.000000
 49
1.500000
 49
-1.000000
  0
LTYPE
  2
CENTER3
 70
    64
  3
____ _ ____ _ ____ _ ____ _ ____ _ ____ _ ____
 72
    65
 73
     4
 40
31.500000
 49
27.000000
 49
-1.000000
 49
2.500000
 49
-1.000000
  0
LTYPE
  2
CENTER4
 70
    64
  3
____ _ ____ _ ____ _ ____ _ ____ _ ____ _ ____
 72
    65
 73
     4
 40
50.000000
 49
45.000000
 49
-1.000000
 49
3.000000
 49
-1.000000
  0
LTYPE
  2
CENTER5
 70
    64
  3
____ _ ____ _ ____ _ ____ _ ____ _ ____ _ ____
 72
    65
 73
     4
 40
100.000000
 49
92.000000
 49
-2.000000
 49
4.000000
 49
-2.000000
  0
LTYPE
  2
SBK1
 70
    64
  3
______ _ _ _ ______ _ _ _ ______ _ _ _ _____  
 72
    65
 73
     8
 40
60.500000
 49
45.000000
 49
-2.000000
 49
2.500000
 49
-2.000000
 49
2.500000
 49
-2.000000
 49
2.500000
 49
-2.000000
  0
LTYPE
  2
SBK2
 70
    64
  3
______ _ _ _ ______ _ _ _ ______ _ _ _ _____  
 72
    65
 73
     8
 40
84.000000
 49
64.000000
 49
-2.000000
 49
4.000000
 49
-2.000000
 49
4.000000
 49
-2.000000
 49
4.000000
 49
-2.000000
  0
LTYPE
  2
STCH
 70
    64
  3
__ __ __ __ __ __ __ __ __ __ __ __ __ __ __
 72
    65
 73
     2
 40
3.000000
 49
1.000000
 49
-2.000000
  0
LTYPE
  2
MTCH
 70
    64
  3
_____ _ _ _____ _ _ _____ _ _ _____ _ _ ____  
 72
    65
 73
     6
 40
80.000000
 49
66.000000
 49
-2.000000
 49
4.000000
 49
-2.000000
 49
4.000000
 49
-2.000000
  0
ENDTAB
  0
TABLE
  2
LAYER
 70
     1
  0
LAYER
  2
0
 70
     0
 62
     7
  6
CONTINUOUS
  0
ENDTAB
  0
TABLE
  2
STYLE
 70
     1
  0
STYLE
  2
STANDARD
 70
     0
 40
0.000000
 41
1.000000
 50
0.000000
 71
     0
 42
0.200000
  3
txt
  4
BIGFONT
  0
ENDTAB
  0
TABLE
  2
VIEW
 70
     0
  0
ENDTAB
  0
ENDSEC
  0
SECTION
  2
BLOCKS
  0
ENDSEC
  0
SECTION
  2
ENTITIES
  0
LINE
  8
0
 10
399.799988
 20
276.250000
 11
399.799988
 21
-276.750000
  0
LINE
  8
0
 10
-399.250000
 20
276.250000
 11
-399.250000
 21
-276.750000
  0
LINE
  8
0
 10
-399.250000
 20
276.250000
 11
399.799988
 21
276.250000
  0
LINE
  8
0
 10
-399.250000
 20
-276.750000
 11
399.799988
 21
-276.750000
  0
LINE
  8
0
 10
239.799988
 20
-251.750000
 11
399.799988
 21
-251.750000
  0
LINE
  8
0
 10
239.799988
 20
251.250000
 11
399.799988
 21
251.250000
  0
LINE
  8
0
 10
-399.250000
 20
251.250000
 11
-239.250000
 21
251.250000
  0
LINE
  8
0
 10
239.799988
 20
-251.750000
 11
239.799988
 21
-276.750000
  0
LINE
  8
0
 10
239.799988
 20
251.250000
 11
239.799988
 21
276.250000
  0
LINE
  8
0
 10
-239.250000
 20
276.250000
 11
-239.250000
 21
251.250000
  0
LINE
  8
0
 10
-384.250000
 20
-261.750000
 11
-204.250000
 21
-261.750000
  0
LINE
  8
0
 10
-384.250000
 20
-237.750000
 11
-384.250000
 21
-261.750000
  0
LINE
  8
0
 10
-384.250000
 20
-249.750000
 11
-204.250000
 21
-249.750000
  0
LINE
  8
0
 10
-384.250000
 20
-237.750000
 11
-204.250000
 21
-237.750000
  0
LINE
  8
0
 10
-324.250000
 20
-237.750000
 11
-324.250000
 21
-261.750000
  0
LINE
  8
0
 10
-294.250000
 20
-237.750000
 11
-294.250000
 21
-261.750000
  0
LINE
  8
0
 10
-264.250000
 20
-237.750000
 11
-264.250000
 21
-261.750000
  0
LINE
  8
0
 10
-234.250000
 20
-237.750000
 11
-234.250000
 21
-261.750000
  0
LINE
  8
0
 10
-204.250000
 20
-237.750000
 11
-204.250000
 21
-261.750000
  0
LINE
  8
0
 10
-9.999939
 20
216.020798
 11
-9.999939
 21
201.020798
  0
LINE
  8
0
 10
-30.000000
 20
206.020798
 11
-30.000000
 21
76.020905
  0
LINE
  8
0
 10
-17.999939
 20
206.020798
 11
-17.999939
 21
76.020905
  0
LINE
  8
0
 10
-15.499939
 20
160.020905
 11
-15.499939
 21
122.020920
  0
LINE
  8
0
 10
-17.999939
 20
160.020905
 11
-15.499939
 21
160.020905
  0
LINE
  8
0
 10
-14.699890
 20
158.520905
 11
-14.699890
 21
153.520905
  0
LINE
  8
0
 10
-15.499939
 20
153.520905
 11
-14.699890
 21
153.520905
  0
LINE
  8
0
 10
-15.499939
 20
158.520905
 11
-14.699890
 21
158.520905
  0
LINE
  8
0
 10
-9.999939
 20
216.020798
 11
140.000061
 21
216.020798
  0
LINE
  8
0
 10
-9.999939
 20
212.020798
 11
24.255478
 21
212.020798
  0
LINE
  8
0
  6
CENTER
 62
     2
 10
130.000061
 20
218.020798
 11
130.000061
 21
198.020905
  0
LINE
  8
0
  6
CENTER
 62
     2
 10
120.000061
 20
208.020798
 11
140.000061
 21
208.020798
  0
LINE
  8
0
 10
35.744690
 20
212.020798
 11
124.255432
 21
212.020798
  0
LINE
  8
0
  6
CENTER
 62
     2
 10
20.000061
 20
208.020798
 11
40.000061
 21
208.020798
  0
LINE
  8
0
  6
CENTER
 62
     2
 10
30.000061
 20
218.020798
 11
30.000061
 21
198.020905
  0
LINE
  8
0
 10
140.000061
 20
216.020798
 11
140.000061
 21
201.020798
  0
LINE
  8
0
 10
135.744690
 20
212.020798
 11
140.000061
 21
212.020798
  0
LINE
  8
0
 10
-15.499939
 20
128.520905
 11
-14.699890
 21
128.520905
  0
LINE
  8
0
 10
-15.499939
 20
123.520905
 11
-14.699890
 21
123.520905
  0
LINE
  8
0
 10
-17.999939
 20
122.020920
 11
-15.499939
 21
122.020920
  0
LINE
  8
0
 10
-14.699890
 20
123.520905
 11
-14.699890
 21
128.520905
  0
LINE
  8
0
 10
-9.999939
 20
66.020935
 11
140.000061
 21
66.020935
  0
LINE
  8
0
 10
-9.999939
 20
70.020950
 11
24.255432
 21
70.020950
  0
LINE
  8
0
  6
CENTER
 62
     2
 10
130.000061
 20
64.020920
 11
130.000061
 21
84.020920
  0
LINE
  8
0
  6
CENTER
 62
     2
 10
120.000061
 20
74.020920
 11
140.000061
 21
74.020920
  0
LINE
  8
0
 10
35.744690
 20
70.020950
 11
124.255432
 21
70.020950
  0
LINE
  8
0
  6
CENTER
 62
     2
 10
20.000061
 20
74.020920
 11
40.000061
 21
74.020920
  0
LINE
  8
0
  6
CENTER
 62
     2
 10
30.000061
 20
64.020920
 11
30.000061
 21
84.020920
  0
LINE
  8
0
 10
140.000061
 20
66.020935
 11
140.000061
 21
81.020905
  0
LINE
  8
0
 10
135.744690
 20
70.020950
 11
140.000061
 21
70.020950
  0
LINE
  8
0
 10
-17.999939
 20
193.020905
 11
-9.999939
 21
193.020905
  0
LINE
  8
0
 10
-17.999939
 20
180.020905
 11
-9.999939
 21
180.020905
  0
LINE
  8
0
 10
-17.999939
 20
164.020920
 11
-9.999939
 21
164.020920
  0
LINE
  8
0
 10
-17.999939
 20
118.020905
 11
-9.999939
 21
118.020905
  0
LINE
  8
0
 10
-17.999939
 20
89.020920
 11
-9.999939
 21
89.020920
  0
LINE
  8
0
 10
-9.999939
 20
66.020935
 11
-9.999939
 21
81.020905
  0
LINE
  8
0
 10
-17.999939
 20
102.020920
 11
-9.999939
 21
102.020920
  0
LINE
  8
0
 10
-12.999939
 20
148.020905
 11
-12.999939
 21
134.020920
  0
LINE
  8
0
 10
-12.605896
 20
141.020905
 11
-10.394226
 21
141.020905
  0
LINE
  8
0
 10
-12.999939
 20
134.020920
 11
-9.999939
 21
134.020920
  0
LINE
  8
0
 10
-12.999939
 20
148.020905
 11
-9.999939
 21
148.020905
  0
LINE
  8
0
 10
-15.499939
 20
147.020920
 11
-12.999939
 21
147.020920
  0
LINE
  8
0
 10
-15.499939
 20
135.020905
 11
-12.999939
 21
135.020905
  0
LINE
  8
0
  6
CENTER
 62
     2
 10
-45.407074
 20
141.020905
 11
179.702377
 21
141.020905
  0
LINE
  8
0
  6
DASHED
 62
     4
 10
-40.000000
 20
206.020798
 11
-30.000000
 21
206.020798
  0
LINE
  8
0
  6
DASHED
 62
     4
 10
-40.000000
 20
76.020905
 11
-30.000000
 21
76.020905
  0
LINE
  8
0
 10
-30.000000
 20
76.020905
 11
-17.999939
 21
76.020905
  0
LINE
  8
0
 10
-30.000000
 20
206.020798
 11
-17.999939
 21
206.020798
  0
LINE
  8
0
 10
-9.999939
 20
201.020798
 11
-9.999939
 21
81.020905
  0
LINE
  8
0
 10
171.000046
 20
201.020798
 11
171.000046
 21
81.020905
  0
LINE
  8
0
 10
-9.999939
 20
201.020798
 11
171.000046
 21
201.020798
  0
LINE
  8
0
 10
-9.999939
 20
81.020905
 11
171.000046
 21
81.020905
  0
LINE
  8
0
  6
DASHED
 62
     4
 10
-40.000000
 20
206.020798
 11
-40.000000
 21
76.020905
  0
LINE
  8
0
  6
CENTER
 62
     2
 10
-27.999939
 20
161.020905
 11
-19.999939
 21
161.020905
  0
LINE
  8
0
  6
CENTER
 62
     2
 10
-23.999939
 20
165.020905
 11
-23.999939
 21
157.020905
  0
LINE
  8
0
  6
CENTER
 62
     2
 10
-27.999939
 20
121.020905
 11
-19.999939
 21
121.020905
  0
LINE
  8
0
  6
CENTER
 62
     2
 10
-23.999939
 20
125.020905
 11
-23.999939
 21
117.020905
  0
LINE
  8
0
 10
-9.999939
 20
195.111099
 11
171.000046
 21
195.111099
  0
LINE
  8
0
 10
-9.999939
 20
196.205002
 11
171.000046
 21
196.205002
  0
LINE
  8
0
 10
-9.999939
 20
196.970947
 11
171.000046
 21
196.970947
  0
LINE
  8
0
 10
-9.999939
 20
192.072052
 11
171.000046
 21
192.072052
  0
LINE
  8
0
 10
-9.999939
 20
191.020905
 11
171.000046
 21
191.020905
  0
LINE
  8
0
 10
-6.414238
 20
186.106720
 11
-3.585806
 21
188.935150
  0
LINE
  8
0
 10
-6.414222
 20
188.935120
 11
-3.585795
 21
186.106689
  0
LINE
  8
0
 10
-9.999939
 20
91.020905
 11
171.000046
 21
91.020905
  0
LINE
  8
0
 10
-9.999939
 20
89.969757
 11
171.000046
 21
89.969757
  0
LINE
  8
0
 10
-9.999939
 20
86.930710
 11
171.000046
 21
86.930710
  0
LINE
  8
0
 10
-9.999939
 20
85.836807
 11
171.000046
 21
85.836807
  0
LINE
  8
0
 10
-9.999939
 20
85.070862
 11
171.000046
 21
85.070862
  0
LINE
  8
0
 10
167.414337
 20
188.935104
 11
164.585907
 21
186.106674
  0
LINE
  8
0
 10
167.414352
 20
186.106720
 11
164.585922
 21
188.935150
  0
LINE
  8
0
 10
-6.414228
 20
93.106712
 11
-3.585796
 21
95.935143
  0
LINE
  8
0
 10
-6.414226
 20
95.935127
 11
-3.585793
 21
93.106697
  0
LINE
  8
0
 10
167.414352
 20
93.106743
 11
164.585937
 21
95.935165
  0
LINE
  8
0
 10
167.414368
 20
95.935104
 11
164.585953
 21
93.106682
  0
LINE
  8
0
  6
PHANTOM
 62
     3
 10
140.500000
 20
236.783386
 11
140.500000
 21
45.827896
  0
LINE
  8
0
  6
CENTER
 62
     2
 10
-198.004395
 20
141.020859
 11
-125.750015
 21
141.020859
  0
LINE
  8
0
  6
CENTER
 62
     2
 10
-173.500000
 20
153.111725
 11
-173.500000
 21
128.377197
  0
LINE
  8
0
 10
-173.500000
 20
149.103683
 11
-166.500122
 21
145.062302
  0
LINE
  8
0
 10
-180.499908
 20
145.062225
 11
-173.500046
 21
149.103592
  0
LINE
  8
0
 10
-180.500000
 20
136.979446
 11
-180.500000
 21
145.062332
  0
LINE
  8
0
 10
-173.500122
 20
132.937958
 11
-180.500000
 21
136.979340
  0
LINE
  8
0
 10
-166.500015
 20
136.979294
 11
-173.500107
 21
132.937790
  0
LINE
  8
0
 10
-166.500000
 20
145.062286
 11
-166.500000
 21
136.979401
  0
LINE
  8
0
 10
-191.500000
 20
206.020752
 11
-191.500000
 21
76.020859
  0
LINE
  8
0
 10
-191.500000
 20
206.020752
 11
-135.500000
 21
206.020752
  0
LINE
  8
0
 10
-191.500000
 20
76.020859
 11
-135.500000
 21
76.020859
  0
LINE
  8
0
  6
CENTER
 62
     2
 10
-190.821289
 20
199.020874
 11
-172.146729
 21
199.020874
  0
LINE
  8
0
 10
-185.750015
 20
201.770752
 11
-177.250000
 21
201.770752
  0
LINE
  8
0
 10
-185.750015
 20
196.270859
 11
-177.250000
 21
196.270859
  0
LINE
  8
0
 10
-149.750000
 20
201.770752
 11
-141.249985
 21
201.770752
  0
LINE
  8
0
 10
-149.750000
 20
196.270859
 11
-141.249985
 21
196.270859
  0
LINE
  8
0
  6
CENTER
 62
     2
 10
-154.925522
 20
199.020874
 11
-136.686996
 21
199.020874
  0
LINE
  8
0
  6
CENTER
 62
     2
 10
-139.500015
 20
145.211288
 11
-139.500015
 21
136.854965
  0
LINE
  8
0
  6
CENTER
 62
     2
 10
-187.499985
 20
145.211288
 11
-187.499985
 21
136.854965
  0
LINE
  8
0
  6
CENTER
 62
     2
 10
-190.821289
 20
83.020859
 11
-172.146729
 21
83.020859
  0
LINE
  8
0
 10
-185.750015
 20
80.270874
 11
-177.250000
 21
80.270874
  0
LINE
  8
0
 10
-185.750015
 20
85.770874
 11
-177.250000
 21
85.770874
  0
LINE
  8
0
 10
-149.750000
 20
80.270874
 11
-141.249985
 21
80.270874
  0
LINE
  8
0
 10
-149.750000
 20
85.770874
 11
-141.249985
 21
85.770874
  0
LINE
  8
0
  6
CENTER
 62
     2
 10
-154.925522
 20
83.020859
 11
-136.686996
 21
83.020859
  0
LINE
  8
0
  6
CENTER
 62
     2
 10
-163.500000
 20
212.189941
 11
-163.500000
 21
71.389999
  0
LINE
  8
0
 10
-135.500000
 20
206.020752
 11
-135.500000
 21
76.020859
  0
LINE
  8
0
 10
-135.021271
 20
194.104858
 11
-135.500076
 21
193.275543
  0
LINE
  8
0
 10
-135.204422
 20
194.787704
 11
-135.021423
 21
194.104752
  0
LINE
  8
0
 10
-135.104248
 20
194.961075
 11
-135.204239
 21
194.787872
  0
LINE
  8
0
 10
-129.500015
 20
192.071945
 11
-129.500015
 21
191.020859
  0
LINE
  8
0
 10
-131.500000
 20
191.020859
 11
-129.500015
 21
191.020859
  0
LINE
  8
0
 10
-131.500000
 20
191.020859
 11
-131.500000
 21
91.020859
  0
LINE
  8
0
 10
-134.500015
 20
185.020859
 11
-131.500000
 21
185.020859
  0
LINE
  8
0
 10
-134.694366
 20
195.070908
 11
-129.500107
 21
192.071991
  0
LINE
  8
0
  6
CENTER
 62
     2
 10
-134.207779
 20
187.520859
 11
-126.782730
 21
187.520859
  0
LINE
  8
0
 10
-133.500000
 20
176.020859
 11
-133.500000
 21
106.020859
  0
LINE
  8
0
 10
-135.500000
 20
176.020859
 11
-133.500000
 21
176.020859
  0
LINE
  8
0
 10
-130.000015
 20
190.670853
 11
-129.199951
 21
190.670853
  0
LINE
  8
0
 10
-130.000015
 20
184.370850
 11
-129.199951
 21
184.370850
  0
LINE
  8
0
 10
-129.199951
 20
190.670853
 11
-129.199951
 21
184.370850
  0
LINE
  8
0
 10
-135.500000
 20
106.020859
 11
-133.500000
 21
106.020859
  0
LINE
  8
0
 10
-135.500000
 20
170.020859
 11
-133.500000
 21
170.020859
  0
LINE
  8
0
 10
-135.500000
 20
112.020874
 11
-133.500000
 21
112.020874
  0
LINE
  8
0
 10
-134.500015
 20
189.641037
 11
-134.500015
 21
185.020859
  0
LINE
  8
0
 10
-135.021240
 20
87.936951
 11
-135.500000
 21
88.766190
  0
LINE
  8
0
 10
-135.204681
 20
87.254005
 11
-135.021667
 21
87.937004
  0
LINE
  8
0
 10
-135.104294
 20
87.080521
 11
-135.204407
 21
87.253891
  0
LINE
  8
0
 10
-131.500000
 20
91.020859
 11
-129.500015
 21
91.020859
  0
LINE
  8
0
 10
-134.500015
 20
97.020874
 11
-131.500000
 21
97.020874
  0
LINE
  8
0
 10
-134.694351
 20
86.970901
 11
-129.500122
 21
89.969788
  0
LINE
  8
0
  6
CENTER
 62
     2
 10
-134.208267
 20
94.520874
 11
-126.782730
 21
94.520874
  0
LINE
  8
0
 10
-130.000015
 20
91.370880
 11
-129.199951
 21
91.370880
  0
LINE
  8
0
 10
-130.000015
 20
97.670868
 11
-129.199951
 21
97.670868
  0
LINE
  8
0
 10
-129.199951
 20
91.370880
 11
-129.199951
 21
97.670868
  0
LINE
  8
0
 10
-134.500015
 20
92.400696
 11
-134.500015
 21
97.020874
  0
LINE
  8
0
  6
CENTER
 62
     2
 10
-143.500000
 20
177.520859
 11
-143.500000
 21
164.520874
  0
LINE
  8
0
  6
CENTER
 62
     2
 10
-149.999985
 20
171.020859
 11
-137.000015
 21
171.020859
  0
LINE
  8
0
  6
CENTER
 62
     2
 10
-183.500000
 20
177.520859
 11
-183.500000
 21
164.520874
  0
LINE
  8
0
  6
CENTER
 62
     2
 10
-189.999985
 20
171.020859
 11
-177.000015
 21
171.020859
  0
LINE
  8
0
  6
CENTER
 62
     2
 10
-183.500000
 20
117.520859
 11
-183.500000
 21
104.520874
  0
LINE
  8
0
  6
CENTER
 62
     2
 10
-189.999985
 20
111.020859
 11
-177.000015
 21
111.020859
  0
LINE
  8
0
  6
CENTER
 62
     2
 10
-143.500000
 20
117.520859
 11
-143.500000
 21
104.520874
  0
LINE
  8
0
  6
CENTER
 62
     2
 10
-149.999985
 20
111.020859
 11
-137.000015
 21
111.020859
  0
LINE
  8
0
 10
-130.000015
 20
191.020859
 11
-130.000015
 21
91.020859
  0
LINE
  8
0
 10
-129.500015
 20
91.020859
 11
-129.500015
 21
89.969757
  0
LINE
  8
0
 10
-135.104004
 20
194.960922
 11
-135.204025
 21
194.787766
  0
LINE
  8
0
 10
-193.500000
 20
216.020752
 11
-193.500000
 21
66.020859
  0
LINE
  8
0
 10
-180.500000
 20
212.020752
 11
-180.500000
 21
206.020752
  0
LINE
  8
0
 10
-193.500000
 20
216.020752
 11
-184.500015
 21
216.020752
  0
LINE
  8
0
 10
-184.500122
 20
216.020782
 11
-180.500031
 21
212.020691
  0
LINE
  8
0
 10
-180.500000
 20
70.020859
 11
-180.500000
 21
76.020859
  0
LINE
  8
0
 10
-193.500000
 20
66.020859
 11
-184.500015
 21
66.020859
  0
LINE
  8
0
 10
-184.500076
 20
66.020927
 11
-180.500168
 21
70.020851
  0
LINE
  8
0
  6
CENTER
 62
     2
 10
329.542480
 20
141.020859
 11
254.609131
 21
141.020859
  0
LINE
  8
0
 10
301.500000
 20
162.520859
 11
282.500000
 21
162.520859
  0
LINE
  8
0
 10
308.000000
 20
197.077560
 11
308.000000
 21
163.020859
  0
LINE
  8
0
 10
302.169678
 20
201.020752
 11
290.899902
 21
201.020752
  0
LINE
  8
0
  6
CENTER
 62
     2
 10
266.448883
 20
197.564224
 11
270.315552
 21
190.866882
  0
LINE
  8
0
 10
269.658417
 20
196.204941
 11
270.458466
 21
194.819214
  0
LINE
  8
0
 10
266.021027
 20
194.104706
 11
266.820953
 21
192.719177
  0
LINE
  8
0
 10
266.204437
 20
194.787476
 11
266.021454
 21
194.104568
  0
LINE
  8
0
 10
266.104034
 20
194.960922
 11
266.204041
 21
194.787750
  0
LINE
  8
0
 10
287.099854
 20
201.020752
 11
284.899902
 21
201.020752
  0
LINE
  8
0
 10
268.875641
 20
196.561050
 11
268.975616
 21
196.387894
  0
LINE
  8
0
 10
268.975250
 20
196.387833
 11
269.658173
 21
196.204849
  0
LINE
  8
0
  6
CENTER
 62
     2
 10
289.000000
 20
202.802734
 11
289.000000
 21
195.069504
  0
LINE
  8
0
 10
291.099854
 20
200.020859
 11
291.099854
 21
198.420868
  0
LINE
  8
0
 10
286.899902
 20
200.020859
 11
286.899902
 21
198.420868
  0
LINE
  8
0
 10
287.399750
 20
200.520813
 11
286.899994
 21
200.021042
  0
LINE
  8
0
 10
287.399902
 20
200.720856
 11
287.399902
 21
200.520859
  0
LINE
  8
0
 10
290.599854
 20
200.720856
 11
290.599854
 21
200.520859
  0
LINE
  8
0
 10
290.599640
 20
200.520508
 11
291.099548
 21
200.020569
  0
LINE
  8
0
 10
281.099854
 20
201.020752
 11
276.000000
 21
201.020752
  0
LINE
  8
0
 10
275.999939
 20
201.020935
 11
268.985046
 21
196.970886
  0
LINE
  8
0
 10
260.500000
 20
192.071945
 11
260.500000
 21
191.020859
  0
LINE
  8
0
 10
262.500000
 20
191.020859
 11
260.500000
 21
191.020859
  0
LINE
  8
0
 10
262.500000
 20
191.020859
 11
262.500000
 21
91.020859
  0
LINE
  8
0
 10
265.500000
 20
185.020859
 11
262.500000
 21
185.020859
  0
LINE
  8
0
  6
CENTER
 62
     2
 10
283.000000
 20
202.802734
 11
283.000000
 21
195.069504
  0
LINE
  8
0
 10
285.099854
 20
200.020859
 11
285.099854
 21
198.420868
  0
LINE
  8
0
 10
280.899902
 20
200.020859
 11
280.899902
 21
198.420868
  0
LINE
  8
0
 10
281.399719
 20
200.520721
 11
280.899963
 21
200.020935
  0
LINE
  8
0
 10
281.399902
 20
200.720856
 11
281.399902
 21
200.520859
  0
LINE
  8
0
 10
284.599854
 20
200.720856
 11
284.599854
 21
200.520859
  0
LINE
  8
0
 10
284.599579
 20
200.520706
 11
285.099701
 21
200.020599
  0
LINE
  8
0
 10
265.694427
 20
195.071030
 11
260.499969
 21
192.071991
  0
LINE
  8
0
  6
CENTER
 62
     2
 10
265.104736
 20
187.520859
 11
257.782715
 21
187.520859
  0
LINE
  8
0
 10
264.500000
 20
176.020859
 11
264.500000
 21
106.020859
  0
LINE
  8
0
 10
261.000000
 20
190.670853
 11
260.199951
 21
190.670853
  0
LINE
  8
0
 10
261.000000
 20
184.370850
 11
260.199951
 21
184.370850
  0
LINE
  8
0
 10
260.199951
 20
190.670853
 11
260.199951
 21
184.370850
  0
LINE
  8
0
 10
301.500000
 20
119.520874
 11
282.500000
 21
119.520874
  0
LINE
  8
0
 10
276.500000
 20
188.020859
 11
267.500000
 21
188.020859
  0
LINE
  8
0
  6
CENTER
 62
     2
 10
274.366943
 20
185.020859
 11
266.678711
 21
185.020859
  0
LINE
  8
0
 10
267.500000
 20
188.020859
 11
267.500000
 21
178.020859
  0
LINE
  8
0
  6
CENTER
 62
     2
 10
270.500000
 20
188.406113
 11
270.500000
 21
181.639252
  0
LINE
  8
0
  6
CENTER
 62
     2
 10
289.403320
 20
190.020859
 11
282.249512
 21
190.020859
  0
LINE
  8
0
  6
CENTER
 62
     2
 10
286.000000
 20
193.535034
 11
286.000000
 21
186.294739
  0
LINE
  8
0
 10
301.866943
 20
198.720856
 11
293.399902
 21
198.720856
  0
LINE
  8
0
 10
293.399902
 20
198.720856
 11
293.399902
 21
198.420868
  0
LINE
  8
0
 10
278.599854
 20
198.720856
 11
278.599854
 21
198.420868
  0
LINE
  8
0
 10
278.599854
 20
198.720856
 11
276.616211
 21
198.720856
  0
LINE
  8
0
 10
276.616089
 20
198.720810
 11
272.300140
 21
196.228989
  0
LINE
  8
0
 10
265.500000
 20
189.641037
 11
265.500000
 21
185.020859
  0
LINE
  8
0
 10
272.300354
 20
196.229080
 11
272.450378
 21
195.969223
  0
LINE
  8
0
 10
324.500000
 20
216.020752
 11
324.500000
 21
66.020859
  0
LINE
  8
0
  6
CENTER
 62
     2
 10
304.500000
 20
160.560257
 11
304.500000
 21
121.093597
  0
LINE
  8
0
 10
311.500000
 20
212.020752
 11
311.500000
 21
163.020859
  0
LINE
  8
0
 10
311.500000
 20
163.020859
 11
299.500000
 21
163.020859
  0
LINE
  8
0
  6
CENTER
 62
     2
 10
312.631348
 20
179.020874
 11
291.244873
 21
179.020874
  0
LINE
  8
0
 10
295.500000
 20
193.020859
 11
295.500000
 21
171.520874
  0
LINE
  8
0
 10
306.500000
 20
186.520874
 11
295.500000
 21
186.520874
  0
LINE
  8
0
 10
306.500000
 20
171.520874
 11
295.500000
 21
171.520874
  0
LINE
  8
0
 10
306.500000
 20
186.520874
 11
306.500000
 21
171.520874
  0
LINE
  8
0
 10
299.500000
 20
195.020859
 11
299.500000
 21
186.520874
  0
LINE
  8
0
 10
299.500000
 20
171.520874
 11
299.500000
 21
163.020859
  0
LINE
  8
0
 10
301.500000
 20
163.020859
 11
301.500000
 21
162.520859
  0
LINE
  8
0
 10
283.500000
 20
180.020859
 11
283.500000
 21
164.020874
  0
LINE
  8
0
 10
277.500000
 20
193.020859
 11
277.500000
 21
180.020859
  0
LINE
  8
0
 10
298.500000
 20
164.020874
 11
281.000000
 21
164.020874
  0
LINE
  8
0
 10
298.500000
 20
171.520874
 11
298.500000
 21
164.020874
  0
LINE
  8
0
 10
295.500000
 20
193.020859
 11
277.500000
 21
193.020859
  0
LINE
  8
0
 10
324.500000
 20
216.020752
 11
315.500000
 21
216.020752
  0
LINE
  8
0
 10
315.499786
 20
216.020798
 11
311.499878
 21
212.020889
  0
LINE
  8
0
 10
311.499573
 20
198.520447
 11
302.169525
 21
201.020432
  0
LINE
  8
0
 10
307.999542
 20
197.077621
 11
301.866760
 21
198.720886
  0
LINE
  8
0
 10
276.500000
 20
188.020859
 11
276.500000
 21
180.020859
  0
LINE
  8
0
 10
308.000000
 20
195.020859
 11
299.500000
 21
195.020859
  0
LINE
  8
0
 10
308.000000
 20
84.964172
 11
308.000000
 21
119.020874
  0
LINE
  8
0
 10
302.169678
 20
81.020859
 11
290.899902
 21
81.020859
  0
LINE
  8
0
  6
CENTER
 62
     2
 10
266.448853
 20
84.477417
 11
270.315552
 21
91.174751
  0
LINE
  8
0
 10
269.658600
 20
85.836769
 11
270.458527
 21
87.222275
  0
LINE
  8
0
 10
266.021271
 20
87.936958
 11
266.821167
 21
89.322479
  0
LINE
  8
0
 10
266.204132
 20
87.253899
 11
266.021149
 21
87.936890
  0
LINE
  8
0
 10
266.104248
 20
87.080719
 11
266.204224
 21
87.253876
  0
LINE
  8
0
 10
287.099854
 20
81.020859
 11
284.899902
 21
81.020859
  0
LINE
  8
0
 10
268.875336
 20
85.480598
 11
268.975342
 21
85.653748
  0
LINE
  8
0
 10
268.975250
 20
85.653923
 11
269.658173
 21
85.836922
  0
LINE
  8
0
  6
CENTER
 62
     2
 10
289.000000
 20
79.238892
 11
289.000000
 21
86.972229
  0
LINE
  8
0
 10
291.099854
 20
82.020874
 11
291.099854
 21
83.620865
  0
LINE
  8
0
 10
286.899902
 20
82.020874
 11
286.899902
 21
83.620865
  0
LINE
  8
0
 10
287.399658
 20
81.520744
 11
286.899750
 21
82.020691
  0
LINE
  8
0
 10
287.399902
 20
81.320877
 11
287.399902
 21
81.520874
  0
LINE
  8
0
 10
290.599854
 20
81.320877
 11
290.599854
 21
81.520874
  0
LINE
  8
0
 10
290.599609
 20
81.520805
 11
291.099731
 21
82.020920
  0
LINE
  8
0
 10
281.099854
 20
81.020859
 11
276.000000
 21
81.020859
  0
LINE
  8
0
 10
276.000000
 20
81.020790
 11
268.985107
 21
85.070847
  0
LINE
  8
0
 10
262.500000
 20
91.020859
 11
260.500000
 21
91.020859
  0
LINE
  8
0
 10
265.500000
 20
97.020874
 11
262.500000
 21
97.020874
  0
LINE
  8
0
  6
CENTER
 62
     2
 10
283.000000
 20
79.238892
 11
283.000000
 21
86.972229
  0
LINE
  8
0
 10
285.099854
 20
82.020874
 11
285.099854
 21
83.620865
  0
LINE
  8
0
 10
280.899902
 20
82.020874
 11
280.899902
 21
83.620865
  0
LINE
  8
0
 10
281.399658
 20
81.520653
 11
280.899719
 21
82.020576
  0
LINE
  8
0
 10
281.399902
 20
81.320877
 11
281.399902
 21
81.520874
  0
LINE
  8
0
 10
284.599854
 20
81.320877
 11
284.599854
 21
81.520874
  0
LINE
  8
0
 10
284.599731
 20
81.520859
 11
285.099670
 21
82.020813
  0
LINE
  8
0
 10
265.694336
 20
86.970711
 11
260.499878
 21
89.969711
  0
LINE
  8
0
  6
CENTER
 62
     2
 10
265.473389
 20
94.520874
 11
257.782715
 21
94.520874
  0
LINE
  8
0
 10
261.000000
 20
91.370880
 11
260.199951
 21
91.370880
  0
LINE
  8
0
 10
261.000000
 20
97.670868
 11
260.199951
 21
97.670868
  0
LINE
  8
0
 10
260.199951
 20
91.370880
 11
260.199951
 21
97.670868
  0
LINE
  8
0
  6
CENTER
 62
     2
 10
289.403320
 20
92.020874
 11
282.249512
 21
92.020874
  0
LINE
  8
0
  6
CENTER
 62
     2
 10
286.000000
 20
88.506699
 11
286.000000
 21
95.746994
  0
LINE
  8
0
 10
301.866943
 20
83.320877
 11
293.399902
 21
83.320877
  0
LINE
  8
0
 10
293.399902
 20
83.320877
 11
293.399902
 21
83.620865
  0
LINE
  8
0
 10
278.599854
 20
83.320877
 11
278.599854
 21
83.620865
  0
LINE
  8
0
 10
278.599854
 20
83.320877
 11
276.616211
 21
83.320877
  0
LINE
  8
0
 10
276.616028
 20
83.320786
 11
272.300262
 21
85.812492
  0
LINE
  8
0
 10
265.500000
 20
92.400696
 11
265.500000
 21
97.020874
  0
LINE
  8
0
 10
272.300110
 20
85.812790
 11
272.450134
 21
86.072655
  0
LINE
  8
0
 10
311.500000
 20
70.020859
 11
311.500000
 21
119.020874
  0
LINE
  8
0
 10
311.500000
 20
119.020874
 11
299.500000
 21
119.020874
  0
LINE
  8
0
 10
295.500000
 20
89.020874
 11
295.500000
 21
110.520859
  0
LINE
  8
0
 10
306.500000
 20
95.520859
 11
295.500000
 21
95.520859
  0
LINE
  8
0
 10
306.500000
 20
110.520859
 11
295.500000
 21
110.520859
  0
LINE
  8
0
 10
306.500000
 20
95.520859
 11
306.500000
 21
110.520859
  0
LINE
  8
0
 10
299.500000
 20
87.020874
 11
299.500000
 21
95.520859
  0
LINE
  8
0
 10
299.500000
 20
110.520859
 11
299.500000
 21
119.020874
  0
LINE
  8
0
 10
301.500000
 20
119.020874
 11
301.500000
 21
119.520874
  0
LINE
  8
0
 10
283.500000
 20
102.020874
 11
283.500000
 21
118.020859
  0
LINE
  8
0
 10
277.500000
 20
89.020874
 11
277.500000
 21
102.020874
  0
LINE
  8
0
 10
298.500000
 20
118.020859
 11
281.000000
 21
118.020859
  0
LINE
  8
0
 10
298.500000
 20
110.520859
 11
298.500000
 21
118.020859
  0
LINE
  8
0
 10
295.500000
 20
89.020874
 11
277.500000
 21
89.020874
  0
LINE
  8
0
 10
324.500000
 20
66.020859
 11
315.500000
 21
66.020859
  0
LINE
  8
0
 10
315.499817
 20
66.020798
 11
311.499725
 21
70.020882
  0
LINE
  8
0
 10
311.499969
 20
83.520851
 11
302.169678
 21
81.020821
  0
LINE
  8
0
 10
308.000092
 20
84.964172
 11
301.867065
 21
83.320847
  0
LINE
  8
0
 10
308.000000
 20
87.020874
 11
299.500000
 21
87.020874
  0
LINE
  8
0
 10
283.500000
 20
180.020859
 11
269.500000
 21
180.020859
  0
LINE
  8
0
 10
283.500000
 20
102.020874
 11
269.499756
 21
102.020874
  0
LINE
  8
0
  6
CENTER
 62
     2
 10
273.500000
 20
150.344620
 11
273.500000
 21
131.544617
  0
LINE
  8
0
 10
281.000000
 20
164.020874
 11
281.000000
 21
118.020859
  0
LINE
  8
0
 10
265.500000
 20
176.020889
 11
265.500000
 21
106.020844
  0
LINE
  8
0
 10
269.499878
 20
180.021042
 11
265.499969
 21
176.021118
  0
LINE
  8
0
 10
265.500000
 20
176.020859
 11
264.500000
 21
176.020859
  0
LINE
  8
0
 10
282.500000
 20
164.020874
 11
282.500000
 21
118.020859
  0
LINE
  8
0
 10
269.499664
 20
102.020683
 11
265.499756
 21
106.020599
  0
LINE
  8
0
 10
265.500000
 20
170.020859
 11
264.500000
 21
170.020859
  0
LINE
  8
0
 10
265.500000
 20
112.020874
 11
264.500000
 21
112.020874
  0
LINE
  8
0
 10
265.499756
 20
106.020859
 11
264.500000
 21
106.020859
  0
LINE
  8
0
  6
CENTER
 62
     2
 10
312.631348
 20
103.020859
 11
291.244873
 21
103.020859
  0
LINE
  8
0
 10
296.500000
 20
122.520859
 11
312.500000
 21
122.520859
  0
LINE
  8
0
 10
296.500000
 20
126.020859
 11
296.500000
 21
122.520859
  0
LINE
  8
0
 10
312.500000
 20
126.020859
 11
312.500000
 21
122.520859
  0
LINE
  8
0
 10
295.486084
 20
126.020859
 11
313.513672
 21
126.020859
  0
LINE
  8
0
 10
311.500000
 20
206.020752
 11
266.500000
 21
206.020752
  0
LINE
  8
0
 10
311.500000
 20
76.020859
 11
266.500000
 21
76.020859
  0
LINE
  8
0
 10
266.500000
 20
206.020752
 11
266.500000
 21
193.275528
  0
LINE
  8
0
 10
266.500000
 20
88.766052
 11
266.500000
 21
76.020859
  0
LINE
  8
0
  6
CENTER
 62
     2
 10
297.000000
 20
148.020859
 11
297.000000
 21
134.020874
  0
LINE
  8
0
  6
CENTER
 62
     2
 10
312.000000
 20
148.020859
 11
312.000000
 21
134.020874
  0
LINE
  8
0
 10
276.822510
 20
137.020874
 11
270.177246
 21
137.020874
  0
LINE
  8
0
 10
276.822510
 20
145.020859
 11
270.177246
 21
145.020859
  0
LINE
  8
0
 10
261.000000
 20
191.020859
 11
261.000000
 21
91.020859
  0
LINE
  8
0
 10
260.500000
 20
91.020859
 11
260.500000
 21
89.969757
  0
LINE
  8
0
 10
284.500000
 20
162.520859
 11
284.500000
 21
119.520874
  0
LINE
  8
0
  6
CENTER
 62
     2
 10
313.500000
 20
123.020859
 11
321.500000
 21
123.020859
  0
LINE
  8
0
  6
CENTER
 62
     2
 10
317.500000
 20
127.020859
 11
317.500000
 21
119.020859
  0
LINE
  8
0
  6
CENTER
 62
     2
 10
313.500000
 20
159.020813
 11
321.500000
 21
159.020813
  0
LINE
  8
0
  6
CENTER
 62
     2
 10
317.500000
 20
163.020813
 11
317.500000
 21
155.020813
  0
LINE
  8
0
  6
CENTER
 62
     2
 10
313.500000
 20
123.020859
 11
321.500000
 21
123.020859
  0
LINE
  8
0
  6
CENTER
 62
     2
 10
317.500000
 20
127.020859
 11
317.500000
 21
119.020859
  0
LINE
  8
0
  6
CENTER
 62
     2
 10
313.500000
 20
159.020813
 11
321.500000
 21
159.020813
  0
LINE
  8
0
  6
CENTER
 62
     2
 10
317.500000
 20
163.020813
 11
317.500000
 21
155.020813
  0
LINE
  8
0
 10
-17.999985
 20
21.820862
 11
-17.999985
 21
-34.179138
  0
LINE
  8
0
 10
-29.999985
 20
21.820862
 11
-29.999985
 21
-34.179138
  0
LINE
  8
0
 10
-10.000000
 20
-36.179138
 11
140.000000
 21
-36.179138
  0
LINE
  8
0
 10
-29.999985
 20
-34.179138
 11
-15.499985
 21
-34.179138
  0
LINE
  8
0
 10
-17.999985
 20
10.820847
 11
-10.000000
 21
10.820847
  0
LINE
  8
0
 10
-17.999985
 20
-7.179138
 11
-10.000000
 21
-7.179138
  0
LINE
  8
0
 10
-17.999985
 20
-18.179138
 11
-10.000000
 21
-18.179138
  0
LINE
  8
0
 10
-10.000000
 20
27.820862
 11
-10.000000
 21
-36.179138
  0
LINE
  8
0
 10
-10.000000
 20
-23.179131
 11
171.000015
 21
-23.179131
  0
LINE
  8
0
 10
-10.000000
 20
-27.179131
 11
140.000000
 21
-27.179131
  0
LINE
  8
0
  6
CENTER
 62
     2
 10
130.000000
 20
-19.608864
 11
130.000000
 21
-39.551620
  0
LINE
  8
0
  6
CENTER
 62
     2
 10
30.000000
 20
-19.608864
 11
30.000000
 21
-39.551620
  0
LINE
  8
0
 10
140.000000
 20
-23.179131
 11
140.000000
 21
-36.179138
  0
LINE
  8
0
 10
140.000000
 20
-30.579140
 11
141.000015
 21
-30.579140
  0
LINE
  8
0
 10
-10.000000
 20
27.820862
 11
171.000015
 21
27.820862
  0
LINE
  8
0
 10
-15.499985
 20
-18.179138
 11
-15.499985
 21
-34.179138
  0
LINE
  8
0
 10
171.000015
 20
27.820862
 11
171.000015
 21
-29.579140
  0
LINE
  8
0
 10
157.000015
 20
-23.179131
 11
157.000015
 21
-33.679138
  0
LINE
  8
0
 10
157.000015
 20
-30.579140
 11
170.000000
 21
-30.579140
  0
LINE
  8
0
 10
141.000015
 20
-23.179131
 11
141.000015
 21
-33.679138
  0
LINE
  8
0
 10
141.000015
 20
-33.679138
 11
157.000015
 21
-33.679138
  0
LINE
  8
0
  6
CENTER
 62
     2
 10
149.000015
 20
-11.179138
 11
149.000015
 21
-21.179131
  0
LINE
  8
0
 10
141.000015
 20
-24.179146
 11
157.000015
 21
-24.179146
  0
LINE
  8
0
 10
-29.999985
 20
21.820862
 11
-17.999985
 21
21.820862
  0
LINE
  8
0
  6
CENTER
 62
     2
 10
144.000015
 20
-16.179138
 11
154.000015
 21
-16.179138
  0
LINE
  8
0
 10
-10.000000
 20
-13.849579
 11
147.109726
 21
-13.849579
  0
LINE
  8
0
 10
-10.000000
 20
12.320602
 11
171.000015
 21
12.320602
  0
LINE
  8
0
 10
-10.000000
 20
-2.279007
 11
171.000015
 21
-2.279007
  0
LINE
  8
0
 10
-10.000000
 20
0.920868
 11
171.000015
 21
0.920868
  0
LINE
  8
0
 10
-10.000000
 20
3.721161
 11
171.000015
 21
3.721161
  0
LINE
  8
0
 10
-10.000000
 20
6.921036
 11
171.000015
 21
6.921036
  0
LINE
  8
0
 10
-10.000000
 20
22.116364
 11
171.000015
 21
22.116364
  0
LINE
  8
0
 10
-10.000000
 20
19.485825
 11
171.000015
 21
19.485825
  0
LINE
  8
0
 10
150.890305
 20
-13.849579
 11
171.000015
 21
-13.849579
  0
LINE
  8
0
 10
171.000015
 20
-29.579184
 11
170.000000
 21
-30.579189
  0
LINE
  8
0
 10
170.000000
 20
-23.179131
 11
170.000000
 21
-30.579140
  0
LINE
  8
0
 10
-1.850006
 20
27.820862
 11
-1.850006
 21
28.620941
  0
LINE
  8
0
 10
-8.149994
 20
27.820862
 11
-8.149994
 21
28.620941
  0
LINE
  8
0
 10
-1.850006
 20
28.620941
 11
-8.149994
 21
28.620941
  0
LINE
  8
0
 10
169.150009
 20
27.820862
 11
169.150009
 21
28.620941
  0
LINE
  8
0
 10
162.850006
 20
27.820862
 11
162.850006
 21
28.620941
  0
LINE
  8
0
 10
169.150009
 20
28.620941
 11
162.850006
 21
28.620941
  0
LINE
  8
0
  6
CENTER
 62
     2
 10
-27.999985
 20
-26.179146
 11
-19.999985
 21
-26.179146
  0
LINE
  8
0
  6
CENTER
 62
     2
 10
-23.999985
 20
-22.179146
 11
-23.999985
 21
-30.179146
  0
LINE
  8
0
  6
CENTER
 62
     2
 10
-27.999985
 20
13.820847
 11
-19.999985
 21
13.820847
  0
LINE
  8
0
  6
CENTER
 62
     2
 10
-23.999985
 20
17.820847
 11
-23.999985
 21
9.820847
  0
LINE
  8
0
  6
PHANTOM
 62
     3
 10
140.500000
 20
45.827896
 11
140.500000
 21
-59.928783
  0
LINE
  8
0
 10
-10.000000
 20
-78.045837
 11
-10.000000
 21
-228.045807
  0
LINE
  8
0
 10
-29.999985
 20
-88.045807
 11
-29.999985
 21
-218.045807
  0
LINE
  8
0
 10
-17.999985
 20
-88.045807
 11
-17.999985
 21
-142.229156
  0
LINE
  8
0
 10
-15.499985
 20
-134.045822
 11
-15.499985
 21
-172.045792
  0
LINE
  8
0
 10
-17.999985
 20
-134.045822
 11
-15.499985
 21
-134.045822
  0
LINE
  8
0
 10
-15.499985
 20
-148.045807
 11
-10.000000
 21
-148.045807
  0
LINE
  8
0
 10
-15.499985
 20
-158.045807
 11
-10.000000
 21
-158.045807
  0
LINE
  8
0
 62
     2
 10
-15.499985
 20
-148.795807
 11
-10.999985
 21
-148.795807
  0
LINE
  8
0
 62
     2
 10
-15.499985
 20
-157.295807
 11
-10.999985
 21
-157.295807
  0
LINE
  8
0
 10
-10.999985
 20
-148.045807
 11
-10.999985
 21
-158.045807
  0
LINE
  8
0
 10
-14.699936
 20
-135.545807
 11
-14.699936
 21
-140.545807
  0
LINE
  8
0
 10
-15.499985
 20
-140.545807
 11
-14.699936
 21
-140.545807
  0
LINE
  8
0
 10
-15.499985
 20
-135.545807
 11
-14.699936
 21
-135.545807
  0
LINE
  8
0
 10
-10.000000
 20
-78.045837
 11
140.000000
 21
-78.045837
  0
LINE
  8
0
  6
CENTER
 62
     2
 10
123.000000
 20
-220.045807
 11
137.000015
 21
-220.045807
  0
LINE
  8
0
  6
CENTER
 62
     2
 10
130.000000
 20
-213.045807
 11
130.000000
 21
-227.045792
  0
LINE
  8
0
 10
140.000000
 20
-78.045837
 11
140.000000
 21
-228.045807
  0
LINE
  8
0
 10
-15.499985
 20
-165.545807
 11
-14.699936
 21
-165.545807
  0
LINE
  8
0
 10
-15.499985
 20
-170.545807
 11
-14.699936
 21
-170.545807
  0
LINE
  8
0
 10
-17.999985
 20
-172.045792
 11
-15.499985
 21
-172.045792
  0
LINE
  8
0
 10
-14.699936
 20
-170.545807
 11
-14.699936
 21
-165.545807
  0
LINE
  8
0
 10
-10.000000
 20
-228.045807
 11
140.000000
 21
-228.045807
  0
LINE
  8
0
 10
-17.999985
 20
-101.045807
 11
-10.000000
 21
-101.045807
  0
LINE
  8
0
 10
-17.999985
 20
-130.045807
 11
-10.000000
 21
-130.045807
  0
LINE
  8
0
 10
-17.999985
 20
-107.545807
 11
-10.000000
 21
-107.545807
  0
LINE
  8
0
 10
-17.999985
 20
-122.545807
 11
-10.000000
 21
-122.545807
  0
LINE
  8
0
 10
140.000000
 20
-93.045807
 11
171.000015
 21
-93.045807
  0
LINE
  8
0
 10
140.000000
 20
-213.045807
 11
171.000015
 21
-213.045807
  0
LINE
  8
0
 10
151.000015
 20
-131.045807
 11
151.000015
 21
-134.545792
  0
LINE
  8
0
 10
-12.999985
 20
-146.045807
 11
-12.999985
 21
-148.045807
  0
LINE
  8
0
 10
-12.999985
 20
-160.045807
 11
-10.000000
 21
-160.045807
  0
LINE
  8
0
 10
-12.999985
 20
-146.045807
 11
-10.000000
 21
-146.045807
  0
LINE
  8
0
 10
-15.499985
 20
-147.045792
 11
-12.999985
 21
-147.045792
  0
LINE
  8
0
 10
-15.499985
 20
-159.045822
 11
-12.999985
 21
-159.045822
  0
LINE
  8
0
  6
CENTER
 62
     2
 10
-34.607651
 20
-153.045807
 11
180.436279
 21
-153.045807
  0
LINE
  8
0
  6
CENTER
 62
     2
 10
23.000000
 20
-86.045807
 11
37.000015
 21
-86.045807
  0
LINE
  8
0
  6
CENTER
 62
     2
 10
30.000000
 20
-79.045822
 11
30.000000
 21
-93.045807
  0
LINE
  8
0
  6
CENTER
 62
     2
 10
123.000000
 20
-86.045807
 11
137.000015
 21
-86.045807
  0
LINE
  8
0
  6
CENTER
 62
     2
 10
130.000000
 20
-79.045822
 11
130.000000
 21
-93.045807
  0
LINE
  8
0
  6
CENTER
 62
     2
 10
23.000000
 20
-220.045807
 11
37.000015
 21
-220.045807
  0
LINE
  8
0
  6
CENTER
 62
     2
 10
30.000000
 20
-213.045807
 11
30.000000
 21
-227.045792
  0
LINE
  8
0
 10
140.000000
 20
-138.645905
 11
141.000015
 21
-138.645905
  0
LINE
  8
0
 10
140.000000
 20
-167.445709
 11
141.000015
 21
-167.445709
  0
LINE
  8
0
 10
140.000000
 20
-131.045807
 11
171.000015
 21
-131.045807
  0
LINE
  8
0
 10
-12.999985
 20
-158.045807
 11
-12.999985
 21
-160.045807
  0
LINE
  8
0
 10
-20.499985
 20
-142.229156
 11
-20.499985
 21
-163.862457
  0
LINE
  8
0
 10
-17.999985
 20
-163.862457
 11
-17.999985
 21
-218.045807
  0
LINE
  8
0
 10
-17.999985
 20
-205.045807
 11
-10.000000
 21
-205.045807
  0
LINE
  8
0
 10
-17.999985
 20
-176.045807
 11
-10.000000
 21
-176.045807
  0
LINE
  8
0
 10
-17.999985
 20
-198.545807
 11
-10.000000
 21
-198.545807
  0
LINE
  8
0
 10
-17.999985
 20
-183.545807
 11
-10.000000
 21
-183.545807
  0
LINE
  8
0
 10
140.000000
 20
-175.045807
 11
171.000015
 21
-175.045807
  0
LINE
  8
0
 10
171.000015
 20
-213.045807
 11
171.000015
 21
-93.045807
  0
LINE
  8
0
 10
157.000015
 20
-170.545807
 11
157.000015
 21
-134.545792
  0
LINE
  8
0
 10
157.000015
 20
-167.445709
 11
170.000031
 21
-167.445709
  0
LINE
  8
0
 10
157.000015
 20
-138.645905
 11
170.000000
 21
-138.645905
  0
LINE
  8
0
 10
141.000015
 20
-170.545807
 11
157.000015
 21
-170.545807
  0
LINE
  8
0
 10
141.000015
 20
-134.545792
 11
157.000015
 21
-134.545792
  0
LINE
  8
0
 10
141.000015
 20
-138.045807
 11
157.000015
 21
-138.045807
  0
LINE
  8
0
 10
141.000015
 20
-170.545807
 11
141.000015
 21
-134.545792
  0
LINE
  8
0
 10
151.000015
 20
-170.545807
 11
151.000015
 21
-175.045807
  0
LINE
  8
0
 10
-29.999985
 20
-88.045807
 11
-17.999985
 21
-88.045807
  0
LINE
  8
0
 10
-29.999985
 20
-218.045807
 11
-17.999985
 21
-218.045807
  0
LINE
  8
0
  6
CENTER
 62
     2
 10
133.298233
 20
-171.545822
 11
141.839935
 21
-171.545822
  0
LINE
  8
0
  6
CENTER
 62
     2
 10
133.298233
 20
-134.545792
 11
141.839935
 21
-134.545792
  0
LINE
  8
0
 10
169.999969
 20
-138.645920
 11
170.999954
 21
-139.645905
  0
LINE
  8
0
 10
171.000061
 20
-166.445740
 11
170.000092
 21
-167.445740
  0
LINE
  8
0
 10
170.000000
 20
-138.645905
 11
170.000000
 21
-167.445709
  0
LINE
  8
0
 10
140.000000
 20
-210.545807
 11
171.000015
 21
-210.545807
  0
LINE
  8
0
 10
140.000000
 20
-95.546188
 11
171.000015
 21
-95.546188
  0
LINE
  8
0
 10
-20.499985
 20
-163.862457
 11
-17.999985
 21
-163.862457
  0
LINE
  8
0
 10
-20.499985
 20
-142.229156
 11
-17.999985
 21
-142.229156
  0
LINE
  8
0
 10
-20.499985
 20
-144.328003
 11
-15.499985
 21
-144.328003
  0
LINE
  8
0
 10
-20.499985
 20
-161.763611
 11
-15.499985
 21
-161.763611
  0
LINE
  8
0
  6
DASHED
 62
     2
 10
135.000000
 20
-169.045822
 11
140.000000
 21
-169.045822
  0
LINE
  8
0
  6
DASHED
 62
     2
 10
135.000000
 20
-174.045822
 11
140.000000
 21
-174.045822
  0
LINE
  8
0
  6
DASHED
 10
135.000000
 20
-173.445816
 11
140.000000
 21
-173.445816
  0
LINE
  8
0
  6
DASHED
 10
135.000000
 20
-169.645813
 11
140.000000
 21
-169.645813
  0
LINE
  8
0
  6
DASHED
 62
     2
 10
135.000000
 20
-132.045792
 11
140.000000
 21
-132.045792
  0
LINE
  8
0
  6
DASHED
 62
     2
 10
135.000000
 20
-137.045792
 11
140.000000
 21
-137.045792
  0
LINE
  8
0
  6
DASHED
 10
135.000000
 20
-136.445801
 11
140.000000
 21
-136.445801
  0
LINE
  8
0
  6
DASHED
 10
135.000000
 20
-132.645798
 11
140.000000
 21
-132.645798
  0
LINE
  8
0
  6
CENTER
 62
     2
 10
-27.999985
 20
-173.045807
 11
-19.999985
 21
-173.045807
  0
LINE
  8
0
  6
CENTER
 62
     2
 10
-23.999985
 20
-169.045807
 11
-23.999985
 21
-177.045807
  0
LINE
  8
0
  6
CENTER
 62
     2
 10
-27.999985
 20
-133.045807
 11
-19.999985
 21
-133.045807
  0
LINE
  8
0
  6
CENTER
 62
     2
 10
-23.999985
 20
-129.045807
 11
-23.999985
 21
-137.045807
  0
LINE
  8
0
  6
PHANTOM
 62
     3
 10
140.500000
 20
-59.928787
 11
140.500000
 21
-252.341248
  0
LINE
  8
0
  6
CENTER
 62
     1
 10
-347.431885
 20
-88.979141
 11
-259.947021
 21
-88.979141
  0
LINE
  8
0
  6
CENTER
 62
     1
 10
-303.518799
 20
-159.473236
 11
-303.518799
 21
-19.273224
  0
LINE
  8
0
 62
     4
 10
-343.518799
 20
-153.979141
 11
-263.518799
 21
-153.979141
  0
LINE
  8
0
 62
     4
 10
-343.518799
 20
-23.979141
 11
-263.518799
 21
-23.979141
  0
LINE
  8
0
 62
     4
 10
-343.518799
 20
-153.979156
 11
-343.518799
 21
-23.979156
  0
LINE
  8
0
 62
     4
 10
-263.518799
 20
-153.979141
 11
-263.518799
 21
-23.979156
  0
LINE
  8
0
  6
CENTER
 62
     1
 10
-278.518799
 20
-92.979126
 11
-278.518799
 21
-84.979141
  0
LINE
  8
0
  6
CENTER
 62
     1
 10
-299.518799
 20
-56.479141
 11
-307.518799
 21
-56.479141
  0
LINE
  8
0
  6
CENTER
 62
     1
 10
-299.518799
 20
-63.979141
 11
-307.518799
 21
-63.979141
  0
LINE
  8
0
  6
CENTER
 62
     1
 10
-299.518799
 20
-113.979141
 11
-307.518799
 21
-113.979141
  0
LINE
  8
0
  6
CENTER
 62
     1
 10
-299.518799
 20
-121.479141
 11
-307.518799
 21
-121.479141
  0
LINE
  8
0
  6
CENTER
 62
     1
 10
-328.518799
 20
-92.979126
 11
-328.518799
 21
-84.979141
  0
LINE
  8
0
  6
CENTER
 62
     1
 10
-336.018799
 20
-92.979126
 11
-336.018799
 21
-84.979141
  0
LINE
  8
0
  6
CENTER
 62
     1
 10
-271.018799
 20
-92.979126
 11
-271.018799
 21
-84.979126
  0
LINE
  8
0
  6
DASHED
 62
     4
 10
-270.518799
 20
-91.979141
 11
-284.518799
 21
-91.979141
  0
LINE
  8
0
  6
DASHED
 62
     4
 10
-270.518799
 20
-85.979126
 11
-284.518799
 21
-85.979126
  0
LINE
  8
0
  6
DASHED
 62
     4
 10
-336.518799
 20
-91.979141
 11
-322.518799
 21
-91.979141
  0
LINE
  8
0
  6
DASHED
 62
     4
 10
-336.518799
 20
-85.979126
 11
-322.518799
 21
-85.979126
  0
LINE
  8
0
  6
CENTER
 62
     1
 10
-325.518799
 20
-146.979141
 11
-317.518799
 21
-146.979141
  0
LINE
  8
0
  6
CENTER
 62
     1
 10
-321.518799
 20
-142.979141
 11
-321.518799
 21
-150.979141
  0
LINE
  8
0
  6
CENTER
 62
     1
 10
-289.518799
 20
-146.979141
 11
-281.518799
 21
-146.979141
  0
LINE
  8
0
  6
CENTER
 62
     1
 10
-285.518799
 20
-142.979141
 11
-285.518799
 21
-150.979141
  0
LINE
  8
0
  6
CENTER
 62
     1
 10
-289.518799
 20
-30.979141
 11
-281.518799
 21
-30.979141
  0
LINE
  8
0
  6
CENTER
 62
     1
 10
-285.518799
 20
-26.979141
 11
-285.518799
 21
-34.979141
  0
LINE
  8
0
  6
CENTER
 62
     1
 10
-325.518799
 20
-30.979141
 11
-317.518799
 21
-30.979141
  0
LINE
  8
0
  6
CENTER
 62
     1
 10
-321.518799
 20
-26.979141
 11
-321.518799
 21
-34.979141
  0
LINE
  8
0
 10
-333.689453
 20
-13.979248
 11
-333.689453
 21
-23.979141
  0
LINE
  8
0
 10
-320.689453
 20
-17.979248
 11
-320.689453
 21
-23.979248
  0
LINE
  8
0
 10
-333.689453
 20
-13.979248
 11
-324.689453
 21
-13.979248
  0
LINE
  8
0
 10
-324.689606
 20
-13.979180
 11
-320.689514
 21
-17.979271
  0
LINE
  8
0
 10
-320.689453
 20
-159.979141
 11
-320.689453
 21
-153.979141
  0
LINE
  8
0
 10
-333.689453
 20
-163.979141
 11
-324.689453
 21
-163.979141
  0
LINE
  8
0
 10
-324.689545
 20
-163.979080
 11
-320.689636
 21
-159.979156
  0
LINE
  8
0
 10
-333.689453
 20
-163.979034
 11
-333.689453
 21
-153.979141
  0
LINE
  8
0
 10
-183.689392
 20
-13.979248
 11
-183.689392
 21
-23.979141
  0
LINE
  8
0
 10
-170.689392
 20
-17.979248
 11
-170.689392
 21
-23.979248
  0
LINE
  8
0
 10
-183.689392
 20
-13.979248
 11
-174.689392
 21
-13.979248
  0
LINE
  8
0
 10
-174.689545
 20
-13.979154
 11
-170.689453
 21
-17.979244
  0
LINE
  8
0
 10
-170.689392
 20
-159.979141
 11
-170.689392
 21
-153.979141
  0
LINE
  8
0
 10
-183.689392
 20
-163.979141
 11
-174.689392
 21
-163.979141
  0
LINE
  8
0
 10
-174.689484
 20
-163.979080
 11
-170.689560
 21
-159.979156
  0
LINE
  8
0
  6
CENTER
 62
     1
 10
-207.197433
 20
-88.979141
 11
-100.842957
 21
-88.979141
  0
LINE
  8
0
  6
CENTER
 62
     1
 10
-153.689392
 20
-159.473312
 11
-153.689392
 21
-19.273331
  0
LINE
  8
0
 62
     4
 10
-203.689392
 20
-153.979187
 11
-103.689636
 21
-153.979187
  0
LINE
  8
0
 62
     4
 10
-203.689392
 20
-23.979141
 11
-103.689636
 21
-23.979141
  0
LINE
  8
0
  6
CENTER
 62
     1
 10
-196.189392
 20
-84.979141
 11
-196.189392
 21
-92.979126
  0
LINE
  8
0
  6
CENTER
 62
     1
 10
-149.689392
 20
-121.479141
 11
-157.689377
 21
-121.479141
  0
LINE
  8
0
  6
CENTER
 62
     1
 10
-186.189392
 20
-92.979126
 11
-186.189392
 21
-84.979141
  0
LINE
  8
0
  6
CENTER
 62
     1
 10
-121.189392
 20
-92.979126
 11
-121.189392
 21
-84.979141
  0
LINE
  8
0
 62
     4
 10
-103.689636
 20
-153.979187
 11
-103.689636
 21
-23.979141
  0
LINE
  8
0
 62
     4
 10
-203.689392
 20
-153.979187
 11
-203.689392
 21
-23.979141
  0
LINE
  8
0
  6
CENTER
 62
     1
 10
-149.689392
 20
-56.479141
 11
-157.689377
 21
-56.479141
  0
LINE
  8
0
  6
CENTER
 62
     1
 10
-149.689392
 20
-46.479137
 11
-157.689377
 21
-46.479137
  0
LINE
  8
0
  6
CENTER
 62
     1
 10
-149.689392
 20
-131.479141
 11
-157.689377
 21
-131.479141
  0
LINE
  8
0
  6
CENTER
 62
     1
 10
-111.189636
 20
-84.979141
 11
-111.189636
 21
-92.979126
  0
LINE
  8
0
  6
DASHED
 62
     4
 10
-120.689377
 20
-91.979141
 11
-134.689392
 21
-91.979141
  0
LINE
  8
0
  6
DASHED
 62
     4
 10
-120.689377
 20
-85.979126
 11
-134.689392
 21
-85.979126
  0
LINE
  8
0
  6
DASHED
 62
     4
 10
-186.689392
 20
-91.979141
 11
-172.689377
 21
-91.979141
  0
LINE
  8
0
  6
DASHED
 62
     4
 10
-186.689392
 20
-85.979126
 11
-172.689377
 21
-85.979126
  0
LINE
  8
0
  6
CENTER
 62
     1
 10
-139.689377
 20
-146.979187
 11
-131.689377
 21
-146.979187
  0
LINE
  8
0
  6
CENTER
 62
     1
 10
-135.689377
 20
-142.979187
 11
-135.689377
 21
-150.979187
  0
LINE
  8
0
  6
CENTER
 62
     1
 10
-175.689392
 20
-146.979187
 11
-167.689392
 21
-146.979187
  0
LINE
  8
0
  6
CENTER
 62
     1
 10
-171.689392
 20
-142.979187
 11
-171.689392
 21
-150.979187
  0
LINE
  8
0
  6
CENTER
 62
     1
 10
-175.689392
 20
-30.979141
 11
-167.689392
 21
-30.979141
  0
LINE
  8
0
  6
CENTER
 62
     1
 10
-171.689392
 20
-26.979141
 11
-171.689392
 21
-34.979141
  0
LINE
  8
0
  6
CENTER
 62
     1
 10
-139.689377
 20
-30.979141
 11
-131.689377
 21
-30.979141
  0
LINE
  8
0
  6
CENTER
 62
     1
 10
-135.689377
 20
-26.979141
 11
-135.689377
 21
-34.979141
  0
LINE
  8
0
 10
-183.689392
 20
-163.979034
 11
-183.689392
 21
-153.979141
  0
CIRCLE
  8
0
 10
130.000061
 20
208.020798
 40
4.250000
  0
CIRCLE
  8
0
 10
130.000061
 20
208.020798
 40
7.000000
  0
CIRCLE
  8
0
 10
30.000061
 20
208.020798
 40
4.250000
  0
CIRCLE
  8
0
 10
30.000061
 20
208.020798
 40
7.000000
  0
CIRCLE
  8
0
 10
130.000061
 20
74.020920
 40
4.250000
  0
CIRCLE
  8
0
 10
130.000061
 20
74.020920
 40
7.000000
  0
CIRCLE
  8
0
 10
30.000061
 20
74.020920
 40
4.250000
  0
CIRCLE
  8
0
 10
30.000061
 20
74.020920
 40
7.000000
  0
CIRCLE
  8
0
 62
     2
 10
-23.999939
 20
161.020905
 40
2.500000
  0
CIRCLE
  8
0
 10
-23.999939
 20
161.020905
 40
1.700000
  0
CIRCLE
  8
0
 62
     2
 10
-23.999939
 20
121.020905
 40
2.500000
  0
CIRCLE
  8
0
 10
-23.999939
 20
121.020905
 40
1.700000
  0
ARC
  8
0
 10
2.741074
 20
144.520905
 40
15.741014
 50
167.152954
 51
192.846985
  0
ARC
  8
0
 10
-25.731445
 20
144.520905
 40
15.731509
 50
347.145050
 51
12.854939
  0
ARC
  8
0
 10
-25.731445
 20
137.520905
 40
15.731509
 50
347.145020
 51
12.854881
  0
ARC
  8
0
 10
2.741074
 20
137.520905
 40
15.741014
 50
167.152893
 51
192.846939
  0
CIRCLE
  8
0
 10
-5.000015
 20
187.520905
 40
3.150009
  0
CIRCLE
  8
0
 10
166.000000
 20
187.520905
 40
3.150009
  0
CIRCLE
  8
0
 10
-5.000015
 20
94.520905
 40
3.150009
  0
CIRCLE
  8
0
 10
166.000000
 20
94.520905
 40
3.150009
  0
CIRCLE
  8
0
 10
-173.500000
 20
141.020859
 40
7.000000
  0
CIRCLE
  8
0
 10
-173.500000
 20
141.020859
 40
5.000000
  0
CIRCLE
  8
0
 62
     2
 10
-173.500000
 20
141.020859
 40
4.250000
  0
CIRCLE
  8
0
 10
-173.500000
 20
141.020859
 40
8.999999
  0
ARC
  8
0
 10
-141.249985
 20
199.020874
 40
2.750000
 50
270.000000
 51
90.000000
  0
ARC
  8
0
 10
-149.750000
 20
199.020874
 40
2.750000
 50
90.000000
 51
270.000000
  0
ARC
  8
0
 10
-177.250000
 20
199.020874
 40
2.750000
 50
270.000000
 51
90.000000
  0
ARC
  8
0
 10
-185.750015
 20
199.020874
 40
2.750000
 50
90.000000
 51
270.000000
  0
CIRCLE
  8
0
 10
-139.500015
 20
141.020859
 40
2.000000
  0
CIRCLE
  8
0
 10
-187.499985
 20
141.020859
 40
2.000000
  0
ARC
  8
0
 10
-141.249985
 20
83.020859
 40
2.750000
 50
270.000000
 51
90.000000
  0
ARC
  8
0
 10
-149.750000
 20
83.020859
 40
2.750000
 50
90.000000
 51
270.000000
  0
ARC
  8
0
 10
-177.250000
 20
83.020859
 40
2.750000
 50
270.000000
 51
90.000000
  0
ARC
  8
0
 10
-185.750015
 20
83.020859
 40
2.750000
 50
90.000000
 51
270.000000
  0
ARC
  8
0
 10
-133.160416
 20
187.520859
 40
5.060263
 50
321.501129
 51
38.498859
  0
ARC
  8
0
 10
-134.999985
 20
189.641037
 40
0.500000
 50
0.000000
 51
122.596443
  0
ARC
  8
0
 10
-133.160416
 20
94.520874
 40
5.060263
 50
321.501129
 51
38.498791
  0
ARC
  8
0
 10
-134.999985
 20
92.400696
 40
0.500001
 50
237.403076
 51
0.000000
  0
CIRCLE
  8
0
 62
     2
 10
-143.500000
 20
171.020859
 40
3.999999
  0
CIRCLE
  8
0
 10
-143.500000
 20
171.020859
 40
3.000000
  0
CIRCLE
  8
0
 62
     2
 10
-183.500000
 20
171.020859
 40
3.999999
  0
CIRCLE
  8
0
 10
-183.500000
 20
171.020859
 40
3.000000
  0
CIRCLE
  8
0
 62
     2
 10
-183.500000
 20
111.020859
 40
3.999999
  0
CIRCLE
  8
0
 10
-183.500000
 20
111.020859
 40
3.000000
  0
CIRCLE
  8
0
 62
     2
 10
-143.500000
 20
111.020859
 40
3.999999
  0
CIRCLE
  8
0
 10
-143.500000
 20
111.020859
 40
3.000000
  0
ARC
  8
0
 10
-137.639648
 20
193.769226
 40
4.400002
 50
299.096588
 51
302.596710
  0
ARC
  8
0
 10
-134.844238
 20
194.811050
 40
0.300000
 50
60.001369
 51
150.001373
  0
ARC
  8
0
 10
-137.639648
 20
88.272507
 40
4.399997
 50
57.403297
 51
60.903400
  0
ARC
  8
0
 10
-134.844238
 20
87.230682
 40
0.300004
 50
209.999893
 51
299.998627
  0
ARC
  8
0
 10
265.844238
 20
194.811050
 40
0.299987
 50
30.000086
 51
119.998627
  0
ARC
  8
0
 10
269.135010
 20
196.711075
 40
0.300000
 50
119.998627
 51
210.000092
  0
ARC
  8
0
 10
287.099854
 20
200.720856
 40
0.299988
 50
0.000000
 51
90.000000
  0
ARC
  8
0
 10
290.899902
 20
200.720856
 40
0.300003
 50
90.000000
 51
180.000000
  0
ARC
  8
0
 10
281.099854
 20
200.720856
 40
0.299988
 50
0.000000
 51
90.000000
  0
ARC
  8
0
 10
284.899902
 20
200.720856
 40
0.300003
 50
90.000000
 51
180.000000
  0
ARC
  8
0
 10
265.844238
 20
87.230682
 40
0.300000
 50
240.001373
 51
329.998657
  0
ARC
  8
0
 10
269.135010
 20
85.330658
 40
0.299991
 50
149.998657
 51
240.001373
  0
ARC
  8
0
 10
287.099854
 20
81.320877
 40
0.300003
 50
270.000000
 51
0.000000
  0
ARC
  8
0
 10
290.899902
 20
81.320877
 40
0.299988
 50
180.000000
 51
270.000000
  0
ARC
  8
0
 10
281.099854
 20
81.320877
 40
0.300003
 50
270.000000
 51
0.000000
  0
ARC
  8
0
 10
284.899902
 20
81.320877
 40
0.299988
 50
180.000000
 51
270.000000
  0
ARC
  8
0
 10
268.639648
 20
193.769226
 40
2.100011
 50
209.999924
 51
29.999920
  0
ARC
  8
0
 10
265.844238
 20
194.811050
 40
0.299987
 50
30.000086
 51
119.998627
  0
ARC
  8
0
 10
269.135010
 20
196.711075
 40
0.300000
 50
119.998627
 51
210.000092
  0
ARC
  8
0
 10
287.099854
 20
200.720856
 40
0.299988
 50
0.000000
 51
90.000000
  0
ARC
  8
0
 10
290.899902
 20
200.720856
 40
0.300003
 50
90.000000
 51
180.000000
  0
ARC
  8
0
 10
289.000000
 20
198.420868
 40
2.100006
 50
180.000000
 51
0.000000
  0
ARC
  8
0
 10
281.099854
 20
200.720856
 40
0.299988
 50
0.000000
 51
90.000000
  0
ARC
  8
0
 10
284.899902
 20
200.720856
 40
0.300003
 50
90.000000
 51
180.000000
  0
ARC
  8
0
 10
283.000000
 20
198.420868
 40
2.100006
 50
180.000000
 51
0.000000
  0
ARC
  8
0
 10
264.160156
 20
187.520859
 40
5.060263
 50
141.501144
 51
218.499969
  0
CIRCLE
  8
0
 10
270.500000
 20
185.020859
 40
2.500000
  0
CIRCLE
  8
0
 10
286.000000
 20
190.020859
 40
2.500000
  0
ARC
  8
0
 10
289.000000
 20
198.420868
 40
4.400006
 50
227.014191
 51
0.000000
  0
ARC
  8
0
 10
283.000000
 20
198.420868
 40
4.399994
 50
180.000000
 51
312.985809
  0
ARC
  8
0
 10
268.639648
 20
193.769226
 40
4.399989
 50
237.403458
 51
29.999935
  0
ARC
  8
0
 10
266.000000
 20
189.641037
 40
0.499999
 50
57.405029
 51
180.000000
  0
ARC
  8
0
 10
268.639648
 20
88.272507
 40
2.100011
 50
330.000092
 51
150.000076
  0
ARC
  8
0
 10
265.844238
 20
87.230682
 40
0.300000
 50
240.001373
 51
329.998657
  0
ARC
  8
0
 10
269.135010
 20
85.330658
 40
0.299991
 50
149.998657
 51
240.001373
  0
ARC
  8
0
 10
287.099854
 20
81.320877
 40
0.300003
 50
270.000000
 51
0.000000
  0
ARC
  8
0
 10
290.899902
 20
81.320877
 40
0.299988
 50
180.000000
 51
270.000000
  0
ARC
  8
0
 10
289.000000
 20
83.620865
 40
2.100006
 50
0.000000
 51
180.000000
  0
ARC
  8
0
 10
281.099854
 20
81.320877
 40
0.300003
 50
270.000000
 51
0.000000
  0
ARC
  8
0
 10
284.899902
 20
81.320877
 40
0.299988
 50
180.000000
 51
270.000000
  0
ARC
  8
0
 10
283.000000
 20
83.620865
 40
2.100006
 50
0.000000
 51
180.000000
  0
ARC
  8
0
 10
264.160156
 20
94.520874
 40
5.060258
 50
141.501205
 51
218.499969
  0
CIRCLE
  8
0
 10
286.000000
 20
92.020874
 40
2.500000
  0
ARC
  8
0
 10
289.000000
 20
83.620865
 40
4.399994
 50
0.000099
 51
132.985809
  0
ARC
  8
0
 10
283.000000
 20
83.620865
 40
4.400006
 50
47.014191
 51
180.000107
  0
ARC
  8
0
 10
268.639648
 20
88.272507
 40
4.400002
 50
330.000061
 51
122.596870
  0
ARC
  8
0
 10
266.000000
 20
92.400696
 40
0.500000
 50
180.000000
 51
302.595428
  0
CIRCLE
  8
0
 10
273.500000
 20
141.020859
 40
6.000001
  0
ARC
  8
0
 10
304.500000
 20
141.020859
 40
17.500004
 50
301.002747
 51
238.997253
  0
CIRCLE
  8
0
 10
297.000000
 20
141.020859
 40
4.250000
  0
CIRCLE
  8
0
 62
     2
 10
297.000000
 20
141.020859
 40
5.000000
  0
CIRCLE
  8
0
 10
312.000000
 20
141.020859
 40
4.250000
  0
CIRCLE
  8
0
 62
     2
 10
312.000000
 20
141.020859
 40
5.000000
  0
CIRCLE
  8
0
 10
273.500000
 20
141.020859
 40
5.200000
  0
CIRCLE
  8
0
 62
     2
 10
317.500000
 20
123.020859
 40
2.500000
  0
CIRCLE
  8
0
 10
317.500000
 20
123.020859
 40
1.700000
  0
CIRCLE
  8
0
 62
     2
 10
317.500000
 20
159.020813
 40
2.500000
  0
CIRCLE
  8
0
 10
317.500000
 20
159.020813
 40
1.700000
  0
CIRCLE
  8
0
 10
149.000015
 20
-16.179138
 40
3.000000
  0
ARC
  8
0
 10
-5.000000
 20
24.660721
 40
5.060264
 50
51.501369
 51
128.498810
  0
ARC
  8
0
 10
166.000015
 20
24.660721
 40
5.060264
 50
51.501369
 51
128.498825
  0
CIRCLE
  8
0
 62
     2
 10
-23.999985
 20
-26.179146
 40
2.500000
  0
CIRCLE
  8
0
 10
-23.999985
 20
-26.179146
 40
1.700000
  0
CIRCLE
  8
0
 62
     2
 10
-23.999985
 20
13.820847
 40
2.500000
  0
CIRCLE
  8
0
 10
-23.999985
 20
13.820847
 40
1.700000
  0
ARC
  8
0
 10
30.000000
 20
-19.179005
 40
7.000127
 50
214.850418
 51
325.149567
  0
ARC
  8
0
 10
130.000000
 20
-19.179005
 40
7.000125
 50
214.850433
 51
325.149567
  0
CIRCLE
  8
0
 10
130.000000
 20
-220.045807
 40
4.250000
  0
CIRCLE
  8
0
 10
30.000000
 20
-86.045807
 40
4.250000
  0
CIRCLE
  8
0
 10
130.000000
 20
-86.045807
 40
4.250000
  0
CIRCLE
  8
0
 10
30.000000
 20
-220.045807
 40
4.250000
  0
CIRCLE
  8
0
 62
     2
 10
-23.999985
 20
-173.045807
 40
2.500000
  0
CIRCLE
  8
0
 10
-23.999985
 20
-173.045807
 40
1.700000
  0
CIRCLE
  8
0
 62
     2
 10
-23.999985
 20
-133.045807
 40
2.500000
  0
CIRCLE
  8
0
 10
-23.999985
 20
-133.045807
 40
1.700000
  0
ARC
  8
0
 10
2.741028
 20
-149.545807
 40
15.741014
 50
167.152954
 51
174.531845
  0
ARC
  8
0
 10
-25.731506
 20
-149.545807
 40
15.731510
 50
5.471467
 51
12.854939
  0
ARC
  8
0
 10
2.741028
 20
-156.545807
 40
15.741013
 50
185.468094
 51
192.846985
  0
ARC
  8
0
 10
-25.731506
 20
-156.545807
 40
15.731509
 50
347.145020
 51
354.528473
  0
CIRCLE
  8
0
 62
     4
 10
-303.518799
 20
-56.479141
 40
2.000000
  0
CIRCLE
  8
0
 62
     4
 10
-303.518799
 20
-63.979141
 40
2.000000
  0
CIRCLE
  8
0
 62
     4
 10
-303.518799
 20
-113.979141
 40
2.000000
  0
CIRCLE
  8
0
 62
     4
 10
-303.518799
 20
-121.479141
 40
2.000000
  0
ARC
  8
0
  6
DASHED
 62
     4
 10
-270.518799
 20
-88.979141
 40
3.000000
 50
270.000000
 51
90.000000
  0
ARC
  8
0
  6
DASHED
 62
     4
 10
-284.518799
 20
-88.979141
 40
3.000000
 50
90.000000
 51
270.000000
  0
ARC
  8
0
  6
DASHED
 62
     4
 10
-322.518799
 20
-88.979141
 40
3.000000
 50
270.000000
 51
90.000000
  0
ARC
  8
0
  6
DASHED
 62
     4
 10
-336.518799
 20
-88.979141
 40
3.000000
 50
90.000000
 51
270.000000
  0
CIRCLE
  8
0
 62
     4
 10
-278.518799
 20
-88.979111
 40
2.000000
  0
CIRCLE
  8
0
 62
     4
 10
-328.518799
 20
-88.979141
 40
2.000000
  0
CIRCLE
  8
0
 62
     4
 10
-336.018799
 20
-88.979141
 40
2.000000
  0
CIRCLE
  8
0
 62
     4
 10
-271.018799
 20
-88.979111
 40
2.000000
  0
CIRCLE
  8
0
 62
     4
 10
-321.518799
 20
-146.979141
 40
1.700000
  0
CIRCLE
  8
0
 62
     4
 10
-285.518799
 20
-146.979141
 40
1.700000
  0
CIRCLE
  8
0
 62
     1
 10
-321.518799
 20
-146.979141
 40
2.500000
  0
CIRCLE
  8
0
 62
     1
 10
-285.518799
 20
-146.979141
 40
2.500000
  0
CIRCLE
  8
0
 62
     1
 10
-285.518799
 20
-30.979141
 40
2.500000
  0
CIRCLE
  8
0
 62
     4
 10
-285.518799
 20
-30.979141
 40
1.700000
  0
CIRCLE
  8
0
 62
     1
 10
-321.518799
 20
-30.979141
 40
2.500000
  0
CIRCLE
  8
0
 62
     4
 10
-321.518799
 20
-30.979141
 40
1.700000
  0
CIRCLE
  8
0
 62
     4
 10
-153.689392
 20
-121.479141
 40
2.000000
  0
CIRCLE
  8
0
 62
     4
 10
-153.689392
 20
-56.479141
 40
2.000000
  0
CIRCLE
  8
0
 62
     4
 10
-153.689392
 20
-46.479137
 40
2.000000
  0
CIRCLE
  8
0
 62
     4
 10
-153.689392
 20
-131.479141
 40
2.000000
  0
ARC
  8
0
  6
DASHED
 62
     4
 10
-120.689377
 20
-88.979141
 40
3.000000
 50
270.000000
 51
90.000000
  0
ARC
  8
0
  6
DASHED
 62
     4
 10
-134.689392
 20
-88.979141
 40
3.000000
 50
90.000000
 51
270.000000
  0
ARC
  8
0
  6
DASHED
 62
     4
 10
-172.689377
 20
-88.979141
 40
3.000000
 50
270.000000
 51
90.000000
  0
ARC
  8
0
  6
DASHED
 62
     4
 10
-186.689392
 20
-88.979141
 40
3.000000
 50
90.000000
 51
270.000000
  0
CIRCLE
  8
0
 62
     4
 10
-196.189392
 20
-88.979141
 40
2.000000
  0
CIRCLE
  8
0
 62
     4
 10
-186.189392
 20
-88.979141
 40
2.000000
  0
CIRCLE
  8
0
 62
     4
 10
-121.189392
 20
-88.979141
 40
2.000000
  0
CIRCLE
  8
0
 62
     4
 10
-111.189636
 20
-88.979141
 40
2.000000
  0
CIRCLE
  8
0
 62
     4
 10
-135.689377
 20
-146.979187
 40
1.700000
  0
CIRCLE
  8
0
 62
     4
 10
-171.689392
 20
-146.979187
 40
1.700000
  0
CIRCLE
  8
0
 62
     4
 10
-171.689392
 20
-30.979141
 40
1.700000
  0
CIRCLE
  8
0
 62
     4
 10
-135.689377
 20
-30.979141
 40
1.700000
  0
CIRCLE
  8
0
 62
     1
 10
-135.689377
 20
-146.979187
 40
2.500000
  0
CIRCLE
  8
0
 62
     1
 10
-171.689392
 20
-146.979187
 40
2.500000
  0
CIRCLE
  8
0
 62
     1
 10
-171.689392
 20
-30.979141
 40
2.500000
  0
CIRCLE
  8
0
 62
     1
 10
-135.689377
 20
-30.979141
 40
2.500000
  0
TEXT
  8
0
 10
242.014816
 20
-274.500000
 40
12.500000
  1
KOGANEI CORP.
 50
0.000000
 41
1.052632
 51
0.000000
  7
STANDARD
  0
TEXT
  8
0
 10
251.264664
 20
256.649994
 40
9.000000
  1
DATE: NOV ,1994
 50
0.000000
 41
1.052632
 51
0.000000
  7
STANDARD
  0
TEXT
  8
0
 10
-384.785309
 20
224.149994
 40
9.000000
  1
MODEL:ACZ25*ST(50)
 50
0.000000
 41
1.052632
 51
0.000000
  7
STANDARD
  0
TEXT
  8
0
 10
-360.785309
 20
256.649994
 40
9.000000
  1
YZ MODULE
 50
0.000000
 41
1.052632
 51
0.000000
  7
STANDARD
  0
TEXT
  8
0
 10
-332.699707
 20
-236.419998
 40
6.300000
  1
STRETCH LIST
 50
0.000000
 41
1.052632
 51
0.000000
  7
STANDARD
  0
TEXT
  8
0
 10
-373.799713
 20
-248.419998
 40
6.300000
  1
STROKE
 50
0.000000
 41
1.052632
 51
0.000000
  7
STANDARD
  0
TEXT
  8
0
 10
-316.199707
 20
-248.419998
 40
6.300000
  1
50
 50
0.000000
 41
1.052632
 51
0.000000
  7
STANDARD
  0
TEXT
  8
0
 10
-289.349731
 20
-248.419998
 40
6.300000
  1
100
 50
0.000000
 41
1.052632
 51
0.000000
  7
STANDARD
  0
TEXT
  8
0
 10
-259.349731
 20
-248.419998
 40
6.300000
  1
150
 50
0.000000
 41
1.052632
 51
0.000000
  7
STANDARD
  0
TEXT
  8
0
 10
-229.349716
 20
-248.419998
 40
6.300000
  1
200
 50
0.000000
 41
1.052632
 51
0.000000
  7
STANDARD
  0
TEXT
  8
0
 10
-313.049713
 20
-260.420013
 40
6.300000
  1
0
 50
0.000000
 41
1.052632
 51
0.000000
  7
STANDARD
  0
TEXT
  8
0
 10
-286.199707
 20
-260.420013
 40
6.300000
  1
50
 50
0.000000
 41
1.052632
 51
0.000000
  7
STANDARD
  0
TEXT
  8
0
 10
-259.349731
 20
-260.420013
 40
6.300000
  1
100
 50
0.000000
 41
1.052632
 51
0.000000
  7
STANDARD
  0
TEXT
  8
0
 10
-229.349716
 20
-260.420013
 40
6.300000
  1
150
 50
0.000000
 41
1.052632
 51
0.000000
  7
STANDARD
  0
TEXT
  8
0
 62
     3
 10
102.050285
 20
238.113388
 40
6.300000
  1
STRETCH LINE
 50
0.000000
 41
1.052632
 51
0.000000
  7
STANDARD
  0
TEXT
  8
0
 10
-329.539185
 20
-4.190859
 40
6.300000
  1
MODEL:-M
 50
0.000000
 41
1.052632
 51
0.000000
  7
STANDARD
  0
TEXT
  8
0
 10
-179.539108
 20
-4.190859
 40
6.300000
  1
MODEL:-L
 50
0.000000
 41
1.052632
 51
0.000000
  7
STANDARD
  0
TEXT
  8
0
 10
-232.499725
 20
-236.419998
 40
6.300000
  1
(mm)
 50
0.000000
 41
1.052632
 51
0.000000
  7
STANDARD
  0
TEXT
  8
0
 10
-376.949707
 20
-260.420013
 40
6.300000
  1
STRETCH
 50
0.000000
 41
1.052632
 51
0.000000
  7
STANDARD
  0
ENDSEC
  0
EOF
