  0
SECTION
  2
HEADER
  0
ENDSEC
  0
SECTION
  2
TABLES
  0
TABLE
  2
LTYPE
 70
     4
  0
LTYPE
  2
CONTINUOUS
 70
    64
  3
Solid line
 72
    65
 73
     0
 40
0.000000
  0
LTYPE
  2
DASHED
 70
    64
  3
__ __ __ __ __ __ __ __ __ __ __ __ __ __ __
 72
    65
 73
     2
 40
3.500000
 49
2.000000
 49
-1.500000
  0
LTYPE
  2
CENTER
 70
    64
  3
____ _ ____ _ ____ _ ____ _ ____ _ ____ _ ____
 72
    65
 73
     4
 40
17.500000
 49
13.000000
 49
-1.500000
 49
1.500000
 49
-1.500000
  0
LTYPE
  2
PHANTOM
 70
    64
  3
_____ _ _ _____ _ _ _____ _ _ _____ _ _ ____  
 72
    65
 73
     6
 40
15.500000
 49
8.000000
 49
-1.500000
 49
1.500000
 49
-1.500000
 49
1.500000
 49
-1.500000
  0
LTYPE
  2
DASHED1
 70
    64
  3
__ __ __ __ __ __ __ __ __ __ __ __ __ __ __
 72
    65
 73
     2
 40
1.500000
 49
1.000000
 49
-0.500000
  0
LTYPE
  2
DASHED2
 70
    64
  3
__ __ __ __ __ __ __ __ __ __ __ __ __ __ __
 72
    65
 73
     2
 40
3.500000
 49
2.500000
 49
-1.000000
  0
LTYPE
  2
DASHED3
 70
    64
  3
__ __ __ __ __ __ __ __ __ __ __ __ __ __ __
 72
    65
 73
     2
 40
6.000000
 49
4.000000
 49
-2.000000
  0
LTYPE
  2
DASHED4
 70
    64
  3
__ __ __ __ __ __ __ __ __ __ __ __ __ __ __
 72
    65
 73
     2
 40
12.000000
 49
10.000000
 49
-2.000000
  0
LTYPE
  2
DASHED5
 70
    64
  3
__ __ __ __ __ __ __ __ __ __ __ __ __ __ __
 72
    65
 73
     2
 40
17.000000
 49
15.000000
 49
-2.000000
  0
LTYPE
  2
DASHED6
 70
    64
  3
__ __ __ __ __ __ __ __ __ __ __ __ __ __ __
 72
    65
 73
     2
 40
29.000000
 49
27.000000
 49
-2.000000
  0
LTYPE
  2
PHANTOM1
 70
    64
  3
_____ _ _ _____ _ _ _____ _ _ _____ _ _ ____  
 72
    65
 73
     6
 40
31.000000
 49
25.000000
 49
-1.500000
 49
1.000000
 49
-1.000000
 49
1.000000
 49
-1.500000
  0
LTYPE
  2
PHANTOM2
 70
    64
  3
_____ _ _ _____ _ _ _____ _ _ _____ _ _ ____  
 72
    65
 73
     6
 40
36.000000
 49
27.000000
 49
-1.500000
 49
2.500000
 49
-1.000000
 49
2.500000
 49
-1.500000
  0
LTYPE
  2
PHANTOM3
 70
    64
  3
_____ _ _ _____ _ _ _____ _ _ _____ _ _ ____  
 72
    65
 73
     6
 40
78.000000
 49
64.000000
 49
-2.000000
 49
4.000000
 49
-2.000000
 49
4.000000
 49
-2.000000
  0
LTYPE
  2
CENTER1
 70
    64
  3
____ _ ____ _ ____ _ ____ _ ____ _ ____ _ ____
 72
    65
 73
     4
 40
19.000000
 49
14.000000
 49
-1.000000
 49
3.000000
 49
-1.000000
  0
LTYPE
  2
CENTER2
 70
    64
  3
____ _ ____ _ ____ _ ____ _ ____ _ ____ _ ____
 72
    65
 73
     4
 40
28.500000
 49
25.000000
 49
-1.000000
 49
1.500000
 49
-1.000000
  0
LTYPE
  2
CENTER3
 70
    64
  3
____ _ ____ _ ____ _ ____ _ ____ _ ____ _ ____
 72
    65
 73
     4
 40
31.500000
 49
27.000000
 49
-1.000000
 49
2.500000
 49
-1.000000
  0
LTYPE
  2
CENTER4
 70
    64
  3
____ _ ____ _ ____ _ ____ _ ____ _ ____ _ ____
 72
    65
 73
     4
 40
50.000000
 49
45.000000
 49
-1.000000
 49
3.000000
 49
-1.000000
  0
LTYPE
  2
CENTER5
 70
    64
  3
____ _ ____ _ ____ _ ____ _ ____ _ ____ _ ____
 72
    65
 73
     4
 40
100.000000
 49
92.000000
 49
-2.000000
 49
4.000000
 49
-2.000000
  0
LTYPE
  2
SBK1
 70
    64
  3
______ _ _ _ ______ _ _ _ ______ _ _ _ _____  
 72
    65
 73
     8
 40
60.500000
 49
45.000000
 49
-2.000000
 49
2.500000
 49
-2.000000
 49
2.500000
 49
-2.000000
 49
2.500000
 49
-2.000000
  0
LTYPE
  2
SBK2
 70
    64
  3
______ _ _ _ ______ _ _ _ ______ _ _ _ _____  
 72
    65
 73
     8
 40
84.000000
 49
64.000000
 49
-2.000000
 49
4.000000
 49
-2.000000
 49
4.000000
 49
-2.000000
 49
4.000000
 49
-2.000000
  0
LTYPE
  2
STCH
 70
    64
  3
__ __ __ __ __ __ __ __ __ __ __ __ __ __ __
 72
    65
 73
     2
 40
3.000000
 49
1.000000
 49
-2.000000
  0
LTYPE
  2
MTCH
 70
    64
  3
_____ _ _ _____ _ _ _____ _ _ _____ _ _ ____  
 72
    65
 73
     6
 40
80.000000
 49
66.000000
 49
-2.000000
 49
4.000000
 49
-2.000000
 49
4.000000
 49
-2.000000
  0
ENDTAB
  0
TABLE
  2
LAYER
 70
     1
  0
LAYER
  2
0
 70
     0
 62
     7
  6
CONTINUOUS
  0
ENDTAB
  0
TABLE
  2
STYLE
 70
     1
  0
STYLE
  2
STANDARD
 70
     0
 40
0.000000
 41
1.000000
 50
0.000000
 71
     0
 42
0.200000
  3
txt
  4
BIGFONT
  0
ENDTAB
  0
TABLE
  2
VIEW
 70
     0
  0
ENDTAB
  0
ENDSEC
  0
SECTION
  2
BLOCKS
  0
ENDSEC
  0
SECTION
  2
ENTITIES
  0
LINE
  8
0
 10
-281.250000
 20
195.500000
 11
282.099976
 21
195.500000
  0
LINE
  8
0
 10
-281.250000
 20
195.500000
 11
-281.250000
 21
-195.000000
  0
LINE
  8
0
 10
282.099976
 20
195.500000
 11
282.099976
 21
-195.000000
  0
LINE
  8
0
 10
-281.250000
 20
-195.000000
 11
282.099976
 21
-195.000000
  0
LINE
  8
0
 10
162.099976
 20
-175.000000
 11
162.099976
 21
-195.000000
  0
LINE
  8
0
 10
162.099976
 20
-175.000000
 11
282.099976
 21
-175.000000
  0
LINE
  8
0
 10
162.099976
 20
175.500000
 11
282.099976
 21
175.500000
  0
LINE
  8
0
 10
-281.250000
 20
175.500000
 11
-161.250000
 21
175.500000
  0
LINE
  8
0
 10
162.099976
 20
195.500000
 11
162.099976
 21
175.500000
  0
LINE
  8
0
 10
-161.250000
 20
195.500000
 11
-161.250000
 21
175.500000
  0
LINE
  8
0
 10
-14.225006
 20
39.000000
 11
8.774994
 21
39.000000
  0
LINE
  8
0
 10
-14.225006
 20
92.000000
 11
8.774994
 21
92.000000
  0
LINE
  8
0
 10
-14.225006
 20
109.500000
 11
8.774994
 21
109.500000
  0
LINE
  8
0
 10
-14.225006
 20
30.000000
 11
8.774994
 21
30.000000
  0
LINE
  8
0
  6
CENTER
 62
     2
 10
-6.225006
 20
106.000000
 11
0.774994
 21
106.000000
  0
LINE
  8
0
 10
-14.225006
 20
109.499985
 11
-14.225006
 21
30.000000
  0
LINE
  8
0
 10
8.774994
 20
109.499985
 11
8.774994
 21
30.000000
  0
LINE
  8
0
 62
     4
 10
-1.425018
 20
124.200012
 11
-4.024994
 21
124.200012
  0
LINE
  8
0
 62
     4
 10
-1.425018
 20
120.799988
 11
-4.024994
 21
120.799988
  0
LINE
  8
0
 62
     4
 10
-14.225006
 20
130.499985
 11
-14.225006
 21
109.499985
  0
LINE
  8
0
 62
     4
 10
8.774994
 20
130.499985
 11
8.774994
 21
109.499985
  0
LINE
  8
0
 62
     4
 10
-14.225006
 20
129.500000
 11
8.774994
 21
129.500000
  0
LINE
  8
0
 62
     4
 10
-14.225006
 20
130.500000
 11
8.774994
 21
130.500000
  0
LINE
  8
0
 62
     4
 10
7.775021
 20
132.499985
 11
8.775028
 21
130.499969
  0
LINE
  8
0
 62
     4
 10
-11.475006
 20
133.200012
 11
-9.975006
 21
133.200012
  0
LINE
  8
0
 62
     4
 10
4.524994
 20
133.200012
 11
6.024994
 21
133.200012
  0
LINE
  8
0
 62
     4
 10
-13.225006
 20
132.500000
 11
7.774933
 21
132.500000
  0
LINE
  8
0
 62
     4
 10
-13.225092
 20
132.500015
 11
-14.225098
 21
130.500000
  0
LINE
  8
0
 10
8.774994
 20
35.500000
 11
19.774979
 21
35.500000
  0
LINE
  8
0
 10
8.774994
 20
104.000000
 11
9.274994
 21
104.000000
  0
LINE
  8
0
  6
CENTER
 62
     2
 10
15.274979
 20
102.500000
 11
15.274979
 21
94.500000
  0
LINE
  8
0
  6
CENTER
 62
     2
 10
11.274979
 20
98.500000
 11
19.274979
 21
98.500000
  0
LINE
  8
0
 10
11.274994
 20
103.000000
 11
19.774979
 21
103.000000
  0
LINE
  8
0
 10
19.774979
 20
103.000000
 11
19.774979
 21
35.500000
  0
LINE
  8
0
 10
9.274994
 20
92.000000
 11
9.274994
 21
39.000000
  0
LINE
  8
0
 10
8.774994
 20
39.000000
 11
9.274994
 21
39.000000
  0
LINE
  8
0
 10
8.774994
 20
92.000000
 11
9.274994
 21
92.000000
  0
LINE
  8
0
 10
13.774979
 20
94.500000
 11
13.774979
 21
35.500000
  0
LINE
  8
0
 10
12.274994
 20
94.500000
 11
19.774979
 21
94.500000
  0
LINE
  8
0
 10
8.774994
 20
104.000000
 11
11.274994
 21
104.000000
  0
LINE
  8
0
 10
11.274994
 20
104.000000
 11
11.274994
 21
95.500000
  0
LINE
  8
0
 10
9.774963
 20
105.199997
 11
9.774963
 21
104.000000
  0
LINE
  8
0
 10
8.774994
 20
105.200012
 11
9.774963
 21
105.200012
  0
LINE
  8
0
 10
-23.225006
 20
35.500000
 11
-14.225006
 21
35.500000
  0
LINE
  8
0
  6
CENTER
 62
     2
 10
-18.725006
 20
44.000000
 11
-18.725006
 21
36.000000
  0
LINE
  8
0
  6
CENTER
 62
     2
 10
-22.725006
 20
40.000000
 11
-14.725006
 21
40.000000
  0
LINE
  8
0
 10
-23.225006
 20
103.000000
 11
-16.725006
 21
103.000000
  0
LINE
  8
0
 10
-23.225006
 20
103.000000
 11
-23.225006
 21
35.500000
  0
LINE
  8
0
 10
-14.725006
 20
92.000000
 11
-14.725006
 21
35.500000
  0
LINE
  8
0
 10
-14.725006
 20
92.000000
 11
-14.225006
 21
92.000000
  0
LINE
  8
0
 10
-14.725006
 20
39.000000
 11
-14.225006
 21
39.000000
  0
LINE
  8
0
 10
-17.225006
 20
103.000000
 11
-17.225006
 21
44.500000
  0
LINE
  8
0
 10
-23.225006
 20
44.500000
 11
-15.725006
 21
44.500000
  0
LINE
  8
0
 10
-16.725006
 20
104.000000
 11
-14.225006
 21
104.000000
  0
LINE
  8
0
 10
-16.725006
 20
103.000000
 11
-16.725006
 21
104.000000
  0
LINE
  8
0
  6
CENTER
 62
     2
 10
-2.725006
 20
133.868912
 11
-2.725006
 21
26.791229
  0
LINE
  8
0
 10
-11.725006
 20
55.500000
 11
-14.225006
 21
55.500000
  0
LINE
  8
0
 10
-11.725006
 20
49.500000
 11
-14.225006
 21
49.500000
  0
LINE
  8
0
 10
5.774994
 20
43.000000
 11
8.774994
 21
43.000000
  0
LINE
  8
0
 10
5.774994
 20
48.000000
 11
8.774994
 21
48.000000
  0
LINE
  8
0
 10
6.274994
 20
67.500000
 11
8.774994
 21
67.500000
  0
LINE
  8
0
 10
6.274994
 20
73.500000
 11
8.774994
 21
73.500000
  0
LINE
  8
0
 10
-11.225006
 20
88.000000
 11
-14.225006
 21
88.000000
  0
LINE
  8
0
 10
-11.225006
 20
83.000000
 11
-14.225006
 21
83.000000
  0
LINE
  8
0
 10
-11.725006
 20
81.500000
 11
-14.225006
 21
81.500000
  0
LINE
  8
0
 10
-11.725006
 20
75.500000
 11
-14.225006
 21
75.500000
  0
LINE
  8
0
 10
-12.725006
 20
90.499985
 11
-12.725006
 21
87.999985
  0
LINE
  8
0
 10
7.274994
 20
90.499985
 11
7.274994
 21
73.500000
  0
LINE
  8
0
 10
-12.725006
 20
90.500000
 11
7.274994
 21
90.500000
  0
LINE
  8
0
 10
-12.725006
 20
40.500000
 11
7.274994
 21
40.500000
  0
LINE
  8
0
 10
-12.725006
 20
49.500000
 11
-12.725006
 21
40.500000
  0
LINE
  8
0
 10
-12.725006
 20
75.500000
 11
-12.725006
 21
55.500000
  0
LINE
  8
0
 10
-12.725006
 20
82.999985
 11
-12.725006
 21
81.499985
  0
LINE
  8
0
 10
7.274994
 20
67.500000
 11
7.274994
 21
48.000000
  0
LINE
  8
0
 10
7.274994
 20
43.000000
 11
7.274994
 21
40.500000
  0
LINE
  8
0
 10
-14.224837
 20
38.999771
 11
-12.724825
 21
40.499783
  0
LINE
  8
0
 10
7.275002
 20
40.500053
 11
8.775014
 21
39.000042
  0
LINE
  8
0
 10
8.775138
 20
91.999863
 11
7.275147
 21
90.499878
  0
LINE
  8
0
 10
-14.224999
 20
92.000107
 11
-12.725009
 21
90.500114
  0
LINE
  8
0
 10
4.714018
 20
44.439629
 11
6.835339
 21
46.560947
  0
LINE
  8
0
 10
-12.285945
 20
84.439575
 11
-10.164624
 21
86.560898
  0
LINE
  8
0
 10
-12.285763
 20
86.560608
 11
-10.164443
 21
84.439285
  0
LINE
  8
0
 10
4.714141
 20
46.560642
 11
6.835462
 21
44.439323
  0
LINE
  8
0
 10
-12.785934
 20
77.439583
 11
-10.664615
 21
79.560905
  0
LINE
  8
0
 10
-12.785830
 20
79.560677
 11
-10.664511
 21
77.439354
  0
LINE
  8
0
 10
5.214107
 20
69.439598
 11
7.335427
 21
71.560913
  0
LINE
  8
0
 10
5.214184
 20
71.560661
 11
7.335505
 21
69.439339
  0
LINE
  8
0
 10
-12.785888
 20
51.439602
 11
-10.664567
 21
53.560925
  0
LINE
  8
0
 10
-12.785803
 20
53.560585
 11
-10.664482
 21
51.439266
  0
LINE
  8
0
 62
     4
 10
-98.225006
 20
130.500000
 11
-98.225006
 21
109.500000
  0
LINE
  8
0
 10
-133.225006
 20
30.000000
 11
-98.225006
 21
30.000000
  0
LINE
  8
0
 10
-102.725006
 20
33.500000
 11
-102.725006
 21
30.000000
  0
LINE
  8
0
 10
-108.725006
 20
33.500000
 11
-108.725006
 21
30.000000
  0
LINE
  8
0
 10
-108.725006
 20
33.500000
 11
-102.725006
 21
33.500000
  0
LINE
  8
0
 62
     4
 10
-133.225006
 20
129.500000
 11
-98.225006
 21
129.500000
  0
LINE
  8
0
 62
     4
 10
-133.225006
 20
129.500000
 11
-133.225006
 21
109.500000
  0
LINE
  8
0
 62
     4
 10
-133.225006
 20
130.500000
 11
-98.225006
 21
130.500000
  0
LINE
  8
0
 62
     4
 10
-133.225006
 20
130.500000
 11
-133.225006
 21
129.500000
  0
LINE
  8
0
 62
     4
 10
-133.224884
 20
130.499954
 11
-132.224869
 21
132.499969
  0
LINE
  8
0
 62
     4
 10
-109.725006
 20
132.500000
 11
-109.725006
 21
130.500000
  0
LINE
  8
0
 62
     4
 10
-99.225037
 20
132.500061
 11
-98.225006
 21
130.500031
  0
LINE
  8
0
 62
     4
 10
-108.475006
 20
131.200012
 11
-102.975006
 21
131.200012
  0
LINE
  8
0
 62
     4
 10
-102.975006
 20
131.200012
 11
-102.975006
 21
130.500000
  0
LINE
  8
0
 62
     4
 10
-108.475006
 20
131.200012
 11
-108.475006
 21
130.500000
  0
LINE
  8
0
 62
     4
 10
-106.475006
 20
133.200012
 11
-104.975006
 21
133.200012
  0
LINE
  8
0
 62
     4
 10
-126.475006
 20
133.200012
 11
-124.975006
 21
133.200012
  0
LINE
  8
0
 62
     4
 10
-99.225067
 20
132.500000
 11
-103.455170
 21
132.500000
  0
LINE
  8
0
 10
-133.225006
 20
109.500000
 11
-133.225006
 21
30.000000
  0
LINE
  8
0
 10
-102.961823
 20
31.828217
 11
-102.961823
 21
33.500000
  0
LINE
  8
0
 10
-108.461823
 20
31.828293
 11
-108.461823
 21
33.500000
  0
LINE
  8
0
 10
-108.461823
 20
32.796478
 11
-102.961823
 21
32.796478
  0
LINE
  8
0
 10
-106.711823
 20
30.796448
 11
-104.711823
 21
30.796448
  0
LINE
  8
0
 10
-133.225006
 20
109.500000
 11
-98.225006
 21
109.500000
  0
LINE
  8
0
 62
     4
 10
-107.994904
 20
132.500000
 11
-132.224945
 21
132.500000
  0
LINE
  8
0
 10
-98.225006
 20
92.000000
 11
-133.225006
 21
92.000000
  0
LINE
  8
0
 10
-98.225006
 20
39.000000
 11
-133.225006
 21
39.000000
  0
LINE
  8
0
 62
     4
 10
-86.225006
 20
121.650024
 11
-90.220795
 21
121.650024
  0
LINE
  8
0
 62
     4
 10
-86.225006
 20
123.349976
 11
-90.676300
 21
123.349976
  0
LINE
  8
0
 62
     4
 10
-76.225006
 20
122.179993
 11
-86.225006
 21
122.179993
  0
LINE
  8
0
 62
     4
 10
-76.225006
 20
122.820007
 11
-86.225006
 21
122.820007
  0
LINE
  8
0
 62
     4
 10
-86.225006
 20
123.349976
 11
-86.225006
 21
121.649979
  0
LINE
  8
0
 62
     4
 10
-76.225006
 20
122.819977
 11
-76.225006
 21
122.179993
  0
LINE
  8
0
 62
     1
 10
-89.685013
 20
119.649933
 11
-91.212326
 21
125.349953
  0
LINE
  8
0
 62
     1
 10
-91.238029
 20
119.649895
 11
-92.765305
 21
125.349846
  0
LINE
  8
0
 62
     4
 10
-91.773712
 20
121.650024
 11
-96.225067
 21
121.650024
  0
LINE
  8
0
 62
     4
 10
-92.229218
 20
123.349976
 11
-96.225067
 21
123.349976
  0
LINE
  8
0
 62
     4
 10
-96.225006
 20
120.799988
 11
-98.225006
 21
120.799988
  0
LINE
  8
0
 62
     4
 10
-96.225006
 20
124.199982
 11
-96.225006
 21
120.799988
  0
LINE
  8
0
 62
     4
 10
-96.225006
 20
124.200012
 11
-98.225006
 21
124.200012
  0
LINE
  8
0
 10
-98.225006
 20
109.500000
 11
-98.225006
 21
30.000000
  0
LINE
  8
0
 62
     4
 10
-101.725006
 20
132.500000
 11
-101.725006
 21
130.500000
  0
LINE
  8
0
 10
-177.225006
 20
103.000000
 11
-177.225006
 21
35.500000
  0
LINE
  8
0
 10
-134.225006
 20
92.000000
 11
-134.225006
 21
39.000000
  0
LINE
  8
0
 10
-175.225006
 20
104.000000
 11
-135.225006
 21
104.000000
  0
LINE
  8
0
 10
-136.725006
 20
105.200012
 11
-136.725006
 21
104.000000
  0
LINE
  8
0
 10
-136.725006
 20
105.200012
 11
-159.225006
 21
105.200012
  0
LINE
  8
0
 10
-138.624969
 20
105.787292
 11
-138.624969
 21
105.199997
  0
LINE
  8
0
 10
-140.824982
 20
105.787292
 11
-140.824982
 21
105.199997
  0
LINE
  8
0
 10
-140.824982
 20
105.400024
 11
-138.624969
 21
105.400024
  0
LINE
  8
0
 10
-140.124969
 20
106.200012
 11
-139.324982
 21
106.200012
  0
LINE
  8
0
  6
CENTER
 62
     2
 10
-167.225006
 20
96.500000
 11
-167.225006
 21
84.500000
  0
LINE
  8
0
  6
CENTER
 62
     2
 10
-173.225006
 20
90.500000
 11
-161.225006
 21
90.500000
  0
LINE
  8
0
  6
CENTER
 62
     2
 10
-156.225006
 20
83.500000
 11
-156.225006
 21
68.500000
  0
LINE
  8
0
  6
CENTER
 62
     2
 10
-163.725006
 20
76.000000
 11
-148.725006
 21
76.000000
  0
LINE
  8
0
  6
CENTER
 62
     2
 10
-156.225006
 20
62.500000
 11
-156.225006
 21
47.500000
  0
LINE
  8
0
  6
CENTER
 62
     2
 10
-163.725006
 20
55.000000
 11
-148.725006
 21
55.000000
  0
LINE
  8
0
 10
-141.225006
 20
102.528732
 11
-141.225006
 21
44.500000
  0
LINE
  8
0
 10
-135.225006
 20
104.000000
 11
-135.225006
 21
36.049805
  0
LINE
  8
0
 10
-133.225006
 20
92.000000
 11
-135.225006
 21
92.000000
  0
LINE
  8
0
 10
-133.225006
 20
39.000000
 11
-135.225006
 21
39.000000
  0
LINE
  8
0
 10
-169.225006
 20
44.500000
 11
-169.225006
 21
35.604736
  0
LINE
  8
0
 10
-175.225006
 20
104.000000
 11
-175.225006
 21
103.000000
  0
LINE
  8
0
  6
CENTER
 62
     2
 10
-181.225006
 20
40.000000
 11
-164.187714
 21
40.000000
  0
LINE
  8
0
  6
CENTER
 62
     2
 10
-181.225006
 20
98.500000
 11
-164.187714
 21
98.500000
  0
LINE
  8
0
 10
-136.725006
 20
105.199997
 11
-136.725006
 21
104.000000
  0
LINE
  8
0
 10
-159.225006
 20
105.199997
 11
-159.225006
 21
104.000000
  0
LINE
  8
0
 10
-155.124969
 20
105.787292
 11
-155.124969
 21
105.199997
  0
LINE
  8
0
 10
-157.324982
 20
105.787292
 11
-157.324982
 21
105.199997
  0
LINE
  8
0
 10
-157.324982
 20
105.400024
 11
-155.124969
 21
105.400024
  0
LINE
  8
0
 10
-156.624969
 20
106.200012
 11
-155.824982
 21
106.200012
  0
LINE
  8
0
 10
-177.225006
 20
35.500000
 11
-135.225006
 21
35.500000
  0
LINE
  8
0
 10
-177.225006
 20
103.000000
 11
-135.225006
 21
103.000000
  0
LINE
  8
0
 10
-169.225006
 20
44.500000
 11
-135.225006
 21
44.500000
  0
LINE
  8
0
 10
-94.725006
 20
90.499985
 11
-94.725006
 21
87.099976
  0
LINE
  8
0
 10
-96.225006
 20
91.999985
 11
-96.225006
 21
81.499985
  0
LINE
  8
0
 10
-98.225006
 20
92.000000
 11
-96.225006
 21
92.000000
  0
LINE
  8
0
 10
-96.225006
 20
88.000000
 11
-94.725006
 21
88.000000
  0
LINE
  8
0
 10
-96.225006
 20
83.000000
 11
-94.725006
 21
83.000000
  0
LINE
  8
0
 10
-98.225006
 20
81.500000
 11
-94.725006
 21
81.500000
  0
LINE
  8
0
 10
-98.225006
 20
75.500000
 11
-94.725006
 21
75.500000
  0
LINE
  8
0
 10
-98.225006
 20
55.500000
 11
-94.725006
 21
55.500000
  0
LINE
  8
0
 10
-98.225006
 20
49.500000
 11
-94.725006
 21
49.500000
  0
LINE
  8
0
 10
-98.225006
 20
39.000000
 11
-96.225006
 21
39.000000
  0
LINE
  8
0
 10
-96.225258
 20
39.000355
 11
-94.725243
 21
40.500366
  0
LINE
  8
0
 10
-96.224754
 20
92.000328
 11
-94.724800
 21
90.500343
  0
LINE
  8
0
 10
-96.225006
 20
49.500000
 11
-96.225006
 21
39.000000
  0
LINE
  8
0
 10
-96.225006
 20
75.500000
 11
-96.225006
 21
55.500000
  0
LINE
  8
0
 10
-96.556793
 20
75.750000
 11
-98.225006
 21
75.750000
  0
LINE
  8
0
 10
-97.525055
 20
81.249985
 11
-97.525055
 21
75.750000
  0
LINE
  8
0
 10
-95.524994
 20
79.500000
 11
-95.524994
 21
77.499985
  0
LINE
  8
0
 10
-96.556793
 20
81.250000
 11
-98.225006
 21
81.250000
  0
LINE
  8
0
 10
-96.556793
 20
49.750000
 11
-98.225006
 21
49.750000
  0
LINE
  8
0
 10
-97.525055
 20
55.250000
 11
-97.525055
 21
49.750000
  0
LINE
  8
0
 10
-95.524994
 20
53.500000
 11
-95.524994
 21
51.500000
  0
LINE
  8
0
 10
-96.556793
 20
55.250000
 11
-98.225006
 21
55.250000
  0
LINE
  8
0
 10
-96.225006
 20
87.749985
 11
-96.225006
 21
83.250000
  0
LINE
  8
0
 10
-95.337616
 20
87.750000
 11
-96.225006
 21
87.750000
  0
LINE
  8
0
 10
-95.337555
 20
83.250000
 11
-96.225006
 21
83.250000
  0
LINE
  8
0
 10
-94.524994
 20
86.299988
 11
-94.524994
 21
84.699982
  0
LINE
  8
0
 10
-94.725006
 20
83.899994
 11
-94.725006
 21
40.500000
  0
LINE
  8
0
 10
130.775009
 20
30.000000
 11
95.775009
 21
30.000000
  0
LINE
  8
0
 10
100.275009
 20
33.500000
 11
100.275009
 21
30.000000
  0
LINE
  8
0
 10
106.275009
 20
33.500000
 11
106.275009
 21
30.000000
  0
LINE
  8
0
 10
106.275009
 20
33.500000
 11
100.275009
 21
33.500000
  0
LINE
  8
0
 10
130.775009
 20
109.500000
 11
130.775009
 21
30.000000
  0
LINE
  8
0
 10
100.511795
 20
31.828217
 11
100.511795
 21
33.500000
  0
LINE
  8
0
 10
106.011795
 20
31.828293
 11
106.011795
 21
33.500000
  0
LINE
  8
0
 10
106.011795
 20
32.796478
 11
100.511795
 21
32.796478
  0
LINE
  8
0
 10
104.261795
 20
30.796448
 11
102.261795
 21
30.796448
  0
LINE
  8
0
 10
130.775009
 20
109.500000
 11
95.775009
 21
109.500000
  0
LINE
  8
0
 10
95.775009
 20
92.000000
 11
130.775009
 21
92.000000
  0
LINE
  8
0
 10
95.775009
 20
39.000000
 11
130.775009
 21
39.000000
  0
LINE
  8
0
 10
95.775009
 20
109.500000
 11
95.775009
 21
30.000000
  0
LINE
  8
0
 62
     4
 10
95.775009
 20
130.500000
 11
95.775009
 21
109.500000
  0
LINE
  8
0
 62
     4
 10
130.775009
 20
129.500000
 11
95.775009
 21
129.500000
  0
LINE
  8
0
 62
     4
 10
130.775009
 20
129.500000
 11
130.775009
 21
109.500000
  0
LINE
  8
0
 62
     4
 10
130.775009
 20
130.500000
 11
95.775009
 21
130.500000
  0
LINE
  8
0
 62
     4
 10
130.775009
 20
130.500000
 11
130.775009
 21
129.500000
  0
LINE
  8
0
 62
     4
 10
130.774994
 20
130.500046
 11
129.774994
 21
132.500061
  0
LINE
  8
0
 62
     4
 10
119.275009
 20
132.500000
 11
119.275009
 21
130.500000
  0
LINE
  8
0
 62
     4
 10
96.775276
 20
132.499893
 11
95.775261
 21
130.499863
  0
LINE
  8
0
 62
     4
 10
120.525009
 20
131.200012
 11
126.025009
 21
131.200012
  0
LINE
  8
0
 62
     4
 10
126.025009
 20
131.200012
 11
126.025009
 21
130.500000
  0
LINE
  8
0
 62
     4
 10
120.525009
 20
131.200012
 11
120.525009
 21
130.500000
  0
LINE
  8
0
 62
     4
 10
122.525009
 20
133.200012
 11
124.025009
 21
133.200012
  0
LINE
  8
0
 62
     4
 10
102.525009
 20
133.200012
 11
104.025009
 21
133.200012
  0
LINE
  8
0
 62
     4
 10
129.774979
 20
132.500000
 11
125.544891
 21
132.500000
  0
LINE
  8
0
 62
     4
 10
121.005127
 20
132.500000
 11
96.775101
 21
132.500000
  0
LINE
  8
0
 62
     4
 10
83.775009
 20
121.650024
 11
87.770767
 21
121.650024
  0
LINE
  8
0
 62
     4
 10
83.775009
 20
123.349976
 11
88.226303
 21
123.349976
  0
LINE
  8
0
 62
     4
 10
73.774979
 20
122.179993
 11
83.775009
 21
122.179993
  0
LINE
  8
0
 62
     4
 10
73.774979
 20
122.820007
 11
83.775009
 21
122.820007
  0
LINE
  8
0
 62
     4
 10
83.774979
 20
123.349976
 11
83.774979
 21
121.649979
  0
LINE
  8
0
 62
     4
 10
73.774979
 20
122.819977
 11
73.774979
 21
122.179993
  0
LINE
  8
0
 62
     1
 10
87.235168
 20
119.649918
 11
88.762482
 21
125.349930
  0
LINE
  8
0
 62
     1
 10
88.788239
 20
119.649895
 11
90.315544
 21
125.349884
  0
LINE
  8
0
 62
     4
 10
89.323685
 20
121.650024
 11
93.775040
 21
121.650024
  0
LINE
  8
0
 62
     4
 10
89.779221
 20
123.349976
 11
93.775040
 21
123.349976
  0
LINE
  8
0
 62
     4
 10
93.775009
 20
120.799988
 11
95.775009
 21
120.799988
  0
LINE
  8
0
 62
     4
 10
93.774979
 20
124.199982
 11
93.774979
 21
120.799988
  0
LINE
  8
0
 62
     4
 10
93.775009
 20
124.200012
 11
95.775009
 21
124.200012
  0
LINE
  8
0
 62
     4
 10
127.275009
 20
132.500000
 11
127.275009
 21
130.500000
  0
LINE
  8
0
 10
132.775009
 20
104.000000
 11
172.775009
 21
104.000000
  0
LINE
  8
0
 10
131.775009
 20
92.000000
 11
131.775009
 21
39.000000
  0
LINE
  8
0
 10
174.775009
 20
103.000000
 11
174.775009
 21
35.500000
  0
LINE
  8
0
  6
CENTER
 62
     2
 10
146.275009
 20
85.500000
 11
161.275009
 21
85.500000
  0
LINE
  8
0
  6
CENTER
 62
     2
 10
153.775009
 20
93.000000
 11
153.775009
 21
78.000000
  0
LINE
  8
0
  6
CENTER
 62
     2
 10
153.775009
 20
53.000000
 11
153.775009
 21
38.000000
  0
LINE
  8
0
  6
CENTER
 62
     2
 10
146.275009
 20
45.500000
 11
161.275009
 21
45.500000
  0
LINE
  8
0
  6
CENTER
 62
     2
 10
147.275009
 20
73.000000
 11
147.275009
 21
58.000000
  0
LINE
  8
0
  6
CENTER
 62
     2
 10
139.775009
 20
65.500000
 11
154.775009
 21
65.500000
  0
LINE
  8
0
 10
132.775009
 20
104.000000
 11
132.775009
 21
35.500000
  0
LINE
  8
0
 10
138.775009
 20
94.500000
 11
138.775009
 21
35.500000
  0
LINE
  8
0
 10
166.775009
 20
103.000000
 11
166.775009
 21
94.500000
  0
LINE
  8
0
 10
172.775009
 20
104.000000
 11
172.775009
 21
102.947632
  0
LINE
  8
0
 10
130.775009
 20
92.000000
 11
132.775009
 21
92.000000
  0
LINE
  8
0
 10
130.775009
 20
39.000000
 11
132.775009
 21
39.000000
  0
LINE
  8
0
  6
CENTER
 62
     2
 10
162.844345
 20
98.500000
 11
178.775009
 21
98.500000
  0
LINE
  8
0
  6
CENTER
 62
     2
 10
162.557632
 20
40.000000
 11
178.775009
 21
40.000000
  0
LINE
  8
0
 10
134.274979
 20
105.200012
 11
134.274979
 21
104.000000
  0
LINE
  8
0
 10
134.274979
 20
105.200012
 11
156.774979
 21
105.200012
  0
LINE
  8
0
 10
136.174942
 20
105.787292
 11
136.174942
 21
105.199997
  0
LINE
  8
0
 10
138.374954
 20
105.787292
 11
138.374954
 21
105.199997
  0
LINE
  8
0
 10
138.374954
 20
105.400024
 11
136.174942
 21
105.400024
  0
LINE
  8
0
 10
137.674942
 20
106.200012
 11
136.874954
 21
106.200012
  0
LINE
  8
0
 10
134.274979
 20
105.199997
 11
134.274979
 21
104.000000
  0
LINE
  8
0
 10
156.774979
 20
105.199997
 11
156.774979
 21
104.000000
  0
LINE
  8
0
 10
152.674942
 20
105.787292
 11
152.674942
 21
105.199997
  0
LINE
  8
0
 10
154.874954
 20
105.787292
 11
154.874954
 21
105.199997
  0
LINE
  8
0
 10
154.874954
 20
105.400024
 11
152.674942
 21
105.400024
  0
LINE
  8
0
 10
154.174942
 20
106.200012
 11
153.374954
 21
106.200012
  0
LINE
  8
0
 10
174.775009
 20
35.500000
 11
132.775009
 21
35.500000
  0
LINE
  8
0
 10
174.775009
 20
94.500000
 11
132.775009
 21
94.500000
  0
LINE
  8
0
 10
174.775009
 20
103.000000
 11
166.775009
 21
103.000000
  0
LINE
  8
0
 10
92.274979
 20
90.499985
 11
92.274979
 21
51.099991
  0
LINE
  8
0
 10
93.774979
 20
91.999985
 11
93.774979
 21
73.500000
  0
LINE
  8
0
 10
95.775009
 20
92.000000
 11
93.774979
 21
92.000000
  0
LINE
  8
0
 10
93.774979
 20
47.000000
 11
92.274979
 21
47.000000
  0
LINE
  8
0
 10
93.774979
 20
52.000000
 11
92.274979
 21
52.000000
  0
LINE
  8
0
 10
95.775009
 20
73.500000
 11
92.274979
 21
73.500000
  0
LINE
  8
0
 10
95.775009
 20
67.500000
 11
92.274979
 21
67.500000
  0
LINE
  8
0
 10
95.775009
 20
39.000000
 11
93.774979
 21
39.000000
  0
LINE
  8
0
 10
93.775124
 20
39.000057
 11
92.275108
 21
40.500050
  0
LINE
  8
0
 10
93.774689
 20
92.000191
 11
92.274742
 21
90.500229
  0
LINE
  8
0
 10
93.774979
 20
67.500000
 11
93.774979
 21
39.000000
  0
LINE
  8
0
 10
94.106766
 20
73.250000
 11
95.775009
 21
73.250000
  0
LINE
  8
0
 10
93.074997
 20
69.499985
 11
93.074997
 21
71.500000
  0
LINE
  8
0
 10
94.106766
 20
67.750000
 11
95.775009
 21
67.750000
  0
LINE
  8
0
 10
93.774979
 20
47.250000
 11
93.774979
 21
51.750000
  0
LINE
  8
0
 10
92.887589
 20
47.250000
 11
93.774979
 21
47.250000
  0
LINE
  8
0
 10
92.887558
 20
51.750000
 11
93.774979
 21
51.750000
  0
LINE
  8
0
 10
92.074997
 20
48.699997
 11
92.074997
 21
50.299988
  0
LINE
  8
0
 10
92.274979
 20
47.900009
 11
92.274979
 21
40.500000
  0
LINE
  8
0
 10
95.075027
 20
67.750000
 11
95.075027
 21
73.249985
  0
LINE
  8
0
 10
-14.225006
 20
-115.000000
 11
8.774994
 21
-115.000000
  0
LINE
  8
0
 10
-14.225006
 20
-104.500000
 11
-10.725006
 21
-104.500000
  0
LINE
  8
0
 10
-14.225006
 20
-110.500000
 11
-10.725006
 21
-110.500000
  0
LINE
  8
0
 10
-11.813784
 20
-108.588448
 11
-9.758064
 21
-106.532730
  0
LINE
  8
0
 10
-11.885990
 20
-106.339523
 11
-9.694278
 21
-108.531235
  0
LINE
  8
0
 10
8.774994
 20
-77.999992
 11
8.774994
 21
-116.000000
  0
LINE
  8
0
 10
-14.225006
 20
-80.000000
 11
8.774994
 21
-80.000000
  0
LINE
  8
0
 10
-14.225006
 20
-77.999992
 11
-14.225006
 21
-116.000000
  0
LINE
  8
0
 10
5.274994
 20
-84.500000
 11
8.774994
 21
-84.500000
  0
LINE
  8
0
 10
5.274994
 20
-90.500000
 11
8.774994
 21
-90.500000
  0
LINE
  8
0
 10
-14.225006
 20
-78.000000
 11
8.775055
 21
-78.000000
  0
LINE
  8
0
 10
7.274784
 20
-76.500313
 11
8.774776
 21
-78.000305
  0
LINE
  8
0
 10
-14.225205
 20
-77.999809
 11
-12.725171
 21
-76.499771
  0
LINE
  8
0
 10
4.186224
 20
-88.588394
 11
6.241987
 21
-86.532631
  0
LINE
  8
0
 10
4.114046
 20
-86.339493
 11
6.305758
 21
-88.531204
  0
LINE
  8
0
 10
-12.724945
 20
-76.500000
 11
7.275055
 21
-76.500000
  0
LINE
  8
0
 10
-23.225006
 20
-159.000000
 11
19.774994
 21
-159.000000
  0
LINE
  8
0
 10
-14.225006
 20
-115.000000
 11
8.774994
 21
-115.000000
  0
LINE
  8
0
 10
-17.225006
 20
-117.000000
 11
13.774994
 21
-117.000000
  0
LINE
  8
0
  6
CENTER
 62
     2
 10
-2.725006
 20
-56.447815
 11
-2.725006
 21
-171.721436
  0
LINE
  8
0
 10
9.274994
 20
-116.000031
 11
9.274994
 21
-117.000031
  0
LINE
  8
0
 10
-14.725006
 20
-116.000031
 11
-14.725006
 21
-117.000031
  0
LINE
  8
0
 10
-23.120331
 20
-151.000000
 11
-14.725006
 21
-151.000000
  0
LINE
  8
0
 10
-14.725006
 20
-116.000000
 11
9.274994
 21
-116.000000
  0
LINE
  8
0
  6
CENTER
 62
     2
 10
-9.725006
 20
-81.999992
 11
-9.725006
 21
-89.999992
  0
LINE
  8
0
  6
CENTER
 62
     2
 10
4.274994
 20
-105.000000
 11
4.274994
 21
-113.000000
  0
LINE
  8
0
  6
CENTER
 62
     2
 10
-13.725006
 20
-86.000000
 11
-5.725006
 21
-86.000000
  0
LINE
  8
0
  6
CENTER
 62
     2
 10
0.274994
 20
-109.000000
 11
8.274994
 21
-109.000000
  0
LINE
  8
0
  6
CENTER
 62
     2
 10
-18.725006
 20
-146.885010
 11
-18.725006
 21
-163.061783
  0
LINE
  8
0
  6
CENTER
 62
     2
 10
15.274979
 20
-146.885010
 11
15.274979
 21
-163.232056
  0
LINE
  8
0
 10
-23.225006
 20
-123.000000
 11
-23.225006
 21
-159.000000
  0
LINE
  8
0
 10
19.774994
 20
-123.000008
 11
19.774994
 21
-159.000000
  0
LINE
  8
0
 10
-23.225405
 20
-122.999619
 11
-17.225397
 21
-116.999611
  0
LINE
  8
0
 10
19.775049
 20
-122.999901
 11
13.775049
 21
-116.999886
  0
LINE
  8
0
 10
-14.725006
 20
-151.000000
 11
-14.725006
 21
-117.000000
  0
LINE
  8
0
 62
     1
 10
0.125038
 20
-71.449387
 11
-5.574976
 21
-72.976715
  0
LINE
  8
0
 62
     1
 10
0.125054
 20
-73.002335
 11
-5.574933
 21
-74.529648
  0
LINE
  8
0
  6
CENTER
 62
     1
 10
-1.425018
 20
-55.938194
 11
-1.425018
 21
-78.926712
  0
LINE
  8
0
 62
     4
 10
-2.274994
 20
-68.000000
 11
-2.274994
 21
-72.092468
  0
LINE
  8
0
 62
     4
 10
-0.574982
 20
-68.000000
 11
-0.574982
 21
-71.636948
  0
LINE
  8
0
 62
     4
 10
-1.745026
 20
-57.999969
 11
-1.745026
 21
-68.000000
  0
LINE
  8
0
 62
     4
 10
-1.105011
 20
-57.999969
 11
-1.105011
 21
-68.000000
  0
LINE
  8
0
 62
     4
 10
-0.575043
 20
-67.999969
 11
-2.275055
 21
-67.999969
  0
LINE
  8
0
 62
     4
 10
-1.105011
 20
-57.999969
 11
-1.745026
 21
-57.999969
  0
LINE
  8
0
 62
     4
 10
-4.875031
 20
-68.000000
 11
-4.875031
 21
-72.789146
  0
LINE
  8
0
 62
     4
 10
-3.175018
 20
-68.000000
 11
-3.175018
 21
-72.333626
  0
LINE
  8
0
 62
     4
 10
-4.345001
 20
-57.999969
 11
-4.345001
 21
-68.000000
  0
LINE
  8
0
 62
     4
 10
-3.704987
 20
-57.999969
 11
-3.704987
 21
-68.000000
  0
LINE
  8
0
 62
     4
 10
-3.175018
 20
-67.999969
 11
-4.875031
 21
-67.999969
  0
LINE
  8
0
 62
     4
 10
-3.705048
 20
-57.999969
 11
-4.345001
 21
-57.999969
  0
LINE
  8
0
  6
CENTER
 62
     1
 10
-4.025055
 20
-55.938194
 11
-4.025055
 21
-78.926712
  0
LINE
  8
0
 62
     4
 10
-4.875031
 20
-74.342117
 11
-4.875031
 21
-76.500000
  0
LINE
  8
0
 62
     4
 10
-3.175018
 20
-73.886597
 11
-3.175018
 21
-76.500000
  0
LINE
  8
0
 62
     4
 10
-2.274994
 20
-73.645439
 11
-2.274994
 21
-76.500000
  0
LINE
  8
0
 62
     4
 10
-0.574982
 20
-73.189926
 11
-0.574982
 21
-76.500000
  0
LINE
  8
0
 10
106.275009
 20
-75.000000
 11
106.275009
 21
-143.500000
  0
LINE
  8
0
 10
149.275009
 20
-75.000000
 11
149.275009
 21
-143.500000
  0
LINE
  8
0
 10
106.275009
 20
-143.500000
 11
149.275009
 21
-143.500000
  0
LINE
  8
0
 10
106.275009
 20
-75.000000
 11
149.275009
 21
-75.000000
  0
LINE
  8
0
 10
134.275009
 20
-73.800003
 11
116.275009
 21
-73.800003
  0
LINE
  8
0
 10
132.374985
 20
-73.212708
 11
132.374985
 21
-73.800003
  0
LINE
  8
0
 10
130.174973
 20
-73.212708
 11
130.174973
 21
-73.800003
  0
LINE
  8
0
 10
130.174973
 20
-73.599991
 11
132.374985
 21
-73.599991
  0
LINE
  8
0
 10
130.874985
 20
-72.800003
 11
131.674973
 21
-72.800003
  0
LINE
  8
0
  6
CENTER
 62
     2
 10
109.275009
 20
-133.500000
 11
124.275009
 21
-133.500000
  0
LINE
  8
0
  6
CENTER
 62
     2
 10
116.775009
 20
-126.000000
 11
116.775009
 21
-141.000000
  0
LINE
  8
0
  6
CENTER
 62
     2
 10
140.775009
 20
-117.500000
 11
140.775009
 21
-132.500000
  0
LINE
  8
0
  6
CENTER
 62
     2
 10
133.275009
 20
-125.000000
 11
148.275009
 21
-125.000000
  0
LINE
  8
0
  6
CENTER
 62
     2
 10
140.775009
 20
-94.500000
 11
140.775009
 21
-109.500000
  0
LINE
  8
0
  6
CENTER
 62
     2
 10
133.275009
 20
-102.000000
 11
148.275009
 21
-102.000000
  0
LINE
  8
0
  6
CENTER
 62
     2
 10
116.775009
 20
-86.000000
 11
116.775009
 21
-101.000000
  0
LINE
  8
0
  6
CENTER
 62
     2
 10
109.275009
 20
-93.500000
 11
124.275009
 21
-93.500000
  0
LINE
  8
0
  6
CENTER
 62
     2
 10
116.775009
 20
-106.000000
 11
116.775009
 21
-121.000000
  0
LINE
  8
0
  6
CENTER
 62
     2
 10
109.275009
 20
-113.500000
 11
124.275009
 21
-113.500000
  0
LINE
  8
0
  6
CENTER
 62
     2
 10
131.275009
 20
-85.000000
 11
131.275009
 21
-92.000000
  0
LINE
  8
0
  6
CENTER
 62
     2
 10
127.775009
 20
-88.500000
 11
134.775009
 21
-88.500000
  0
LINE
  8
0
 10
106.275009
 20
-76.000000
 11
149.275009
 21
-76.000000
  0
LINE
  8
0
  6
CENTER
 62
     2
 10
106.775009
 20
-80.500000
 11
114.775009
 21
-80.500000
  0
LINE
  8
0
  6
CENTER
 62
     2
 10
140.775009
 20
-139.000000
 11
148.775009
 21
-139.000000
  0
LINE
  8
0
  6
CENTER
 62
     2
 10
144.775009
 20
-135.000000
 11
144.775009
 21
-143.000000
  0
LINE
  8
0
  6
CENTER
 62
     2
 10
110.775009
 20
-76.500000
 11
110.775009
 21
-84.500000
  0
LINE
  8
0
 10
134.275009
 20
-73.800003
 11
134.275009
 21
-75.000000
  0
LINE
  8
0
 10
116.275040
 20
-73.800003
 11
116.275040
 21
-75.000000
  0
LINE
  8
0
 10
124.874985
 20
-73.212708
 11
124.874985
 21
-73.800003
  0
LINE
  8
0
 10
122.674973
 20
-73.212708
 11
122.674973
 21
-73.800003
  0
LINE
  8
0
 10
122.674973
 20
-73.599991
 11
124.874985
 21
-73.599991
  0
LINE
  8
0
 10
123.374985
 20
-72.800003
 11
124.174973
 21
-72.800003
  0
CIRCLE
  8
0
 10
-11.225006
 20
85.500000
 40
2.250000
  0
CIRCLE
  8
0
 10
5.774994
 20
45.500000
 40
2.250000
  0
CIRCLE
  8
0
 10
-2.725006
 20
106.000000
 40
2.299999
  0
CIRCLE
  8
0
 10
-2.725006
 20
106.000000
 40
1.500000
  0
ARC
  8
0
 62
     4
 10
6.024994
 20
131.200012
 40
2.000002
 50
40.541660
 51
89.999985
  0
ARC
  8
0
 62
     4
 10
-1.425018
 20
122.500000
 40
1.699997
 50
269.999847
 51
90.000145
  0
ARC
  8
0
 62
     4
 10
-4.024994
 20
122.500000
 40
1.699997
 50
89.999870
 51
270.000122
  0
CIRCLE
  8
0
 62
     4
 10
-4.024994
 20
122.500000
 40
0.850000
  0
CIRCLE
  8
0
 62
     4
 10
-1.425018
 20
122.500000
 40
0.850000
  0
ARC
  8
0
 62
     4
 10
-11.475006
 20
131.200012
 40
2.000000
 50
89.999969
 51
139.458862
  0
ARC
  8
0
 62
     4
 10
-9.975006
 20
131.200012
 40
2.000000
 50
40.541149
 51
89.999969
  0
ARC
  8
0
 62
     4
 10
4.524994
 20
131.200012
 40
2.000000
 50
89.999985
 51
139.458344
  0
ARC
  8
0
 62
     4
 10
6.024994
 20
131.200012
 40
2.000000
 50
89.999985
 51
95.183655
  0
ARC
  8
0
 10
6.274994
 20
71.000000
 40
3.000000
 50
0.000000
 51
0.399688
  0
ARC
  8
0
 10
6.274994
 20
71.500000
 40
3.000000
 50
0.000000
 51
2.505128
  0
ARC
  8
0
 10
6.274994
 20
70.000000
 40
3.000000
 50
0.000000
 51
0.399688
  0
ARC
  8
0
 10
6.274994
 20
70.500000
 40
3.000000
 50
0.000000
 51
2.505128
  0
ARC
  8
0
 10
6.274994
 20
70.500000
 40
3.000000
 50
0.000000
 51
2.440372
  0
CIRCLE
  8
0
 10
15.274979
 20
98.500000
 40
2.250000
  0
ARC
  8
0
 10
12.274994
 20
95.500000
 40
1.000000
 50
180.000000
 51
270.000000
  0
CIRCLE
  8
0
 10
-18.725006
 20
40.000000
 40
2.250000
  0
ARC
  8
0
 10
-15.725006
 20
43.500000
 40
1.000000
 50
0.000000
 51
90.000000
  0
ARC
  8
0
 10
-11.725006
 20
78.500000
 40
3.000000
 50
0.000000
 51
89.999985
  0
ARC
  8
0
 10
-11.725006
 20
52.500000
 40
3.000000
 50
0.000000
 51
89.999985
  0
ARC
  8
0
 10
5.774994
 20
45.500000
 40
2.500000
 50
89.999977
 51
270.000000
  0
ARC
  8
0
 10
-11.225006
 20
85.500000
 40
2.500000
 50
0.000000
 51
89.999977
  0
ARC
  8
0
 10
-11.725006
 20
52.500000
 40
3.000000
 50
270.000031
 51
0.000000
  0
ARC
  8
0
 10
-11.725006
 20
78.500000
 40
3.000000
 50
270.000031
 51
0.000000
  0
ARC
  8
0
 10
6.274994
 20
70.500000
 40
3.000000
 50
89.999985
 51
270.000000
  0
ARC
  8
0
 10
-11.225006
 20
85.500000
 40
2.500000
 50
270.000031
 51
0.000000
  0
CIRCLE
  8
0
 10
-11.725006
 20
52.500000
 40
2.500000
  0
CIRCLE
  8
0
 10
-11.725006
 20
78.500000
 40
2.500000
  0
CIRCLE
  8
0
 10
6.274994
 20
70.500000
 40
2.500000
  0
ARC
  8
0
 62
     4
 10
-106.475006
 20
131.200012
 40
2.000000
 50
90.000000
 51
180.000000
  0
ARC
  8
0
 62
     4
 10
-104.975006
 20
131.200012
 40
2.000000
 50
0.000000
 51
90.000000
  0
ARC
  8
0
 62
     4
 10
-126.475006
 20
131.200012
 40
2.000000
 50
90.000000
 51
139.458298
  0
ARC
  8
0
 62
     4
 10
-124.975006
 20
131.200012
 40
2.000003
 50
40.788296
 51
90.000000
  0
ARC
  8
0
 10
-106.711761
 20
32.796509
 40
1.999998
 50
208.953568
 51
270.000000
  0
ARC
  8
0
 10
-104.711823
 20
32.796509
 40
2.000000
 50
270.000000
 51
331.043793
  0
CIRCLE
  8
0
 62
     2
 10
-156.225006
 20
55.000000
 40
6.578500
  0
CIRCLE
  8
0
 10
-156.225006
 20
55.000000
 40
5.722500
  0
CIRCLE
  8
0
 62
     2
 10
-156.225006
 20
76.000000
 40
6.578500
  0
CIRCLE
  8
0
 10
-156.225006
 20
76.000000
 40
5.722500
  0
CIRCLE
  8
0
 62
     2
 10
-167.225006
 20
90.500000
 40
4.864000
  0
CIRCLE
  8
0
 10
-167.225006
 20
90.500000
 40
4.278000
  0
ARC
  8
0
 10
-139.324982
 20
105.400024
 40
0.800000
 50
28.953182
 51
90.000000
  0
ARC
  8
0
 10
-140.124969
 20
105.400024
 40
0.800003
 50
90.000000
 51
151.046814
  0
ARC
  8
0
 10
-156.624969
 20
105.400024
 40
0.800003
 50
90.000000
 51
151.046814
  0
ARC
  8
0
 10
-155.824982
 20
105.400024
 40
0.800000
 50
28.953182
 51
90.000000
  0
ARC
  8
0
 10
-97.525055
 20
79.500000
 40
2.000000
 50
0.000000
 51
61.044472
  0
ARC
  8
0
 10
-97.525055
 20
77.500000
 40
2.000001
 50
298.955536
 51
0.000000
  0
ARC
  8
0
 10
-96.609894
 20
75.950012
 40
0.199997
 50
270.000000
 51
300.556305
  0
ARC
  8
0
 10
-97.525055
 20
53.500000
 40
2.000000
 50
0.000000
 51
61.044472
  0
ARC
  8
0
 10
-97.525055
 20
51.500000
 40
2.000001
 50
298.955536
 51
0.000000
  0
ARC
  8
0
 10
-96.609894
 20
49.950012
 40
0.200001
 50
270.000000
 51
300.556305
  0
ARC
  8
0
 10
-96.225006
 20
86.299988
 40
1.699997
 50
0.000000
 51
58.533295
  0
ARC
  8
0
 10
-96.225006
 20
84.699982
 40
1.699998
 50
301.467072
 51
0.000000
  0
ARC
  8
0
 10
104.261765
 20
32.796509
 40
2.000000
 50
270.000000
 51
331.046417
  0
ARC
  8
0
 10
102.261795
 20
32.796509
 40
2.000004
 50
208.956116
 51
270.000000
  0
ARC
  8
0
 62
     4
 10
104.025009
 20
131.200012
 40
2.000003
 50
40.788296
 51
90.000000
  0
ARC
  8
0
 62
     4
 10
122.525009
 20
131.200012
 40
2.000000
 50
90.000000
 51
180.000000
  0
ARC
  8
0
 62
     4
 10
124.025009
 20
131.200012
 40
2.000000
 50
0.000000
 51
90.000000
  0
ARC
  8
0
 62
     4
 10
102.525009
 20
131.200012
 40
2.000000
 50
90.000000
 51
139.458298
  0
CIRCLE
  8
0
 62
     2
 10
153.775009
 20
45.500000
 40
6.578500
  0
CIRCLE
  8
0
 10
153.775009
 20
45.500000
 40
5.722500
  0
CIRCLE
  8
0
 62
     2
 10
147.275009
 20
65.500000
 40
6.578500
  0
CIRCLE
  8
0
 10
147.275009
 20
65.500000
 40
5.722500
  0
CIRCLE
  8
0
 62
     2
 10
153.775009
 20
85.500000
 40
6.578500
  0
CIRCLE
  8
0
 10
153.775009
 20
85.500000
 40
5.722500
  0
ARC
  8
0
 10
136.874954
 20
105.400024
 40
0.800003
 50
90.000000
 51
151.046814
  0
ARC
  8
0
 10
137.674942
 20
105.400024
 40
0.800000
 50
28.953182
 51
90.000000
  0
ARC
  8
0
 10
154.174942
 20
105.400024
 40
0.800000
 50
28.953182
 51
90.000000
  0
ARC
  8
0
 10
153.374954
 20
105.400024
 40
0.800003
 50
90.000000
 51
151.046814
  0
ARC
  8
0
 10
95.075027
 20
69.500000
 40
2.000000
 50
180.000000
 51
241.044662
  0
ARC
  8
0
 10
95.075027
 20
71.500000
 40
2.000001
 50
118.955528
 51
180.000000
  0
ARC
  8
0
 10
94.159866
 20
73.049988
 40
0.199997
 50
90.000000
 51
120.556305
  0
ARC
  8
0
 10
93.774979
 20
48.700012
 40
1.699997
 50
180.000000
 51
238.533295
  0
ARC
  8
0
 10
93.774979
 20
50.299988
 40
1.700002
 50
121.467278
 51
180.000000
  0
CIRCLE
  8
0
 10
-9.725006
 20
-86.000000
 40
1.200000
  0
CIRCLE
  8
0
 62
     2
 10
-9.725006
 20
-86.000000
 40
1.500000
  0
ARC
  8
0
 10
-10.725006
 20
-107.500000
 40
3.000000
 50
0.000000
 51
89.999985
  0
ARC
  8
0
 10
-10.725006
 20
-107.500000
 40
3.000000
 50
270.000031
 51
0.000000
  0
CIRCLE
  8
0
 10
-10.725006
 20
-107.500000
 40
2.750000
  0
CIRCLE
  8
0
 10
4.274994
 20
-109.000000
 40
2.299999
  0
CIRCLE
  8
0
 62
     2
 10
4.274994
 20
-109.000000
 40
1.500000
  0
CIRCLE
  8
0
 10
4.274994
 20
-109.000000
 40
1.200000
  0
ARC
  8
0
 10
5.274994
 20
-87.500000
 40
3.000000
 50
89.999985
 51
270.000000
  0
CIRCLE
  8
0
 10
5.274994
 20
-87.500000
 40
2.750000
  0
CIRCLE
  8
0
 10
-9.725006
 20
-86.000000
 40
2.299999
  0
CIRCLE
  8
0
 62
     2
 10
140.775009
 20
-102.000000
 40
6.578500
  0
CIRCLE
  8
0
 10
140.775009
 20
-102.000000
 40
5.722500
  0
ARC
  8
0
 10
131.674973
 20
-73.599991
 40
0.800000
 50
28.953182
 51
90.000000
  0
ARC
  8
0
 10
130.874985
 20
-73.599991
 40
0.800003
 50
90.000000
 51
151.046814
  0
CIRCLE
  8
0
 10
116.775009
 20
-133.500000
 40
5.722500
  0
CIRCLE
  8
0
 62
     2
 10
116.775009
 20
-133.500000
 40
6.578500
  0
CIRCLE
  8
0
 10
116.775009
 20
-113.500000
 40
5.722500
  0
CIRCLE
  8
0
 62
     2
 10
116.775009
 20
-113.500000
 40
6.578500
  0
CIRCLE
  8
0
 10
116.775009
 20
-93.500000
 40
5.722500
  0
CIRCLE
  8
0
 62
     2
 10
116.775009
 20
-93.500000
 40
6.578500
  0
CIRCLE
  8
0
 10
140.775009
 20
-125.000000
 40
5.722500
  0
CIRCLE
  8
0
 62
     2
 10
140.775009
 20
-125.000000
 40
6.578500
  0
CIRCLE
  8
0
 62
     2
 10
131.275009
 20
-88.500000
 40
2.500000
  0
CIRCLE
  8
0
 10
131.275009
 20
-88.500000
 40
2.100000
  0
CIRCLE
  8
0
 10
110.775009
 20
-80.500000
 40
2.250000
  0
CIRCLE
  8
0
 10
144.775009
 20
-139.000000
 40
2.250000
  0
ARC
  8
0
 10
123.374985
 20
-73.599991
 40
0.800003
 50
90.000000
 51
151.046814
  0
ARC
  8
0
 10
124.174973
 20
-73.599991
 40
0.800000
 50
28.953182
 51
90.000000
  0
TEXT
  8
0
 10
174.200241
 20
180.830002
 40
6.300000
  1
DATE: NOV ,1993
 50
0.000000
 41
1.052632
 51
0.000000
  7
STANDARD
  0
TEXT
  8
0
 10
167.564667
 20
-192.100006
 40
9.000000
  1
KOGANEI CORP.
 50
0.000000
 41
1.052632
 51
0.000000
  7
STANDARD
  0
TEXT
  8
0
 10
-247.099716
 20
180.830002
 40
6.300000
  1
A240-4E1
 50
0.000000
 41
1.052632
 51
0.000000
  7
STANDARD
  0
TEXT
  8
0
 10
-270.049713
 20
155.830002
 40
6.300000
  1
MODEL:A240-4E1-25
 50
0.000000
 41
1.052632
 51
0.000000
  7
STANDARD
  0
TEXT
  8
0
 10
152.933624
 20
-101.336670
 40
6.300000
  1
(-27)
 50
0.000000
 41
1.052632
 51
0.000000
  7
STANDARD
  0
TEXT
  8
0
 10
-160.425003
 20
93.678436
 40
3.000000
  1
PR
 50
-90.000000
 41
1.052631
 51
0.000000
  7
STANDARD
  0
TEXT
  8
0
 10
-169.425003
 20
56.678436
 40
3.000000
  1
B
 50
-90.000000
 41
1.052631
 51
0.000000
  7
STANDARD
  0
TEXT
  8
0
 10
-169.425003
 20
77.678436
 40
3.000000
  1
A
 50
-90.000000
 41
1.052631
 51
0.000000
  7
STANDARD
  0
TEXT
  8
0
 10
166.975006
 20
82.321564
 40
3.000000
  1
R1
 50
90.000000
 41
1.052631
 51
0.000000
  7
STANDARD
  0
TEXT
  8
0
 10
160.475006
 20
63.821564
 40
3.000000
  1
P
 50
90.000000
 41
1.052631
 51
0.000000
  7
STANDARD
  0
TEXT
  8
0
 10
166.975006
 20
42.321564
 40
3.000000
  1
R2
 50
90.000000
 41
1.052631
 51
0.000000
  7
STANDARD
  0
TEXT
  8
0
 10
142.718002
 20
-95.879997
 40
3.200000
  1
A
 50
0.000000
 41
1.052632
 51
0.000000
  7
STANDARD
  0
TEXT
  8
0
 10
142.718002
 20
-134.880005
 40
3.200000
  1
B
 50
0.000000
 41
1.052632
 51
0.000000
  7
STANDARD
  0
TEXT
  8
0
 10
114.968010
 20
-86.379997
 40
3.200000
  1
R
 50
0.000000
 41
1.052632
 51
0.000000
  7
STANDARD
  0
TEXT
  8
0
 10
114.968010
 20
-126.379997
 40
3.200000
  1
R
 50
0.000000
 41
1.052632
 51
0.000000
  7
STANDARD
  0
TEXT
  8
0
 10
114.968010
 20
-106.379997
 40
3.200000
  1
P
 50
0.000000
 41
1.052632
 51
0.000000
  7
STANDARD
  0
TEXT
  8
0
 10
128.155014
 20
-91.906998
 40
3.200000
  1
PR
 50
90.000000
 41
1.052632
 51
0.000000
  7
STANDARD
  0
ENDSEC
  0
EOF
