  0
SECTION
  2
HEADER
  9
$ACADVER
  1
AC1009
  9
$DWGCODEPAGE
  3
dos932
  9
$INSBASE
 10
0.0
 20
0.0
 30
0.0
  9
$EXTMIN
 10
-281.25
 20
-195.0
 30
0.0
  9
$EXTMAX
 10
282.09985352
 20
195.5
 30
0.0
  9
$LIMMIN
 10
-281.25
 20
-195.0
  9
$LIMMAX
 10
282.09985352
 20
195.5
  9
$ORTHOMODE
 70
       0
  9
$REGENMODE
 70
       1
  9
$FILLMODE
 70
       1
  9
$QTEXTMODE
 70
       0
  9
$MIRRTEXT
 70
       1
  9
$DRAGMODE
 70
       2
  9
$LTSCALE
 40
1.0
  9
$OSMODE
 70
       0
  9
$ATTMODE
 70
       1
  9
$TEXTSIZE
 40
3.20000005
  9
$TRACEWID
 40
0.05
  9
$TEXTSTYLE
  7
MX_NOTE_STANDARD
  9
$CLAYER
  8
0
  9
$CELTYPE
  6
CONTINUOUS
  9
$CECOLOR
 62
     256
  9
$DIMSCALE
 40
1.0
  9
$DIMASZ
 40
2.5
  9
$DIMEXO
 40
1.5
  9
$DIMDLI
 40
3.75
  9
$DIMRND
 40
0.0
  9
$DIMDLE
 40
0.0
  9
$DIMEXE
 40
1.5
  9
$DIMTP
 40
0.0
  9
$DIMTM
 40
0.0
  9
$DIMTXT
 40
3.20000005
  9
$DIMCEN
 40
2.5
  9
$DIMTSZ
 40
0.0
  9
$DIMTOL
 70
       0
  9
$DIMLIM
 70
       0
  9
$DIMTIH
 70
       0
  9
$DIMTOH
 70
       0
  9
$DIMSE1
 70
       0
  9
$DIMSE2
 70
       0
  9
$DIMTAD
 70
       1
  9
$DIMZIN
 70
       8
  9
$DIMBLK
  1

  9
$DIMASO
 70
       1
  9
$DIMSHO
 70
       1
  9
$DIMPOST
  1

  9
$DIMAPOST
  1

  9
$DIMALT
 70
       0
  9
$DIMALTD
 70
       4
  9
$DIMALTF
 40
0.03937008
  9
$DIMLFAC
 40
1.0
  9
$DIMTOFL
 70
       1
  9
$DIMTVP
 40
0.0
  9
$DIMTIX
 70
       0
  9
$DIMSOXD
 70
       0
  9
$DIMSAH
 70
       0
  9
$DIMBLK1
  1

  9
$DIMBLK2
  1

  9
$DIMSTYLE
  2
MXDIMSTYLE
  9
$DIMCLRD
 70
       0
  9
$DIMCLRE
 70
       0
  9
$DIMCLRT
 70
       0
  9
$DIMTFAC
 40
1.0
  9
$DIMGAP
 40
1.0
  9
$LUNITS
 70
       2
  9
$LUPREC
 70
       4
  9
$AXISMODE
 70
       0
  9
$AXISUNIT
 10
0.0
 20
0.0
  9
$SKETCHINC
 40
0.1
  9
$FILLETRAD
 40
0.0
  9
$AUNITS
 70
       0
  9
$AUPREC
 70
       0
  9
$MENU
  1
acad
  9
$ELEVATION
 40
0.0
  9
$PELEVATION
 40
0.0
  9
$THICKNESS
 40
0.0
  9
$LIMCHECK
 70
       0
  9
$BLIPMODE
 70
       1
  9
$CHAMFERA
 40
0.0
  9
$CHAMFERB
 40
0.0
  9
$SKPOLY
 70
       0
  9
$TDCREATE
 40
2453706.482581019
  9
$TDUPDATE
 40
2453706.482581019
  9
$TDINDWG
 40
0.0000000000
  9
$TDUSRTIMER
 40
0.0000000000
  9
$USRTIMER
 70
       1
  9
$ANGBASE
 50
0.0
  9
$ANGDIR
 70
       0
  9
$PDMODE
 70
       0
  9
$PDSIZE
 40
0.0
  9
$PLINEWID
 40
0.0
  9
$COORDS
 70
       1
  9
$SPLFRAME
 70
       0
  9
$SPLINETYPE
 70
       6
  9
$SPLINESEGS
 70
       8
  9
$ATTDIA
 70
       0
  9
$ATTREQ
 70
       1
  9
$HANDLING
 70
       1
  9
$HANDSEED
  5
169
  9
$SURFTAB1
 70
       6
  9
$SURFTAB2
 70
       6
  9
$SURFTYPE
 70
       6
  9
$SURFU
 70
       6
  9
$SURFV
 70
       6
  9
$UCSNAME
  2

  9
$UCSORG
 10
0.0
 20
0.0
 30
0.0
  9
$UCSXDIR
 10
1.0
 20
0.0
 30
0.0
  9
$UCSYDIR
 10
0.0
 20
1.0
 30
0.0
  9
$PUCSNAME
  2

  9
$PUCSORG
 10
0.0
 20
0.0
 30
0.0
  9
$PUCSXDIR
 10
1.0
 20
0.0
 30
0.0
  9
$PUCSYDIR
 10
0.0
 20
1.0
 30
0.0
  9
$USERI1
 70
       0
  9
$USERI2
 70
       0
  9
$USERI3
 70
       0
  9
$USERI4
 70
       0
  9
$USERI5
 70
       0
  9
$USERR1
 40
0.0
  9
$USERR2
 40
0.0
  9
$USERR3
 40
0.0
  9
$USERR4
 40
0.0
  9
$USERR5
 40
0.0
  9
$WORLDVIEW
 70
       1
  9
$SHADEDGE
 70
       3
  9
$SHADEDIF
 70
      70
  9
$TILEMODE
 70
       1
  9
$MAXACTVP
 70
      16
  9
$PINSBASE
 10
0.0
 20
0.0
 30
0.0
  9
$PLIMCHECK
 70
       0
  9
$PEXTMIN
 10
1.00000000E+20
 20
1.00000000E+20
 30
1.00000000E+20
  9
$PEXTMAX
 10
-1.00000000E+20
 20
-1.00000000E+20
 30
-1.00000000E+20
  9
$PLIMMIN
 10
0.0
 20
0.0
  9
$PLIMMAX
 10
12.0
 20
9.0
  9
$UNITMODE
 70
       0
  9
$VISRETAIN
 70
       0
  9
$PLINEGEN
 70
       1
  9
$PSLTSCALE
 70
       0
  9
$TREEDEPTH
 70
    3020
  9
$DWGCODEPAGE
  3
dos932
  0
ENDSEC
  0
SECTION
  2
TABLES
  0
TABLE
  2
VPORT
 70
       1
  0
VPORT
  2
*ACTIVE
 70
       0
 10
0.0
 20
0.0
 11
1.0
 21
1.0
 12
0.42492676
 22
0.25
 13
0.0
 23
0.0
 14
1.0
 24
1.0
 15
0.0
 25
0.0
 16
0.0
 26
0.0
 36
1.0
 17
0.0
 27
0.0
 37
0.0
 40
394.405
 41
1.73205081
 42
50.0
 43
0.0
 44
0.0
 50
0.0
 51
0.0
 71
       0
 72
     100
 73
       1
 74
       1
 75
       0
 76
       0
 77
       0
 78
       0
  0
ENDTAB
  0
TABLE
  2
LTYPE
 70
       2
  0
LTYPE
  2
CONTINUOUS
 70
      64
  3
Solid line
 72
      65
 73
       0
 40
0.0
  0
LTYPE
  2
DASHED
 70
      64
  3
Dashed __ __ __ __ __ __ __ __ __ __ __ __ __ _
 72
      65
 73
       2
 40
4.0
 49
2.0
 49
-2.0
  0
ENDTAB
  0
TABLE
  2
LAYER
 70
       2
  0
LAYER
  2
0
 70
       0
 62
       7
  6
CONTINUOUS
  0
LAYER
  2
DEFPOINTS
 70
       0
 62
       7
  6
CONTINUOUS
  0
ENDTAB
  0
TABLE
  2
STYLE
 70
       1
  0
STYLE
  2
MX_NOTE_STANDARD
 70
       0
 40
0.0
 41
1.0
 50
0.0
 71
       0
 42
3.20000005
  3
txt.shx
  4
extfont.shx
  0
ENDTAB
  0
TABLE
  2
VIEW
 70
       0
  0
ENDTAB
  0
TABLE
  2
UCS
 70
       0
  0
ENDTAB
  0
TABLE
  2
APPID
 70
       1
  0
APPID
  2
ACAD
 70
       0
  0
ENDTAB
  0
TABLE
  2
DIMSTYLE
 70
       1
  0
DIMSTYLE
  2
MXDIMSTYLE
 70
       0
  3

  4

  5

  6

  7

 40
1.0
 41
2.5
 42
1.5
 43
3.75
 44
1.5
 45
0.0
 46
0.0
 47
0.0
 48
0.0
 71
       0
 72
       0
 73
       0
 74
       0
 75
       0
 76
       0
 77
       1
 78
       8
140
3.20000005
141
2.5
142
0.0
143
0.03937008
144
1.0
145
0.0
146
1.0
147
1.0
170
       0
171
       4
172
       1
173
       0
174
       0
175
       0
176
       0
177
       0
178
       0
  0
ENDTAB
  0
ENDSEC
  0
SECTION
  2
BLOCKS
  0
BLOCK
  8
0
  6
BYBLOCK
 62
       0
  5
12A
  2
_OPEN30
 70
       2
 10
0.0
 20
0.0
 30
0.0
  3
_OPEN30
  0
LINE
  8
0
  6
BYBLOCK
 62
       0
  5
12B
 10
-1.0
 20
0.267949
 30
0.0
 11
0.0
 21
0.0
 31
0.0
  0
LINE
  8
0
  6
BYBLOCK
 62
       0
  5
12C
 10
0.0
 20
0.0
 30
0.0
 11
-1.0
 21
-0.267949
 31
0.0
  0
LINE
  8
0
  6
BYBLOCK
 62
       0
  5
12D
 10
0.0
 20
0.0
 30
0.0
 11
-1.0
 21
0.0
 31
0.0
  0
ENDBLK
  8
0
  6
BYBLOCK
 62
       0
  5
12E
  0
ENDSEC
  0
SECTION
  2
ENTITIES
  0
LINE
  8
0
  6
CONTINUOUS
 62
       2
  5
1E
 10
-28.44206956
 20
162.30089234
 30
0.0
 11
-28.44206956
 21
3.37589234
 31
0.0
  0
LINE
  8
0
  6
CONTINUOUS
 62
       2
  5
1F
 10
161.55793044
 20
159.97589234
 30
0.0
 11
161.55793044
 21
2.90089234
 31
0.0
  0
LINE
  8
0
  6
CONTINUOUS
 62
       7
  5
20
 10
189.55793044
 20
56.02589234
 30
0.0
 11
186.55793044
 21
56.02589234
 31
0.0
  0
LINE
  8
0
  6
CONTINUOUS
 62
       7
  5
21
 10
189.55793044
 20
74.02589234
 30
0.0
 11
186.55793044
 21
74.02589234
 31
0.0
  0
LINE
  8
0
  6
CONTINUOUS
 62
       7
  5
22
 10
198.55793044
 20
137.02589234
 30
0.0
 11
198.55793044
 21
134.52589234
 31
0.0
  0
LINE
  8
0
  6
CONTINUOUS
 62
       7
  5
23
 10
197.55793044
 20
132.30089234
 30
0.0
 11
197.55793044
 21
126.02589234
 31
0.0
  0
LINE
  8
0
  6
CONTINUOUS
 62
       2
  5
24
 10
190.45793044
 20
42.02589234
 30
0.0
 11
133.53293044
 21
42.02589234
 31
0.0
  0
LINE
  8
0
  6
CONTINUOUS
 62
       7
  5
25
 10
196.55793044
 20
23.02589234
 30
0.0
 11
179.88293044
 21
23.02589234
 31
0.0
  0
LINE
  8
0
  6
CONTINUOUS
 62
       7
  5
26
 10
195.55793044
 20
124.02589234
 30
0.0
 11
174.78293044
 21
124.02589234
 31
0.0
  0
LINE
  8
0
  6
CONTINUOUS
 62
       7
  5
27
 10
168.55793044
 20
99.80089234
 30
0.0
 11
168.55793044
 21
96.52589234
 31
0.0
  0
LINE
  8
0
  6
CONTINUOUS
 62
       7
  5
28
 10
184.55793044
 20
92.52589234
 30
0.0
 11
184.55793044
 21
42.02589234
 31
0.0
  0
LINE
  8
0
  6
CONTINUOUS
 62
       7
  5
29
 10
198.55793044
 20
21.02589234
 30
0.0
 11
198.55793044
 21
9.02589234
 31
0.0
  0
LINE
  8
0
  6
CONTINUOUS
 62
       7
  5
2A
 10
198.05793044
 20
133.40089234
 30
0.0
 11
125.05793044
 21
133.40089234
 31
0.0
  0
LINE
  8
0
  6
CONTINUOUS
 62
       7
  5
2B
 10
191.55793044
 20
122.02589234
 30
0.0
 11
191.55793044
 21
76.02589234
 31
0.0
  0
LINE
  8
0
  6
CONTINUOUS
 62
       7
  5
2C
 10
191.55793044
 20
54.02589234
 30
0.0
 11
191.55793044
 21
25.02589234
 31
0.0
  0
LINE
  8
0
  6
CONTINUOUS
 62
       7
  5
2D
 10
133.55793044
 20
56.02589234
 30
0.0
 11
136.55793044
 21
56.02589234
 31
0.0
  0
LINE
  8
0
  6
CONTINUOUS
 62
       7
  5
2E
 10
133.55793044
 20
74.02589234
 30
0.0
 11
136.55793044
 21
74.02589234
 31
0.0
  0
LINE
  8
0
  6
CONTINUOUS
 62
       7
  5
2F
 10
125.55793044
 20
132.30089234
 30
0.0
 11
125.55793044
 21
126.02589234
 31
0.0
  0
LINE
  8
0
  6
CONTINUOUS
 62
       7
  5
30
 10
126.55793044
 20
23.02589234
 30
0.0
 11
143.23293044
 21
23.02589234
 31
0.0
  0
LINE
  8
0
  6
CONTINUOUS
 62
       7
  5
31
 10
127.55793044
 20
124.02589234
 30
0.0
 11
148.33293044
 21
124.02589234
 31
0.0
  0
LINE
  8
0
  6
CONTINUOUS
 62
       7
  5
32
 10
154.55793044
 20
99.80089234
 30
0.0
 11
154.55793044
 21
96.52589234
 31
0.0
  0
LINE
  8
0
  6
CONTINUOUS
 62
       7
  5
33
 10
138.55793044
 20
92.52589234
 30
0.0
 11
138.55793044
 21
42.02589234
 31
0.0
  0
LINE
  8
0
  6
CONTINUOUS
 62
       7
  5
34
 10
124.55793044
 20
21.02589234
 30
0.0
 11
124.55793044
 21
9.02589234
 31
0.0
  0
LINE
  8
0
  6
CONTINUOUS
 62
       7
  5
35
 10
131.55793044
 20
122.02589234
 30
0.0
 11
131.55793044
 21
76.02589234
 31
0.0
  0
LINE
  8
0
  6
CONTINUOUS
 62
       7
  5
36
 10
131.55793044
 20
54.02589234
 30
0.0
 11
131.55793044
 21
25.02589234
 31
0.0
  0
LINE
  8
0
  6
CONTINUOUS
 62
       7
  5
37
 10
198.55793044
 20
131.22589234
 30
0.0
 11
198.55793044
 21
126.22589234
 31
0.0
  0
LINE
  8
0
  6
CONTINUOUS
 62
       2
  5
38
 10
181.55793044
 20
113.02589234
 30
0.0
 11
141.55793044
 21
113.02589234
 31
0.0
  0
LINE
  8
0
  6
CONTINUOUS
 62
       7
  5
39
 10
-88.41706956
 20
129.60089234
 30
0.0
 11
-88.41706956
 21
86.60089234
 31
0.0
  0
LINE
  8
0
  6
CONTINUOUS
 62
       7
  5
3A
 10
31.55793044
 20
67.10089234
 30
0.0
 11
31.55793044
 21
25.10089234
 31
0.0
  0
LINE
  8
0
  6
CONTINUOUS
 62
       7
  5
3B
 10
13.55793044
 20
23.10089234
 30
0.0
 11
29.55793044
 21
23.10089234
 31
0.0
  0
LINE
  8
0
  6
CONTINUOUS
 62
       7
  5
3C
 10
22.70793044
 20
69.10089234
 30
0.0
 11
29.55793044
 21
69.10089234
 31
0.0
  0
LINE
  8
0
  6
CONTINUOUS
 62
       7
  5
3D
 10
11.55793044
 20
125.10089234
 30
0.0
 11
11.55793044
 21
95.67589234
 31
0.0
  0
LINE
  8
0
  6
CONTINUOUS
 62
       7
  5
3E
 10
-63.44206956
 20
124.10089234
 30
0.0
 11
6.55793044
 21
124.10089234
 31
0.0
  0
LINE
  8
0
  6
CONTINUOUS
 62
       7
  5
3F
 10
-85.41706956
 20
85.10089234
 30
0.0
 11
-85.41706956
 21
65.10089234
 31
0.0
  0
LINE
  8
0
  6
CONTINUOUS
 62
       2
  5
40
 10
-93.96706956
 20
42.10089234
 30
0.0
 11
-79.21706956
 21
42.10089234
 31
0.0
  0
LINE
  8
0
  6
CONTINUOUS
 62
       7
  5
41
 10
8.63293044
 20
127.10089234
 30
0.0
 11
9.55793044
 21
127.10089234
 31
0.0
  0
LINE
  8
0
  6
CONTINUOUS
 62
       7
  5
42
 10
-86.91706956
 20
131.10089234
 30
0.0
 11
-67.44206956
 21
131.10089234
 31
0.0
  0
LINE
  8
0
  6
CONTINUOUS
 62
       7
  5
43
 10
-86.86706956
 20
85.10089234
 30
0.0
 11
-85.21706956
 21
85.10089234
 31
0.0
  0
LINE
  8
0
  6
CONTINUOUS
 62
       7
  5
44
 10
-86.91706956
 20
65.10089234
 30
0.0
 11
-85.41706956
 21
65.10089234
 31
0.0
  0
LINE
  8
0
  6
CONTINUOUS
 62
       7
  5
45
 10
-86.91706956
 20
19.10089234
 30
0.0
 11
-70.44206956
 21
19.10089234
 31
0.0
  0
LINE
  8
0
  6
CONTINUOUS
 62
       7
  5
46
 10
-88.41706956
 20
63.60089234
 30
0.0
 11
-88.41706956
 21
20.60089234
 31
0.0
  0
LINE
  8
0
  6
CONTINUOUS
 62
       7
  5
47
 10
-68.44206956
 20
21.10089234
 30
0.0
 11
-68.44206956
 21
9.10089234
 31
0.0
  0
LINE
  8
0
  6
CONTINUOUS
 62
       7
  5
48
 10
11.55793044
 20
21.10089234
 30
0.0
 11
11.55793044
 21
9.10089234
 31
0.0
  0
LINE
  8
0
  6
CONTINUOUS
 62
       7
  5
49
 10
-68.59206956
 20
9.10089234
 30
0.0
 11
11.48293044
 21
9.10089234
 31
0.0
  0
LINE
  8
0
  6
CONTINUOUS
 62
       7
  5
4A
 10
-65.44206956
 20
137.10089234
 30
0.0
 11
8.55793044
 21
137.10089234
 31
0.0
  0
LINE
  8
0
  6
CONTINUOUS
 62
       7
  5
4B
 10
198.55793044
 20
137.02589234
 30
0.0
 11
124.55793044
 21
137.02589234
 31
0.0
  0
LINE
  8
0
  6
CONTINUOUS
 62
       7
  5
4C
 10
198.55793044
 20
9.02589234
 30
0.0
 11
124.55793044
 21
9.02589234
 31
0.0
  0
LINE
  8
0
  6
CONTINUOUS
 62
       7
  5
4D
 10
182.55793044
 20
94.52589234
 30
0.0
 11
140.55793044
 21
94.52589234
 31
0.0
  0
LINE
  8
0
  6
CONTINUOUS
 62
       7
  5
4E
 10
181.50793044
 20
74.52589234
 30
0.0
 11
141.63293044
 21
74.52589234
 31
0.0
  0
LINE
  8
0
  6
CONTINUOUS
 62
       7
  5
4F
 10
198.55793044
 20
131.22589234
 30
0.0
 11
197.55793044
 21
131.22589234
 31
0.0
  0
LINE
  8
0
  6
CONTINUOUS
 62
       7
  5
50
 10
198.55793044
 20
126.22589234
 30
0.0
 11
197.55793044
 21
126.22589234
 31
0.0
  0
LINE
  8
0
  6
CONTINUOUS
 62
       7
  5
51
 10
124.55793044
 20
126.22589234
 30
0.0
 11
125.55793044
 21
126.22589234
 31
0.0
  0
LINE
  8
0
  6
CONTINUOUS
 62
       7
  5
52
 10
124.55793044
 20
131.22589234
 30
0.0
 11
124.55793044
 21
126.22589234
 31
0.0
  0
LINE
  8
0
  6
CONTINUOUS
 62
       7
  5
53
 10
124.55793044
 20
131.22589234
 30
0.0
 11
125.55793044
 21
131.22589234
 31
0.0
  0
LINE
  8
0
  6
CONTINUOUS
 62
       7
  5
54
 10
-66.31706956
 20
23.10089234
 30
0.0
 11
9.70793044
 21
23.10089234
 31
0.0
  0
LINE
  8
0
  6
CONTINUOUS
 62
       7
  5
55
 10
1.55793044
 20
21.10089234
 30
0.0
 11
1.55793044
 21
11.10089234
 31
0.0
  0
LINE
  8
0
  6
CONTINUOUS
 62
       7
  5
56
 10
-8.44206956
 20
21.10089234
 30
0.0
 11
-8.44206956
 21
11.10089234
 31
0.0
  0
LINE
  8
0
  6
CONTINUOUS
 62
       7
  5
57
 10
-58.44206956
 20
21.10089234
 30
0.0
 11
-58.44206956
 21
11.10089234
 31
0.0
  0
LINE
  8
0
  6
DASHED
 62
       7
  5
59
 10
16.45793044
 20
54.10089234
 30
0.0
 11
31.65793044
 21
54.10089234
 31
0.0
  0
LINE
  8
0
  6
DASHED
 62
       7
  5
5A
 10
16.45793044
 20
30.10089234
 30
0.0
 11
31.65793044
 21
30.10089234
 31
0.0
  0
LINE
  8
0
  6
CONTINUOUS
 62
       2
  5
5B
 10
45.73996937
 20
42.10089234
 30
0.0
 11
20.53697494
 21
42.10089234
 31
0.0
  0
LINE
  8
0
  6
CONTINUOUS
 62
       2
  5
5C
 10
-3.44206956
 20
26.40089234
 30
0.0
 11
-3.44206956
 21
4.52589234
 31
0.0
  0
LINE
  8
0
  6
CONTINUOUS
 62
       2
  5
5D
 10
-53.44206956
 20
28.15089234
 30
0.0
 11
-53.44206956
 21
5.40089234
 31
0.0
  0
LINE
  8
0
  6
CONTINUOUS
 62
       7
  5
5E
 10
-49.09206956
 20
56.10089234
 30
0.0
 11
-10.29206956
 21
56.10089234
 31
0.0
  0
LINE
  8
0
  6
CONTINUOUS
 62
       7
  5
5F
 10
-59.41706956
 20
74.10089234
 30
0.0
 11
-11.93974438
 21
74.10089234
 31
0.0
  0
LINE
  8
0
  6
CONTINUOUS
 62
       7
  5
60
 10
22.55793044
 20
69.30089234
 30
0.0
 11
22.55793044
 21
47.07589234
 31
0.0
  0
LINE
  8
0
  6
CONTINUOUS
 62
       7
  5
61
 10
-6.94206956
 20
96.10089234
 30
0.0
 11
8.55793044
 21
96.10089234
 31
0.0
  0
LINE
  8
0
  6
CONTINUOUS
 62
       7
  5
62
 10
18.55793044
 20
86.10089234
 30
0.0
 11
18.55793044
 21
74.00089234
 31
0.0
  0
LINE
  8
0
  6
CONTINUOUS
 62
       2
  5
63
 10
-81.26706956
 20
74.10089234
 30
0.0
 11
-66.46706956
 21
74.10089234
 31
0.0
  0
LINE
  8
0
  6
CONTINUOUS
 62
       7
  5
64
 10
-5.34206956
 20
98.10089234
 30
0.0
 11
11.35793044
 21
98.10089234
 31
0.0
  0
LINE
  8
0
  6
CONTINUOUS
 62
       7
  5
65
 10
-5.44206956
 20
98.00089234
 30
0.0
 11
-5.44206956
 21
96.10089234
 31
0.0
  0
LINE
  8
0
  6
CONTINUOUS
 62
       7
  5
66
 10
-65.44206956
 20
146.65089234
 30
0.0
 11
8.55793044
 21
146.65089234
 31
0.0
  0
LINE
  8
0
  6
CONTINUOUS
 62
       7
  5
67
 10
-65.39206956
 20
133.10089234
 30
0.0
 11
8.55793044
 21
133.10089234
 31
0.0
  0
LINE
  8
0
  6
CONTINUOUS
 62
       2
  5
68
 10
-73.44206956
 20
81.22589234
 30
0.0
 11
-73.44206956
 21
67.17589234
 31
0.0
  0
LINE
  8
0
  6
CONTINUOUS
 62
       7
  5
69
 10
-78.44206956
 20
101.32589234
 30
0.0
 11
-78.44206956
 21
84.92589234
 31
0.0
  0
LINE
  8
0
  6
DASHED
 62
       7
  5
6A
 10
-88.41706956
 20
96.10089234
 30
0.0
 11
-73.41706956
 21
96.10089234
 31
0.0
  0
LINE
  8
0
  6
DASHED
 62
       7
  5
6B
 10
-88.41706956
 20
120.10089234
 30
0.0
 11
-73.41706956
 21
120.10089234
 31
0.0
  0
LINE
  8
0
  6
DASHED
 62
       7
  5
6C
 10
-88.41706956
 20
54.10089234
 30
0.0
 11
-73.66706956
 21
54.10089234
 31
0.0
  0
LINE
  8
0
  6
DASHED
 62
       7
  5
6D
 10
-88.39206956
 20
30.10089234
 30
0.0
 11
-73.66706956
 21
30.10089234
 31
0.0
  0
LINE
  8
0
  6
CONTINUOUS
 62
       7
  5
6E
 10
-65.21706956
 20
65.10089234
 30
0.0
 11
-49.61706956
 21
65.10089234
 31
0.0
  0
LINE
  8
0
  6
CONTINUOUS
 62
       7
  5
6F
 10
-48.44206956
 20
21.80089234
 30
0.0
 11
-48.44206956
 21
11.10089234
 31
0.0
  0
LINE
  8
0
  6
CONTINUOUS
 62
       2
  5
70
 10
-53.34206956
 20
42.10089234
 30
0.0
 11
-2.94206956
 21
42.10089234
 31
0.0
  0
LINE
  8
0
  6
DASHED
 62
       2
  5
71
 10
-88.41706956
 20
55.10089234
 30
0.0
 11
-73.65014288
 21
54.59418407
 31
0.0
  0
LINE
  8
0
  6
DASHED
 62
       2
  5
72
 10
-88.41706956
 20
121.10089234
 30
0.0
 11
-73.41706956
 21
120.44315787
 31
0.0
  0
LINE
  8
0
  6
DASHED
 62
       2
  5
73
 10
31.65793044
 20
55.10089234
 30
0.0
 11
16.12743166
 21
54.53693568
 31
0.0
  0
LINE
  8
0
  6
DASHED
 62
       2
  5
74
 10
-88.41706956
 20
29.10089234
 30
0.0
 11
-73.11706956
 21
29.60089234
 31
0.0
  0
LINE
  8
0
  6
DASHED
 62
       2
  5
75
 10
31.65793044
 20
29.10089234
 30
0.0
 11
17.03293044
 21
29.60089234
 31
0.0
  0
LINE
  8
0
  6
DASHED
 62
       2
  5
76
 10
-88.41706956
 20
95.10089234
 30
0.0
 11
-73.41706956
 21
95.7275242
 31
0.0
  0
LINE
  8
0
  6
CONTINUOUS
 62
       2
  5
77
 10
6.55793044
 20
91.52589234
 30
0.0
 11
6.55793044
 21
76.20089234
 31
0.0
  0
LINE
  8
0
  6
CONTINUOUS
 62
       2
  5
78
 10
-1.16706956
 20
84.10089234
 30
0.0
 11
14.15793044
 21
84.10089234
 31
0.0
  0
LINE
  8
0
  6
CONTINUOUS
 62
       7
  5
79
 10
-48.44206956
 20
107.67589234
 30
0.0
 11
-48.44206956
 21
74.20089234
 31
0.0
  0
LINE
  8
0
  6
CONTINUOUS
 62
       7
  5
7A
 10
-9.44206956
 20
93.60089234
 30
0.0
 11
-9.44206956
 21
76.60089234
 31
0.0
  0
LINE
  8
0
  6
CONTINUOUS
 62
       7
  5
7B
 10
-55.44206956
 20
152.65089234
 30
0.0
 11
-55.44206956
 21
146.67589234
 31
0.0
  0
LINE
  8
0
  6
DASHED
 62
       7
  5
7C
 10
-34.16706956
 20
154.65089234
 30
0.0
 11
-34.16706956
 21
146.70089234
 31
0.0
  0
LINE
  8
0
  6
DASHED
 62
       7
  5
7D
 10
-22.71706956
 20
154.47589234
 30
0.0
 11
-22.71706956
 21
146.70089234
 31
0.0
  0
LINE
  8
0
  6
CONTINUOUS
 62
       7
  5
7E
 10
-48.44206956
 20
155.10089234
 30
0.0
 11
-48.44206956
 21
146.72589234
 31
0.0
  0
LINE
  8
0
  6
DASHED
 62
       2
  5
7F
 10
-35.01706956
 20
154.55089234
 30
0.0
 11
-35.01706956
 21
146.60089234
 31
0.0
  0
LINE
  8
0
  6
DASHED
 62
       2
  5
80
 10
-21.86706956
 20
154.65089234
 30
0.0
 11
-21.86706956
 21
146.70089234
 31
0.0
  0
LINE
  8
0
  6
DASHED
 62
       2
  5
81
 10
-34.16706956
 20
154.65089234
 30
0.0
 11
-34.16706956
 21
146.70089234
 31
0.0
  0
LINE
  8
0
  6
DASHED
 62
       2
  5
82
 10
-22.71706956
 20
154.47589234
 30
0.0
 11
-22.71706956
 21
146.70089234
 31
0.0
  0
LINE
  8
0
  6
CONTINUOUS
 62
       7
  5
83
 10
-8.44206956
 20
155.10089234
 30
0.0
 11
-8.44206956
 21
146.82589234
 31
0.0
  0
LINE
  8
0
  6
CONTINUOUS
 62
       7
  5
84
 10
-64.44206956
 20
152.65089234
 30
0.0
 11
-56.44206956
 21
152.65089234
 31
0.0
  0
LINE
  8
0
  6
CONTINUOUS
 62
       7
  5
85
 10
-65.46706956
 20
151.65089234
 30
0.0
 11
-55.44206956
 21
151.65089234
 31
0.0
  0
LINE
  8
0
  6
CONTINUOUS
 62
       2
  5
86
 10
-60.44206956
 20
153.62589234
 30
0.0
 11
-60.44206956
 21
144.95536607
 31
0.0
  0
LINE
  8
0
  6
CONTINUOUS
 62
       7
  5
87
 10
7.55793044
 20
152.65089234
 30
0.0
 11
-0.44206956
 21
152.65089234
 31
0.0
  0
LINE
  8
0
  6
CONTINUOUS
 62
       2
  5
88
 10
3.55793044
 20
153.62589234
 30
0.0
 11
3.55793044
 21
144.50262353
 31
0.0
  0
LINE
  8
0
  6
CONTINUOUS
 62
       7
  5
89
 10
8.55793044
 20
151.65089234
 30
0.0
 11
-1.44206956
 21
151.65089234
 31
0.0
  0
LINE
  8
0
  6
CONTINUOUS
 62
       7
  5
8A
 10
-1.44206956
 20
151.65089234
 30
0.0
 11
-1.44206956
 21
146.67589234
 31
0.0
  0
LINE
  8
0
  6
CONTINUOUS
 62
       7
  5
8B
 10
198.55793044
 20
152.60089231
 30
0.0
 11
198.55793044
 21
137.10089234
 31
0.0
  0
LINE
  8
0
  6
CONTINUOUS
 62
       7
  5
8C
 10
141.55793044
 20
155.10089234
 30
0.0
 11
141.55793044
 21
147.67589234
 31
0.0
  0
LINE
  8
0
  6
CONTINUOUS
 62
       7
  5
8D
 10
124.43293044
 20
147.60089234
 30
0.0
 11
198.50793044
 21
147.60089234
 31
0.0
  0
LINE
  8
0
  6
CONTINUOUS
 62
       7
  5
8E
 10
134.55793044
 20
152.62589224
 30
0.0
 11
134.55793044
 21
147.62589234
 31
0.0
  0
LINE
  8
0
  6
DASHED
 62
       2
  5
8F
 10
154.98293044
 20
155.10089234
 30
0.0
 11
154.98293044
 21
147.52589234
 31
0.0
  0
LINE
  8
0
  6
DASHED
 62
       2
  5
90
 10
168.13293044
 20
155.10089234
 30
0.0
 11
168.13293044
 21
147.62589234
 31
0.0
  0
LINE
  8
0
  6
DASHED
 62
       2
  5
91
 10
155.83293044
 20
155.10089234
 30
0.0
 11
155.83293044
 21
147.62589234
 31
0.0
  0
LINE
  8
0
  6
DASHED
 62
       2
  5
92
 10
167.28293044
 20
155.10089234
 30
0.0
 11
167.28293044
 21
147.62589234
 31
0.0
  0
LINE
  8
0
  6
CONTINUOUS
 62
       7
  5
93
 10
181.55793044
 20
155.10089234
 30
0.0
 11
181.55793044
 21
147.75089234
 31
0.0
  0
LINE
  8
0
  6
CONTINUOUS
 62
       7
  5
94
 10
125.53293054
 20
153.60089234
 30
0.0
 11
133.58293034
 21
153.60089234
 31
0.0
  0
LINE
  8
0
  6
CONTINUOUS
 62
       7
  5
95
 10
124.53293044
 20
152.60089234
 30
0.0
 11
134.55793044
 21
152.60089234
 31
0.0
  0
LINE
  8
0
  6
CONTINUOUS
 62
       2
  5
96
 10
129.55793044
 20
154.55089234
 30
0.0
 11
129.55793044
 21
146.21704855
 31
0.0
  0
LINE
  8
0
  6
CONTINUOUS
 62
       7
  5
97
 10
197.55793029
 20
153.60089234
 30
0.0
 11
189.55793059
 21
153.60089234
 31
0.0
  0
LINE
  8
0
  6
CONTINUOUS
 62
       2
  5
98
 10
193.55793044
 20
154.55089234
 30
0.0
 11
193.55793044
 21
145.58557249
 31
0.0
  0
LINE
  8
0
  6
CONTINUOUS
 62
       7
  5
99
 10
198.58293044
 20
152.60089234
 30
0.0
 11
188.55793044
 21
152.60089234
 31
0.0
  0
LINE
  8
0
  6
CONTINUOUS
 62
       7
  5
9A
 10
188.55793044
 20
152.60089231
 30
0.0
 11
188.55793044
 21
147.62589234
 31
0.0
  0
LINE
  8
0
  6
CONTINUOUS
 62
       2
  5
9B
 10
-62.59206956
 20
-137.87410766
 30
0.0
 11
-44.84206956
 21
-137.87410766
 31
0.0
  0
LINE
  8
0
  6
CONTINUOUS
 62
       2
  5
9C
 10
-61.21706956
 20
-77.87410766
 30
0.0
 11
-44.34206956
 21
-77.87410766
 31
0.0
  0
LINE
  8
0
  6
CONTINUOUS
 62
       7
  5
9D
 10
-65.94206956
 20
-144.87410766
 30
0.0
 11
-60.94206956
 21
-144.87410766
 31
0.0
  0
LINE
  8
0
  6
CONTINUOUS
 62
       7
  5
9E
 10
-65.94206956
 20
-70.87410766
 30
0.0
 11
-60.94206956
 21
-70.87410766
 31
0.0
  0
LINE
  8
0
  6
CONTINUOUS
 62
       7
  5
9F
 10
11.55793044
 20
-73.37410766
 30
0.0
 11
11.55793044
 21
-142.37410766
 31
0.0
  0
LINE
  8
0
  6
CONTINUOUS
 62
       7
  5
A0
 10
-68.44206956
 20
-73.37410766
 30
0.0
 11
-68.44206956
 21
-142.37410766
 31
0.0
  0
LINE
  8
0
  6
CONTINUOUS
 62
       2
  5
A1
 10
-3.44206956
 20
-71.27410766
 30
0.0
 11
-3.44206956
 21
-87.72410766
 31
0.0
  0
LINE
  8
0
  6
CONTINUOUS
 62
       7
  5
A2
 10
31.55793044
 20
-87.37410766
 30
0.0
 11
31.55793044
 21
-128.37410766
 31
0.0
  0
LINE
  8
0
  6
CONTINUOUS
 62
       7
  5
A3
 10
-88.41706956
 20
-87.37410766
 30
0.0
 11
-88.41706956
 21
-128.37410766
 31
0.0
  0
LINE
  8
0
  6
CONTINUOUS
 62
       7
  5
A4
 10
-58.44206956
 20
-73.37410766
 30
0.0
 11
-58.44206956
 21
-77.84910766
 31
0.0
  0
LINE
  8
0
  6
CONTINUOUS
 62
       7
  5
A5
 10
-48.44206956
 20
-73.37410766
 30
0.0
 11
-48.44206956
 21
-78.24910766
 31
0.0
  0
LINE
  8
0
  6
CONTINUOUS
 62
       2
  5
A6
 10
-15.86706956
 20
-77.87410766
 30
0.0
 11
8.58293044
 21
-77.87410766
 31
0.0
  0
LINE
  8
0
  6
CONTINUOUS
 62
       7
  5
A7
 10
-45.94206956
 20
-70.87410766
 30
0.0
 11
-10.94206956
 21
-70.87410766
 31
0.0
  0
LINE
  8
0
  6
CONTINUOUS
 62
       7
  5
A8
 10
-85.91706956
 20
-84.87410766
 30
0.0
 11
-68.19206956
 21
-84.87410766
 31
0.0
  0
LINE
  8
0
  6
CONTINUOUS
 62
       7
  5
A9
 10
-85.91706956
 20
-130.87410766
 30
0.0
 11
-68.41706956
 21
-130.87410766
 31
0.0
  0
LINE
  8
0
  6
CONTINUOUS
 62
       7
  5
AA
 10
1.55793044
 20
-73.37410766
 30
0.0
 11
1.55793044
 21
-77.84910766
 31
0.0
  0
LINE
  8
0
  6
CONTINUOUS
 62
       7
  5
AB
 10
-8.44206956
 20
-73.37410766
 30
0.0
 11
-8.44206956
 21
-77.77410766
 31
0.0
  0
LINE
  8
0
  6
CONTINUOUS
 62
       7
  5
AC
 10
-8.44206956
 20
-142.37410766
 30
0.0
 11
-8.44206956
 21
-137.99910766
 31
0.0
  0
LINE
  8
0
  6
CONTINUOUS
 62
       7
  5
AD
 10
1.55793044
 20
-142.37410766
 30
0.0
 11
1.55793044
 21
-137.92410766
 31
0.0
  0
LINE
  8
0
  6
CONTINUOUS
 62
       7
  5
AE
 10
-48.44206956
 20
-142.37410766
 30
0.0
 11
-48.44206956
 21
-137.99910766
 31
0.0
  0
LINE
  8
0
  6
CONTINUOUS
 62
       7
  5
AF
 10
-58.44206956
 20
-142.37410766
 30
0.0
 11
-58.44206956
 21
-137.92410766
 31
0.0
  0
LINE
  8
0
  6
CONTINUOUS
 62
       2
  5
B0
 10
-53.44206956
 20
-144.79910766
 30
0.0
 11
-53.44206956
 21
-129.89910766
 31
0.0
  0
LINE
  8
0
  6
CONTINUOUS
 62
       7
  5
B1
 10
-45.94206956
 20
-144.87410766
 30
0.0
 11
-10.94206956
 21
-144.87410766
 31
0.0
  0
LINE
  8
0
  6
CONTINUOUS
 62
       7
  5
B2
 10
4.05793044
 20
-144.87410766
 30
0.0
 11
9.05793044
 21
-144.87410766
 31
0.0
  0
LINE
  8
0
  6
CONTINUOUS
 62
       7
  5
B3
 10
4.05793044
 20
-70.87410766
 30
0.0
 11
9.05793044
 21
-70.87410766
 31
0.0
  0
LINE
  8
0
  6
CONTINUOUS
 62
       2
  5
B4
 10
-16.71706956
 20
-137.87410766
 30
0.0
 11
8.35793044
 21
-137.87410766
 31
0.0
  0
LINE
  8
0
  6
CONTINUOUS
 62
       7
  5
B5
 10
11.38293044
 20
-84.87410766
 30
0.0
 11
29.05793044
 21
-84.87410766
 31
0.0
  0
LINE
  8
0
  6
CONTINUOUS
 62
       7
  5
B6
 10
11.60793044
 20
-130.87410766
 30
0.0
 11
29.05793044
 21
-130.87410766
 31
0.0
  0
LINE
  8
0
  6
CONTINUOUS
 62
       2
  5
B7
 10
-3.44206956
 20
-128.97410766
 30
0.0
 11
-3.44206956
 21
-145.09910766
 31
0.0
  0
LINE
  8
0
  6
CONTINUOUS
 62
       2
  5
B8
 10
-96.69206956
 20
-107.87410766
 30
0.0
 11
37.15793044
 21
-107.87410766
 31
0.0
  0
LINE
  8
0
  6
CONTINUOUS
 62
       2
  5
B9
 10
-53.44206956
 20
-72.69910766
 30
0.0
 11
-53.44206956
 21
-85.87410766
 31
0.0
  0
LINE
  8
0
  6
CONTINUOUS
 62
       7
  5
BA
 10
-161.41706956
 20
121.10089234
 30
0.0
 11
-161.41706956
 21
95.10089234
 31
0.0
  0
LINE
  8
0
  6
CONTINUOUS
 62
       7
  5
BB
 10
-144.41706956
 20
121.10089234
 30
0.0
 11
-144.41706956
 21
95.60089234
 31
0.0
  0
LINE
  8
0
  6
CONTINUOUS
 62
       7
  5
BC
 10
-162.41706956
 20
119.62589234
 30
0.0
 11
-162.41706956
 21
96.50089234
 31
0.0
  0
LINE
  8
0
  6
CONTINUOUS
 62
       7
  5
BD
 10
-142.41706956
 20
118.57589234
 30
0.0
 11
-142.41706956
 21
97.50089234
 31
0.0
  0
LINE
  8
0
  6
CONTINUOUS
 62
       7
  5
BE
 10
-161.41706956
 20
121.10089234
 30
0.0
 11
-144.41706956
 21
120.60089234
 31
0.0
  0
LINE
  8
0
  6
CONTINUOUS
 62
       7
  5
BF
 10
-161.41706956
 20
95.10089234
 30
0.0
 11
-144.41706956
 21
95.60089234
 31
0.0
  0
LINE
  8
0
  6
CONTINUOUS
 62
       7
  5
C0
 10
-162.41706956
 20
119.60089234
 30
0.0
 11
-142.41706956
 21
118.60089234
 31
0.0
  0
LINE
  8
0
  6
CONTINUOUS
 62
       7
  5
C1
 10
-162.41706956
 20
96.60089234
 30
0.0
 11
-142.41706956
 21
97.60089234
 31
0.0
  0
LINE
  8
0
  6
CONTINUOUS
 62
       7
  5
C2
 10
-161.41706956
 20
121.10089234
 30
0.0
 11
-162.41706956
 21
119.60089234
 31
0.0
  0
LINE
  8
0
  6
CONTINUOUS
 62
       7
  5
C3
 10
-144.41706956
 20
95.60089234
 30
0.0
 11
-142.41706956
 21
97.60089234
 31
0.0
  0
LINE
  8
0
  6
CONTINUOUS
 62
       7
  5
C4
 10
-162.41706956
 20
96.60089234
 30
0.0
 11
-161.41706956
 21
95.10089234
 31
0.0
  0
LINE
  8
0
  6
CONTINUOUS
 62
       7
  5
C5
 10
-144.41706956
 20
120.60089234
 30
0.0
 11
-142.41706956
 21
118.60089234
 31
0.0
  0
ARC
  8
0
  6
CONTINUOUS
 62
       7
  5
C6
 10
143.22965683
 20
25.02628026
 30
0.0
 40
2.0003906
 50
270.09376382
 51
43.40664985
  0
ARC
  8
0
  6
CONTINUOUS
 62
       7
  5
C7
 10
129.5541921
 20
25.02963068
 30
0.0
 40
2.00374183
 50
270.10689559
 51
359.89310441
  0
ARC
  8
0
  6
CONTINUOUS
 62
       7
  5
C8
 10
129.5705178
 20
122.03847971
 30
0.0
 40
1.9874525
 50
359.63711958
 51
90.36288042
  0
CIRCLE
  8
0
  6
CONTINUOUS
 62
       7
  5
C9
 10
161.56682632
 20
42.04218568
 30
0.0
 40
22.99999952
  0
ARC
  8
0
  6
CONTINUOUS
 62
       7
  5
CA
 10
195.55419196
 20
126.02963083
 30
0.0
 40
2.00374197
 50
270.10689971
 51
359.89310029
  0
ARC
  8
0
  6
CONTINUOUS
 62
       7
  5
CB
 10
197.05655691
 20
134.51955836
 30
0.0
 40
1.50138689
 50
311.83330442
 51
0.24171763
  0
ARC
  8
0
  6
CONTINUOUS
 62
       7
  5
CC
 10
199.05667024
 20
132.28328334
 30
0.0
 40
1.49884324
 50
131.78523928
 51
179.32685116
  0
ARC
  8
0
  6
CONTINUOUS
 62
       7
  5
CD
 10
189.55418059
 20
76.0296422
 30
0.0
 40
2.00375336
 50
270.10722427
 51
359.89277573
  0
ARC
  8
0
  6
CONTINUOUS
 62
       7
  5
CE
 10
193.55427521
 20
122.02954758
 30
0.0
 40
1.99634811
 50
89.89509361
 51
180.10490639
  0
ARC
  8
0
  6
CONTINUOUS
 62
       7
  5
CF
 10
179.90120598
 20
25.03272554
 30
0.0
 40
2.00691641
 50
137.02134484
 51
269.47824149
  0
ARC
  8
0
  6
CONTINUOUS
 62
       7
  5
D0
 10
193.57052845
 20
25.03849035
 30
0.0
 40
2.01263744
 50
180.3586426
 51
269.6413574
  0
ARC
  8
0
  6
CONTINUOUS
 62
       7
  5
D1
 10
189.57052161
 20
54.03848351
 30
0.0
 40
1.98744871
 50
359.63700912
 51
90.36299088
  0
ARC
  8
0
  6
CONTINUOUS
 62
       7
  5
D2
 10
196.57052924
 20
21.03849114
 30
0.0
 40
1.98744113
 50
359.63678779
 51
90.36321221
  0
ARC
  8
0
  6
CONTINUOUS
 62
       7
  5
D3
 10
133.55427142
 20
54.02955137
 30
0.0
 40
1.99634433
 50
89.89498462
 51
180.10501538
  0
ARC
  8
0
  6
CONTINUOUS
 62
       7
  5
D4
 10
126.55426379
 20
21.029559
 30
0.0
 40
1.99633671
 50
89.89476525
 51
180.10523475
  0
ARC
  8
0
  6
CONTINUOUS
 62
       7
  5
D5
 10
127.57052849
 20
126.03849039
 30
0.0
 40
2.01263748
 50
180.3586438
 51
269.6413562
  0
ARC
  8
0
  6
CONTINUOUS
 62
       7
  5
D6
 10
126.07407515
 20
134.52612332
 30
0.0
 40
1.51614473
 50
180.00872893
 51
227.91624902
  0
ARC
  8
0
  6
CONTINUOUS
 62
       7
  5
D7
 10
124.07402226
 20
132.29002499
 30
0.0
 40
1.48394797
 50
0.41959634
 51
48.46831322
  0
ARC
  8
0
  6
CONTINUOUS
 62
       7
  5
D8
 10
133.57053992
 20
76.03850182
 30
0.0
 40
2.01264898
 50
180.35896695
 51
269.64103305
  0
ARC
  8
0
  6
CONTINUOUS
 62
       7
  5
D9
 10
136.55418054
 20
58.02964225
 30
0.0
 40
2.00375341
 50
270.10722564
 51
359.89277436
  0
ARC
  8
0
  6
CONTINUOUS
 62
       7
  5
DA
 10
186.57053993
 20
58.03850183
 30
0.0
 40
2.01264899
 50
180.35896735
 51
269.64103265
  0
ARC
  8
0
  6
CONTINUOUS
 62
       7
  5
DB
 10
161.55793044
 20
113.0422109
 30
0.0
 40
14.01336116
 50
304.19170835
 51
235.80829165
  0
ARC
  8
0
  6
CONTINUOUS
 62
       7
  5
DC
 10
174.78692015
 20
122.02568578
 30
0.0
 40
2.00021055
 50
90.11428482
 51
214.2176073
  0
ARC
  8
0
  6
CONTINUOUS
 62
       7
  5
DD
 10
148.34287879
 20
122.03304507
 30
0.0
 40
1.9928721
 50
325.38208819
 51
90.28601969
  0
ARC
  8
0
  6
CONTINUOUS
 62
       7
  5
DE
 10
136.57052163
 20
72.03848353
 30
0.0
 40
1.9874487
 50
359.63700871
 51
90.36299129
  0
ARC
  8
0
  6
CONTINUOUS
 62
       7
  5
DF
 10
186.55427137
 20
72.02955142
 30
0.0
 40
1.99634428
 50
89.89498324
 51
180.10501676
  0
ARC
  8
0
  6
CONTINUOUS
 62
       7
  5
E0
 10
29.56023057
 20
25.09859221
 30
0.0
 40
1.9977012
 50
269.93403034
 51
0.06596966
  0
ARC
  8
0
  6
CONTINUOUS
 62
       7
  5
E1
 10
13.56026746
 20
21.09855532
 30
0.0
 40
2.00233838
 50
90.06687245
 51
179.93312755
  0
ARC
  8
0
  6
CONTINUOUS
 62
       7
  5
E2
 10
29.56451023
 20
67.10747213
 30
0.0
 40
1.99343107
 50
359.81088155
 51
90.18911845
  0
ARC
  8
0
  6
CONTINUOUS
 62
       7
  5
E3
 10
-86.92722312
 20
63.6110459
 30
0.0
 40
1.48988104
 50
89.60952557
 51
180.39047443
  0
ARC
  8
0
  6
CONTINUOUS
 62
       7
  5
E4
 10
-86.92294539
 20
20.59501651
 30
0.0
 40
1.49413572
 50
179.77467828
 51
270.22532172
  0
ARC
  8
0
  6
CONTINUOUS
 62
       7
  5
E5
 10
-86.91344012
 20
86.58819119
 30
0.0
 40
1.50368308
 50
179.51603436
 51
278.46579184
  0
ARC
  8
0
  6
CONTINUOUS
 62
       7
  5
E6
 10
-86.9272346
 20
129.61105739
 30
0.0
 40
1.48986963
 50
89.60908074
 51
180.39091926
  0
ARC
  8
0
  6
CONTINUOUS
 62
       7
  5
E7
 10
-70.43547072
 20
17.10749118
 30
0.0
 40
1.99341209
 50
359.81033216
 51
90.18966784
  0
ARC
  8
0
  6
CONTINUOUS
 62
       7
  5
E8
 10
-67.43975039
 20
133.09857318
 30
0.0
 40
1.99768218
 50
269.93348374
 51
0.06651626
  0
CIRCLE
  8
0
  6
CONTINUOUS
 62
       7
  5
E9
 10
161.56682632
 20
42.04218568
 30
0.0
 40
12.00000048
  0
ARC
  8
0
  6
CONTINUOUS
 62
       7
  5
EA
 10
170.55826548
 20
99.79711618
 30
0.0
 40
2.00033861
 50
124.2338751
 51
179.89183925
  0
ARC
  8
0
  6
CONTINUOUS
 62
       7
  5
EB
 10
152.57152834
 20
99.80450486
 30
0.0
 40
1.98640539
 50
359.89580052
 51
55.97848513
  0
ARC
  8
0
  6
CONTINUOUS
 62
       7
  5
EC
 10
152.55418063
 20
96.52964215
 30
0.0
 40
2.00375332
 50
270.1072229
 51
359.8927771
  0
ARC
  8
0
  6
CONTINUOUS
 62
       7
  5
ED
 10
170.5705399
 20
96.5385018
 30
0.0
 40
2.01264896
 50
180.35896655
 51
269.64103345
  0
ARC
  8
0
  6
CONTINUOUS
 62
       7
  5
EE
 10
182.57051017
 20
92.53847208
 30
0.0
 40
1.98746008
 50
359.63734092
 51
90.36265908
  0
ARC
  8
0
  6
CONTINUOUS
 62
       7
  5
EF
 10
140.55428284
 20
92.52953995
 30
0.0
 40
1.99635573
 50
89.89531298
 51
180.10468702
  0
ARC
  8
0
  6
CONTINUOUS
 62
       7
  5
F0
 10
-66.43972656
 20
21.09854934
 30
0.0
 40
2.00234437
 50
90.06704337
 51
179.93295663
  0
ARC
  8
0
  6
CONTINUOUS
 62
       7
  5
F1
 10
9.56449877
 20
21.10746067
 30
0.0
 40
1.99344249
 50
359.81121194
 51
90.18878806
  0
ARC
  8
0
  6
CONTINUOUS
 62
       7
  5
F2
 10
3.56026746
 20
21.09855532
 30
0.0
 40
2.00233838
 50
90.06687245
 51
179.93312755
  0
ARC
  8
0
  6
CONTINUOUS
 62
       7
  5
F3
 10
3.5645091
 20
11.107471
 30
0.0
 40
2.00658944
 50
180.18784599
 51
269.81215401
  0
ARC
  8
0
  6
CONTINUOUS
 62
       7
  5
F4
 10
-10.43550123
 20
21.10746067
 30
0.0
 40
1.99344249
 50
359.81121194
 51
90.18878806
  0
ARC
  8
0
  6
CONTINUOUS
 62
       7
  5
F5
 10
-10.43976178
 20
11.09858456
 30
0.0
 40
1.99769355
 50
269.93381055
 51
0.06618945
  0
ARC
  8
0
  6
CONTINUOUS
 62
       7
  5
F6
 10
-46.43972776
 20
21.09855054
 30
0.0
 40
2.00234317
 50
90.06700919
 51
179.93299081
  0
ARC
  8
0
  6
CONTINUOUS
 62
       7
  5
F7
 10
-46.43548613
 20
11.10747577
 30
0.0
 40
2.00659423
 50
180.18798185
 51
269.81201815
  0
ARC
  8
0
  6
CONTINUOUS
 62
       7
  5
F8
 10
-60.43548337
 20
21.10747853
 30
0.0
 40
1.99342469
 50
359.8106969
 51
90.1893031
  0
ARC
  8
0
  6
CONTINUOUS
 62
       7
  5
F9
 10
-60.43974395
 20
11.09856674
 30
0.0
 40
1.99767575
 50
269.93329878
 51
0.06670122
  0
CIRCLE
  8
0
  6
CONTINUOUS
 62
       7
  5
FA
 10
6.56682632
 20
84.10513581
 30
0.0
 40
5.0
  0
ARC
  8
0
  6
CONTINUOUS
 62
       7
  5
FB
 10
8.56450747
 20
86.10746937
 30
0.0
 40
9.99342513
 50
359.9622916
 51
90.0377084
  0
ARC
  8
0
  6
CONTINUOUS
 62
       7
  5
FC
 10
17.76910388
 20
69.30248097
 30
0.0
 40
4.78882683
 50
359.98099296
 51
80.51889738
  0
CIRCLE
  8
0
  6
CONTINUOUS
 62
       7
  5
FD
 10
-73.43315461
 20
74.10513581
 30
0.0
 40
5.0
  0
ARC
  8
0
  6
CONTINUOUS
 62
       7
  5
FE
 10
-73.43317258
 20
74.12589234
 30
0.0
 40
11.99112908
 50
359.8805454
 51
0.1194546
  0
ARC
  8
0
  6
CONTINUOUS
 62
       7
  5
FF
 10
-73.43611857
 20
74.10742901
 30
0.0
 40
12.0009464
 50
114.52224585
 51
350.01166296
  0
ARC
  8
0
  6
CONTINUOUS
 62
       7
  5
100
 10
-63.43548518
 20
126.10747672
 30
0.0
 40
2.00659519
 50
180.18800903
 51
269.81199097
  0
ARC
  8
0
  6
CONTINUOUS
 62
       7
  5
101
 10
9.56450641
 20
125.10746831
 30
0.0
 40
1.99343488
 50
359.81099168
 51
90.18900832
  0
ARC
  8
0
  6
CONTINUOUS
 62
       7
  5
102
 10
6.56024203
 20
126.09858076
 30
0.0
 40
1.99768975
 50
269.93370137
 51
0.06629863
  0
ARC
  8
0
  6
CONTINUOUS
 62
       7
  5
103
 10
-53.43365565
 20
-77.82410766
 30
0.0
 40
4.9918365
 50
359.42609561
 51
0.57390439
  0
ARC
  8
0
  6
CONTINUOUS
 62
       7
  5
104
 10
-53.44215257
 20
-77.89481123
 30
0.0
 40
5.00012587
 50
179.47628153
 51
0.23724017
  0
ARC
  8
0
  6
CONTINUOUS
 62
       7
  5
105
 10
-3.44198644
 20
-77.89485575
 30
0.0
 40
5.00012617
 50
179.76224964
 51
0.52422866
  0
ARC
  8
0
  6
CONTINUOUS
 62
       7
  5
106
 10
-3.44206956
 20
-137.89910766
 30
0.0
 40
5.00006436
 50
359.71352349
 51
179.71352349
  0
ARC
  8
0
  6
CONTINUOUS
 62
       7
  5
107
 10
-53.44206956
 20
-137.89910766
 30
0.0
 40
5.00006429
 50
0.28647651
 51
180.28647651
  0
CIRCLE
  8
0
  6
CONTINUOUS
 62
       7
  5
108
 10
-28.43317368
 20
-107.89483367
 30
0.0
 40
28.10000181
  0
ARC
  8
0
  6
CONTINUOUS
 62
       7
  5
109
 10
-16.44035931
 20
-131.64507337
 30
0.0
 40
3.25177784
 50
56.34965924
 51
231.06545432
  0
CIRCLE
  8
0
  6
CONTINUOUS
 62
       7
  5
10A
 10
-16.44078507
 20
-131.64199535
 30
0.0
 40
1.25141234
  0
ARC
  8
0
  6
CONTINUOUS
 62
       7
  5
10B
 10
-65.92723159
 20
-73.38894563
 30
0.0
 40
2.51488174
 50
90.33805089
 51
179.66194911
  0
ARC
  8
0
  6
CONTINUOUS
 62
       7
  5
10C
 10
-60.94802957
 20
-73.38006767
 30
0.0
 40
2.5059671
 50
0.13626836
 51
89.86373164
  0
ARC
  8
0
  6
CONTINUOUS
 62
       7
  5
10D
 10
-45.92723159
 20
-73.38894563
 30
0.0
 40
2.51488174
 50
90.33805089
 51
179.66194911
  0
ARC
  8
0
  6
CONTINUOUS
 62
       7
  5
10E
 10
-10.94803905
 20
-73.38007715
 30
0.0
 40
2.50597661
 50
0.1364846
 51
89.8635154
  0
ARC
  8
0
  6
CONTINUOUS
 62
       7
  5
10F
 10
4.0727589
 20
-73.38893611
 30
0.0
 40
2.51487217
 50
90.33783541
 51
179.66216459
  0
ARC
  8
0
  6
CONTINUOUS
 62
       7
  5
110
 10
9.05196095
 20
-73.38007715
 30
0.0
 40
2.50597661
 50
0.1364846
 51
89.8635154
  0
ARC
  8
0
  6
CONTINUOUS
 62
       7
  5
111
 10
29.05196766
 20
-87.38007044
 30
0.0
 40
2.50596987
 50
0.13633143
 51
89.86366857
  0
ARC
  8
0
  6
CONTINUOUS
 62
       7
  5
112
 10
29.07273058
 20
-128.3889078
 30
0.0
 40
2.48524393
 50
269.65878978
 51
0.34121022
  0
ARC
  8
0
  6
CONTINUOUS
 62
       7
  5
113
 10
9.07273819
 20
-142.38891541
 30
0.0
 40
2.48523636
 50
269.65861327
 51
0.34138673
  0
ARC
  8
0
  6
CONTINUOUS
 62
       7
  5
114
 10
4.05205545
 20
-142.37998265
 30
0.0
 40
2.49413193
 50
179.86503827
 51
270.13496173
  0
ARC
  8
0
  6
CONTINUOUS
 62
       7
  5
115
 10
-10.92726181
 20
-142.38891541
 30
0.0
 40
2.48523636
 50
269.65861327
 51
0.34138673
  0
ARC
  8
0
  6
CONTINUOUS
 62
       7
  5
116
 10
-45.94793495
 20
-142.37997305
 30
0.0
 40
2.4941415
 50
179.86525917
 51
270.13474083
  0
ARC
  8
0
  6
CONTINUOUS
 62
       7
  5
117
 10
-60.92725225
 20
-142.38892497
 30
0.0
 40
2.48522686
 50
269.65839157
 51
0.34160843
  0
ARC
  8
0
  6
CONTINUOUS
 62
       7
  5
118
 10
-65.94793495
 20
-142.37997305
 30
0.0
 40
2.4941415
 50
179.86525917
 51
270.13474083
  0
ARC
  8
0
  6
CONTINUOUS
 62
       7
  5
119
 10
-85.9354702
 20
-128.3925083
 30
0.0
 40
2.48166757
 50
179.57516915
 51
270.42483085
  0
ARC
  8
0
  6
CONTINUOUS
 62
       7
  5
11A
 10
-85.91467748
 20
-87.37649974
 30
0.0
 40
2.50239322
 50
90.05476996
 51
179.94523004
  0
ARC
  8
0
  6
CONTINUOUS
 62
       7
  5
11B
 10
-73.78128552
 20
41.82123942
 30
0.0
 40
24.8392164
 50
0.01073273
 51
25.528357
  0
ARC
  8
0
  6
CONTINUOUS
 62
       7
  5
11C
 10
-73.7972985
 20
41.7981081
 30
0.0
 40
24.85524447
 50
311.30222811
 51
0.06404767
  0
ARC
  8
0
  6
CONTINUOUS
 62
       7
  5
11D
 10
-49.09707613
 20
53.59271471
 30
0.0
 40
2.50818263
 50
89.88563209
 51
205.17198333
  0
ARC
  8
0
  6
CONTINUOUS
 62
       7
  5
11E
 10
35.76068259
 20
49.08245503
 30
0.0
 40
43.76141881
 50
174.40253748
 51
216.66512494
  0
ARC
  8
0
  6
CONTINUOUS
 62
       7
  5
11F
 10
-10.27623917
 20
53.60391996
 30
0.0
 40
2.49702256
 50
354.18413727
 51
90.36324074
  0
ARC
  8
0
  6
CONTINUOUS
 62
       7
  5
120
 10
-11.93974438
 20
76.59856716
 30
0.0
 40
2.4976759
 50
269.94666122
 51
0.05333878
  0
ARC
  8
0
  6
CONTINUOUS
 62
       7
  5
121
 10
-59.15420634
 20
71.60181891
 30
0.0
 40
2.49910654
 50
90.29490985
 51
170.23020346
  0
ARC
  8
0
  6
CONTINUOUS
 62
       7
  5
122
 10
-30.7310921
 20
69.59770457
 30
0.0
 40
19.2394086
 50
166.54031035
 51
224.54900745
  0
ARC
  8
0
  6
CONTINUOUS
 62
       7
  5
123
 10
-97.38219524
 20
91.11327684
 30
0.0
 40
51.79580617
 50
19.61483232
 51
39.4160877
  0
ARC
  8
0
  6
CONTINUOUS
 62
       7
  5
124
 10
-50.92822736
 20
107.65000002
 30
0.0
 40
2.48629262
 50
0.59669077
 51
20.01300217
  0
ARC
  8
0
  6
CONTINUOUS
 62
       7
  5
125
 10
33.79442806
 20
111.31422887
 30
0.0
 40
41.2751919
 50
161.91688994
 51
198.63402677
  0
ARC
  8
0
  6
CONTINUOUS
 62
       7
  5
126
 10
-6.93973088
 20
93.59855366
 30
0.0
 40
2.50233977
 50
90.05354847
 51
179.94645153
  0
CIRCLE
  8
0
  6
CONTINUOUS
 62
       2
  5
127
 10
161.56682632
 20
42.04218568
 30
0.0
 40
13.99999857
  0
TEXT
  8
0
  6
CONTINUOUS
 62
       7
  5
128
 10
38.99698689
 20
45.72475139
 30
0.0
 40
4.5
  1
A
 41
0.91428604
  7
MX_NOTE_STANDARD
 11
38.99698689
 21
47.97475139
 31
0.0
 73
       2
  0
POLYLINE
  8
0
  6
CONTINUOUS
 62
       7
  5
12F
 66
       1
 10
0.0
 20
0.0
 30
0.0
  0
VERTEX
  8
0
  6
CONTINUOUS
 62
       7
  5
165
 10
-148.43855241
 20
120.53938569
 30
0.0
  0
VERTEX
  8
0
  6
CONTINUOUS
 62
       7
  5
166
 10
-151.54919806
 20
137.3368828
 30
0.0
  0
SEQEND
  8
0
  6
CONTINUOUS
 62
       7
  5
167
  0
INSERT
  8
0
  6
CONTINUOUS
 62
       7
  5
130
  2
_OPEN30
 10
-148.43855241
 20
120.53938569
 30
0.0
 41
2.77
 42
2.77
 50
280.49147055
 43
2.77
  0
LINE
  8
0
  6
CONTINUOUS
 62
       2
  5
131
 10
-151.54206956
 20
137.32589234
 30
0.0
 11
-174.16706956
 21
137.32589234
 31
0.0
  0
TEXT
  8
0
  6
CONTINUOUS
 62
       7
  5
132
 10
-164.15410378
 20
138.46190919
 30
0.0
 40
4.5
  1
-2
  7
MX_NOTE_STANDARD
  0
CIRCLE
  8
0
  6
CONTINUOUS
 62
       7
  5
133
 10
161.55793044
 20
113.02589234
 30
0.0
 40
8.0
  0
ARC
  8
0
  6
CONTINUOUS
 62
       7
  5
134
 10
161.55793044
 20
113.02589234
 30
0.0
 40
6.5
 50
36.18230424
 51
83.81769576
  0
CIRCLE
  8
0
  6
CONTINUOUS
 62
       7
  5
135
 10
161.55793044
 20
113.02589234
 30
0.0
 40
4.95
  0
LINE
  8
0
  6
CONTINUOUS
 62
       2
  5
136
 10
155.0063002
 20
117.6167682
 30
0.0
 11
156.31150301
 21
116.86320901
 31
0.0
  0
LINE
  8
0
  6
CONTINUOUS
 62
       2
  5
137
 10
154.3063002
 20
116.40433264
 30
0.0
 11
155.61150301
 21
115.65077344
 31
0.0
  0
LINE
  8
0
  6
CONTINUOUS
 62
       2
  5
138
 10
154.3063002
 20
109.64745205
 30
0.0
 11
155.61150301
 21
110.40101124
 31
0.0
  0
LINE
  8
0
  6
CONTINUOUS
 62
       2
  5
139
 10
155.0063002
 20
108.43501648
 30
0.0
 11
156.31150301
 21
109.18857568
 31
0.0
  0
LINE
  8
0
  6
CONTINUOUS
 62
       2
  5
13A
 10
160.85793044
 20
105.05657619
 30
0.0
 11
160.85793044
 21
106.56369457
 31
0.0
  0
LINE
  8
0
  6
CONTINUOUS
 62
       2
  5
13B
 10
162.25793044
 20
105.05657619
 30
0.0
 11
162.25793044
 21
106.56369457
 31
0.0
  0
LINE
  8
0
  6
CONTINUOUS
 62
       2
  5
13C
 10
166.80435787
 20
116.86320901
 30
0.0
 11
168.10956068
 21
117.6167682
 31
0.0
  0
LINE
  8
0
  6
CONTINUOUS
 62
       2
  5
13D
 10
167.50435787
 20
115.65077344
 30
0.0
 11
168.80956068
 21
116.40433264
 31
0.0
  0
LINE
  8
0
  6
CONTINUOUS
 62
       2
  5
13E
 10
167.50435787
 20
110.40101124
 30
0.0
 11
168.80956068
 21
109.64745205
 31
0.0
  0
LINE
  8
0
  6
CONTINUOUS
 62
       2
  5
13F
 10
166.80435787
 20
109.18857568
 30
0.0
 11
168.10956068
 21
108.43501648
 31
0.0
  0
LINE
  8
0
  6
CONTINUOUS
 62
       2
  5
140
 10
162.25793044
 20
119.48809011
 30
0.0
 11
162.25793044
 21
120.9952085
 31
0.0
  0
LINE
  8
0
  6
CONTINUOUS
 62
       2
  5
141
 10
160.85793044
 20
119.48809011
 30
0.0
 11
160.85793044
 21
120.9952085
 31
0.0
  0
ARC
  8
0
  6
CONTINUOUS
 62
       7
  5
142
 10
161.55793044
 20
113.02589234
 30
0.0
 40
6.5
 50
96.18230424
 51
143.81769576
  0
ARC
  8
0
  6
CONTINUOUS
 62
       7
  5
143
 10
161.55793044
 20
113.02589234
 30
0.0
 40
6.5
 50
156.18230424
 51
203.81769576
  0
ARC
  8
0
  6
CONTINUOUS
 62
       7
  5
144
 10
161.55793044
 20
113.02589234
 30
0.0
 40
6.5
 50
216.18230424
 51
263.81769576
  0
ARC
  8
0
  6
CONTINUOUS
 62
       7
  5
145
 10
161.55793044
 20
113.02589234
 30
0.0
 40
6.5
 50
276.18230424
 51
323.81769576
  0
ARC
  8
0
  6
CONTINUOUS
 62
       7
  5
146
 10
161.55793044
 20
113.02589234
 30
0.0
 40
6.5
 50
336.18230424
 51
23.81769576
  0
LINE
  8
0
  6
CONTINUOUS
 62
       7
  5
147
 10
-48.44206956
 20
155.10089234
 30
0.0
 11
-8.44206956
 21
155.10089234
 31
0.0
  0
LINE
  8
0
  6
CONTINUOUS
 62
       7
  5
148
 10
-48.44206956
 20
155.10089234
 30
0.0
 11
-55.44206956
 21
152.65089234
 31
0.0
  0
LINE
  8
0
  6
CONTINUOUS
 62
       2
  5
149
 10
-167.36706956
 20
108.10089234
 30
0.0
 11
-78.31706956
 21
108.10089234
 31
0.0
  0
LINE
  8
0
  6
CONTINUOUS
 62
       7
  5
14A
 10
124.55793044
 20
152.62589224
 30
0.0
 11
124.55793044
 21
134.52589234
 31
0.0
  0
LINE
  8
0
  6
CONTINUOUS
 62
       7
  5
14B
 10
8.55793044
 20
151.65089234
 30
0.0
 11
8.55793044
 21
126.10089234
 31
0.0
  0
LINE
  8
0
  6
CONTINUOUS
 62
       7
  5
14C
 10
-65.44206956
 20
151.65089234
 30
0.0
 11
-65.44206956
 21
126.10089234
 31
0.0
  0
LINE
  8
0
  6
CONTINUOUS
 62
       7
  5
14D
 10
-1.44206956
 20
151.3780352
 30
0.0
 11
-8.44206956
 21
155.10089234
 31
0.0
  0
LINE
  8
0
  6
CONTINUOUS
 62
       7
  5
14E
 10
-65.44206956
 20
151.65089234
 30
0.0
 11
-64.44206956
 21
152.65089234
 31
0.0
  0
LINE
  8
0
  6
CONTINUOUS
 62
       7
  5
14F
 10
-55.44206956
 20
151.65089234
 30
0.0
 11
-56.44206956
 21
152.65089234
 31
0.0
  0
LINE
  8
0
  6
CONTINUOUS
 62
       7
  5
150
 10
-1.44206956
 20
151.65089234
 30
0.0
 11
-0.44206956
 21
152.65089234
 31
0.0
  0
LINE
  8
0
  6
CONTINUOUS
 62
       7
  5
151
 10
8.55793044
 20
151.65089234
 30
0.0
 11
7.55793044
 21
152.65089234
 31
0.0
  0
LINE
  8
0
  6
CONTINUOUS
 62
       7
  5
152
 10
141.55793047
 20
155.10089234
 30
0.0
 11
181.55793047
 21
155.10089234
 31
0.0
  0
LINE
  8
0
  6
CONTINUOUS
 62
       7
  5
153
 10
181.55793044
 20
155.10089234
 30
0.0
 11
188.60793044
 21
152.27589234
 31
0.0
  0
LINE
  8
0
  6
CONTINUOUS
 62
       7
  5
154
 10
134.55793044
 20
152.2994739
 30
0.0
 11
141.55793044
 21
155.10089234
 31
0.0
  0
LINE
  8
0
  6
CONTINUOUS
 62
       7
  5
155
 10
124.55793047
 20
152.62589227
 30
0.0
 11
125.53293049
 21
153.60089229
 31
0.0
  0
LINE
  8
0
  6
CONTINUOUS
 62
       7
  5
156
 10
134.55793042
 20
152.62589227
 30
0.0
 11
133.58293039
 21
153.60089229
 31
0.0
  0
LINE
  8
0
  6
CONTINUOUS
 62
       7
  5
157
 10
197.55793035
 20
153.60089229
 30
0.0
 11
198.55793047
 21
152.60089229
 31
0.0
  0
LINE
  8
0
  6
CONTINUOUS
 62
       7
  5
158
 10
189.55793054
 20
153.60089229
 30
0.0
 11
188.55793042
 21
152.60089229
 31
0.0
  0
ARC
  8
0
  6
CONTINUOUS
 62
       7
  5
159
 10
-28.44206956
 20
-108.87410766
 30
0.0
 40
25.0
 50
306.74382786
 51
233.25617214
  0
ARC
  8
0
  6
CONTINUOUS
 62
       7
  5
15A
 10
-40.44377981
 20
-131.64507337
 30
0.0
 40
3.25177784
 50
308.93454568
 51
123.65034076
  0
CIRCLE
  8
0
  6
CONTINUOUS
 62
       7
  5
15B
 10
-40.44335405
 20
-131.64199535
 30
0.0
 40
1.25141234
  0
ARC
  8
0
  6
CONTINUOUS
 62
       7
  5
15C
 10
-14.08435077
 20
-128.10574595
 30
0.0
 40
1.0
 50
236.34965924
 51
306.74382786
  0
ARC
  8
0
  6
CONTINUOUS
 62
       7
  5
15D
 10
-42.79978834
 20
-128.10574595
 30
0.0
 40
1.0
 50
233.25617214
 51
303.65034076
  0
LINE
  8
0
  6
CONTINUOUS
 62
       2
  5
15E
 10
-28.44206956
 20
-61.37410766
 30
0.0
 11
-28.44206956
 21
-150.44910766
 31
0.0
  0
LINE
  8
0
  6
CONTINUOUS
 62
       7
  5
15F
 10
282.09985352
 20
195.5
 30
0.0
 11
282.09985352
 21
-195.0
 31
0.0
  0
LINE
  8
0
  6
CONTINUOUS
 62
       7
  5
160
 10
-281.25
 20
195.5
 30
0.0
 11
282.09985352
 21
195.5
 31
0.0
  0
LINE
  8
0
  6
CONTINUOUS
 62
       7
  5
161
 10
-281.25
 20
195.5
 30
0.0
 11
-281.25
 21
-195.0
 31
0.0
  0
LINE
  8
0
  6
CONTINUOUS
 62
       7
  5
162
 10
-281.25
 20
-195.0
 30
0.0
 11
282.09985352
 21
-195.0
 31
0.0
  0
TEXT
  8
0
  6
CONTINUOUS
 62
       7
  5
163
 10
-268.25454551
 20
177.3499999
 30
0.0
 40
6.30000019
  1
MODEL:750A
 41
1.09090909
  7
MX_NOTE_STANDARD
 11
-268.25454551
 21
180.5
 31
0.0
 73
       2
  0
ENDSEC
  0
EOF
