  0
SECTION
  2
HEADER
  0
ENDSEC
  0
SECTION
  2
TABLES
  0
TABLE
  2
LTYPE
 70
     4
  0
LTYPE
  2
CONTINUOUS
 70
    64
  3
Solid line
 72
    65
 73
     0
 40
0.000000
  0
LTYPE
  2
DASHED
 70
    64
  3
__ __ __ __ __ __ __ __ __ __ __ __ __ __ __
 72
    65
 73
     2
 40
3.500000
 49
2.000000
 49
-1.500000
  0
LTYPE
  2
CENTER
 70
    64
  3
____ _ ____ _ ____ _ ____ _ ____ _ ____ _ ____
 72
    65
 73
     4
 40
17.500000
 49
13.000000
 49
-1.500000
 49
1.500000
 49
-1.500000
  0
LTYPE
  2
PHANTOM
 70
    64
  3
_____ _ _ _____ _ _ _____ _ _ _____ _ _ ____  
 72
    65
 73
     6
 40
15.500000
 49
8.000000
 49
-1.500000
 49
1.500000
 49
-1.500000
 49
1.500000
 49
-1.500000
  0
LTYPE
  2
DASHED1
 70
    64
  3
__ __ __ __ __ __ __ __ __ __ __ __ __ __ __
 72
    65
 73
     2
 40
1.500000
 49
1.000000
 49
-0.500000
  0
LTYPE
  2
DASHED2
 70
    64
  3
__ __ __ __ __ __ __ __ __ __ __ __ __ __ __
 72
    65
 73
     2
 40
3.500000
 49
2.500000
 49
-1.000000
  0
LTYPE
  2
DASHED3
 70
    64
  3
__ __ __ __ __ __ __ __ __ __ __ __ __ __ __
 72
    65
 73
     2
 40
6.000000
 49
4.000000
 49
-2.000000
  0
LTYPE
  2
DASHED4
 70
    64
  3
__ __ __ __ __ __ __ __ __ __ __ __ __ __ __
 72
    65
 73
     2
 40
12.000000
 49
10.000000
 49
-2.000000
  0
LTYPE
  2
DASHED5
 70
    64
  3
__ __ __ __ __ __ __ __ __ __ __ __ __ __ __
 72
    65
 73
     2
 40
17.000000
 49
15.000000
 49
-2.000000
  0
LTYPE
  2
DASHED6
 70
    64
  3
__ __ __ __ __ __ __ __ __ __ __ __ __ __ __
 72
    65
 73
     2
 40
29.000000
 49
27.000000
 49
-2.000000
  0
LTYPE
  2
PHANTOM1
 70
    64
  3
_____ _ _ _____ _ _ _____ _ _ _____ _ _ ____  
 72
    65
 73
     6
 40
31.000000
 49
25.000000
 49
-1.500000
 49
1.000000
 49
-1.000000
 49
1.000000
 49
-1.500000
  0
LTYPE
  2
PHANTOM2
 70
    64
  3
_____ _ _ _____ _ _ _____ _ _ _____ _ _ ____  
 72
    65
 73
     6
 40
36.000000
 49
27.000000
 49
-1.500000
 49
2.500000
 49
-1.000000
 49
2.500000
 49
-1.500000
  0
LTYPE
  2
PHANTOM3
 70
    64
  3
_____ _ _ _____ _ _ _____ _ _ _____ _ _ ____  
 72
    65
 73
     6
 40
78.000000
 49
64.000000
 49
-2.000000
 49
4.000000
 49
-2.000000
 49
4.000000
 49
-2.000000
  0
LTYPE
  2
CENTER1
 70
    64
  3
____ _ ____ _ ____ _ ____ _ ____ _ ____ _ ____
 72
    65
 73
     4
 40
19.000000
 49
14.000000
 49
-1.000000
 49
3.000000
 49
-1.000000
  0
LTYPE
  2
CENTER2
 70
    64
  3
____ _ ____ _ ____ _ ____ _ ____ _ ____ _ ____
 72
    65
 73
     4
 40
28.500000
 49
25.000000
 49
-1.000000
 49
1.500000
 49
-1.000000
  0
LTYPE
  2
CENTER3
 70
    64
  3
____ _ ____ _ ____ _ ____ _ ____ _ ____ _ ____
 72
    65
 73
     4
 40
31.500000
 49
27.000000
 49
-1.000000
 49
2.500000
 49
-1.000000
  0
LTYPE
  2
CENTER4
 70
    64
  3
____ _ ____ _ ____ _ ____ _ ____ _ ____ _ ____
 72
    65
 73
     4
 40
50.000000
 49
45.000000
 49
-1.000000
 49
3.000000
 49
-1.000000
  0
LTYPE
  2
CENTER5
 70
    64
  3
____ _ ____ _ ____ _ ____ _ ____ _ ____ _ ____
 72
    65
 73
     4
 40
100.000000
 49
92.000000
 49
-2.000000
 49
4.000000
 49
-2.000000
  0
LTYPE
  2
SBK1
 70
    64
  3
______ _ _ _ ______ _ _ _ ______ _ _ _ _____  
 72
    65
 73
     8
 40
60.500000
 49
45.000000
 49
-2.000000
 49
2.500000
 49
-2.000000
 49
2.500000
 49
-2.000000
 49
2.500000
 49
-2.000000
  0
LTYPE
  2
SBK2
 70
    64
  3
______ _ _ _ ______ _ _ _ ______ _ _ _ _____  
 72
    65
 73
     8
 40
84.000000
 49
64.000000
 49
-2.000000
 49
4.000000
 49
-2.000000
 49
4.000000
 49
-2.000000
 49
4.000000
 49
-2.000000
  0
LTYPE
  2
STCH
 70
    64
  3
__ __ __ __ __ __ __ __ __ __ __ __ __ __ __
 72
    65
 73
     2
 40
3.000000
 49
1.000000
 49
-2.000000
  0
LTYPE
  2
MTCH
 70
    64
  3
_____ _ _ _____ _ _ _____ _ _ _____ _ _ ____  
 72
    65
 73
     6
 40
80.000000
 49
66.000000
 49
-2.000000
 49
4.000000
 49
-2.000000
 49
4.000000
 49
-2.000000
  0
ENDTAB
  0
TABLE
  2
LAYER
 70
     1
  0
LAYER
  2
0
 70
     0
 62
     7
  6
CONTINUOUS
  0
ENDTAB
  0
TABLE
  2
STYLE
 70
     1
  0
STYLE
  2
STANDARD
 70
     0
 40
0.000000
 41
1.000000
 50
0.000000
 71
     0
 42
0.200000
  3
txt
  4
BIGFONT
  0
ENDTAB
  0
TABLE
  2
VIEW
 70
     0
  0
ENDTAB
  0
ENDSEC
  0
SECTION
  2
BLOCKS
  0
ENDSEC
  0
SECTION
  2
ENTITIES
  0
POINT
  8
0
 10
0.000000
 20
45.500000
  0
LINE
  8
0
 10
218.329163
 20
-225.956436
 11
370.873566
 21
-225.956436
  0
LINE
  8
0
 10
-218.329163
 20
225.956390
 11
-218.329163
 21
254.558487
  0
LINE
  8
0
 10
-370.873566
 20
225.956390
 11
-218.329163
 21
225.956390
  0
LINE
  8
0
 10
-370.873566
 20
254.558487
 11
370.873566
 21
254.558487
  0
LINE
  8
0
 10
-370.873566
 20
-254.558487
 11
370.873566
 21
-254.558487
  0
LINE
  8
0
 10
370.873566
 20
254.558487
 11
370.873566
 21
-254.558487
  0
LINE
  8
0
 10
-370.873566
 20
-254.558487
 11
-370.873566
 21
254.558487
  0
LINE
  8
0
 10
218.329163
 20
-225.956436
 11
218.329163
 21
-254.558487
  0
LINE
  8
0
 10
218.329163
 20
254.558487
 11
218.329163
 21
225.956390
  0
LINE
  8
0
 10
218.329163
 20
225.956390
 11
370.873566
 21
225.956390
  0
LINE
  8
0
  6
CENTER
 10
0.000000
 20
180.000000
 11
0.000000
 21
79.000000
  0
LINE
  8
0
 10
-41.500000
 20
37.000000
 11
-41.500000
 21
23.000000
  0
LINE
  8
0
 10
41.500000
 20
37.000000
 11
41.500000
 21
23.000000
  0
LINE
  8
0
 10
-14.000000
 20
-87.000000
 11
-5.000000
 21
-87.000000
  0
LINE
  8
0
 10
-40.500000
 20
-182.000000
 11
-5.000000
 21
-182.000000
  0
LINE
  8
0
 10
-41.500000
 20
-95.500000
 11
-41.500000
 21
-181.000000
  0
LINE
  8
0
 10
41.500000
 20
-95.500000
 11
41.500000
 21
-181.000000
  0
LINE
  8
0
 10
15.000000
 20
-88.000000
 11
15.000000
 21
-109.828354
  0
LINE
  8
0
 10
-15.000000
 20
-88.000000
 11
-15.000000
 21
-109.828354
  0
LINE
  8
0
 10
-15.000000
 20
-171.171646
 11
-15.000000
 21
-181.000000
  0
LINE
  8
0
 10
15.000000
 20
-171.171646
 11
15.000000
 21
-181.000000
  0
LINE
  8
0
 10
-5.000000
 20
-172.500000
 11
-5.000000
 21
-182.000000
  0
LINE
  8
0
 10
5.000000
 20
-172.500000
 11
5.000000
 21
-182.000000
  0
LINE
  8
0
 10
5.000000
 20
-96.500000
 11
5.000000
 21
-87.000000
  0
LINE
  8
0
 10
-5.000000
 20
-96.500000
 11
-5.000000
 21
-87.000000
  0
LINE
  8
0
 10
5.000000
 20
-87.000000
 11
14.000000
 21
-87.000000
  0
LINE
  8
0
 10
-40.500000
 20
-94.500000
 11
-15.000000
 21
-94.500000
  0
LINE
  8
0
 10
15.000000
 20
-94.500000
 11
40.500000
 21
-94.500000
  0
LINE
  8
0
 10
-41.500000
 20
30.000000
 11
41.500000
 21
30.000000
  0
LINE
  8
0
 10
-14.000000
 20
82.000000
 11
-5.000000
 21
82.000000
  0
LINE
  8
0
 10
-40.500000
 20
177.000000
 11
-5.000000
 21
177.000000
  0
LINE
  8
0
 10
-41.500000
 20
90.500000
 11
-41.500000
 21
176.000000
  0
LINE
  8
0
 10
41.500000
 20
90.500000
 11
41.500000
 21
176.000000
  0
LINE
  8
0
 10
15.000000
 20
83.000000
 11
15.000000
 21
89.500000
  0
LINE
  8
0
 10
-15.000000
 20
83.000000
 11
-15.000000
 21
89.500000
  0
LINE
  8
0
 10
-5.000000
 20
167.500000
 11
-5.000000
 21
177.000000
  0
LINE
  8
0
 10
5.000000
 20
167.500000
 11
5.000000
 21
177.000000
  0
LINE
  8
0
 10
5.000000
 20
91.500000
 11
5.000000
 21
82.000000
  0
LINE
  8
0
 10
-5.000000
 20
91.500000
 11
-5.000000
 21
82.000000
  0
LINE
  8
0
 10
5.000000
 20
82.000000
 11
14.000000
 21
82.000000
  0
LINE
  8
0
 10
-40.500000
 20
89.500000
 11
-7.500000
 21
89.500000
  0
LINE
  8
0
 10
7.500000
 20
89.500000
 11
40.500000
 21
89.500000
  0
LINE
  8
0
 10
5.000000
 20
177.000000
 11
40.500000
 21
177.000000
  0
LINE
  8
0
 10
5.000000
 20
-182.000000
 11
40.500000
 21
-182.000000
  0
LINE
  8
0
 10
-40.500000
 20
-47.000000
 11
-27.613247
 21
-47.000000
  0
LINE
  8
0
 10
-40.500000
 20
22.000000
 11
-30.000000
 21
22.000000
  0
LINE
  8
0
 10
40.000000
 20
22.000000
 11
40.000000
 21
-12.911278
  0
LINE
  8
0
 10
-40.000000
 20
22.000000
 11
-40.000000
 21
-12.911278
  0
LINE
  8
0
 10
-41.500000
 20
-48.000000
 11
-41.500000
 21
-55.700001
  0
LINE
  8
0
 10
41.500000
 20
-48.000000
 11
41.500000
 21
-55.700001
  0
LINE
  8
0
 10
-40.000000
 20
-27.088724
 11
-40.000000
 21
-47.000000
  0
LINE
  8
0
 10
40.000000
 20
-27.088724
 11
40.000000
 21
-47.000000
  0
LINE
  8
0
 10
-19.000000
 20
21.000000
 11
-19.000000
 21
9.000000
  0
LINE
  8
0
 10
-29.000000
 20
21.000000
 11
-29.000000
 21
9.000000
  0
LINE
  8
0
 10
-18.000000
 20
22.000000
 11
18.000000
 21
22.000000
  0
LINE
  8
0
  6
CENTER
 10
-48.225784
 20
-20.000000
 11
48.774216
 21
-20.000000
  0
LINE
  8
0
 10
-36.000000
 20
8.000000
 11
-12.000000
 21
8.000000
  0
LINE
  8
0
 10
-11.000000
 20
7.000000
 11
-11.000000
 21
-6.000000
  0
LINE
  8
0
 10
-37.000000
 20
7.000000
 11
-37.000000
 21
-7.906612
  0
LINE
  8
0
 10
29.000000
 20
21.000000
 11
29.000000
 21
-2.500000
  0
LINE
  8
0
 10
19.000000
 20
21.000000
 11
19.000000
 21
-2.500000
  0
LINE
  8
0
 10
30.000000
 20
22.000000
 11
40.500000
 21
22.000000
  0
LINE
  8
0
 10
-15.000000
 20
-48.000000
 11
-15.000000
 21
-55.700001
  0
LINE
  8
0
 10
-5.000000
 20
-48.000000
 11
-5.000000
 21
-55.700001
  0
LINE
  8
0
 10
5.000000
 20
-48.000000
 11
5.000000
 21
-55.700001
  0
LINE
  8
0
 10
15.000000
 20
-48.000000
 11
15.000000
 21
-55.700001
  0
LINE
  8
0
 10
-14.000000
 20
-47.000000
 11
14.000000
 21
-47.000000
  0
LINE
  8
0
 10
37.000000
 20
-47.000000
 11
40.500000
 21
-47.000000
  0
LINE
  8
0
 10
16.000000
 20
-53.000000
 11
32.000000
 21
-53.000000
  0
LINE
  8
0
 10
37.000000
 20
-31.715374
 11
37.000000
 21
-48.000000
  0
LINE
  8
0
 10
-7.836770
 20
-30.000000
 11
7.836770
 21
-30.000000
  0
LINE
  8
0
 10
-10.000000
 20
-7.000000
 11
11.906613
 21
-7.000000
  0
LINE
  8
0
 10
-33.500000
 20
161.000000
 11
33.500000
 21
161.000000
  0
LINE
  8
0
 10
-33.500000
 20
110.000000
 11
33.500000
 21
110.000000
  0
LINE
  8
0
  6
CENTER
 10
-44.500000
 20
135.500000
 11
44.500000
 21
135.500000
  0
LINE
  8
0
 10
8.040064
 20
21.000000
 11
8.040064
 21
-6.000000
  0
LINE
  8
0
 10
-8.040064
 20
21.000000
 11
-8.040064
 21
-6.000000
  0
LINE
  8
0
 10
6.500000
 20
176.000000
 11
6.500000
 21
161.000000
  0
LINE
  8
0
 10
-6.500000
 20
176.000000
 11
-6.500000
 21
161.000000
  0
LINE
  8
0
 10
-37.000000
 20
98.500000
 11
-11.000000
 21
98.500000
  0
LINE
  8
0
 10
-37.000000
 20
98.500000
 11
-37.000000
 21
110.806259
  0
LINE
  8
0
 10
-6.500000
 20
102.500000
 11
-6.500000
 21
90.500000
  0
LINE
  8
0
 10
6.500000
 20
102.500000
 11
6.500000
 21
90.500000
  0
LINE
  8
0
 10
-11.000000
 20
98.500000
 11
-11.000000
 21
110.000000
  0
LINE
  8
0
 10
-11.000000
 20
103.500000
 11
12.284625
 21
103.500000
  0
LINE
  8
0
 10
19.000000
 20
98.500000
 11
29.000000
 21
98.500000
  0
LINE
  8
0
 10
19.000000
 20
110.000000
 11
19.000000
 21
98.500000
  0
LINE
  8
0
 10
29.000000
 20
110.000000
 11
29.000000
 21
98.500000
  0
LINE
  8
0
 10
-6.500000
 20
98.500000
 11
6.500000
 21
98.500000
  0
LINE
  8
0
  6
CENTER
 10
0.000000
 20
48.500000
 11
0.000000
 21
-60.000000
  0
LINE
  8
0
  6
CENTER
 10
0.000000
 20
-84.000000
 11
0.000000
 21
-185.000000
  0
LINE
  8
0
 10
-37.000000
 20
-104.500000
 11
-37.000000
 21
-127.509621
  0
LINE
  8
0
 10
37.000000
 20
-104.500000
 11
37.000000
 21
-127.509621
  0
LINE
  8
0
 10
-36.000000
 20
-103.500000
 11
-15.000000
 21
-103.500000
  0
LINE
  8
0
 10
15.000000
 20
-103.500000
 11
36.000000
 21
-103.500000
  0
LINE
  8
0
 10
143.194000
 20
30.000000
 11
194.194000
 21
30.000000
  0
LINE
  8
0
 10
116.194000
 20
-47.000000
 11
131.694000
 21
-47.000000
  0
LINE
  8
0
 10
131.694000
 20
-31.715374
 11
131.694000
 21
-53.000000
  0
LINE
  8
0
 10
131.694000
 20
-53.000000
 11
155.703613
 21
-53.000000
  0
LINE
  8
0
 10
131.694000
 20
-31.715374
 11
158.301697
 21
-31.715374
  0
LINE
  8
0
 10
155.703613
 20
-47.000000
 11
155.703613
 21
-53.000000
  0
LINE
  8
0
 10
158.301697
 20
-31.715374
 11
158.301697
 21
-47.000000
  0
LINE
  8
0
 10
155.703613
 20
-47.000000
 11
209.194000
 21
-47.000000
  0
LINE
  8
0
 10
210.194000
 20
-48.000000
 11
210.194000
 21
-55.700001
  0
LINE
  8
0
 10
115.194000
 20
-48.000000
 11
115.194000
 21
-55.700001
  0
LINE
  8
0
 10
123.694000
 20
-37.500000
 11
130.694000
 21
-37.500000
  0
LINE
  8
0
 10
123.694000
 20
-2.500000
 11
130.694000
 21
-2.500000
  0
LINE
  8
0
 10
122.694000
 20
-3.500000
 11
122.694000
 21
-36.500000
  0
LINE
  8
0
 10
131.694000
 20
8.000000
 11
131.694000
 21
-3.229488
  0
LINE
  8
0
 10
19.000000
 20
8.000000
 11
29.000000
 21
8.000000
  0
LINE
  8
0
 10
131.694000
 20
8.000000
 11
142.194000
 21
8.000000
  0
LINE
  8
0
 10
131.694000
 20
-3.229488
 11
150.144073
 21
-3.229488
  0
LINE
  8
0
 10
151.144073
 20
21.000000
 11
151.144073
 21
-2.229488
  0
LINE
  8
0
 10
143.194000
 20
30.000000
 11
143.194000
 21
9.000000
  0
LINE
  8
0
 10
194.194000
 20
30.000000
 11
194.194000
 21
-8.284626
  0
LINE
  8
0
 10
144.194000
 20
22.000000
 11
193.194000
 21
22.000000
  0
LINE
  8
0
 10
209.194000
 20
-2.500000
 11
195.194000
 21
-2.500000
  0
LINE
  8
0
 10
210.194000
 20
-3.500000
 11
210.194000
 21
-36.500000
  0
LINE
  8
0
 10
209.194000
 20
-37.500000
 11
189.194000
 21
-37.500000
  0
LINE
  8
0
 10
188.194000
 20
-38.500000
 11
188.194000
 21
-46.000000
  0
LINE
  8
0
  6
CENTER
 10
117.950699
 20
-20.000000
 11
215.617371
 21
-20.000000
  0
LINE
  8
0
 10
171.490448
 20
-28.581778
 11
186.088959
 21
-36.376091
  0
LINE
  8
0
 10
171.490433
 20
-11.418235
 11
178.349365
 21
-7.756168
  0
LINE
  8
0
 10
165.897552
 20
-28.581783
 11
158.301682
 21
-32.637306
  0
LINE
  8
0
 10
165.897552
 20
-11.418221
 11
152.106323
 21
-4.054921
  0
LINE
  8
0
 10
189.694000
 20
-48.000000
 11
189.694000
 21
-55.700001
  0
LINE
  8
0
 10
147.694000
 20
-53.000000
 11
147.694000
 21
-55.700001
  0
LINE
  8
0
 10
179.086304
 20
-8.284626
 11
194.194000
 21
-8.284626
  0
LINE
  8
0
 10
179.086304
 20
8.000000
 11
194.194000
 21
8.000000
  0
LINE
  8
0
 10
179.086304
 20
8.000000
 11
179.086304
 21
-8.284626
  0
LINE
  8
0
 10
186.243927
 20
21.000000
 11
186.243927
 21
9.000000
  0
LINE
  8
0
 10
-143.194000
 20
30.000000
 11
-194.194000
 21
30.000000
  0
LINE
  8
0
 10
-116.194000
 20
-47.000000
 11
-131.694000
 21
-47.000000
  0
LINE
  8
0
 10
-131.694000
 20
-31.715374
 11
-131.694000
 21
-53.000000
  0
LINE
  8
0
 10
-131.694000
 20
-53.000000
 11
-155.703613
 21
-53.000000
  0
LINE
  8
0
 10
-131.694000
 20
-31.715374
 11
-158.301697
 21
-31.715374
  0
LINE
  8
0
 10
-155.703613
 20
-47.000000
 11
-155.703613
 21
-53.000000
  0
LINE
  8
0
 10
-158.301697
 20
-31.715374
 11
-158.301697
 21
-47.000000
  0
LINE
  8
0
 10
-155.703613
 20
-47.000000
 11
-209.194000
 21
-47.000000
  0
LINE
  8
0
 10
-210.194000
 20
-48.000000
 11
-210.194000
 21
-55.700001
  0
LINE
  8
0
 10
-115.194000
 20
-48.000000
 11
-115.194000
 21
-55.700001
  0
LINE
  8
0
 10
-123.694000
 20
-37.500000
 11
-130.694000
 21
-37.500000
  0
LINE
  8
0
 10
-123.694000
 20
-2.500000
 11
-130.694000
 21
-2.500000
  0
LINE
  8
0
 10
-122.694000
 20
-3.500000
 11
-122.694000
 21
-36.500000
  0
LINE
  8
0
 10
-131.694000
 20
8.000000
 11
-131.694000
 21
-8.284626
  0
LINE
  8
0
 10
-131.694000
 20
8.000000
 11
-158.301697
 21
8.000000
  0
LINE
  8
0
 10
-151.144073
 20
21.000000
 11
-151.144073
 21
9.000000
  0
LINE
  8
0
 10
-143.194000
 20
30.000000
 11
-143.194000
 21
9.000000
  0
LINE
  8
0
 10
-194.194000
 20
30.000000
 11
-194.194000
 21
-8.284626
  0
LINE
  8
0
 10
-144.194000
 20
22.000000
 11
-193.194000
 21
22.000000
  0
LINE
  8
0
 10
-209.194000
 20
-2.500000
 11
-195.194000
 21
-2.500000
  0
LINE
  8
0
 10
-210.194000
 20
-3.500000
 11
-210.194000
 21
-36.500000
  0
LINE
  8
0
 10
-209.194000
 20
-37.500000
 11
-189.194000
 21
-37.500000
  0
LINE
  8
0
 10
-188.194000
 20
-38.500000
 11
-188.194000
 21
-46.000000
  0
LINE
  8
0
  6
CENTER
 10
-117.950699
 20
-20.000000
 11
-215.617371
 21
-20.000000
  0
LINE
  8
0
 10
-171.490448
 20
-28.581778
 11
-186.088959
 21
-36.376091
  0
LINE
  8
0
 10
-171.490433
 20
-11.418235
 11
-178.349365
 21
-7.756168
  0
LINE
  8
0
 10
-165.897552
 20
-28.581783
 11
-158.301682
 21
-32.637306
  0
LINE
  8
0
 10
-189.694000
 20
-48.000000
 11
-189.694000
 21
-55.700001
  0
LINE
  8
0
 10
-147.694000
 20
-53.000000
 11
-147.694000
 21
-55.700001
  0
LINE
  8
0
 10
-179.086304
 20
-8.284626
 11
-194.194000
 21
-8.284626
  0
LINE
  8
0
 10
-179.086304
 20
8.000000
 11
-194.194000
 21
8.000000
  0
LINE
  8
0
 10
-179.086304
 20
8.000000
 11
-179.086304
 21
-8.284626
  0
LINE
  8
0
 10
-186.243927
 20
21.000000
 11
-186.243927
 21
9.000000
  0
LINE
  8
0
 10
-158.301697
 20
8.000000
 11
-158.301697
 21
-8.284626
  0
LINE
  8
0
 10
-158.301697
 20
-8.284626
 11
-131.694000
 21
-8.284626
  0
LINE
  8
0
 10
-165.897552
 20
-11.418221
 11
-159.038620
 21
-7.756154
  0
LINE
  8
0
 10
-11.000000
 20
45.500000
 11
11.000000
 21
45.500000
  0
LINE
  8
0
 10
-39.500000
 20
39.000000
 11
39.500000
 21
39.000000
  0
LINE
  8
0
 10
-13.000000
 20
41.000000
 11
-13.000000
 21
43.500000
  0
LINE
  8
0
 10
13.000000
 20
41.000000
 11
13.000000
 21
43.500000
  0
LINE
  8
0
 10
-12.936492
 20
44.000000
 11
-27.584137
 21
41.262005
  0
LINE
  8
0
 10
12.936492
 20
44.000000
 11
27.584217
 21
41.261990
  0
LINE
  8
0
 10
-39.867485
 20
138.000000
 11
-14.309088
 21
138.000000
  0
LINE
  8
0
 10
-39.867485
 20
133.000000
 11
-14.309088
 21
133.000000
  0
LINE
  8
0
 10
2.500000
 20
159.367477
 11
2.500000
 21
149.809082
  0
LINE
  8
0
 10
-2.500000
 20
159.367477
 11
-2.500000
 21
149.809082
  0
LINE
  8
0
 10
39.867485
 20
138.000000
 11
14.309088
 21
138.000000
  0
LINE
  8
0
 10
39.867485
 20
133.000000
 11
14.309088
 21
133.000000
  0
LINE
  8
0
 10
-2.500000
 20
111.632523
 11
-2.500000
 21
121.190918
  0
LINE
  8
0
 10
2.500000
 20
111.632523
 11
2.500000
 21
121.190918
  0
LINE
  8
0
  6
CENTER
 10
-32.000000
 20
123.500000
 11
-32.000000
 21
112.500000
  0
LINE
  8
0
  6
CENTER
 10
-37.500000
 20
117.999969
 11
-26.500000
 21
117.999969
  0
LINE
  8
0
 10
-31.399994
 20
115.599991
 11
-31.399994
 21
115.800003
  0
LINE
  8
0
 10
-32.600006
 20
115.599991
 11
-32.600006
 21
115.800003
  0
LINE
  8
0
 10
-34.399994
 20
118.599976
 11
-34.199997
 21
118.599976
  0
LINE
  8
0
 10
-34.399994
 20
117.399979
 11
-34.199997
 21
117.399979
  0
LINE
  8
0
 10
-29.800003
 20
118.599976
 11
-29.600006
 21
118.599976
  0
LINE
  8
0
 10
-31.399994
 20
120.199997
 11
-31.399994
 21
120.399994
  0
LINE
  8
0
 10
-32.600006
 20
120.199997
 11
-32.600006
 21
120.399994
  0
LINE
  8
0
 10
-29.800003
 20
117.399979
 11
-29.600006
 21
117.399979
  0
LINE
  8
0
 10
-29.600006
 20
118.599991
 11
-29.600006
 21
117.399994
  0
LINE
  8
0
 10
-34.399994
 20
118.599991
 11
-34.399994
 21
117.399994
  0
LINE
  8
0
 10
-32.600006
 20
115.599976
 11
-31.399994
 21
115.599976
  0
LINE
  8
0
 10
-32.600006
 20
120.399979
 11
-31.399994
 21
120.399979
  0
LINE
  8
0
  6
CENTER
 10
-32.000000
 20
158.500000
 11
-32.000000
 21
147.500000
  0
LINE
  8
0
  6
CENTER
 10
-37.500000
 20
152.999969
 11
-26.500000
 21
152.999969
  0
LINE
  8
0
 10
-31.399994
 20
150.599991
 11
-31.399994
 21
150.800003
  0
LINE
  8
0
 10
-32.600006
 20
150.599991
 11
-32.600006
 21
150.800003
  0
LINE
  8
0
 10
-34.399994
 20
153.599976
 11
-34.199997
 21
153.599976
  0
LINE
  8
0
 10
-34.399994
 20
152.399979
 11
-34.199997
 21
152.399979
  0
LINE
  8
0
 10
-29.800003
 20
153.599976
 11
-29.600006
 21
153.599976
  0
LINE
  8
0
 10
-31.399994
 20
155.199997
 11
-31.399994
 21
155.399994
  0
LINE
  8
0
 10
-32.600006
 20
155.199997
 11
-32.600006
 21
155.399994
  0
LINE
  8
0
 10
-29.800003
 20
152.399979
 11
-29.600006
 21
152.399979
  0
LINE
  8
0
 10
-29.600006
 20
153.599991
 11
-29.600006
 21
152.399994
  0
LINE
  8
0
 10
-34.399994
 20
153.599991
 11
-34.399994
 21
152.399994
  0
LINE
  8
0
 10
-32.600006
 20
150.599976
 11
-31.399994
 21
150.599976
  0
LINE
  8
0
 10
-32.600006
 20
155.399979
 11
-31.399994
 21
155.399979
  0
LINE
  8
0
  6
CENTER
 10
32.000000
 20
158.500000
 11
32.000000
 21
147.500000
  0
LINE
  8
0
  6
CENTER
 10
26.500000
 20
152.999969
 11
37.500000
 21
152.999969
  0
LINE
  8
0
 10
32.600006
 20
150.599991
 11
32.600006
 21
150.800003
  0
LINE
  8
0
 10
31.399994
 20
150.599991
 11
31.399994
 21
150.800003
  0
LINE
  8
0
 10
29.600006
 20
153.599976
 11
29.800003
 21
153.599976
  0
LINE
  8
0
 10
29.600006
 20
152.399979
 11
29.800003
 21
152.399979
  0
LINE
  8
0
 10
34.199997
 20
153.599976
 11
34.399994
 21
153.599976
  0
LINE
  8
0
 10
32.600006
 20
155.199997
 11
32.600006
 21
155.399994
  0
LINE
  8
0
 10
31.399994
 20
155.199997
 11
31.399994
 21
155.399994
  0
LINE
  8
0
 10
34.199997
 20
152.399979
 11
34.399994
 21
152.399979
  0
LINE
  8
0
 10
34.399994
 20
153.599991
 11
34.399994
 21
152.399994
  0
LINE
  8
0
 10
29.600006
 20
153.599991
 11
29.600006
 21
152.399994
  0
LINE
  8
0
 10
31.399994
 20
150.599976
 11
32.600006
 21
150.599976
  0
LINE
  8
0
 10
31.399994
 20
155.399979
 11
32.600006
 21
155.399979
  0
LINE
  8
0
  6
CENTER
 10
32.000000
 20
123.500000
 11
32.000000
 21
112.500000
  0
LINE
  8
0
  6
CENTER
 10
26.500000
 20
117.999969
 11
37.500000
 21
117.999969
  0
LINE
  8
0
 10
32.600006
 20
115.599991
 11
32.600006
 21
115.800003
  0
LINE
  8
0
 10
31.399994
 20
115.599991
 11
31.399994
 21
115.800003
  0
LINE
  8
0
 10
29.600006
 20
118.599976
 11
29.800003
 21
118.599976
  0
LINE
  8
0
 10
29.600006
 20
117.399979
 11
29.800003
 21
117.399979
  0
LINE
  8
0
 10
34.199997
 20
118.599976
 11
34.399994
 21
118.599976
  0
LINE
  8
0
 10
32.600006
 20
120.199997
 11
32.600006
 21
120.399994
  0
LINE
  8
0
 10
31.399994
 20
120.199997
 11
31.399994
 21
120.399994
  0
LINE
  8
0
 10
34.199997
 20
117.399979
 11
34.399994
 21
117.399979
  0
LINE
  8
0
 10
34.399994
 20
118.599991
 11
34.399994
 21
117.399994
  0
LINE
  8
0
 10
29.600006
 20
118.599991
 11
29.600006
 21
117.399994
  0
LINE
  8
0
 10
31.399994
 20
115.599976
 11
32.600006
 21
115.599976
  0
LINE
  8
0
 10
31.399994
 20
120.399979
 11
32.600006
 21
120.399979
  0
LINE
  8
0
 10
27.400047
 20
40.300003
 11
36.599998
 21
40.300003
  0
LINE
  8
0
 10
30.899885
 20
40.299950
 11
32.199894
 21
38.999939
  0
LINE
  8
0
 10
31.889900
 20
40.299988
 11
33.189877
 21
39.000008
  0
LINE
  8
0
 10
27.400047
 20
40.300003
 11
27.400047
 21
39.000000
  0
LINE
  8
0
 10
36.599998
 20
40.300003
 11
36.599998
 21
39.000000
  0
LINE
  8
0
 10
27.627920
 20
41.761513
 11
27.500050
 21
40.299995
  0
LINE
  8
0
 10
36.372162
 20
41.761505
 11
36.500027
 21
40.300003
  0
LINE
  8
0
 10
-36.599953
 20
40.300003
 11
-27.400002
 21
40.300003
  0
LINE
  8
0
 10
-33.100121
 20
40.299950
 11
-31.800108
 21
38.999939
  0
LINE
  8
0
 10
-32.110104
 20
40.299988
 11
-30.810125
 21
39.000008
  0
LINE
  8
0
 10
-36.599953
 20
40.300003
 11
-36.599953
 21
39.000000
  0
LINE
  8
0
 10
-27.400002
 20
40.300003
 11
-27.400002
 21
39.000000
  0
LINE
  8
0
 10
-36.372078
 20
41.761513
 11
-36.499950
 21
40.299995
  0
LINE
  8
0
 10
-27.627836
 20
41.761505
 11
-27.499971
 21
40.299999
  0
LINE
  8
0
 10
-36.599953
 20
39.576729
 11
-39.867485
 21
38.965950
  0
LINE
  8
0
 10
36.599995
 20
39.576721
 11
39.867485
 21
38.965950
  0
LINE
  8
0
 10
171.194000
 20
44.000000
 11
171.194000
 21
41.000000
  0
LINE
  8
0
 10
166.194000
 20
44.000000
 11
166.194000
 21
41.000000
  0
LINE
  8
0
 10
167.174438
 20
44.000000
 11
170.066254
 21
44.000000
  0
LINE
  8
0
  6
CENTER
 10
168.694000
 20
-60.000000
 11
168.694000
 21
48.500000
  0
LINE
  8
0
 10
157.694000
 20
45.500000
 11
179.694000
 21
45.500000
  0
LINE
  8
0
 10
194.194000
 20
30.000000
 11
194.194000
 21
37.000000
  0
LINE
  8
0
 10
143.194000
 20
30.000000
 11
143.194000
 21
37.000000
  0
LINE
  8
0
 10
145.194000
 20
39.000000
 11
192.194000
 21
39.000000
  0
LINE
  8
0
 10
155.694000
 20
41.000000
 11
155.694000
 21
43.500000
  0
LINE
  8
0
 10
181.630493
 20
43.999992
 11
183.279358
 21
43.240643
  0
LINE
  8
0
 10
155.757507
 20
44.000000
 11
154.108673
 21
43.240658
  0
LINE
  8
0
 10
146.594055
 20
40.300003
 11
155.794006
 21
40.300003
  0
LINE
  8
0
 10
150.093887
 20
40.299946
 11
151.393890
 21
38.999935
  0
LINE
  8
0
 10
151.083893
 20
40.299984
 11
152.383865
 21
39.000008
  0
LINE
  8
0
 10
146.594055
 20
40.300003
 11
146.594055
 21
39.000000
  0
LINE
  8
0
 10
155.794006
 20
40.300003
 11
155.794006
 21
39.000000
  0
LINE
  8
0
 10
146.821915
 20
41.761509
 11
146.694046
 21
40.299992
  0
LINE
  8
0
 10
155.566162
 20
41.761505
 11
155.694031
 21
40.299999
  0
LINE
  8
0
 10
181.594040
 20
40.300003
 11
190.793991
 21
40.300003
  0
LINE
  8
0
 10
185.093872
 20
40.299946
 11
186.393890
 21
38.999935
  0
LINE
  8
0
 10
186.083893
 20
40.299984
 11
187.383865
 21
39.000004
  0
LINE
  8
0
 10
181.594040
 20
40.300003
 11
181.594040
 21
39.000000
  0
LINE
  8
0
 10
190.793991
 20
40.300003
 11
190.793991
 21
39.000000
  0
LINE
  8
0
 10
181.821915
 20
41.761513
 11
181.694046
 21
40.299992
  0
LINE
  8
0
 10
190.566177
 20
41.761501
 11
190.694031
 21
40.299995
  0
LINE
  8
0
 10
181.694000
 20
41.000000
 11
181.694000
 21
43.500000
  0
LINE
  8
0
 10
190.794006
 20
39.779922
 11
192.561478
 21
38.965942
  0
LINE
  8
0
 10
146.594055
 20
39.779953
 11
144.826508
 21
38.965946
  0
LINE
  8
0
  6
CENTER
 10
-168.694000
 20
-60.000000
 11
-168.694000
 21
48.500000
  0
LINE
  8
0
 10
-179.694000
 20
45.500000
 11
-157.694000
 21
45.500000
  0
LINE
  8
0
 10
-143.194000
 20
30.000000
 11
-143.194000
 21
37.000000
  0
LINE
  8
0
 10
-194.194000
 20
30.000000
 11
-194.194000
 21
37.000000
  0
LINE
  8
0
 10
-192.194000
 20
39.000000
 11
-145.194000
 21
39.000000
  0
LINE
  8
0
 10
-181.694000
 20
41.000000
 11
-181.694000
 21
43.500000
  0
LINE
  8
0
 10
-155.757507
 20
44.000000
 11
-154.108643
 21
43.240646
  0
LINE
  8
0
 10
-181.630493
 20
43.999992
 11
-183.279327
 21
43.240654
  0
LINE
  8
0
 10
-190.793945
 20
40.300003
 11
-181.593994
 21
40.300003
  0
LINE
  8
0
 10
-187.294113
 20
40.299946
 11
-185.994095
 21
38.999928
  0
LINE
  8
0
 10
-186.304092
 20
40.299976
 11
-185.004120
 21
39.000004
  0
LINE
  8
0
 10
-190.793945
 20
40.300003
 11
-190.793945
 21
39.000000
  0
LINE
  8
0
 10
-181.593994
 20
40.300003
 11
-181.593994
 21
39.000000
  0
LINE
  8
0
 10
-190.566071
 20
41.761513
 11
-190.693939
 21
40.299995
  0
LINE
  8
0
 10
-181.821838
 20
41.761501
 11
-181.693985
 21
40.299995
  0
LINE
  8
0
 10
-155.793945
 20
40.300003
 11
-146.593994
 21
40.300003
  0
LINE
  8
0
 10
-152.294113
 20
40.299934
 11
-150.994095
 21
38.999928
  0
LINE
  8
0
 10
-151.304092
 20
40.299976
 11
-150.004120
 21
38.999992
  0
LINE
  8
0
 10
-155.793945
 20
40.300003
 11
-155.793945
 21
39.000000
  0
LINE
  8
0
 10
-146.593994
 20
40.300003
 11
-146.593994
 21
39.000000
  0
LINE
  8
0
 10
-155.566055
 20
41.761513
 11
-155.693924
 21
40.299995
  0
LINE
  8
0
 10
-146.821838
 20
41.761501
 11
-146.693970
 21
40.299999
  0
LINE
  8
0
 10
-155.694000
 20
41.000000
 11
-155.694000
 21
43.500000
  0
LINE
  8
0
 10
-146.593994
 20
39.779926
 11
-144.826508
 21
38.965946
  0
LINE
  8
0
 10
-190.793945
 20
39.779949
 11
-192.561478
 21
38.965942
  0
LINE
  8
0
 10
-2.500000
 20
44.000000
 11
-2.500000
 21
41.000000
  0
LINE
  8
0
 10
-1.519562
 20
44.000000
 11
1.372254
 21
44.000000
  0
LINE
  8
0
 10
2.500000
 20
44.000000
 11
2.500000
 21
41.000000
  0
LINE
  8
0
 10
-171.194000
 20
44.000000
 11
-171.194000
 21
41.000000
  0
LINE
  8
0
 10
-170.213562
 20
44.000000
 11
-167.321747
 21
44.000000
  0
LINE
  8
0
 10
-166.194000
 20
44.000000
 11
-166.194000
 21
41.000000
  0
LINE
  8
0
 10
-25.139027
 20
-154.389252
 11
-25.683073
 21
-155.531479
  0
LINE
  8
0
 10
-15.860973
 20
-154.389252
 11
-15.316926
 21
-155.531479
  0
LINE
  8
0
 10
25.139027
 20
-154.389252
 11
25.683073
 21
-155.531479
  0
LINE
  8
0
 10
15.860973
 20
-154.389252
 11
15.316926
 21
-155.531479
  0
LINE
  8
0
  6
DASHED
 10
-122.694008
 20
-10.384499
 11
-138.694000
 21
-10.984498
  0
LINE
  8
0
  6
DASHED
 10
-122.694000
 20
-9.202500
 11
-138.694000
 21
-9.802501
  0
LINE
  8
0
  6
DASHED
 10
-122.693993
 20
-29.615498
 11
-138.694016
 21
-29.015497
  0
LINE
  8
0
  6
DASHED
 10
-122.693993
 20
-30.797501
 11
-138.694016
 21
-30.197500
  0
LINE
  8
0
  6
DASHED
 10
-210.194016
 20
-10.384498
 11
-194.194016
 21
-10.984498
  0
LINE
  8
0
  6
DASHED
 10
-210.194016
 20
-9.202499
 11
-194.194000
 21
-9.802501
  0
LINE
  8
0
  6
DASHED
 10
-210.194000
 20
-29.615499
 11
-194.194000
 21
-29.015501
  0
LINE
  8
0
  6
DASHED
 10
-210.194000
 20
-30.797499
 11
-194.194000
 21
-30.197498
  0
LINE
  8
0
  6
DASHED
 10
122.694008
 20
-10.384499
 11
138.694000
 21
-10.984498
  0
LINE
  8
0
  6
DASHED
 10
122.694000
 20
-9.202500
 11
138.694000
 21
-9.802501
  0
LINE
  8
0
  6
DASHED
 10
122.693993
 20
-29.615498
 11
138.694016
 21
-29.015497
  0
LINE
  8
0
  6
DASHED
 10
122.693993
 20
-30.797501
 11
138.694016
 21
-30.197500
  0
LINE
  8
0
  6
DASHED
 10
210.194016
 20
-9.202499
 11
194.194000
 21
-9.802501
  0
LINE
  8
0
  6
DASHED
 10
210.194016
 20
-10.384498
 11
194.194016
 21
-10.984498
  0
LINE
  8
0
  6
DASHED
 10
210.194000
 20
-29.615499
 11
194.194000
 21
-29.015501
  0
LINE
  8
0
  6
DASHED
 10
210.194000
 20
-30.797499
 11
194.194000
 21
-30.197498
  0
LINE
  8
0
 10
12.284625
 20
110.000000
 11
12.284625
 21
103.500000
  0
LINE
  8
0
  6
CENTER
 10
-20.500000
 20
-115.500000
 11
-20.500000
 21
-165.500000
  0
LINE
  8
0
  6
CENTER
 10
-45.500000
 20
-140.500000
 11
45.500000
 21
-140.500000
  0
LINE
  8
0
  6
CENTER
 10
20.500000
 20
-115.500000
 11
20.500000
 21
-165.500000
  0
LINE
  8
0
  6
CENTER
 10
-10.000000
 20
-172.500000
 11
10.000000
 21
-172.500000
  0
LINE
  8
0
  6
CENTER
 10
-10.000000
 20
-96.500000
 11
10.000000
 21
-96.500000
  0
LINE
  8
0
  6
CENTER
 10
-10.000000
 20
167.500000
 11
10.000000
 21
167.500000
  0
LINE
  8
0
  6
CENTER
 10
-10.000000
 20
91.500000
 11
10.000000
 21
91.500000
  0
LINE
  8
0
  6
CENTER
 10
186.193970
 20
25.605198
 11
186.193970
 21
45.500000
  0
LINE
  8
0
  6
CENTER
 10
151.194031
 20
25.605198
 11
151.194031
 21
45.500000
  0
LINE
  8
0
  6
CENTER
 10
31.999962
 20
25.605198
 11
31.999962
 21
45.500000
  0
LINE
  8
0
  6
CENTER
 10
-186.193970
 20
25.605198
 11
-186.193970
 21
45.500000
  0
LINE
  8
0
  6
CENTER
 10
-24.000000
 20
5.000000
 11
-24.000000
 21
-45.000000
  0
LINE
  8
0
  6
CENTER
 10
24.000000
 20
5.000000
 11
24.000000
 21
-45.000000
  0
LINE
  8
0
  6
CENTER
 10
-151.194031
 20
25.605198
 11
-151.194031
 21
45.500000
  0
LINE
  8
0
  6
CENTER
 10
-32.000038
 20
25.605198
 11
-32.000038
 21
45.500000
  0
LINE
  8
0
  6
CENTER
 10
-24.000000
 20
180.000000
 11
-24.000000
 21
86.500000
  0
LINE
  8
0
  6
CENTER
 10
24.000000
 20
180.000000
 11
24.000000
 21
86.500000
  0
LINE
  8
0
  6
CENTER
 10
24.000000
 20
-185.000000
 11
24.000000
 21
-91.500000
  0
LINE
  8
0
  6
CENTER
 10
-24.000000
 20
-185.000000
 11
-24.000000
 21
-91.500000
  0
LINE
  8
0
 10
-115.194000
 20
-55.700001
 11
-210.194000
 21
-55.700001
  0
LINE
  8
0
 10
-41.500000
 20
-55.700001
 11
41.500000
 21
-55.700001
  0
LINE
  8
0
 10
115.194000
 20
-55.700001
 11
210.194000
 21
-55.700001
  0
LINE
  8
0
  6
DASHED
 10
-195.694000
 20
-47.000000
 11
-195.694000
 21
-55.700001
  0
LINE
  8
0
  6
DASHED
 10
-129.694000
 20
-47.000000
 11
-129.694000
 21
-55.700001
  0
LINE
  8
0
  6
DASHED
 10
129.694000
 20
-47.000000
 11
129.694000
 21
-55.700001
  0
LINE
  8
0
  6
DASHED
 10
195.694000
 20
-47.000000
 11
195.694000
 21
-55.700001
  0
ARC
  8
0
 10
-20.500000
 20
-140.500000
 40
20.999996
 50
98.346619
 51
261.653381
  0
ARC
  8
0
 10
20.500000
 20
-140.500000
 40
21.000004
 50
278.346619
 51
81.653381
  0
ARC
  8
0
 10
0.000000
 20
-172.500000
 40
5.000000
 50
0.000000
 51
180.000000
  0
ARC
  8
0
 10
25.000000
 20
-171.171646
 40
9.999993
 50
98.346619
 51
180.000000
  0
ARC
  8
0
 10
-25.000000
 20
-171.171646
 40
10.000000
 50
0.000000
 51
81.653381
  0
ARC
  8
0
 10
-25.000000
 20
-109.828354
 40
10.000001
 50
278.346619
 51
0.000000
  0
ARC
  8
0
 10
25.000000
 20
-109.828354
 40
10.000000
 50
180.000000
 51
261.653381
  0
ARC
  8
0
 10
0.000000
 20
-96.500000
 40
5.000000
 50
180.000000
 51
0.000000
  0
ARC
  8
0
 10
0.000000
 20
91.500000
 40
5.000000
 50
0.000000
 51
180.000000
  0
ARC
  8
0
 10
0.000000
 20
167.500000
 40
5.000000
 50
180.000000
 51
0.000000
  0
CIRCLE
  8
0
 10
24.000000
 20
-20.000000
 40
17.500000
  0
CIRCLE
  8
0
 10
-24.000000
 20
-20.000000
 40
17.500000
  0
ARC
  8
0
 10
-11.000000
 20
-27.000000
 40
26.000000
 50
191.745255
 51
259.328064
  0
ARC
  8
0
 10
32.000000
 20
-48.000000
 40
5.000000
 50
270.000000
 51
0.000000
  0
ARC
  8
0
 10
-33.500000
 20
118.000000
 40
8.000000
 50
180.000000
 51
270.000000
  0
ARC
  8
0
 10
-33.500000
 20
153.000000
 40
8.000000
 50
90.000000
 51
180.000000
  0
ARC
  8
0
 10
33.500000
 20
153.000000
 40
8.000000
 50
0.000000
 51
90.000000
  0
ARC
  8
0
 10
33.500000
 20
118.000000
 40
8.000000
 50
270.000000
 51
0.000000
  0
ARC
  8
0
 10
14.000000
 20
-181.000000
 40
1.000000
 50
270.000000
 51
0.000000
  0
ARC
  8
0
 10
-14.000000
 20
-181.000000
 40
1.000000
 50
180.000000
 51
270.000000
  0
ARC
  8
0
 10
14.000000
 20
-88.000000
 40
1.000000
 50
0.000000
 51
90.000000
  0
ARC
  8
0
 10
-14.000000
 20
-88.000000
 40
1.000000
 50
90.000000
 51
180.000000
  0
ARC
  8
0
 10
-40.500000
 20
-95.500000
 40
1.000000
 50
90.000000
 51
180.000000
  0
ARC
  8
0
 10
-40.500000
 20
-181.000000
 40
1.000000
 50
180.000000
 51
270.000000
  0
ARC
  8
0
 10
40.500000
 20
-181.000000
 40
1.000000
 50
270.000000
 51
0.000000
  0
ARC
  8
0
 10
40.500000
 20
-95.500000
 40
1.000000
 50
0.000000
 51
90.000000
  0
ARC
  8
0
 10
36.000000
 20
-104.500000
 40
1.000000
 50
0.000000
 51
90.000000
  0
ARC
  8
0
 10
-36.000000
 20
-104.500000
 40
1.000000
 50
90.000000
 51
180.000000
  0
CIRCLE
  8
0
 10
20.500000
 20
-140.500000
 40
15.900000
  0
CIRCLE
  8
0
 10
-20.500000
 20
-140.500000
 40
15.900000
  0
ARC
  8
0
 10
-40.500000
 20
-48.000000
 40
1.000000
 50
90.000000
 51
180.000000
  0
ARC
  8
0
 10
40.500000
 20
-48.000000
 40
1.000000
 50
0.000000
 51
90.000000
  0
ARC
  8
0
 10
14.000000
 20
-48.000000
 40
1.000000
 50
0.000000
 51
90.000000
  0
ARC
  8
0
 10
-14.000000
 20
-48.000000
 40
1.000000
 50
90.000000
 51
180.000000
  0
ARC
  8
0
 10
-4.000000
 20
-48.000000
 40
1.000000
 50
90.000000
 51
180.000000
  0
ARC
  8
0
 10
4.000000
 20
-48.000000
 40
1.000000
 50
0.000000
 51
90.000000
  0
ARC
  8
0
 10
16.000000
 20
-54.000000
 40
1.000000
 50
90.000000
 51
180.000000
  0
ARC
  8
0
 10
-36.000000
 20
7.000000
 40
1.000000
 50
90.000000
 51
180.000000
  0
ARC
  8
0
 10
-12.000000
 20
7.000000
 40
1.000000
 50
0.000000
 51
90.000000
  0
ARC
  8
0
 10
-30.000000
 20
9.000000
 40
1.000000
 50
270.000000
 51
0.000000
  0
ARC
  8
0
 10
-30.000000
 20
21.000000
 40
1.000000
 50
0.000000
 51
90.000000
  0
ARC
  8
0
 10
-40.500000
 20
23.000000
 40
1.000000
 50
180.000000
 51
270.000000
  0
ARC
  8
0
 10
40.500000
 20
23.000000
 40
1.000000
 50
270.000000
 51
0.000000
  0
ARC
  8
0
 10
30.000000
 20
21.000000
 40
1.000000
 50
90.000000
 51
180.000000
  0
ARC
  8
0
 10
7.040064
 20
21.000000
 40
1.000000
 50
0.000000
 51
90.000000
  0
ARC
  8
0
 10
-7.040064
 20
21.000000
 40
1.000000
 50
90.000000
 51
180.000000
  0
ARC
  8
0
 10
18.000000
 20
21.000000
 40
1.000000
 50
0.000000
 51
90.000000
  0
ARC
  8
0
 10
-18.000000
 20
21.000000
 40
1.000000
 50
90.000000
 51
180.000000
  0
ARC
  8
0
 10
-18.000000
 20
9.000000
 40
1.000000
 50
180.000000
 51
270.000000
  0
ARC
  8
0
 10
-10.000000
 20
-6.000000
 40
1.000000
 50
180.000000
 51
270.000000
  0
ARC
  8
0
 10
-7.040064
 20
-6.000000
 40
1.000000
 50
180.000000
 51
270.000000
  0
ARC
  8
0
 10
7.040064
 20
-6.000000
 40
1.000000
 50
270.000000
 51
0.000000
  0
ARC
  8
0
 10
18.000000
 20
-2.500000
 40
1.000000
 50
288.924622
 51
0.000000
  0
ARC
  8
0
 10
30.000000
 20
-2.500000
 40
1.000000
 50
180.000000
 51
251.075394
  0
ARC
  8
0
 10
7.836770
 20
-29.000000
 40
1.000000
 50
270.000000
 51
29.109917
  0
ARC
  8
0
 10
-7.836770
 20
-29.000000
 40
1.000000
 50
150.890091
 51
270.000000
  0
ARC
  8
0
 10
-16.000000
 20
-53.532997
 40
1.000000
 50
0.000000
 51
79.328064
  0
CIRCLE
  8
0
 10
24.000000
 20
-20.000000
 40
10.497500
  0
CIRCLE
  8
0
 10
24.000000
 20
-20.000000
 40
9.315500
  0
CIRCLE
  8
0
 10
-24.000000
 20
-20.000000
 40
10.497500
  0
CIRCLE
  8
0
 10
-24.000000
 20
-20.000000
 40
9.315500
  0
ARC
  8
0
 10
116.194000
 20
-48.000000
 40
1.000000
 50
90.000000
 51
180.000000
  0
ARC
  8
0
 10
209.194000
 20
-48.000000
 40
1.000000
 50
0.000000
 51
90.000000
  0
ARC
  8
0
 10
123.694000
 20
-36.500000
 40
1.000000
 50
180.000000
 51
270.000000
  0
ARC
  8
0
 10
123.694000
 20
-3.500000
 40
1.000000
 50
90.000000
 51
180.000000
  0
ARC
  8
0
 10
209.194000
 20
-3.500000
 40
1.000000
 50
0.000000
 51
90.000000
  0
ARC
  8
0
 10
209.194000
 20
-36.500000
 40
1.000000
 50
270.000000
 51
0.000000
  0
ARC
  8
0
 10
189.194000
 20
-38.500000
 40
1.000000
 50
90.000000
 51
180.000000
  0
ARC
  8
0
 10
130.694000
 20
-38.500000
 40
1.000000
 50
0.000000
 51
90.000000
  0
ARC
  8
0
 10
189.194000
 20
-46.000000
 40
1.000000
 50
180.000000
 51
270.000000
  0
ARC
  8
0
 10
188.694000
 20
-48.000000
 40
1.000000
 50
0.000000
 51
90.000000
  0
ARC
  8
0
 10
195.194000
 20
-1.500000
 40
1.000000
 50
180.000000
 51
270.000000
  0
ARC
  8
0
 10
187.243927
 20
9.000000
 40
1.000000
 50
180.000000
 51
270.000000
  0
ARC
  8
0
 10
142.194000
 20
9.000000
 40
1.000000
 50
270.000000
 51
0.000000
  0
ARC
  8
0
 10
130.694000
 20
-1.500000
 40
1.000000
 50
270.000000
 51
0.000000
  0
ARC
  8
0
 10
193.194000
 20
23.000000
 40
1.000000
 50
270.000000
 51
0.000000
  0
ARC
  8
0
 10
144.194000
 20
23.000000
 40
1.000000
 50
180.000000
 51
270.000000
  0
ARC
  8
0
 10
150.144073
 20
21.000000
 40
1.000000
 50
0.000000
 51
90.000000
  0
ARC
  8
0
 10
187.243927
 20
21.000000
 40
1.000000
 50
90.000000
 51
180.000000
  0
ARC
  8
0
 10
-116.194000
 20
-48.000000
 40
1.000000
 50
0.000000
 51
90.000000
  0
ARC
  8
0
 10
-209.194000
 20
-48.000000
 40
1.000000
 50
90.000000
 51
180.000000
  0
ARC
  8
0
 10
-123.694000
 20
-36.500000
 40
1.000000
 50
270.000000
 51
0.000000
  0
ARC
  8
0
 10
-123.694000
 20
-3.500000
 40
1.000000
 50
0.000000
 51
90.000000
  0
ARC
  8
0
 10
-209.194000
 20
-3.500000
 40
1.000000
 50
90.000000
 51
180.000000
  0
ARC
  8
0
 10
-209.194000
 20
-36.500000
 40
1.000000
 50
180.000000
 51
270.000000
  0
ARC
  8
0
 10
-189.194000
 20
-38.500000
 40
1.000000
 50
0.000000
 51
90.000000
  0
ARC
  8
0
 10
-130.694000
 20
-38.500000
 40
1.000000
 50
90.000000
 51
180.000000
  0
ARC
  8
0
 10
-189.194000
 20
-46.000000
 40
1.000000
 50
270.000000
 51
0.000000
  0
ARC
  8
0
 10
-188.694000
 20
-48.000000
 40
1.000000
 50
90.000000
 51
180.000000
  0
ARC
  8
0
 10
-195.194000
 20
-1.500000
 40
1.000000
 50
270.000000
 51
0.000000
  0
ARC
  8
0
 10
-187.243927
 20
9.000000
 40
1.000000
 50
270.000000
 51
0.000000
  0
ARC
  8
0
 10
-142.194000
 20
9.000000
 40
1.000000
 50
180.000000
 51
270.000000
  0
ARC
  8
0
 10
-130.694000
 20
-1.500000
 40
1.000000
 50
180.000000
 51
270.000000
  0
ARC
  8
0
 10
-193.194000
 20
23.000000
 40
1.000000
 50
180.000000
 51
270.000000
  0
ARC
  8
0
 10
-144.194000
 20
23.000000
 40
1.000000
 50
270.000000
 51
0.000000
  0
ARC
  8
0
 10
-150.144073
 20
21.000000
 40
1.000000
 50
90.000000
 51
180.000000
  0
ARC
  8
0
 10
-187.243927
 20
21.000000
 40
1.000000
 50
0.000000
 51
90.000000
  0
ARC
  8
0
 10
-150.144073
 20
9.000000
 40
1.000000
 50
180.000000
 51
270.000000
  0
ARC
  8
0
 10
-40.500000
 20
176.000000
 40
1.000000
 50
90.000000
 51
180.000000
  0
ARC
  8
0
 10
-40.500000
 20
90.500000
 40
1.000000
 50
180.000000
 51
270.000000
  0
ARC
  8
0
 10
-7.500000
 20
90.500000
 40
1.000000
 50
270.000000
 51
0.000000
  0
ARC
  8
0
 10
40.500000
 20
176.000000
 40
1.000000
 50
0.000000
 51
90.000000
  0
ARC
  8
0
 10
40.500000
 20
90.500000
 40
1.000000
 50
270.000000
 51
0.000000
  0
ARC
  8
0
 10
7.500000
 20
90.500000
 40
1.000000
 50
180.000000
 51
270.000000
  0
ARC
  8
0
 10
5.500000
 20
102.500000
 40
1.000000
 50
0.000000
 51
90.000000
  0
ARC
  8
0
 10
-5.500000
 20
102.500000
 40
1.000000
 50
90.000000
 51
180.000000
  0
ARC
  8
0
 10
14.000000
 20
83.000000
 40
1.000000
 50
270.000000
 51
0.000000
  0
ARC
  8
0
 10
-14.000000
 20
83.000000
 40
1.000000
 50
180.000000
 51
270.000000
  0
ARC
  8
0
 10
-7.500000
 20
176.000000
 40
1.000000
 50
0.000000
 51
90.000000
  0
ARC
  8
0
 10
7.500000
 20
176.000000
 40
1.000000
 50
90.000000
 51
180.000000
  0
CIRCLE
  8
0
 10
0.000000
 20
135.500000
 40
13.000000
  0
ARC
  8
0
 10
11.000000
 20
43.500000
 40
2.000000
 50
0.000000
 51
90.000000
  0
ARC
  8
0
 10
-11.000000
 20
43.500000
 40
2.000000
 50
90.000000
 51
180.000000
  0
ARC
  8
0
 10
15.000000
 20
41.000000
 40
2.000000
 50
180.000000
 51
270.000000
  0
ARC
  8
0
 10
39.500000
 20
37.000000
 40
2.000000
 50
0.000000
 51
90.000000
  0
ARC
  8
0
 10
-15.000000
 20
41.000000
 40
2.000000
 50
270.000000
 51
0.000000
  0
ARC
  8
0
 10
-39.500000
 20
37.000000
 40
2.000000
 50
90.000000
 51
180.000000
  0
ARC
  8
0
 10
-14.309088
 20
140.000000
 40
2.000000
 50
270.000000
 51
342.542236
  0
ARC
  8
0
 10
-14.309088
 20
131.000000
 40
2.000002
 50
17.457766
 51
90.000000
  0
ARC
  8
0
 10
-4.500000
 20
149.809082
 40
2.000004
 50
287.457581
 51
0.000000
  0
ARC
  8
0
 10
4.500000
 20
149.809082
 40
2.000000
 50
180.000000
 51
252.542435
  0
ARC
  8
0
 10
14.309088
 20
131.000000
 40
2.000000
 50
90.000000
 51
162.542236
  0
ARC
  8
0
 10
14.309088
 20
140.000000
 40
2.000002
 50
197.457764
 51
270.000000
  0
ARC
  8
0
 10
-4.500000
 20
121.190918
 40
2.000000
 50
0.000000
 51
72.542366
  0
ARC
  8
0
 10
4.500000
 20
121.190918
 40
1.999997
 50
107.457626
 51
180.000000
  0
CIRCLE
  8
0
 10
0.000000
 20
135.500000
 40
4.864000
  0
CIRCLE
  8
0
 10
0.000000
 20
135.500000
 40
4.283000
  0
ARC
  8
0
 10
-34.199997
 20
120.199997
 40
1.599998
 50
270.000000
 51
0.000000
  0
ARC
  8
0
 10
-29.800003
 20
120.199997
 40
1.600000
 50
180.000000
 51
270.000000
  0
CIRCLE
  8
0
 10
-32.000000
 20
118.000000
 40
4.500000
  0
ARC
  8
0
 10
-34.199997
 20
115.800003
 40
1.599998
 50
0.000000
 51
90.000000
  0
ARC
  8
0
 10
-29.800003
 20
115.800003
 40
1.599998
 50
90.000000
 51
180.000000
  0
CIRCLE
  8
0
 10
-32.000000
 20
118.000000
 40
4.599983
  0
ARC
  8
0
 10
-34.199997
 20
155.199997
 40
1.600006
 50
270.000000
 51
0.000000
  0
ARC
  8
0
 10
-29.800003
 20
155.199997
 40
1.600000
 50
180.000000
 51
270.000000
  0
CIRCLE
  8
0
 10
-32.000000
 20
153.000000
 40
4.500000
  0
ARC
  8
0
 10
-34.199997
 20
150.800003
 40
1.599998
 50
0.000000
 51
90.000000
  0
ARC
  8
0
 10
-29.800003
 20
150.800003
 40
1.600006
 50
90.000000
 51
180.000000
  0
CIRCLE
  8
0
 10
-32.000000
 20
153.000000
 40
4.599983
  0
ARC
  8
0
 10
29.800003
 20
155.199997
 40
1.600006
 50
270.000000
 51
0.000000
  0
ARC
  8
0
 10
34.199997
 20
155.199997
 40
1.599998
 50
180.000000
 51
270.000000
  0
CIRCLE
  8
0
 10
32.000000
 20
153.000000
 40
4.500000
  0
ARC
  8
0
 10
29.800003
 20
150.800003
 40
1.600000
 50
0.000000
 51
90.000000
  0
ARC
  8
0
 10
34.199997
 20
150.800003
 40
1.600006
 50
90.000000
 51
180.000000
  0
CIRCLE
  8
0
 10
32.000000
 20
153.000000
 40
4.599983
  0
ARC
  8
0
 10
29.800003
 20
120.199997
 40
1.599998
 50
270.000000
 51
0.000000
  0
ARC
  8
0
 10
34.199997
 20
120.199997
 40
1.599998
 50
180.000000
 51
270.000000
  0
CIRCLE
  8
0
 10
32.000000
 20
118.000000
 40
4.500000
  0
ARC
  8
0
 10
29.800003
 20
115.800003
 40
1.600000
 50
0.000000
 51
90.000000
  0
ARC
  8
0
 10
34.199997
 20
115.800003
 40
1.599998
 50
90.000000
 51
180.000000
  0
CIRCLE
  8
0
 10
32.000000
 20
118.000000
 40
4.599983
  0
ARC
  8
0
 10
29.221809
 20
41.622055
 40
1.600001
 50
105.493912
 51
174.999832
  0
ARC
  8
0
 10
32.000038
 20
31.600006
 40
12.000002
 50
74.506020
 51
105.493874
  0
ARC
  8
0
 10
34.778252
 20
41.622055
 40
1.599999
 50
5.000036
 51
74.506088
  0
ARC
  8
0
 10
-34.778191
 20
41.622055
 40
1.600001
 50
105.493912
 51
174.999832
  0
ARC
  8
0
 10
-31.999962
 20
31.600006
 40
12.000002
 50
74.506020
 51
105.493874
  0
ARC
  8
0
 10
-29.221748
 20
41.622055
 40
1.600001
 50
5.000030
 51
74.506020
  0
ARC
  8
0
 10
179.694000
 20
43.500000
 40
2.000000
 50
0.000000
 51
90.000000
  0
ARC
  8
0
 10
157.694000
 20
43.500000
 40
2.000000
 50
90.000000
 51
180.000000
  0
ARC
  8
0
 10
192.194000
 20
37.000000
 40
2.000000
 50
0.000000
 51
90.000000
  0
ARC
  8
0
 10
153.694000
 20
41.000000
 40
1.999997
 50
349.950897
 51
0.000000
  0
ARC
  8
0
 10
145.194000
 20
37.000000
 40
2.000000
 50
90.000000
 51
180.000000
  0
ARC
  8
0
 10
148.415802
 20
41.622055
 40
1.600000
 50
105.493782
 51
174.999847
  0
ARC
  8
0
 10
151.194031
 20
31.600006
 40
12.000001
 50
74.506035
 51
105.493889
  0
ARC
  8
0
 10
153.972260
 20
41.622055
 40
1.600006
 50
5.000012
 51
74.506218
  0
ARC
  8
0
 10
183.415802
 20
41.622055
 40
1.600000
 50
105.493782
 51
174.999847
  0
ARC
  8
0
 10
186.194031
 20
31.600006
 40
12.000001
 50
74.506035
 51
105.493889
  0
ARC
  8
0
 10
188.972244
 20
41.622055
 40
1.600006
 50
5.000012
 51
74.506218
  0
ARC
  8
0
 10
183.694000
 20
41.000000
 40
2.000000
 50
180.000000
 51
190.049103
  0
ARC
  8
0
 10
-157.694000
 20
43.500000
 40
2.000000
 50
0.000000
 51
90.000000
  0
ARC
  8
0
 10
-179.694000
 20
43.500000
 40
2.000000
 50
90.000000
 51
180.000000
  0
ARC
  8
0
 10
-145.194000
 20
37.000000
 40
2.000000
 50
0.000000
 51
90.000000
  0
ARC
  8
0
 10
-183.694000
 20
41.000000
 40
1.999997
 50
349.950897
 51
0.000000
  0
ARC
  8
0
 10
-192.194000
 20
37.000000
 40
2.000000
 50
90.000000
 51
180.000000
  0
ARC
  8
0
 10
-188.972183
 20
41.622055
 40
1.600000
 50
105.493782
 51
174.999847
  0
ARC
  8
0
 10
-186.193954
 20
31.600006
 40
12.000001
 50
74.506035
 51
105.493889
  0
ARC
  8
0
 10
-183.415741
 20
41.622055
 40
1.600006
 50
5.000012
 51
74.506218
  0
ARC
  8
0
 10
-153.972198
 20
41.622055
 40
1.600000
 50
105.493782
 51
174.999847
  0
ARC
  8
0
 10
-151.193970
 20
31.600006
 40
12.000001
 50
74.506035
 51
105.493889
  0
ARC
  8
0
 10
-148.415741
 20
41.622055
 40
1.600006
 50
5.000012
 51
74.506218
  0
ARC
  8
0
 10
-153.694000
 20
41.000000
 40
2.000000
 50
180.000000
 51
190.049103
  0
ARC
  8
0
 10
164.194000
 20
41.000000
 40
2.000000
 50
270.000000
 51
0.000000
  0
ARC
  8
0
 10
173.194000
 20
41.000000
 40
2.000000
 50
180.000000
 51
270.000000
  0
ARC
  8
0
 10
-4.500000
 20
41.000000
 40
2.000000
 50
270.000000
 51
0.000000
  0
ARC
  8
0
 10
4.500000
 20
41.000000
 40
2.000000
 50
180.000000
 51
270.000000
  0
ARC
  8
0
 10
-173.194000
 20
41.000000
 40
2.000000
 50
270.000000
 51
0.000000
  0
ARC
  8
0
 10
-164.194000
 20
41.000000
 40
2.000000
 50
180.000000
 51
270.000000
  0
ARC
  8
0
 10
-20.500000
 20
-141.399994
 40
15.000006
 50
308.555725
 51
231.444244
  0
CIRCLE
  8
0
 10
-26.750000
 20
-153.621948
 40
1.000000
  0
ARC
  8
0
 10
-26.750000
 20
-153.621948
 40
1.784372
 50
334.531616
 51
152.772629
  0
CIRCLE
  8
0
 10
-14.250000
 20
-153.621948
 40
1.000000
  0
ARC
  8
0
 10
-14.250000
 20
-153.621948
 40
1.784373
 50
27.227369
 51
205.468399
  0
ARC
  8
0
 10
-29.225859
 20
-152.348022
 40
0.999997
 50
231.444092
 51
332.772797
  0
ARC
  8
0
 10
-11.774141
 20
-152.348022
 40
0.999998
 50
207.227219
 51
308.555908
  0
CIRCLE
  8
0
 10
-20.500000
 20
-140.500000
 40
8.000000
  0
ARC
  8
0
 10
-20.500000
 20
-140.500000
 40
15.750004
 50
251.036697
 51
288.963287
  0
CIRCLE
  8
0
 10
20.500000
 20
-140.500000
 40
8.000000
  0
ARC
  8
0
 10
20.500000
 20
-140.500000
 40
15.750004
 50
251.036697
 51
288.963287
  0
ARC
  8
0
 10
20.500000
 20
-141.399994
 40
14.999994
 50
308.555756
 51
231.444244
  0
CIRCLE
  8
0
 10
26.750000
 20
-153.621948
 40
1.000000
  0
ARC
  8
0
 10
26.750000
 20
-153.621948
 40
1.784373
 50
27.227369
 51
205.468399
  0
CIRCLE
  8
0
 10
14.250000
 20
-153.621948
 40
1.000000
  0
ARC
  8
0
 10
14.250000
 20
-153.621948
 40
1.784372
 50
334.531616
 51
152.772629
  0
ARC
  8
0
 10
29.225859
 20
-152.348022
 40
0.999999
 50
207.227203
 51
308.555908
  0
ARC
  8
0
 10
11.774141
 20
-152.348022
 40
0.999997
 50
231.444092
 51
332.772766
  0
ARC
  8
0
 10
150.144073
 20
-2.229488
 40
1.000000
 50
270.000000
 51
0.000000
  0
ARC
  8
0
 10
11.906613
 20
-6.000000
 40
1.000000
 50
270.000000
 51
310.820923
  0
ARC
  8
0
 10
-38.000000
 20
-7.906612
 40
1.000000
 50
319.179047
 51
0.000000
  0
TEXT
  8
0
 10
-353.582245
 20
197.939575
 40
8.500000
  1
MODEL : 501-4A
 50
0.000000
 41
1.052632
 51
0.000000
  7
STANDARD
  0
TEXT
  8
0
 10
226.462494
 20
233.607468
 40
8.500000
  1
DATE : AUG ,1992
 50
0.000000
 41
1.052631
 51
0.000000
  7
STANDARD
  0
TEXT
  8
0
 10
-325.779938
 20
232.257462
 40
10.000000
  1
501-4A
 50
0.000000
 41
1.052632
 51
0.000000
  7
STANDARD
  0
TEXT
  8
0
 10
231.135635
 20
-248.407944
 40
10.000000
  1
KOGANEI,CORP
 50
0.000000
 41
1.052632
 51
0.000000
  7
STANDARD
  0
LINE
  8
0
 10
0.000000
 20
45.499996
 11
12.500002
 21
67.150627
  0
LINE
  8
0
 10
12.500002
 20
67.150627
 11
33.917046
 21
67.150635
  0
LINE
  8
0
 10
0.000000
 20
45.499996
 11
2.121321
 21
47.621315
  0
LINE
  8
0
 10
0.000000
 20
45.499996
 11
0.776458
 21
48.397774
  0
TEXT
  8
0
 10
17.252760
 20
68.150635
 40
3.200000
  1
RC1/8
 50
0.000000
 41
1.052632
 51
0.000000
  7
STANDARD
  0
LINE
  8
0
 10
30.956108
 20
-12.138063
 11
50.956116
 21
22.502953
  0
LINE
  8
0
 10
50.956116
 20
22.502953
 11
79.109451
 21
22.502953
  0
LINE
  8
0
 10
30.956108
 20
-12.138063
 11
33.077427
 21
-10.016744
  0
LINE
  8
0
 10
30.956108
 20
-12.138063
 11
31.732567
 21
-9.240286
  0
TEXT
  8
0
 10
56.045170
 20
23.502953
 40
3.200000
  1
4-RC1/2
 50
0.000000
 41
1.052632
 51
0.000000
  7
STANDARD
  0
ENDSEC
  0
EOF
