  0
SECTION
  2
HEADER
  9
$ACADVER
  1
AC1009
  9
$INSBASE
 10
0.0
 20
0.0
 30
0.0
  9
$EXTMIN
 10
-194.25
 20
-133.5
 30
0.0
  9
$EXTMAX
 10
194.80000305
 20
132.6000061
 30
0.0
  9
$LIMMIN
 10
-194.25
 20
-133.5
  9
$LIMMAX
 10
194.80000305
 20
132.6000061
  9
$ORTHOMODE
 70
       0
  9
$REGENMODE
 70
       1
  9
$FILLMODE
 70
       1
  9
$QTEXTMODE
 70
       0
  9
$MIRRTEXT
 70
       1
  9
$DRAGMODE
 70
       2
  9
$LTSCALE
 40
1.0
  9
$OSMODE
 70
       0
  9
$ATTMODE
 70
       1
  9
$TEXTSIZE
 40
3.20000005
  9
$TRACEWID
 40
0.05
  9
$TEXTSTYLE
  7
MX_NOTE_STANDARD
  9
$CLAYER
  8
0
  9
$CELTYPE
  6
CONTINUOUS
  9
$CECOLOR
 62
     256
  9
$DIMSCALE
 40
1.0
  9
$DIMASZ
 40
2.5
  9
$DIMEXO
 40
1.5
  9
$DIMDLI
 40
3.75
  9
$DIMRND
 40
0.0
  9
$DIMDLE
 40
0.0
  9
$DIMEXE
 40
1.5
  9
$DIMTP
 40
0.0
  9
$DIMTM
 40
0.0
  9
$DIMTXT
 40
3.20000005
  9
$DIMCEN
 40
2.5
  9
$DIMTSZ
 40
0.0
  9
$DIMTOL
 70
       0
  9
$DIMLIM
 70
       0
  9
$DIMTIH
 70
       0
  9
$DIMTOH
 70
       0
  9
$DIMSE1
 70
       0
  9
$DIMSE2
 70
       0
  9
$DIMTAD
 70
       1
  9
$DIMZIN
 70
       8
  9
$DIMBLK
  1

  9
$DIMASO
 70
       1
  9
$DIMSHO
 70
       1
  9
$DIMPOST
  1

  9
$DIMAPOST
  1

  9
$DIMALT
 70
       0
  9
$DIMALTD
 70
       4
  9
$DIMALTF
 40
0.0394
  9
$DIMLFAC
 40
1.0
  9
$DIMTOFL
 70
       1
  9
$DIMTVP
 40
0.0
  9
$DIMTIX
 70
       0
  9
$DIMSOXD
 70
       0
  9
$DIMSAH
 70
       0
  9
$DIMBLK1
  1

  9
$DIMBLK2
  1

  9
$DIMSTYLE
  2
MXDIMSTYLE
  9
$DIMCLRD
 70
       0
  9
$DIMCLRE
 70
       0
  9
$DIMCLRT
 70
       0
  9
$DIMTFAC
 40
1.0
  9
$DIMGAP
 40
1.0
  9
$LUNITS
 70
       2
  9
$LUPREC
 70
       4
  9
$AXISMODE
 70
       0
  9
$AXISUNIT
 10
0.0
 20
0.0
  9
$SKETCHINC
 40
0.1
  9
$FILLETRAD
 40
0.0
  9
$AUNITS
 70
       0
  9
$AUPREC
 70
       0
  9
$MENU
  1
acad
  9
$ELEVATION
 40
0.0
  9
$PELEVATION
 40
0.0
  9
$THICKNESS
 40
0.0
  9
$LIMCHECK
 70
       0
  9
$BLIPMODE
 70
       1
  9
$CHAMFERA
 40
0.0
  9
$CHAMFERB
 40
0.0
  9
$SKPOLY
 70
       0
  9
$TDCREATE
 40
2452251.609027778
  9
$TDUPDATE
 40
2452251.609027778
  9
$TDINDWG
 40
0.0000000000
  9
$TDUSRTIMER
 40
0.0000000000
  9
$USRTIMER
 70
       1
  9
$ANGBASE
 50
0.0
  9
$ANGDIR
 70
       0
  9
$PDMODE
 70
       0
  9
$PDSIZE
 40
0.0
  9
$PLINEWID
 40
0.0
  9
$COORDS
 70
       1
  9
$SPLFRAME
 70
       0
  9
$SPLINETYPE
 70
       6
  9
$SPLINESEGS
 70
       8
  9
$ATTDIA
 70
       0
  9
$ATTREQ
 70
       1
  9
$HANDLING
 70
       1
  9
$HANDSEED
  5
102
  9
$SURFTAB1
 70
       6
  9
$SURFTAB2
 70
       6
  9
$SURFTYPE
 70
       6
  9
$SURFU
 70
       6
  9
$SURFV
 70
       6
  9
$UCSNAME
  2

  9
$UCSORG
 10
0.0
 20
0.0
 30
0.0
  9
$UCSXDIR
 10
1.0
 20
0.0
 30
0.0
  9
$UCSYDIR
 10
0.0
 20
1.0
 30
0.0
  9
$PUCSNAME
  2

  9
$PUCSORG
 10
0.0
 20
0.0
 30
0.0
  9
$PUCSXDIR
 10
1.0
 20
0.0
 30
0.0
  9
$PUCSYDIR
 10
0.0
 20
1.0
 30
0.0
  9
$USERI1
 70
       0
  9
$USERI2
 70
       0
  9
$USERI3
 70
       0
  9
$USERI4
 70
       0
  9
$USERI5
 70
       0
  9
$USERR1
 40
0.0
  9
$USERR2
 40
0.0
  9
$USERR3
 40
0.0
  9
$USERR4
 40
0.0
  9
$USERR5
 40
0.0
  9
$WORLDVIEW
 70
       1
  9
$SHADEDGE
 70
       3
  9
$SHADEDIF
 70
      70
  9
$TILEMODE
 70
       1
  9
$MAXACTVP
 70
      16
  9
$PINSBASE
 10
0.0
 20
0.0
 30
0.0
  9
$PLIMCHECK
 70
       0
  9
$PEXTMIN
 10
1.00000000E+20
 20
1.00000000E+20
 30
1.00000000E+20
  9
$PEXTMAX
 10
-1.00000000E+20
 20
-1.00000000E+20
 30
-1.00000000E+20
  9
$PLIMMIN
 10
0.0
 20
0.0
  9
$PLIMMAX
 10
12.0
 20
9.0
  9
$UNITMODE
 70
       0
  9
$VISRETAIN
 70
       0
  9
$PLINEGEN
 70
       1
  9
$PSLTSCALE
 70
       0
  9
$TREEDEPTH
 70
    3020
  9
$DWGCODEPAGE
  3
dos932
  0
ENDSEC
  0
SECTION
  2
TABLES
  0
TABLE
  2
VPORT
 70
       1
  0
VPORT
  2
*ACTIVE
 70
       0
 10
0.0
 20
0.0
 11
1.0
 21
1.0
 12
0.27500153
 22
-0.44999695
 13
0.0
 23
0.0
 14
1.0
 24
1.0
 15
0.0
 25
0.0
 16
0.0
 26
0.0
 36
1.0
 17
0.0
 27
0.0
 37
0.0
 40
268.76100616
 41
1.73205081
 42
50.0
 43
0.0
 44
0.0
 50
0.0
 51
0.0
 71
       0
 72
     100
 73
       1
 74
       1
 75
       0
 76
       0
 77
       0
 78
       0
  0
ENDTAB
  0
TABLE
  2
LTYPE
 70
       4
  0
LTYPE
  2
CONTINUOUS
 70
      64
  3
Solid line
 72
      65
 73
       0
 40
0.0
  0
LTYPE
  2
CENTER
 70
      64
  3
Center ____ _ ____ _ ____ _ ____ _ ____ _ ____
 72
      65
 73
       4
 40
50.8
 49
31.75
 49
-6.35
 49
6.35
 49
-6.35
  0
LTYPE
  2
PHANTOM
 70
      64
  3
Phantom ______  __  __  ______  __  __  ______
 72
      65
 73
       6
 40
63.5
 49
31.75
 49
-6.35
 49
6.35
 49
-6.35
 49
6.35
 49
-6.35
  0
LTYPE
  2
DASHED
 70
      64
  3
Dashed __ __ __ __ __ __ __ __ __ __ __ __ __ _
 72
      65
 73
       2
 40
19.05
 49
12.7
 49
-6.35
  0
ENDTAB
  0
TABLE
  2
LAYER
 70
       2
  0
LAYER
  2
0
 70
       0
 62
       7
  6
CONTINUOUS
  0
LAYER
  2
DEFPOINTS
 70
       0
 62
       7
  6
CONTINUOUS
  0
ENDTAB
  0
TABLE
  2
STYLE
 70
       1
  0
STYLE
  2
MX_NOTE_STANDARD
 70
       0
 40
3.20000005
 41
1.0
 50
0.0
 71
       0
 42
3.20000005
  3
txt.shx
  4
extfont.shx
  0
ENDTAB
  0
TABLE
  2
VIEW
 70
       0
  0
ENDTAB
  0
TABLE
  2
UCS
 70
       0
  0
ENDTAB
  0
TABLE
  2
APPID
 70
       1
  0
APPID
  2
ACAD
 70
       0
  0
ENDTAB
  0
TABLE
  2
DIMSTYLE
 70
       1
  0
DIMSTYLE
  2
MXDIMSTYLE
 70
       0
  3

  4

  5

  6

  7

 40
1.0
 41
2.5
 42
1.5
 43
3.75
 44
1.5
 45
0.0
 46
0.0
 47
0.0
 48
0.0
 71
       0
 72
       0
 73
       0
 74
       0
 75
       0
 76
       0
 77
       1
 78
       8
140
3.20000005
141
2.5
142
0.0
143
0.0394
144
1.0
145
0.0
146
1.0
147
1.0
170
       0
171
       4
172
       1
173
       0
174
       0
175
       0
176
       0
177
       0
178
       0
  0
ENDTAB
  0
ENDSEC
  0
SECTION
  2
BLOCKS
  0
BLOCK
  8
0
  6
BYBLOCK
 62
       0
  5
20
  2
_OPEN30
 70
       2
 10
0.0
 20
0.0
 30
0.0
  3
_OPEN30
  0
LINE
  8
0
  6
BYBLOCK
 62
       0
  5
21
 10
-1.0
 20
0.267949
 30
0.0
 11
0.0
 21
0.0
 31
0.0
  0
LINE
  8
0
  6
BYBLOCK
 62
       0
  5
22
 10
0.0
 20
0.0
 30
0.0
 11
-1.0
 21
-0.267949
 31
0.0
  0
LINE
  8
0
  6
BYBLOCK
 62
       0
  5
23
 10
0.0
 20
0.0
 30
0.0
 11
-1.0
 21
0.0
 31
0.0
  0
ENDBLK
  8
0
  6
BYBLOCK
 62
       0
  5
24
  0
ENDSEC
  0
SECTION
  2
ENTITIES
  0
POLYLINE
  8
0
 62
       2
  5
1E
 66
       1
 10
0.0
 20
0.0
 30
0.0
  0
VERTEX
  8
0
 62
       2
  5
FD
 10
17.12325733
 20
61.18577549
 30
0.0
  0
VERTEX
  8
0
 62
       2
  5
FE
 10
24.81972745
 20
73.04041089
 30
0.0
  0
VERTEX
  8
0
 62
       2
  5
FF
 10
32.5836288
 20
73.04041089
 30
0.0
  0
SEQEND
  8
0
 62
       2
  5
100
  0
INSERT
  8
0
 62
       2
  5
25
  2
_OPEN30
 10
17.12325733
 20
61.18577549
 30
0.0
 41
2.77
 42
2.77
 50
237.00686799
 43
2.77
  0
TEXT
  8
0
 62
       2
  5
26
 10
26.71696205
 20
75.04041077
 30
0.0
 40
3.20000005
  1
-2
  7
MX_NOTE_STANDARD
 11
26.71696205
 21
76.64041079
 31
0.0
 73
       2
  0
LINE
  8
0
  6
CENTER
 62
       2
  5
28
 10
-106.53352658
 20
-58.25052175
 30
0.0
 11
-15.91320522
 21
-58.25052175
 31
0.0
  0
LINE
  8
0
  6
CENTER
 62
       2
  5
29
 10
-35.05019325
 20
-34.00052175
 30
0.0
 11
-35.05019325
 21
-21.05052175
 31
0.0
  0
LINE
  8
0
  6
CENTER
 62
       2
  5
2A
 10
-91.03352658
 20
-34.61419756
 30
0.0
 11
-91.03352658
 21
-21.05052175
 31
0.0
  0
LINE
  8
0
  6
CENTER
 62
       2
  5
2B
 10
-24.04593017
 20
-27.25052175
 30
0.0
 11
-43.30170333
 21
-27.25052175
 31
0.0
  0
LINE
  8
0
  6
CENTER
 62
       2
  5
2C
 10
-84.28352658
 20
-27.25052175
 30
0.0
 11
-97.51685992
 21
-27.25052175
 31
0.0
  0
LINE
  8
0
  6
CONTINUOUS
 62
       7
  5
2D
 10
-26.55019325
 20
-58.25052175
 30
0.0
 11
-27.05019325
 21
-27.25052175
 31
0.0
  0
LINE
  8
0
  6
CONTINUOUS
 62
       7
  5
2E
 10
-48.55019325
 20
-21.75052175
 30
0.0
 11
-77.53352658
 21
-21.75052175
 31
0.0
  0
LINE
  8
0
  6
CONTINUOUS
 62
       7
  5
2F
 10
-99.53352658
 20
-58.25052175
 30
0.0
 11
-99.03352658
 21
-27.25052175
 31
0.0
  0
LINE
  8
0
  6
CENTER
 62
       2
  5
30
 10
-35.05019325
 20
-81.49781915
 30
0.0
 11
-35.05019325
 21
-96.06523015
 31
0.0
  0
LINE
  8
0
  6
CENTER
 62
       2
  5
31
 10
-23.87848867
 20
-89.25052175
 30
0.0
 11
-42.29705429
 21
-89.25052175
 31
0.0
  0
LINE
  8
0
  6
CONTINUOUS
 62
       7
  5
32
 10
-26.55019325
 20
-58.25052175
 30
0.0
 11
-27.05019325
 21
-89.25052175
 31
0.0
  0
LINE
  8
0
  6
CENTER
 62
       2
  5
33
 10
-91.03352658
 20
-80.99549464
 30
0.0
 11
-91.03352658
 21
-96.23267165
 31
0.0
  0
LINE
  8
0
  6
CENTER
 62
       2
  5
34
 10
-84.28352658
 20
-89.25052175
 30
0.0
 11
-97.55275117
 21
-89.25052175
 31
0.0
  0
LINE
  8
0
  6
CONTINUOUS
 62
       7
  5
35
 10
-99.53352658
 20
-58.25052175
 30
0.0
 11
-99.03352658
 21
-89.25052175
 31
0.0
  0
LINE
  8
0
  6
CONTINUOUS
 62
       7
  5
36
 10
-79.03352658
 20
-25.48385508
 30
0.0
 11
-79.03352658
 21
-23.25052175
 31
0.0
  0
LINE
  8
0
  6
CONTINUOUS
 62
       7
  5
37
 10
-47.05019325
 20
-25.48385508
 30
0.0
 11
-47.05019325
 21
-23.25052175
 31
0.0
  0
LINE
  8
0
  6
CONTINUOUS
 62
       7
  5
38
 10
-65.03352658
 20
-91.68385508
 30
0.0
 11
-65.03352658
 21
-86.86718841
 31
0.0
  0
LINE
  8
0
  6
CONTINUOUS
 62
       7
  5
39
 10
-61.03352658
 20
-91.68385508
 30
0.0
 11
-61.03352658
 21
-86.86718841
 31
0.0
  0
LINE
  8
0
  6
CONTINUOUS
 62
       7
  5
3A
 10
-65.03352658
 20
-29.61718841
 30
0.0
 11
-65.03352658
 21
-24.81718841
 31
0.0
  0
LINE
  8
0
  6
CONTINUOUS
 62
       7
  5
3B
 10
-61.03352658
 20
-29.61718841
 30
0.0
 11
-61.03352658
 21
-24.81718841
 31
0.0
  0
LINE
  8
0
  6
CONTINUOUS
 62
       7
  5
3C
 10
-63.03352658
 20
-91.68385508
 30
0.0
 11
-63.03352658
 21
-86.86718841
 31
0.0
  0
LINE
  8
0
  6
CONTINUOUS
 62
       7
  5
3D
 10
-63.03352658
 20
-29.61718841
 30
0.0
 11
-63.03352658
 21
-24.81718841
 31
0.0
  0
LINE
  8
0
  6
CENTER
 62
       2
  5
3E
 10
-63.03352658
 20
-18.60052175
 30
0.0
 11
-63.03352658
 21
-98.74628759
 31
0.0
  0
ARC
  8
0
  6
CONTINUOUS
 62
       7
  5
3F
 10
-35.05035489
 20
-27.24732145
 30
0.0
 40
8.00016228
 50
359.97708002
 51
135.60622018
  0
ARC
  8
0
  6
CONTINUOUS
 62
       7
  5
40
 10
-63.04185992
 20
-58.25079233
 30
0.0
 40
33.50077791
 50
76.19892522
 51
103.80107478
  0
ARC
  8
0
  6
CONTINUOUS
 62
       7
  5
41
 10
-51.47592132
 20
-11.15411208
 30
0.0
 40
14.99528633
 50
256.21025136
 51
315.57455167
  0
ARC
  8
0
  6
CONTINUOUS
 62
       7
  5
42
 10
-48.54616391
 20
-23.2464924
 30
0.0
 40
1.49597608
 50
359.84567629
 51
90.15432371
  0
ARC
  8
0
  6
CONTINUOUS
 62
       7
  5
43
 10
-77.5375545
 20
-23.24649383
 30
0.0
 40
1.49597751
 50
89.84573107
 51
180.15426893
  0
CIRCLE
  8
0
  6
CONTINUOUS
 62
       7
  5
44
 10
-35.04185737
 20
-27.25078852
 30
0.0
 40
4.49999968
  0
ARC
  8
0
  6
CONTINUOUS
 62
       7
  5
45
 10
-91.03336385
 20
-27.24732412
 30
0.0
 40
8.00016337
 50
44.39379892
 51
180.02290087
  0
CIRCLE
  8
0
  6
CONTINUOUS
 62
       7
  5
46
 10
-91.04185483
 20
-27.25078852
 30
0.0
 40
4.49999968
  0
ARC
  8
0
  6
CONTINUOUS
 62
       7
  5
47
 10
-35.0501566
 20
-89.25417208
 30
0.0
 40
7.99998915
 50
224.39048319
 51
0.14551014
  0
ARC
  8
0
  6
CONTINUOUS
 62
       7
  5
48
 10
-51.49178179
 20
-105.34293555
 30
0.0
 40
15.00382273
 50
44.37215499
 51
103.71939385
  0
CIRCLE
  8
0
  6
CONTINUOUS
 62
       7
  5
49
 10
-35.04186055
 20
-89.25077708
 30
0.0
 40
4.49999968
  0
ARC
  8
0
  6
CONTINUOUS
 62
       7
  5
4A
 10
-91.03354658
 20
-89.25416697
 30
0.0
 40
7.99998083
 50
179.97389295
 51
315.60940725
  0
ARC
  8
0
  6
CONTINUOUS
 62
       7
  5
4B
 10
-74.59193878
 20
-105.34293295
 30
0.0
 40
15.00382039
 50
76.28060106
 51
135.6278501
  0
CIRCLE
  8
0
  6
CONTINUOUS
 62
       7
  5
4C
 10
-91.04185483
 20
-89.25077708
 30
0.0
 40
4.49999968
  0
ARC
  8
0
  6
CONTINUOUS
 62
       7
  5
4D
 10
-74.60779794
 20
-11.15411007
 30
0.0
 40
14.99528814
 50
224.42545228
 51
283.78974469
  0
ARC
  8
0
  6
CONTINUOUS
 62
       7
  5
4E
 10
-63.04185992
 20
-58.25079233
 30
0.0
 40
33.48406711
 50
256.19190108
 51
283.80809892
  0
CIRCLE
  8
0
  6
CONTINUOUS
 62
       7
  5
4F
 10
-63.04186087
 20
-58.25079233
 30
0.0
 40
28.70000203
  0
CIRCLE
  8
0
  6
CONTINUOUS
 62
       7
  5
50
 10
-63.04186087
 20
-58.25079233
 30
0.0
 40
21.00000064
  0
CIRCLE
  8
0
  6
CONTINUOUS
 62
       7
  5
51
 10
-63.04186087
 20
-58.25079233
 30
0.0
 40
20.0
  0
CIRCLE
  8
0
  6
CONTINUOUS
 62
       7
  5
52
 10
-72.04186341
 20
-83.81267181
 30
0.0
 40
1.25
  0
ARC
  8
0
  6
CONTINUOUS
 62
       7
  5
53
 10
-72.03726458
 20
-83.81510288
 30
0.0
 40
3.39857377
 50
315.81445646
 51
168.43666154
  0
ARC
  8
0
  6
CONTINUOUS
 62
       7
  5
54
 10
-63.04185992
 20
-59.50748077
 30
0.0
 40
26.64791151
 50
297.54937273
 51
242.45062727
  0
ARC
  8
0
  6
CONTINUOUS
 62
       7
  5
55
 10
-54.04645671
 20
-83.81510012
 30
0.0
 40
3.39857465
 50
11.563288
 51
224.18559399
  0
CIRCLE
  8
0
  6
CONTINUOUS
 62
       7
  5
56
 10
-54.04186309
 20
-83.81267181
 30
0.0
 40
1.25
  0
LINE
  8
0
  6
CONTINUOUS
 62
       7
  5
57
 10
134.44980675
 20
80.46614492
 30
0.0
 11
69.44980675
 21
80.46614492
 31
0.0
  0
LINE
  8
0
  6
CONTINUOUS
 62
       7
  5
58
 10
68.44980675
 20
79.46614492
 30
0.0
 11
68.44980675
 21
68.46614492
 31
0.0
  0
LINE
  8
0
  6
CONTINUOUS
 62
       7
  5
59
 10
135.44980675
 20
79.46614492
 30
0.0
 11
135.44980675
 21
69.36614492
 31
0.0
  0
LINE
  8
0
  6
CONTINUOUS
 62
       7
  5
5A
 10
135.44980675
 20
79.46614492
 30
0.0
 11
134.44980675
 21
80.46614492
 31
0.0
  0
LINE
  8
0
  6
CONTINUOUS
 62
       7
  5
5B
 10
69.44980675
 20
80.46614492
 30
0.0
 11
68.44980675
 21
79.46614492
 31
0.0
  0
LINE
  8
0
  6
CONTINUOUS
 62
       7
  5
5C
 10
68.44980675
 20
79.46614492
 30
0.0
 11
135.44980675
 21
79.46614492
 31
0.0
  0
LINE
  8
0
  6
CONTINUOUS
 62
       7
  5
5D
 10
139.94980675
 20
21.46614492
 30
0.0
 11
63.94980675
 21
21.46614492
 31
0.0
  0
LINE
  8
0
  6
CONTINUOUS
 62
       7
  5
5E
 10
83.51647342
 20
32.96614492
 30
0.0
 11
64.44980675
 21
32.96614492
 31
0.0
  0
LINE
  8
0
  6
CENTER
 62
       2
  5
5F
 10
125.59980675
 20
50.96614492
 30
0.0
 11
2.91514227
 21
50.96614492
 31
0.0
  0
LINE
  8
0
  6
CONTINUOUS
 62
       7
  5
60
 10
65.44980675
 20
65.46614492
 30
0.0
 11
65.44980675
 21
36.46614492
 31
0.0
  0
LINE
  8
0
  6
PHANTOM
 62
       2
  5
62
 10
68.44980675
 20
33.46614492
 30
0.0
 11
68.44980675
 21
22.46614492
 31
0.0
  0
LINE
  8
0
  6
CONTINUOUS
 62
       7
  5
63
 10
62.94980675
 20
31.46614492
 30
0.0
 11
62.94980675
 21
22.46614492
 31
0.0
  0
LINE
  8
0
  6
CONTINUOUS
 62
       7
  5
64
 10
140.94980675
 20
31.46614492
 30
0.0
 11
140.94980675
 21
22.46614492
 31
0.0
  0
LINE
  8
0
  6
CONTINUOUS
 62
       7
  5
65
 10
63.94980675
 20
21.46614492
 30
0.0
 11
62.94980675
 21
22.46614492
 31
0.0
  0
LINE
  8
0
  6
CONTINUOUS
 62
       7
  5
66
 10
139.94980675
 20
21.46614492
 30
0.0
 11
140.94980675
 21
22.46614492
 31
0.0
  0
LINE
  8
0
  6
CONTINUOUS
 62
       7
  5
67
 10
140.94980675
 20
22.46614492
 30
0.0
 11
62.94980675
 21
22.46614492
 31
0.0
  0
LINE
  8
0
  6
PHANTOM
 62
       2
  5
68
 10
69.44980675
 20
21.46614492
 30
0.0
 11
68.44980675
 21
22.46614492
 31
0.0
  0
LINE
  8
0
  6
PHANTOM
 62
       2
  5
69
 10
135.44980675
 20
22.46614492
 30
0.0
 11
135.44980675
 21
32.56614492
 31
0.0
  0
LINE
  8
0
  6
PHANTOM
 62
       2
  5
6A
 10
135.44980675
 20
22.46614492
 30
0.0
 11
134.44980675
 21
21.46614492
 31
0.0
  0
LINE
  8
0
  6
CONTINUOUS
 62
       7
  5
6B
 10
120.38314008
 20
32.96614492
 30
0.0
 11
139.44980675
 21
32.96614492
 31
0.0
  0
LINE
  8
0
  6
CONTINUOUS
 62
       7
  5
6C
 10
130.24980675
 20
64.46614492
 30
0.0
 11
114.31647342
 21
64.46614492
 31
0.0
  0
LINE
  8
0
  6
CONTINUOUS
 62
       7
  5
6D
 10
130.24980675
 20
37.46614492
 30
0.0
 11
118.91647342
 21
37.46614492
 31
0.0
  0
LINE
  8
0
  6
CONTINUOUS
 62
       7
  5
6E
 10
73.84980675
 20
37.46614492
 30
0.0
 11
84.98314008
 21
37.46614492
 31
0.0
  0
LINE
  8
0
  6
CONTINUOUS
 62
       7
  5
6F
 10
73.64980675
 20
64.46614492
 30
0.0
 11
88.28314008
 21
64.46614492
 31
0.0
  0
LINE
  8
0
  6
CONTINUOUS
 62
       7
  5
70
 10
125.41647342
 20
59.63281159
 30
0.0
 11
123.56647342
 21
59.63281159
 31
0.0
  0
LINE
  8
0
  6
CONTINUOUS
 62
       7
  5
71
 10
125.41647342
 20
42.29947825
 30
0.0
 11
123.56647342
 21
42.29947825
 31
0.0
  0
LINE
  8
0
  6
CONTINUOUS
 62
       7
  5
72
 10
79.99980675
 20
42.29947825
 30
0.0
 11
82.48314008
 21
42.29947825
 31
0.0
  0
LINE
  8
0
  6
CONTINUOUS
 62
       7
  5
73
 10
79.99980675
 20
59.63281159
 30
0.0
 11
82.64980675
 21
59.63281159
 31
0.0
  0
LINE
  8
0
  6
DASHED
 62
       2
  5
75
 10
71.84980675
 20
60.26614492
 30
0.0
 11
65.44980675
 21
60.26614492
 31
0.0
  0
LINE
  8
0
  6
DASHED
 62
       2
  5
76
 10
71.29980675
 20
61.28281159
 30
0.0
 11
65.44980675
 21
61.58281159
 31
0.0
  0
LINE
  8
0
  6
DASHED
 62
       2
  5
77
 10
72.04980675
 20
41.66614492
 30
0.0
 11
65.44980675
 21
41.66614492
 31
0.0
  0
LINE
  8
0
  6
DASHED
 62
       2
  5
78
 10
72.24980675
 20
40.69947825
 30
0.0
 11
65.44980675
 21
40.34947825
 31
0.0
  0
LINE
  8
0
  6
CONTINUOUS
 62
       7
  5
79
 10
136.44980675
 20
77.96614492
 30
0.0
 11
136.44980675
 21
72.96614492
 31
0.0
  0
LINE
  8
0
  6
CONTINUOUS
 62
       7
  5
7A
 10
136.44980675
 20
77.96614492
 30
0.0
 11
135.44980675
 21
77.96614492
 31
0.0
  0
LINE
  8
0
  6
CONTINUOUS
 62
       7
  5
7B
 10
136.44980675
 20
72.96614492
 30
0.0
 11
135.44980675
 21
72.96614492
 31
0.0
  0
LINE
  8
0
  6
CONTINUOUS
 62
       7
  5
7C
 10
-67.28352658
 20
84.16614492
 30
0.0
 11
-58.78352658
 21
92.16614492
 31
0.0
  0
LINE
  8
0
  6
CONTINUOUS
 62
       7
  5
7D
 10
-53.53352658
 20
92.16614492
 30
0.0
 11
-72.53352658
 21
92.16614492
 31
0.0
  0
LINE
  8
0
  6
CONTINUOUS
 62
       7
  5
7E
 10
-72.53352658
 20
92.16614492
 30
0.0
 11
-72.53352658
 21
82.66614492
 31
0.0
  0
LINE
  8
0
  6
CONTINUOUS
 62
       7
  5
7F
 10
-53.53352658
 20
92.16614492
 30
0.0
 11
-53.53352658
 21
82.66614492
 31
0.0
  0
LINE
  8
0
  6
CONTINUOUS
 62
       7
  5
80
 10
120.94980675
 20
82.66614492
 30
0.0
 11
82.94980675
 21
82.66614492
 31
0.0
  0
LINE
  8
0
  6
CONTINUOUS
 62
       7
  5
81
 10
120.94980675
 20
82.66614492
 30
0.0
 11
120.94980675
 21
80.46614492
 31
0.0
  0
LINE
  8
0
  6
CONTINUOUS
 62
       7
  5
82
 10
82.94980675
 20
82.66614492
 30
0.0
 11
82.94980675
 21
80.46614492
 31
0.0
  0
LINE
  8
0
  6
CONTINUOUS
 62
       7
  5
83
 10
-58.78352658
 20
92.16614492
 30
0.0
 11
-58.78352658
 21
84.16614492
 31
0.0
  0
LINE
  8
0
  6
CONTINUOUS
 62
       7
  5
84
 10
-67.28352658
 20
92.16614492
 30
0.0
 11
-67.28352658
 21
84.16614492
 31
0.0
  0
LINE
  8
0
  6
CONTINUOUS
 62
       7
  5
85
 10
-58.78352658
 20
84.16614492
 30
0.0
 11
-67.28352658
 21
84.16614492
 31
0.0
  0
LINE
  8
0
  6
CONTINUOUS
 62
       7
  5
86
 10
-58.78352658
 20
84.16614492
 30
0.0
 11
-67.28352658
 21
92.16614492
 31
0.0
  0
LINE
  8
0
  6
DASHED
 62
       2
  5
87
 10
97.94980675
 20
92.16614492
 30
0.0
 11
97.94980675
 21
86.56614492
 31
0.0
  0
LINE
  8
0
  6
DASHED
 62
       2
  5
88
 10
97.24980675
 20
86.36614492
 30
0.0
 11
96.94980675
 21
92.16614492
 31
0.0
  0
LINE
  8
0
  6
DASHED
 62
       2
  5
89
 10
105.94980675
 20
92.16614492
 30
0.0
 11
105.94980675
 21
86.56614492
 31
0.0
  0
LINE
  8
0
  6
DASHED
 62
       2
  5
8A
 10
106.64980675
 20
86.36614492
 30
0.0
 11
106.94980675
 21
92.16614492
 31
0.0
  0
LINE
  8
0
  6
CONTINUOUS
 62
       7
  5
8B
 10
-30.55019325
 20
80.46614492
 30
0.0
 11
-95.53352658
 21
80.46614492
 31
0.0
  0
LINE
  8
0
  6
CONTINUOUS
 62
       7
  5
8C
 10
-29.55019325
 20
79.46614492
 30
0.0
 11
-29.55019325
 21
69.36614492
 31
0.0
  0
LINE
  8
0
  6
CONTINUOUS
 62
       7
  5
8D
 10
-29.55019325
 20
79.46614492
 30
0.0
 11
-30.55019325
 21
80.46614492
 31
0.0
  0
LINE
  8
0
  6
CONTINUOUS
 62
       7
  5
8E
 10
-29.55019325
 20
79.46614492
 30
0.0
 11
-96.53352658
 21
79.46614492
 31
0.0
  0
LINE
  8
0
  6
CONTINUOUS
 62
       7
  5
8F
 10
-27.55019325
 20
21.46614492
 30
0.0
 11
-98.53352658
 21
21.46614492
 31
0.0
  0
LINE
  8
0
  6
CONTINUOUS
 62
       7
  5
90
 10
-81.46685992
 20
32.96614492
 30
0.0
 11
-98.03352658
 21
32.96614492
 31
0.0
  0
LINE
  8
0
  6
CENTER
 62
       2
  5
91
 10
-20.1431395
 20
50.96614492
 30
0.0
 11
-104.76432202
 21
50.96614492
 31
0.0
  0
LINE
  8
0
  6
CONTINUOUS
 62
       7
  5
92
 10
-99.53352658
 20
65.46614492
 30
0.0
 11
-99.53352658
 21
22.46614492
 31
0.0
  0
LINE
  8
0
  6
CONTINUOUS
 62
       7
  5
93
 10
-26.55019325
 20
22.46614492
 30
0.0
 11
-99.53352658
 21
22.46614492
 31
0.0
  0
LINE
  8
0
  6
CONTINUOUS
 62
       7
  5
94
 10
-34.45019325
 20
64.46614492
 30
0.0
 11
-46.50019325
 21
64.46614492
 31
0.0
  0
LINE
  8
0
  6
CONTINUOUS
 62
       7
  5
95
 10
-34.28352658
 20
37.46614492
 30
0.0
 11
-45.00019325
 21
37.46614492
 31
0.0
  0
LINE
  8
0
  6
CONTINUOUS
 62
       7
  5
96
 10
-91.15019325
 20
37.46614492
 30
0.0
 11
-80.00019325
 21
37.46614492
 31
0.0
  0
LINE
  8
0
  6
CONTINUOUS
 62
       7
  5
97
 10
-91.33352658
 20
64.46614492
 30
0.0
 11
-76.70019325
 21
64.46614492
 31
0.0
  0
LINE
  8
0
  6
CONTINUOUS
 62
       7
  5
98
 10
-40.98352658
 20
59.63281159
 30
0.0
 11
-44.48352658
 21
59.63281159
 31
0.0
  0
LINE
  8
0
  6
CONTINUOUS
 62
       7
  5
99
 10
-41.65019325
 20
42.29947825
 30
0.0
 11
-45.16685992
 21
42.29947825
 31
0.0
  0
LINE
  8
0
  6
CONTINUOUS
 62
       7
  5
9A
 10
-84.98352658
 20
42.29947825
 30
0.0
 11
-82.50019325
 21
42.29947825
 31
0.0
  0
LINE
  8
0
  6
CONTINUOUS
 62
       7
  5
9B
 10
-84.98352658
 20
59.63281159
 30
0.0
 11
-82.33352658
 21
59.63281159
 31
0.0
  0
LINE
  8
0
  6
DASHED
 62
       2
  5
9C
 10
-93.13352658
 20
60.26614492
 30
0.0
 11
-99.53352658
 21
60.26614492
 31
0.0
  0
LINE
  8
0
  6
DASHED
 62
       2
  5
9D
 10
-93.68352658
 20
61.28281159
 30
0.0
 11
-99.53352658
 21
61.58281159
 31
0.0
  0
LINE
  8
0
  6
DASHED
 62
       2
  5
9E
 10
-92.93352658
 20
41.66614492
 30
0.0
 11
-99.53352658
 21
41.66614492
 31
0.0
  0
LINE
  8
0
  6
DASHED
 62
       2
  5
9F
 10
-92.73352658
 20
40.69947825
 30
0.0
 11
-99.53352658
 21
40.34947825
 31
0.0
  0
LINE
  8
0
  6
CONTINUOUS
 62
       7
  5
A0
 10
-96.53352658
 20
79.46614492
 30
0.0
 11
-96.53352658
 21
68.46614492
 31
0.0
  0
LINE
  8
0
  6
CONTINUOUS
 62
       7
  5
A1
 10
-96.53352658
 20
79.46614492
 30
0.0
 11
-95.53352658
 21
80.46614492
 31
0.0
  0
LINE
  8
0
  6
CONTINUOUS
 62
       7
  5
A2
 10
-99.53352658
 20
22.46614492
 30
0.0
 11
-98.53352658
 21
21.46614492
 31
0.0
  0
LINE
  8
0
  6
CONTINUOUS
 62
       7
  5
A3
 10
-83.53352658
 20
31.46614492
 30
0.0
 11
-83.53352658
 21
22.46614492
 31
0.0
  0
LINE
  8
0
  6
CONTINUOUS
 62
       7
  5
A4
 10
-26.55019325
 20
65.46614492
 30
0.0
 11
-26.55019325
 21
22.46614492
 31
0.0
  0
LINE
  8
0
  6
DASHED
 62
       2
  5
A5
 10
-32.40019325
 20
61.28281159
 30
0.0
 11
-26.55019325
 21
61.58281159
 31
0.0
  0
LINE
  8
0
  6
DASHED
 62
       2
  5
A6
 10
-32.95019325
 20
60.26614492
 30
0.0
 11
-26.55019325
 21
60.26614492
 31
0.0
  0
LINE
  8
0
  6
DASHED
 62
       2
  5
A7
 10
-33.15019325
 20
41.66614492
 30
0.0
 11
-26.55019325
 21
41.66614492
 31
0.0
  0
LINE
  8
0
  6
CONTINUOUS
 62
       7
  5
A8
 10
-44.61685992
 20
32.96614492
 30
0.0
 11
-28.05019325
 21
32.96614492
 31
0.0
  0
LINE
  8
0
  6
CONTINUOUS
 62
       7
  5
A9
 10
-42.55019325
 20
31.46614492
 30
0.0
 11
-42.55019325
 21
22.46614492
 31
0.0
  0
LINE
  8
0
  6
DASHED
 62
       2
  5
AA
 10
-33.35019325
 20
40.69947825
 30
0.0
 11
-26.55019325
 21
40.34947825
 31
0.0
  0
LINE
  8
0
  6
CONTINUOUS
 62
       7
  5
AB
 10
-26.55019325
 20
22.46614492
 30
0.0
 11
-27.55019325
 21
21.46614492
 31
0.0
  0
LINE
  8
0
  6
CONTINUOUS
 62
       7
  5
AC
 10
110.43314008
 20
92.16614492
 30
0.0
 11
93.44980675
 21
92.16614492
 31
0.0
  0
LINE
  8
0
  6
CONTINUOUS
 62
       7
  5
AD
 10
92.44980675
 20
84.16614492
 30
0.0
 11
92.44980675
 21
82.66614492
 31
0.0
  0
LINE
  8
0
  6
CONTINUOUS
 62
       7
  5
AE
 10
111.43314008
 20
84.16614492
 30
0.0
 11
111.43314008
 21
82.66614492
 31
0.0
  0
LINE
  8
0
  6
CONTINUOUS
 62
       7
  5
AF
 10
-44.05019325
 20
82.66614492
 30
0.0
 11
-82.03352658
 21
82.66614492
 31
0.0
  0
LINE
  8
0
  6
CONTINUOUS
 62
       7
  5
B0
 10
-44.05019325
 20
82.66614492
 30
0.0
 11
-44.05019325
 21
80.46614492
 31
0.0
  0
LINE
  8
0
  6
CONTINUOUS
 62
       7
  5
B1
 10
-82.03352658
 20
82.66614492
 30
0.0
 11
-82.03352658
 21
80.46614492
 31
0.0
  0
LINE
  8
0
  6
CONTINUOUS
 62
       7
  5
B2
 10
111.43314008
 20
84.16614492
 30
0.0
 11
110.43314008
 21
84.16614492
 31
0.0
  0
LINE
  8
0
  6
CONTINUOUS
 62
       7
  5
B3
 10
110.43314008
 20
92.16614492
 30
0.0
 11
110.43314008
 21
84.16614492
 31
0.0
  0
LINE
  8
0
  6
CONTINUOUS
 62
       7
  5
B4
 10
93.44980675
 20
92.16614492
 30
0.0
 11
93.44980675
 21
84.16614492
 31
0.0
  0
LINE
  8
0
  6
CONTINUOUS
 62
       7
  5
B5
 10
93.44980675
 20
84.16614492
 30
0.0
 11
92.44980675
 21
84.16614492
 31
0.0
  0
LINE
  8
0
  6
DASHED
 62
       2
  5
B6
 10
105.93314008
 20
92.16614492
 30
0.0
 11
105.93314008
 21
86.56614492
 31
0.0
  0
LINE
  8
0
  6
DASHED
 62
       2
  5
B7
 10
106.63314008
 20
86.36614492
 30
0.0
 11
106.93314008
 21
92.16614492
 31
0.0
  0
LINE
  8
0
  6
CENTER
 62
       2
  5
B8
 10
101.94980675
 20
98.20906668
 30
0.0
 11
101.94980675
 21
16.38281159
 31
0.0
  0
ARC
  8
0
  6
CONTINUOUS
 62
       7
  5
B9
 10
130.45813649
 20
50.96614492
 30
0.0
 40
9.50032382
 50
114.18189445
 51
245.81810555
  0
ARC
  8
0
  6
CONTINUOUS
 62
       7
  5
BA
 10
101.9605032
 20
50.95746186
 30
0.0
 40
15.99498546
 50
326.94378696
 51
49.02064847
  0
ARC
  8
0
  6
CONTINUOUS
 62
       7
  5
BB
 10
66.94984007
 20
65.4661116
 30
0.0
 40
1.50003332
 50
90.00127274
 51
179.99872726
  0
ARC
  8
0
  6
CONTINUOUS
 62
       7
  5
BC
 10
66.95813245
 20
36.47447063
 30
0.0
 40
1.50834868
 50
180.31625985
 51
269.68374015
  0
ARC
  8
0
  6
CONTINUOUS
 62
       7
  5
BD
 10
66.94979122
 20
68.46616045
 30
0.0
 40
1.50001553
 50
270.00059332
 51
359.99940668
  0
ARC
  8
0
  6
CONTINUOUS
 62
       7
  5
BE
 10
66.95814263
 20
33.4744808
 30
0.0
 40
1.49168742
 50
359.67981695
 51
90.32018305
  0
ARC
  8
0
  6
CONTINUOUS
 62
       7
  5
BF
 10
64.44983501
 20
31.46611666
 30
0.0
 40
1.50002826
 50
90.00107955
 51
179.99892045
  0
ARC
  8
0
  6
CONTINUOUS
 62
       7
  5
C0
 10
139.45814517
 20
31.47448334
 30
0.0
 40
1.49168489
 50
359.67971872
 51
90.32028128
  0
ARC
  8
0
  6
CONTINUOUS
 62
       7
  5
C1
 10
83.5113188
 20
38.96019745
 30
0.0
 40
5.99405474
 50
270.04927177
 51
33.09143215
  0
ARC
  8
0
  6
CONTINUOUS
 62
       7
  5
C2
 10
120.40115346
 20
38.96715875
 30
0.0
 40
6.00104087
 50
147.03128152
 51
269.82801455
  0
ARC
  8
0
  6
CONTINUOUS
 62
       7
  5
C3
 10
125.75334336
 20
64.46962441
 30
0.0
 40
4.90468539
 50
279.54292019
 51
351.16297371
  0
ARC
  8
0
  6
CONTINUOUS
 62
       7
  5
C4
 10
130.55504499
 20
69.37079466
 30
0.0
 40
4.89476397
 50
279.93813775
 51
359.94557234
  0
ARC
  8
0
  6
CONTINUOUS
 62
       7
  5
C5
 10
131.58938218
 20
63.56681917
 30
0.0
 40
1.00077855
 50
100.91940202
 51
171.41887664
  0
ARC
  8
0
  6
CONTINUOUS
 62
       7
  5
C6
 10
125.76167224
 20
37.47089233
 30
0.0
 40
4.89519632
 50
8.75685384
 51
80.53725227
  0
ARC
  8
0
  6
CONTINUOUS
 62
       7
  5
C7
 10
130.55419362
 20
32.5787826
 30
0.0
 40
4.89429955
 50
4.53945701
 51
80.05079102
  0
ARC
  8
0
  6
CONTINUOUS
 62
       7
  5
C8
 10
131.58778517
 20
38.38379045
 30
0.0
 40
1.00210099
 50
189.63052632
 51
259.18815925
  0
ARC
  8
0
  6
CONTINUOUS
 62
       7
  5
C9
 10
127.45130728
 20
50.96876802
 30
0.0
 40
9.49513481
 50
114.15078541
 51
145.60288352
  0
ARC
  8
0
  6
CONTINUOUS
 62
       7
  5
CA
 10
127.45950024
 20
50.97332855
 30
0.0
 40
9.50743586
 50
214.41798915
 51
245.82834192
  0
ARC
  8
0
  6
CONTINUOUS
 62
       7
  5
CB
 10
73.35901079
 20
69.37402303
 30
0.0
 40
4.9090929
 50
217.54039434
 51
268.72533549
  0
ARC
  8
0
  6
CONTINUOUS
 62
       7
  5
CC
 10
78.16460264
 20
64.46791013
 30
0.0
 40
4.90606847
 50
188.81425496
 51
260.24262594
  0
ARC
  8
0
  6
CONTINUOUS
 62
       7
  5
CD
 10
73.45852474
 20
50.96453653
 30
0.0
 40
9.50093901
 50
300.75129293
 51
63.71105629
  0
ARC
  8
0
  6
CONTINUOUS
 62
       7
  5
CE
 10
78.15627091
 20
37.47257541
 30
0.0
 40
4.89658405
 50
99.67754599
 51
171.26557312
  0
ARC
  8
0
  6
CONTINUOUS
 62
       7
  5
CF
 10
73.35230786
 20
32.5714978
 30
0.0
 40
4.89572027
 50
91.19968258
 51
142.5345876
  0
ARC
  8
0
  6
CONTINUOUS
 62
       7
  5
D0
 10
-34.54166664
 20
50.9695269
 30
0.0
 40
9.50285751
 50
127.42571216
 51
237.00311908
  0
CIRCLE
  8
0
  6
CONTINUOUS
 62
       7
  5
D1
 10
-63.04186087
 20
50.97447317
 30
0.0
 40
16.00000064
  0
ARC
  8
0
  6
CONTINUOUS
 62
       7
  5
D2
 10
-98.04184974
 20
65.47446808
 30
0.0
 40
1.49170006
 50
89.68030808
 51
180.31969192
  0
ARC
  8
0
  6
CONTINUOUS
 62
       7
  5
D3
 10
-81.48489442
 20
38.9671702
 30
0.0
 40
6.00105237
 50
270.17218691
 51
32.96851702
  0
ARC
  8
0
  6
CONTINUOUS
 62
       7
  5
D4
 10
-44.59882688
 20
38.9671694
 30
0.0
 40
6.00105157
 50
147.03146892
 51
269.82782715
  0
CIRCLE
  8
0
  6
CONTINUOUS
 62
       2
  5
D5
 10
-63.04186087
 20
50.97447317
 30
0.0
 40
10.50000032
  0
CIRCLE
  8
0
  6
CONTINUOUS
 62
       7
  5
D6
 10
-63.04186087
 20
50.97447317
 30
0.0
 40
9.29999987
  0
ARC
  8
0
  6
CONTINUOUS
 62
       7
  5
D7
 10
-39.24692041
 20
64.46794726
 30
0.0
 40
4.90468867
 50
293.38524066
 51
351.18280665
  0
ARC
  8
0
  6
CONTINUOUS
 62
       7
  5
D8
 10
-34.44495129
 20
69.37079153
 30
0.0
 40
4.89476025
 50
279.93810116
 51
359.94560894
  0
ARC
  8
0
  6
CONTINUOUS
 62
       7
  5
D9
 10
-39.23457478
 20
37.46427009
 30
0.0
 40
4.89250044
 50
8.8401937
 51
62.38627155
  0
ARC
  8
0
  6
CONTINUOUS
 62
       7
  5
DA
 10
-34.4458029
 20
32.57878577
 30
0.0
 40
4.89429584
 50
4.53942332
 51
80.0508247
  0
ARC
  8
0
  6
CONTINUOUS
 62
       7
  5
DB
 10
-91.62771607
 20
69.36732452
 30
0.0
 40
4.90232162
 50
217.50248399
 51
268.76324583
  0
ARC
  8
0
  6
CONTINUOUS
 62
       7
  5
DC
 10
-86.8370529
 20
64.46963457
 30
0.0
 40
4.90469711
 50
188.83712511
 51
260.45698099
  0
ARC
  8
0
  6
CONTINUOUS
 62
       7
  5
DD
 10
-91.54145034
 20
50.96388815
 30
0.0
 40
9.50890219
 50
300.83946608
 51
63.62288314
  0
ARC
  8
0
  6
CONTINUOUS
 62
       7
  5
DE
 10
-86.84538176
 20
37.47088215
 30
0.0
 40
4.89520805
 50
99.46284713
 51
171.24304677
  0
ARC
  8
0
  6
CONTINUOUS
 62
       7
  5
DF
 10
-91.63442827
 20
32.57821464
 30
0.0
 40
4.88893474
 50
91.16146032
 51
142.57280986
  0
ARC
  8
0
  6
CONTINUOUS
 62
       7
  5
E0
 10
-98.04185229
 20
68.47447063
 30
0.0
 40
1.50834868
 50
270.31625984
 51
359.68374016
  0
ARC
  8
0
  6
CONTINUOUS
 62
       7
  5
E1
 10
-85.03355085
 20
31.46612065
 30
0.0
 40
1.50002427
 50
0.00092693
 51
89.99907307
  0
ARC
  8
0
  6
CONTINUOUS
 62
       7
  5
E2
 10
-98.04185483
 20
31.47447317
 30
0.0
 40
1.491695
 50
89.68011163
 51
180.31988837
  0
ARC
  8
0
  6
CONTINUOUS
 62
       7
  5
E3
 10
-28.04187263
 20
65.47446554
 30
0.0
 40
1.49170259
 50
359.6804063
 51
90.3195937
  0
ARC
  8
0
  6
CONTINUOUS
 62
       7
  5
E4
 10
-28.04187009
 20
68.47446808
 30
0.0
 40
1.50834612
 50
180.31616378
 51
269.68383622
  0
ARC
  8
0
  6
CONTINUOUS
 62
       7
  5
E5
 10
-28.04186755
 20
31.47447062
 30
0.0
 40
1.49169753
 50
359.68020985
 51
90.31979015
  0
ARC
  8
0
  6
CONTINUOUS
 62
       7
  5
E6
 10
-41.05017074
 20
31.46612241
 30
0.0
 40
1.50002251
 50
90.00085977
 51
179.99914023
  0
ARC
  8
0
  6
CONTINUOUS
 62
       7
  5
E7
 10
101.95574054
 20
50.95569584
 30
0.0
 40
16.00796404
 50
49.01191983
 51
326.9583921
  0
CIRCLE
  8
0
  6
CONTINUOUS
 62
       2
  5
E8
 10
101.94980675
 20
50.96614492
 30
0.0
 40
10.50000032
  0
CIRCLE
  8
0
  6
CONTINUOUS
 62
       7
  5
E9
 10
101.94980675
 20
50.96614492
 30
0.0
 40
9.29999987
  0
LINE
  8
0
  6
CENTER
 62
       2
  5
EA
 10
-63.03352658
 20
14.09761699
 30
0.0
 11
-63.03352658
 21
98.64046124
 31
0.0
  0
LINE
  8
0
  6
PHANTOM
 62
       2
  5
EB
 10
23.22034694
 20
42.24079281
 30
0.0
 11
23.22034694
 21
59.69149703
 31
0.0
  0
LINE
  8
0
  6
PHANTOM
 62
       2
  5
EC
 10
11.05133286
 20
41.42952521
 30
0.0
 11
11.05133286
 21
60.50276464
 31
0.0
  0
LINE
  8
0
  6
PHANTOM
 62
       2
  5
ED
 10
11.76119201
 20
40.46614492
 30
0.0
 11
11.76119201
 21
61.46614492
 31
0.0
  0
LINE
  8
0
  6
PHANTOM
 62
       2
  5
EE
 10
21.80062863
 20
40.99008859
 30
0.0
 11
21.80062863
 21
60.94220126
 31
0.0
  0
LINE
  8
0
  6
PHANTOM
 62
       2
  5
EF
 10
22.10485399
 20
60.92529985
 30
0.0
 11
23.22034694
 21
59.69149703
 31
0.0
  0
LINE
  8
0
  6
PHANTOM
 62
       2
  5
F0
 10
11.76119201
 20
61.46614492
 30
0.0
 11
22.10485399
 21
60.92529985
 31
0.0
  0
LINE
  8
0
  6
PHANTOM
 62
       2
  5
F1
 10
11.05133286
 20
60.50276464
 30
0.0
 11
23.22034694
 21
59.86051112
 31
0.0
  0
LINE
  8
0
  6
PHANTOM
 62
       2
  5
F2
 10
11.05133286
 20
60.24924351
 30
0.0
 11
11.76119201
 21
61.46614492
 31
0.0
  0
LINE
  8
0
  6
PHANTOM
 62
       2
  5
F3
 10
11.76119201
 20
40.46614492
 30
0.0
 11
22.10485399
 21
41.00698999
 31
0.0
  0
LINE
  8
0
  6
PHANTOM
 62
       2
  5
F4
 10
11.05133286
 20
41.68304633
 30
0.0
 11
11.76119201
 21
40.46614492
 31
0.0
  0
LINE
  8
0
  6
PHANTOM
 62
       2
  5
F5
 10
11.05133286
 20
41.42952521
 30
0.0
 11
23.22034694
 21
42.07177873
 31
0.0
  0
LINE
  8
0
  6
PHANTOM
 62
       2
  5
F6
 10
22.10485399
 20
41.00698999
 30
0.0
 11
23.22034694
 21
42.24079281
 31
0.0
  0
TEXT
  8
0
  6
CONTINUOUS
 62
       7
  5
F7
 10
-185.66666666
 20
105.3500061
 30
0.0
 40
4.5
  1
MODEL:500A
 41
1.11111111
  7
MX_NOTE_STANDARD
 11
-185.66666666
 21
107.6000061
 31
0.0
 73
       2
  0
LINE
  8
0
  6
CONTINUOUS
 62
       7
  5
F8
 10
-194.25
 20
132.6000061
 30
0.0
 11
194.80000305
 21
132.6000061
 31
0.0
  0
LINE
  8
0
  6
CONTINUOUS
 62
       7
  5
F9
 10
194.80000305
 20
132.6000061
 30
0.0
 11
194.80000305
 21
-133.5
 31
0.0
  0
LINE
  8
0
  6
CONTINUOUS
 62
       7
  5
FA
 10
-194.25
 20
132.6000061
 30
0.0
 11
-194.25
 21
-133.5
 31
0.0
  0
LINE
  8
0
  6
CONTINUOUS
 62
       7
  5
FB
 10
-194.25
 20
-133.5
 30
0.0
 11
194.80000305
 21
-133.5
 31
0.0
  0
ENDSEC
  0
EOF
