  0
SECTION
  2
HEADER
  0
ENDSEC
  0
SECTION
  2
TABLES
  0
TABLE
  2
LTYPE
 70
     4
  0
LTYPE
  2
CONTINUOUS
 70
    64
  3
Solid line
 72
    65
 73
     0
 40
0.000000
  0
LTYPE
  2
DASHED
 70
    64
  3
__ __ __ __ __ __ __ __ __ __ __ __ __ __ __
 72
    65
 73
     2
 40
3.500000
 49
2.000000
 49
-1.500000
  0
LTYPE
  2
CENTER
 70
    64
  3
____ _ ____ _ ____ _ ____ _ ____ _ ____ _ ____
 72
    65
 73
     4
 40
17.500000
 49
13.000000
 49
-1.500000
 49
1.500000
 49
-1.500000
  0
LTYPE
  2
PHANTOM
 70
    64
  3
_____ _ _ _____ _ _ _____ _ _ _____ _ _ ____  
 72
    65
 73
     6
 40
15.500000
 49
8.000000
 49
-1.500000
 49
1.500000
 49
-1.500000
 49
1.500000
 49
-1.500000
  0
LTYPE
  2
DASHED1
 70
    64
  3
__ __ __ __ __ __ __ __ __ __ __ __ __ __ __
 72
    65
 73
     2
 40
1.500000
 49
1.000000
 49
-0.500000
  0
LTYPE
  2
DASHED2
 70
    64
  3
__ __ __ __ __ __ __ __ __ __ __ __ __ __ __
 72
    65
 73
     2
 40
3.500000
 49
2.500000
 49
-1.000000
  0
LTYPE
  2
DASHED3
 70
    64
  3
__ __ __ __ __ __ __ __ __ __ __ __ __ __ __
 72
    65
 73
     2
 40
6.000000
 49
4.000000
 49
-2.000000
  0
LTYPE
  2
DASHED4
 70
    64
  3
__ __ __ __ __ __ __ __ __ __ __ __ __ __ __
 72
    65
 73
     2
 40
12.000000
 49
10.000000
 49
-2.000000
  0
LTYPE
  2
DASHED5
 70
    64
  3
__ __ __ __ __ __ __ __ __ __ __ __ __ __ __
 72
    65
 73
     2
 40
17.000000
 49
15.000000
 49
-2.000000
  0
LTYPE
  2
DASHED6
 70
    64
  3
__ __ __ __ __ __ __ __ __ __ __ __ __ __ __
 72
    65
 73
     2
 40
29.000000
 49
27.000000
 49
-2.000000
  0
LTYPE
  2
PHANTOM1
 70
    64
  3
_____ _ _ _____ _ _ _____ _ _ _____ _ _ ____  
 72
    65
 73
     6
 40
31.000000
 49
25.000000
 49
-1.500000
 49
1.000000
 49
-1.000000
 49
1.000000
 49
-1.500000
  0
LTYPE
  2
PHANTOM2
 70
    64
  3
_____ _ _ _____ _ _ _____ _ _ _____ _ _ ____  
 72
    65
 73
     6
 40
36.000000
 49
27.000000
 49
-1.500000
 49
2.500000
 49
-1.000000
 49
2.500000
 49
-1.500000
  0
LTYPE
  2
PHANTOM3
 70
    64
  3
_____ _ _ _____ _ _ _____ _ _ _____ _ _ ____  
 72
    65
 73
     6
 40
78.000000
 49
64.000000
 49
-2.000000
 49
4.000000
 49
-2.000000
 49
4.000000
 49
-2.000000
  0
LTYPE
  2
CENTER1
 70
    64
  3
____ _ ____ _ ____ _ ____ _ ____ _ ____ _ ____
 72
    65
 73
     4
 40
19.000000
 49
14.000000
 49
-1.000000
 49
3.000000
 49
-1.000000
  0
LTYPE
  2
CENTER2
 70
    64
  3
____ _ ____ _ ____ _ ____ _ ____ _ ____ _ ____
 72
    65
 73
     4
 40
28.500000
 49
25.000000
 49
-1.000000
 49
1.500000
 49
-1.000000
  0
LTYPE
  2
CENTER3
 70
    64
  3
____ _ ____ _ ____ _ ____ _ ____ _ ____ _ ____
 72
    65
 73
     4
 40
31.500000
 49
27.000000
 49
-1.000000
 49
2.500000
 49
-1.000000
  0
LTYPE
  2
CENTER4
 70
    64
  3
____ _ ____ _ ____ _ ____ _ ____ _ ____ _ ____
 72
    65
 73
     4
 40
50.000000
 49
45.000000
 49
-1.000000
 49
3.000000
 49
-1.000000
  0
LTYPE
  2
CENTER5
 70
    64
  3
____ _ ____ _ ____ _ ____ _ ____ _ ____ _ ____
 72
    65
 73
     4
 40
100.000000
 49
92.000000
 49
-2.000000
 49
4.000000
 49
-2.000000
  0
LTYPE
  2
SBK1
 70
    64
  3
______ _ _ _ ______ _ _ _ ______ _ _ _ _____  
 72
    65
 73
     8
 40
60.500000
 49
45.000000
 49
-2.000000
 49
2.500000
 49
-2.000000
 49
2.500000
 49
-2.000000
 49
2.500000
 49
-2.000000
  0
LTYPE
  2
SBK2
 70
    64
  3
______ _ _ _ ______ _ _ _ ______ _ _ _ _____  
 72
    65
 73
     8
 40
84.000000
 49
64.000000
 49
-2.000000
 49
4.000000
 49
-2.000000
 49
4.000000
 49
-2.000000
 49
4.000000
 49
-2.000000
  0
LTYPE
  2
STCH
 70
    64
  3
__ __ __ __ __ __ __ __ __ __ __ __ __ __ __
 72
    65
 73
     2
 40
3.000000
 49
1.000000
 49
-2.000000
  0
LTYPE
  2
MTCH
 70
    64
  3
_____ _ _ _____ _ _ _____ _ _ _____ _ _ ____  
 72
    65
 73
     6
 40
80.000000
 49
66.000000
 49
-2.000000
 49
4.000000
 49
-2.000000
 49
4.000000
 49
-2.000000
  0
ENDTAB
  0
TABLE
  2
LAYER
 70
     1
  0
LAYER
  2
0
 70
     0
 62
     7
  6
CONTINUOUS
  0
ENDTAB
  0
TABLE
  2
STYLE
 70
     1
  0
STYLE
  2
STANDARD
 70
     0
 40
0.000000
 41
1.000000
 50
0.000000
 71
     0
 42
0.200000
  3
txt
  4
BIGFONT
  0
ENDTAB
  0
TABLE
  2
VIEW
 70
     0
  0
ENDTAB
  0
ENDSEC
  0
SECTION
  2
BLOCKS
  0
ENDSEC
  0
SECTION
  2
ENTITIES
  0
POINT
  8
0
 10
-299.999939
 20
59.999989
  0
POINT
  8
0
 10
-141.499939
 20
59.999989
  0
POINT
  8
0
 10
-10.000000
 20
59.999989
  0
POINT
  8
0
 10
315.000000
 20
59.999989
  0
POINT
  8
0
 10
201.000000
 20
106.000229
  0
POINT
  8
0
 10
201.000000
 20
106.000229
  0
POINT
  8
0
 10
234.000000
 20
106.000229
  0
POINT
  8
0
 10
267.000000
 20
106.000229
  0
POINT
  8
0
 10
-10.000000
 20
-209.999969
  0
POINT
  8
0
 10
315.000000
 20
-209.999969
  0
LINE
  8
0
 10
-299.250000
 20
276.250000
 11
-299.250000
 21
261.250000
  0
LINE
  8
0
 10
299.799988
 20
276.250000
 11
299.799988
 21
261.250000
  0
LINE
  8
0
 10
-399.250000
 20
261.250000
 11
-299.250000
 21
261.250000
  0
LINE
  8
0
 10
299.799988
 20
-256.750000
 11
299.799988
 21
-276.750000
  0
LINE
  8
0
 10
299.799988
 20
261.250000
 11
399.799988
 21
261.250000
  0
LINE
  8
0
 10
299.799988
 20
-256.750000
 11
399.799988
 21
-256.750000
  0
LINE
  8
0
 10
-420.500000
 20
297.000000
 11
420.500000
 21
297.000000
  0
LINE
  8
0
 10
-420.500000
 20
-297.000000
 11
420.500000
 21
-297.000000
  0
LINE
  8
0
 10
420.500000
 20
297.000000
 11
420.500000
 21
-297.000000
  0
LINE
  8
0
 10
-420.500000
 20
297.000000
 11
-420.500000
 21
-297.000000
  0
LINE
  8
0
 10
399.799988
 20
276.250000
 11
399.799988
 21
-276.750000
  0
LINE
  8
0
 10
-399.250000
 20
276.250000
 11
-399.250000
 21
-276.750000
  0
LINE
  8
0
 10
-399.250000
 20
276.250000
 11
399.799988
 21
276.250000
  0
LINE
  8
0
 10
-399.250000
 20
-276.750000
 11
399.799988
 21
-276.750000
  0
TEXT
  8
0
 10
-382.142487
 20
262.549988
 40
8.000000
  1
430M*ASL
 50
0.000000
 41
1.052632
 51
0.000000
  7
STANDARD
  0
TEXT
  8
0
 10
305.721680
 20
264.529999
 40
5.800000
  1
DATE: MAY ,1992
 50
0.000000
 41
1.052632
 51
0.000000
  7
STANDARD
  0
TEXT
  8
0
 10
295.700867
 20
-272.049988
 40
7.000000
  1
ＫＯＧＡＮＥＩ，ＣＯＲＰ．
 50
0.000000
 41
0.902367
 51
15.000000
  7
STANDARD
  0
TEXT
  8
0
 10
-390.142517
 20
-187.449997
 40
8.000000
  1
MODEL: 430M*ASL
 50
0.000000
 41
1.052632
 51
0.000000
  7
STANDARD
  0
POINT
  8
0
 10
-10.000000
 20
59.999989
  0
POINT
  8
0
 10
315.000000
 20
59.999989
  0
POINT
  8
0
 10
201.000000
 20
106.000229
  0
POINT
  8
0
 10
201.000000
 20
106.000229
  0
POINT
  8
0
 10
234.000000
 20
106.000229
  0
POINT
  8
0
 10
267.000000
 20
106.000229
  0
LINE
  8
0
 10
0.999992
 20
212.000229
 11
304.000000
 21
212.000229
  0
LINE
  8
0
 10
297.000000
 20
212.000229
 11
297.000000
 21
157.000229
  0
LINE
  8
0
 10
301.328857
 20
157.000229
 11
324.150909
 21
157.000229
  0
LINE
  8
0
 10
315.000000
 20
161.500229
 11
320.000000
 21
161.500229
  0
LINE
  8
0
 10
315.000000
 20
152.500229
 11
320.000000
 21
152.500229
  0
LINE
  8
0
 10
308.000000
 20
148.000229
 11
319.000000
 21
148.000229
  0
LINE
  8
0
 10
315.236084
 20
166.000229
 11
319.000000
 21
166.000229
  0
LINE
  8
0
 10
321.000000
 20
164.000229
 11
321.000000
 21
162.500229
  0
LINE
  8
0
 10
321.000000
 20
151.500229
 11
321.000000
 21
150.000229
  0
LINE
  8
0
 10
315.000000
 20
163.101791
 11
315.000000
 21
150.983627
  0
LINE
  8
0
 10
284.000000
 20
157.000229
 11
284.000000
 21
50.999989
  0
LINE
  8
0
 10
307.000000
 20
209.000229
 11
307.000000
 21
53.999989
  0
LINE
  8
0
 10
152.000000
 20
50.999989
 11
151.000000
 21
50.999989
  0
LINE
  8
0
 10
301.726074
 20
59.999989
 11
322.425934
 21
59.999989
  0
LINE
  8
0
 10
315.000000
 20
64.500229
 11
320.000000
 21
64.500229
  0
LINE
  8
0
 10
315.000000
 20
55.499989
 11
320.000000
 21
55.499989
  0
LINE
  8
0
 10
308.000000
 20
69.000229
 11
319.000000
 21
69.000229
  0
LINE
  8
0
 10
321.000000
 20
67.000229
 11
321.000000
 21
65.124741
  0
LINE
  8
0
 10
321.000000
 20
54.499989
 11
321.000000
 21
52.999989
  0
LINE
  8
0
 10
315.000000
 20
65.382553
 11
315.000000
 21
53.999989
  0
LINE
  8
0
 10
8.000000
 20
212.000229
 11
8.000000
 21
157.000229
  0
LINE
  8
0
 10
3.670898
 20
157.000229
 11
-22.933594
 21
157.000229
  0
LINE
  8
0
 10
-10.000000
 20
161.500229
 11
-15.000000
 21
161.500229
  0
LINE
  8
0
 10
-10.000000
 20
152.500229
 11
-15.000000
 21
152.500229
  0
LINE
  8
0
 10
-3.000000
 20
148.000229
 11
-14.000000
 21
148.000229
  0
LINE
  8
0
 10
-9.999512
 20
166.000229
 11
-14.000000
 21
166.000229
  0
LINE
  8
0
 10
-16.000000
 20
164.000229
 11
-16.000000
 21
162.500229
  0
LINE
  8
0
 10
-16.000000
 20
151.500229
 11
-16.000000
 21
150.000229
  0
LINE
  8
0
 10
-10.000000
 20
163.101791
 11
-10.000000
 21
150.983627
  0
LINE
  8
0
 10
-2.000000
 20
209.000229
 11
-2.000000
 21
53.999989
  0
LINE
  8
0
 10
3.273926
 20
59.999989
 11
-17.851074
 21
59.999989
  0
LINE
  8
0
 10
-10.000000
 20
64.500229
 11
-15.000000
 21
64.500229
  0
LINE
  8
0
 10
-10.000000
 20
55.499989
 11
-15.000000
 21
55.499989
  0
LINE
  8
0
 10
-3.000000
 20
69.000229
 11
-14.000000
 21
69.000229
  0
LINE
  8
0
 10
-16.000000
 20
67.000229
 11
-16.000000
 21
65.124741
  0
LINE
  8
0
 10
-16.000000
 20
54.499989
 11
-16.000000
 21
52.999989
  0
LINE
  8
0
 10
-10.000000
 20
65.382553
 11
-10.000000
 21
53.999989
  0
LINE
  8
0
 10
284.000000
 20
157.000229
 11
297.000000
 21
157.000229
  0
LINE
  8
0
 10
119.000000
 20
157.000229
 11
86.000000
 21
157.000229
  0
LINE
  8
0
 10
284.000000
 20
50.999989
 11
319.000000
 21
50.999989
  0
LINE
  8
0
 10
86.000000
 20
50.999989
 11
119.000000
 21
50.999989
  0
LINE
  8
0
 10
185.000000
 20
50.999989
 11
185.000000
 21
65.000229
  0
LINE
  8
0
 10
135.000000
 20
31.534168
 11
135.000000
 21
209.558823
  0
LINE
  8
0
 10
140.000000
 20
77.000229
 11
140.000000
 21
135.000229
  0
LINE
  8
0
 10
130.000000
 20
77.000229
 11
130.000000
 21
135.000229
  0
LINE
  8
0
 10
141.000000
 20
77.000229
 11
141.000000
 21
135.000229
  0
LINE
  8
0
 10
129.000000
 20
77.000229
 11
129.000000
 21
135.000229
  0
LINE
  8
0
 10
147.500000
 20
116.500229
 11
147.500000
 21
125.500229
  0
LINE
  8
0
 10
114.500000
 20
116.500229
 11
114.500000
 21
125.500229
  0
LINE
  8
0
 10
119.000000
 20
40.999989
 11
119.000000
 21
202.000229
  0
LINE
  8
0
 10
152.000000
 20
121.000229
 11
143.000000
 21
121.000229
  0
LINE
  8
0
 10
110.000000
 20
121.000229
 11
120.805176
 21
121.000229
  0
LINE
  8
0
 10
140.000000
 20
126.000229
 11
130.000000
 21
126.000229
  0
LINE
  8
0
 10
140.000000
 20
86.000229
 11
130.000000
 21
86.000229
  0
LINE
  8
0
 10
139.000031
 20
136.000229
 11
131.000031
 21
136.000229
  0
LINE
  8
0
 10
139.000000
 20
76.000229
 11
131.000000
 21
76.000229
  0
LINE
  8
0
 10
139.000031
 20
137.000229
 11
131.000031
 21
137.000229
  0
LINE
  8
0
 10
139.000000
 20
75.000229
 11
131.000000
 21
75.000229
  0
LINE
  8
0
 10
151.000031
 20
161.000229
 11
119.000031
 21
161.000229
  0
LINE
  8
0
 10
151.000000
 20
70.000229
 11
119.000000
 21
70.000229
  0
LINE
  8
0
 10
151.000000
 20
61.999989
 11
119.000000
 21
61.999989
  0
LINE
  8
0
 10
148.000000
 20
37.999989
 11
122.000000
 21
37.999989
  0
LINE
  8
0
 10
151.000031
 20
181.000229
 11
119.000031
 21
181.000229
  0
LINE
  8
0
 10
148.000031
 20
205.000229
 11
122.000031
 21
205.000229
  0
LINE
  8
0
 10
122.500000
 20
94.000229
 11
119.000000
 21
94.000229
  0
LINE
  8
0
 10
122.500000
 20
88.000229
 11
119.000000
 21
88.000229
  0
LINE
  8
0
 10
147.500000
 20
88.000229
 11
151.000000
 21
88.000229
  0
LINE
  8
0
 10
147.500000
 20
94.000229
 11
151.000000
 21
94.000229
  0
LINE
  8
0
 10
122.500000
 20
124.000229
 11
119.000000
 21
124.000229
  0
LINE
  8
0
 10
122.500000
 20
118.000229
 11
119.000000
 21
118.000229
  0
LINE
  8
0
 10
147.500000
 20
124.000229
 11
151.000000
 21
124.000229
  0
LINE
  8
0
 10
147.500000
 20
118.000229
 11
151.000000
 21
118.000229
  0
LINE
  8
0
 10
127.000000
 20
121.000229
 11
117.861572
 21
121.000229
  0
LINE
  8
0
 10
122.500000
 20
125.500229
 11
122.500000
 21
116.500229
  0
LINE
  8
0
 10
147.500000
 20
95.500229
 11
147.500000
 21
86.500229
  0
LINE
  8
0
 10
152.000000
 20
91.000229
 11
143.000000
 21
91.000229
  0
LINE
  8
0
 10
149.500000
 20
133.500229
 11
149.500000
 21
140.500229
  0
LINE
  8
0
 10
143.699982
 20
140.500229
 11
149.499969
 21
140.500229
  0
LINE
  8
0
 10
143.699982
 20
133.500229
 11
143.699982
 21
140.500229
  0
LINE
  8
0
 10
143.699982
 20
133.500229
 11
149.499969
 21
133.500229
  0
LINE
  8
0
 10
126.300018
 20
78.500229
 11
120.500000
 21
78.500229
  0
LINE
  8
0
 10
126.299988
 20
78.500229
 11
126.299988
 21
71.500229
  0
LINE
  8
0
 10
126.300018
 20
71.500229
 11
120.500000
 21
71.500229
  0
LINE
  8
0
 10
120.500000
 20
78.500229
 11
120.500000
 21
71.500229
  0
LINE
  8
0
 10
113.778320
 20
122.250229
 11
115.221680
 21
122.250229
  0
LINE
  8
0
 10
113.778320
 20
119.750229
 11
115.221680
 21
119.750229
  0
LINE
  8
0
 10
113.778160
 20
119.750160
 11
113.056480
 21
121.000145
  0
LINE
  8
0
 10
115.943222
 20
121.000168
 11
115.221542
 21
122.250153
  0
LINE
  8
0
 10
115.222755
 20
119.749504
 11
115.944427
 21
120.999496
  0
LINE
  8
0
 10
113.057686
 20
120.999489
 11
113.779366
 21
122.249474
  0
LINE
  8
0
 10
148.221680
 20
89.750229
 11
146.778320
 21
89.750229
  0
LINE
  8
0
 10
148.221344
 20
89.750122
 11
148.943024
 21
91.000107
  0
LINE
  8
0
 10
146.056259
 20
91.000130
 11
146.777939
 21
92.250114
  0
LINE
  8
0
 10
146.777603
 20
89.750183
 11
146.055923
 21
91.000168
  0
LINE
  8
0
 10
148.942673
 20
91.000183
 11
148.220993
 21
92.250168
  0
LINE
  8
0
 10
148.221680
 20
92.250229
 11
146.778320
 21
92.250229
  0
LINE
  8
0
 10
148.221680
 20
119.750229
 11
146.778320
 21
119.750229
  0
LINE
  8
0
 10
148.221176
 20
119.749863
 11
148.943100
 21
121.000275
  0
LINE
  8
0
 10
146.056107
 20
120.999863
 11
146.778030
 21
122.250275
  0
LINE
  8
0
 10
146.777756
 20
119.749962
 11
146.056076
 21
120.999947
  0
LINE
  8
0
 10
148.942795
 20
120.999962
 11
148.221115
 21
122.249954
  0
LINE
  8
0
 10
148.221680
 20
122.250229
 11
146.778320
 21
122.250229
  0
LINE
  8
0
 10
123.221680
 20
119.750229
 11
121.778320
 21
119.750229
  0
LINE
  8
0
 10
123.221634
 20
119.750183
 11
123.943314
 21
121.000168
  0
LINE
  8
0
 10
121.056564
 20
121.000191
 11
121.778244
 21
122.250183
  0
LINE
  8
0
 10
121.777969
 20
119.750076
 11
121.056290
 21
121.000061
  0
LINE
  8
0
 10
123.943024
 20
121.000076
 11
123.221344
 21
122.250061
  0
LINE
  8
0
 10
123.221680
 20
122.250229
 11
121.778320
 21
122.250229
  0
LINE
  8
0
 10
151.000000
 20
40.999989
 11
151.000000
 21
202.000229
  0
LINE
  8
0
 10
168.000000
 20
31.534168
 11
168.000000
 21
193.123764
  0
LINE
  8
0
 10
173.000000
 20
77.000229
 11
173.000000
 21
135.000229
  0
LINE
  8
0
 10
163.000000
 20
77.000229
 11
163.000000
 21
135.000229
  0
LINE
  8
0
 10
174.000000
 20
77.000229
 11
174.000000
 21
135.000229
  0
LINE
  8
0
 10
162.000000
 20
77.000229
 11
162.000000
 21
135.000229
  0
LINE
  8
0
 10
180.500000
 20
116.500229
 11
180.500000
 21
125.500229
  0
LINE
  8
0
 10
155.500000
 20
86.500229
 11
155.500000
 21
95.500229
  0
LINE
  8
0
 10
152.000000
 20
40.999989
 11
152.000000
 21
183.000229
  0
LINE
  8
0
 10
185.000000
 20
121.000229
 11
176.000000
 21
121.000229
  0
LINE
  8
0
 10
160.000000
 20
91.000229
 11
151.000000
 21
91.000229
  0
LINE
  8
0
 10
173.000000
 20
126.000229
 11
163.000000
 21
126.000229
  0
LINE
  8
0
 10
173.000000
 20
86.000229
 11
163.000000
 21
86.000229
  0
LINE
  8
0
 10
172.000031
 20
136.000229
 11
164.000031
 21
136.000229
  0
LINE
  8
0
 10
172.000000
 20
76.000229
 11
164.000000
 21
76.000229
  0
LINE
  8
0
 10
172.000031
 20
137.000229
 11
164.000031
 21
137.000229
  0
LINE
  8
0
 10
172.000000
 20
75.000229
 11
164.000000
 21
75.000229
  0
LINE
  8
0
 10
184.000031
 20
142.000229
 11
152.000031
 21
142.000229
  0
LINE
  8
0
 10
184.000000
 20
70.000229
 11
152.000000
 21
70.000229
  0
LINE
  8
0
 10
184.000000
 20
61.999989
 11
152.000000
 21
61.999989
  0
LINE
  8
0
 10
181.000000
 20
37.999989
 11
155.000000
 21
37.999989
  0
LINE
  8
0
 10
184.000031
 20
162.000229
 11
152.000031
 21
162.000229
  0
LINE
  8
0
 10
181.000031
 20
186.000229
 11
155.000031
 21
186.000229
  0
LINE
  8
0
 10
155.500000
 20
94.000229
 11
152.000000
 21
94.000229
  0
LINE
  8
0
 10
155.500000
 20
88.000229
 11
152.000000
 21
88.000229
  0
LINE
  8
0
 10
180.500000
 20
88.000229
 11
184.000000
 21
88.000229
  0
LINE
  8
0
 10
180.500000
 20
94.000229
 11
184.000000
 21
94.000229
  0
LINE
  8
0
 10
155.500000
 20
124.000229
 11
152.000000
 21
124.000229
  0
LINE
  8
0
 10
155.500000
 20
118.000229
 11
152.000000
 21
118.000229
  0
LINE
  8
0
 10
180.500000
 20
124.000229
 11
184.000000
 21
124.000229
  0
LINE
  8
0
 10
180.500000
 20
118.000229
 11
184.000000
 21
118.000229
  0
LINE
  8
0
 10
160.000000
 20
121.000229
 11
151.000000
 21
121.000229
  0
LINE
  8
0
 10
155.500000
 20
125.500229
 11
155.500000
 21
116.500229
  0
LINE
  8
0
 10
180.500000
 20
95.500229
 11
180.500000
 21
86.500229
  0
LINE
  8
0
 10
185.000000
 20
91.000229
 11
176.000000
 21
91.000229
  0
LINE
  8
0
 10
182.500000
 20
133.500229
 11
182.500000
 21
140.500229
  0
LINE
  8
0
 10
176.699982
 20
140.500229
 11
182.499969
 21
140.500229
  0
LINE
  8
0
 10
176.699982
 20
133.500229
 11
176.699982
 21
140.500229
  0
LINE
  8
0
 10
176.699982
 20
133.500229
 11
182.499969
 21
133.500229
  0
LINE
  8
0
 10
159.300018
 20
78.500229
 11
153.500000
 21
78.500229
  0
LINE
  8
0
 10
159.299988
 20
78.500229
 11
159.299988
 21
71.500229
  0
LINE
  8
0
 10
159.300018
 20
71.500229
 11
153.500000
 21
71.500229
  0
LINE
  8
0
 10
153.500000
 20
78.500229
 11
153.500000
 21
71.500229
  0
LINE
  8
0
 10
156.221680
 20
92.250229
 11
154.778320
 21
92.250229
  0
LINE
  8
0
 10
156.221680
 20
89.750229
 11
154.778320
 21
89.750229
  0
LINE
  8
0
 10
156.221375
 20
89.750107
 11
156.943054
 21
91.000092
  0
LINE
  8
0
 10
154.056305
 20
91.000107
 11
154.777985
 21
92.250092
  0
LINE
  8
0
 10
154.777603
 20
89.750191
 11
154.055923
 21
91.000175
  0
LINE
  8
0
 10
156.942688
 20
91.000198
 11
156.221008
 21
92.250183
  0
LINE
  8
0
 10
181.221680
 20
89.750229
 11
179.778320
 21
89.750229
  0
LINE
  8
0
 10
181.221588
 20
89.749985
 11
181.943268
 21
90.999969
  0
LINE
  8
0
 10
179.056503
 20
90.999985
 11
179.778183
 21
92.249969
  0
LINE
  8
0
 10
179.777802
 20
89.750343
 11
179.056122
 21
91.000336
  0
LINE
  8
0
 10
181.942871
 20
91.000351
 11
181.221191
 21
92.250336
  0
LINE
  8
0
 10
181.221680
 20
92.250229
 11
179.778320
 21
92.250229
  0
LINE
  8
0
 10
181.221680
 20
119.750229
 11
179.778320
 21
119.750229
  0
LINE
  8
0
 10
181.221680
 20
119.750153
 11
181.943359
 21
121.000137
  0
LINE
  8
0
 10
179.056610
 20
121.000153
 11
179.778290
 21
122.250137
  0
LINE
  8
0
 10
179.777969
 20
119.750061
 11
179.056290
 21
121.000046
  0
LINE
  8
0
 10
181.943054
 20
121.000076
 11
181.221375
 21
122.250061
  0
LINE
  8
0
 10
181.221680
 20
122.250229
 11
179.778320
 21
122.250229
  0
LINE
  8
0
 10
156.221680
 20
119.750229
 11
154.778320
 21
119.750229
  0
LINE
  8
0
 10
156.221207
 20
119.749863
 11
156.943130
 21
121.000275
  0
LINE
  8
0
 10
154.056381
 20
121.000275
 11
154.778061
 21
122.250259
  0
LINE
  8
0
 10
154.777771
 20
119.749969
 11
154.056091
 21
120.999962
  0
LINE
  8
0
 10
156.942825
 20
120.999969
 11
156.221146
 21
122.249954
  0
LINE
  8
0
 10
156.221680
 20
122.250229
 11
154.778320
 21
122.250229
  0
LINE
  8
0
 10
184.000000
 20
40.999989
 11
184.000000
 21
183.000229
  0
LINE
  8
0
 10
170.149994
 20
37.300037
 11
165.850006
 21
37.300037
  0
LINE
  8
0
 10
170.149994
 20
37.999989
 11
170.149994
 21
37.300037
  0
LINE
  8
0
 10
165.850006
 20
37.999989
 11
165.850006
 21
37.300037
  0
LINE
  8
0
 10
132.850006
 20
37.999989
 11
132.850006
 21
37.300037
  0
LINE
  8
0
 10
137.149994
 20
37.300037
 11
132.850006
 21
37.300037
  0
LINE
  8
0
 10
137.149994
 20
37.999989
 11
137.149994
 21
37.300037
  0
LINE
  8
0
 10
132.850006
 20
205.699936
 11
137.149994
 21
205.699936
  0
LINE
  8
0
 10
132.850006
 20
205.000229
 11
132.850006
 21
205.699936
  0
LINE
  8
0
 10
137.149994
 20
205.000229
 11
137.149994
 21
205.699936
  0
LINE
  8
0
 10
165.850006
 20
186.699936
 11
170.149994
 21
186.699936
  0
LINE
  8
0
 10
165.850006
 20
186.000229
 11
165.850006
 21
186.699936
  0
LINE
  8
0
 10
170.149994
 20
186.000229
 11
170.149994
 21
186.699936
  0
LINE
  8
0
 10
151.000031
 20
142.000229
 11
119.000031
 21
142.000229
  0
LINE
  8
0
 10
86.000000
 20
63.499989
 11
119.000000
 21
63.499989
  0
LINE
  8
0
 10
7.999954
 20
210.000229
 11
297.000000
 21
210.000229
  0
LINE
  8
0
 10
7.999962
 20
207.500229
 11
297.000000
 21
207.500229
  0
LINE
  8
0
 10
8.000000
 20
204.000229
 11
119.763977
 21
204.000229
  0
LINE
  8
0
 10
8.000000
 20
199.500229
 11
119.000000
 21
199.500229
  0
LINE
  8
0
 10
8.000000
 20
194.500229
 11
119.000000
 21
194.500229
  0
LINE
  8
0
 10
8.000000
 20
189.500229
 11
119.000000
 21
189.500229
  0
LINE
  8
0
 10
8.000000
 20
184.500229
 11
119.000000
 21
184.500229
  0
LINE
  8
0
 10
8.000000
 20
179.500229
 11
119.000000
 21
179.500229
  0
LINE
  8
0
 10
8.000000
 20
174.500229
 11
119.000000
 21
174.500229
  0
LINE
  8
0
 10
8.000000
 20
169.500229
 11
119.000000
 21
169.500229
  0
LINE
  8
0
 10
150.236176
 20
203.999985
 11
296.999908
 21
203.999985
  0
LINE
  8
0
 10
151.000000
 20
199.500229
 11
297.000000
 21
199.500229
  0
LINE
  8
0
 10
282.598145
 20
184.500229
 11
297.000000
 21
184.500229
  0
LINE
  8
0
 10
151.000000
 20
189.500229
 11
297.000000
 21
189.500229
  0
LINE
  8
0
 10
151.000000
 20
194.500229
 11
297.000000
 21
194.500229
  0
LINE
  8
0
 10
283.000000
 20
169.500229
 11
297.000000
 21
169.500229
  0
LINE
  8
0
 10
283.000000
 20
174.500229
 11
297.000000
 21
174.500229
  0
LINE
  8
0
 10
283.000000
 20
179.500229
 11
297.000000
 21
179.500229
  0
LINE
  8
0
 10
102.000000
 20
45.783436
 11
102.000000
 21
160.101791
  0
LINE
  8
0
 10
118.000000
 20
63.499989
 11
118.000000
 21
148.500229
  0
LINE
  8
0
 10
86.000000
 20
63.499989
 11
86.000000
 21
148.500229
  0
LINE
  8
0
 10
86.000000
 20
148.500229
 11
118.000000
 21
148.500229
  0
LINE
  8
0
 10
122.500000
 20
86.500229
 11
122.500000
 21
95.500229
  0
LINE
  8
0
 10
127.000000
 20
91.000229
 11
116.194824
 21
91.000229
  0
LINE
  8
0
 10
123.221680
 20
92.250229
 11
121.778320
 21
92.250229
  0
LINE
  8
0
 10
123.221680
 20
89.750229
 11
121.778320
 21
89.750229
  0
LINE
  8
0
 10
123.221542
 20
89.750008
 11
123.943222
 21
90.999992
  0
LINE
  8
0
 10
121.056473
 20
91.000015
 11
121.778152
 21
92.250000
  0
LINE
  8
0
 10
121.777817
 20
89.750336
 11
121.056137
 21
91.000320
  0
LINE
  8
0
 10
123.942841
 20
91.000336
 11
123.221161
 21
92.250320
  0
LINE
  8
0
 10
114.500000
 20
86.500229
 11
114.500000
 21
95.500229
  0
LINE
  8
0
 10
110.000000
 20
91.000229
 11
120.805176
 21
91.000229
  0
LINE
  8
0
 10
113.778320
 20
92.250229
 11
115.221680
 21
92.250229
  0
LINE
  8
0
 10
113.778320
 20
89.750229
 11
115.221680
 21
89.750229
  0
LINE
  8
0
 10
113.778023
 20
89.750412
 11
113.056343
 21
91.000397
  0
LINE
  8
0
 10
115.943092
 20
91.000412
 11
115.221413
 21
92.250397
  0
LINE
  8
0
 10
115.222755
 20
89.749557
 11
115.944435
 21
90.999542
  0
LINE
  8
0
 10
113.057693
 20
90.999557
 11
113.779373
 21
92.249542
  0
LINE
  8
0
 10
89.500000
 20
86.500229
 11
89.500000
 21
95.500229
  0
LINE
  8
0
 10
85.000000
 20
91.000229
 11
95.805115
 21
91.000229
  0
LINE
  8
0
 10
88.778320
 20
92.250229
 11
90.221680
 21
92.250229
  0
LINE
  8
0
 10
88.778320
 20
89.750229
 11
90.221680
 21
89.750229
  0
LINE
  8
0
 10
88.778008
 20
89.750412
 11
88.056328
 21
91.000397
  0
LINE
  8
0
 10
90.943085
 20
91.000412
 11
90.221405
 21
92.250397
  0
LINE
  8
0
 10
90.222580
 20
89.749649
 11
90.944260
 21
90.999634
  0
LINE
  8
0
 10
88.057510
 20
90.999657
 11
88.779190
 21
92.249641
  0
LINE
  8
0
 10
89.500000
 20
116.500229
 11
89.500000
 21
125.500229
  0
LINE
  8
0
 10
85.000000
 20
121.000229
 11
95.805115
 21
121.000229
  0
LINE
  8
0
 10
88.778320
 20
122.250229
 11
90.221680
 21
122.250229
  0
LINE
  8
0
 10
88.778320
 20
119.750229
 11
90.221680
 21
119.750229
  0
LINE
  8
0
 10
88.778152
 20
119.750168
 11
88.056473
 21
121.000153
  0
LINE
  8
0
 10
90.943207
 20
121.000168
 11
90.221527
 21
122.250153
  0
LINE
  8
0
 10
90.222542
 20
119.749611
 11
90.944221
 21
120.999596
  0
LINE
  8
0
 10
88.057480
 20
120.999603
 11
88.779160
 21
122.249588
  0
LINE
  8
0
 10
21.000000
 20
157.000229
 11
21.000000
 21
44.500233
  0
LINE
  8
0
 10
86.000000
 20
44.500233
 11
22.000000
 21
44.500233
  0
LINE
  8
0
 10
21.000000
 20
50.999989
 11
-14.000000
 21
50.999989
  0
LINE
  8
0
 10
86.000000
 20
157.000229
 11
86.000000
 21
44.500233
  0
LINE
  8
0
 10
185.000000
 20
50.999989
 11
218.000000
 21
50.999989
  0
LINE
  8
0
 10
234.000000
 20
45.817616
 11
234.000000
 21
193.123764
  0
LINE
  8
0
 10
218.000000
 20
50.999989
 11
218.000000
 21
65.000229
  0
LINE
  8
0
 10
218.000000
 20
50.999989
 11
251.000000
 21
50.999989
  0
LINE
  8
0
 10
267.000000
 20
45.817616
 11
267.000000
 21
193.123764
  0
LINE
  8
0
 10
251.000000
 20
50.999989
 11
251.000000
 21
65.000229
  0
LINE
  8
0
 10
251.000000
 20
50.999989
 11
284.000000
 21
50.999989
  0
LINE
  8
0
 10
184.000000
 20
50.999989
 11
185.000000
 21
50.999989
  0
LINE
  8
0
 10
21.000000
 20
157.000229
 11
8.000000
 21
157.000229
  0
LINE
  8
0
 10
86.000000
 20
157.000229
 11
21.000000
 21
157.000229
  0
LINE
  8
0
 10
21.000000
 20
44.500233
 11
22.392578
 21
44.500233
  0
LINE
  8
0
 10
323.778320
 20
186.000229
 11
302.022949
 21
186.000229
  0
LINE
  8
0
 10
310.000000
 20
207.000229
 11
310.000000
 21
165.000229
  0
LINE
  8
0
 10
316.000000
 20
204.000229
 11
316.000000
 21
168.000229
  0
LINE
  8
0
 10
313.000000
 20
207.000229
 11
310.000000
 21
207.000229
  0
LINE
  8
0
 10
308.500000
 20
208.500229
 11
307.000000
 21
208.500229
  0
LINE
  8
0
 10
316.000000
 20
202.813705
 11
310.000000
 21
202.813705
  0
LINE
  8
0
 10
316.000000
 20
198.500229
 11
310.000000
 21
198.500229
  0
LINE
  8
0
 10
316.000000
 20
188.992416
 11
310.000000
 21
188.992416
  0
LINE
  8
0
 10
316.000000
 20
169.186752
 11
310.000000
 21
169.186752
  0
LINE
  8
0
 10
316.000000
 20
173.500229
 11
310.000000
 21
173.500229
  0
LINE
  8
0
 10
316.000000
 20
183.008041
 11
310.000000
 21
183.008041
  0
LINE
  8
0
 10
313.000000
 20
165.000229
 11
310.000000
 21
165.000229
  0
LINE
  8
0
 10
308.500000
 20
163.500229
 11
307.000000
 21
163.500229
  0
LINE
  8
0
 10
-18.778320
 20
186.000229
 11
2.977051
 21
186.000229
  0
LINE
  8
0
 10
-5.000000
 20
207.000229
 11
-5.000000
 21
165.000229
  0
LINE
  8
0
 10
-11.000000
 20
204.000229
 11
-11.000000
 21
168.000229
  0
LINE
  8
0
 10
-8.000000
 20
165.000229
 11
-5.000000
 21
165.000229
  0
LINE
  8
0
 10
-8.000000
 20
207.000229
 11
-5.000000
 21
207.000229
  0
LINE
  8
0
 10
-3.500000
 20
163.500229
 11
-2.000000
 21
163.500229
  0
LINE
  8
0
 10
-3.500000
 20
208.500229
 11
-2.000000
 21
208.500229
  0
LINE
  8
0
 10
-11.000000
 20
202.813705
 11
-5.000000
 21
202.813705
  0
LINE
  8
0
 10
-11.000000
 20
198.500229
 11
-5.000000
 21
198.500229
  0
LINE
  8
0
 10
-11.000000
 20
188.992416
 11
-5.000000
 21
188.992416
  0
LINE
  8
0
 10
-11.000000
 20
169.186752
 11
-5.000000
 21
169.186752
  0
LINE
  8
0
 10
-11.000000
 20
173.500229
 11
-5.000000
 21
173.500229
  0
LINE
  8
0
 10
-11.000000
 20
183.008041
 11
-5.000000
 21
183.008041
  0
LINE
  8
0
 10
22.500000
 20
156.500229
 11
84.500000
 21
156.500229
  0
LINE
  8
0
 10
85.500000
 20
155.500229
 11
85.500000
 21
45.500233
  0
LINE
  8
0
 10
21.500000
 20
155.500229
 11
21.500000
 21
45.500233
  0
LINE
  8
0
 10
22.500000
 20
44.500233
 11
84.500000
 21
44.500233
  0
LINE
  8
0
 10
22.700012
 20
36.500233
 11
24.500000
 21
36.500233
  0
LINE
  8
0
 10
22.500000
 20
43.768208
 11
22.500000
 21
36.700245
  0
LINE
  8
0
 10
84.500000
 20
43.768208
 11
84.500000
 21
36.700245
  0
LINE
  8
0
 10
31.500000
 20
155.500229
 11
31.500000
 21
45.500233
  0
LINE
  8
0
 10
46.399994
 20
152.550247
 11
70.600006
 21
152.550247
  0
LINE
  8
0
 10
46.399994
 20
48.350239
 11
70.600006
 21
48.350239
  0
LINE
  8
0
 10
71.600006
 20
151.550247
 11
71.600006
 21
49.350239
  0
LINE
  8
0
 10
45.399994
 20
151.550247
 11
45.399994
 21
49.350239
  0
LINE
  8
0
 10
45.399994
 20
89.350235
 11
47.600006
 21
89.350235
  0
LINE
  8
0
 10
69.399994
 20
89.350235
 11
69.399994
 21
87.350235
  0
LINE
  8
0
 10
47.600006
 20
89.350235
 11
47.600006
 21
87.350235
  0
LINE
  8
0
 10
47.600006
 20
87.350235
 11
69.399994
 21
87.350235
  0
LINE
  8
0
 10
69.399994
 20
89.350235
 11
71.600006
 21
89.350235
  0
LINE
  8
0
 10
77.675652
 20
151.716476
 11
78.283768
 21
152.324600
  0
LINE
  8
0
 10
80.716202
 20
148.675919
 11
81.324318
 21
149.284042
  0
LINE
  8
0
 10
77.675652
 20
149.284027
 11
78.283768
 21
149.892151
  0
LINE
  8
0
 10
78.283752
 20
148.675919
 11
78.891869
 21
149.284042
  0
LINE
  8
0
 10
77.675705
 20
149.284058
 11
78.283806
 21
148.675964
  0
LINE
  8
0
 10
80.716240
 20
152.324600
 11
81.324341
 21
151.716507
  0
LINE
  8
0
 10
77.675682
 20
151.716507
 11
78.283783
 21
151.108414
  0
LINE
  8
0
 10
78.283783
 20
152.324661
 11
78.891907
 21
151.716537
  0
LINE
  8
0
 10
80.108101
 20
151.716476
 11
80.716225
 21
152.324600
  0
LINE
  8
0
 10
80.716202
 20
151.108368
 11
81.324326
 21
151.716492
  0
LINE
  8
0
 10
80.108131
 20
149.284058
 11
80.716232
 21
148.675964
  0
LINE
  8
0
 10
80.716232
 20
149.892212
 11
81.324356
 21
149.284088
  0
LINE
  8
0
 10
77.675697
 20
51.716446
 11
78.283821
 21
52.324570
  0
LINE
  8
0
 10
80.716225
 20
48.675907
 11
81.324326
 21
49.284008
  0
LINE
  8
0
 10
77.675682
 20
49.284012
 11
78.283806
 21
49.892136
  0
LINE
  8
0
 10
78.283775
 20
48.675907
 11
78.891876
 21
49.284008
  0
LINE
  8
0
 10
77.675697
 20
49.284027
 11
78.283798
 21
48.675926
  0
LINE
  8
0
 10
80.716240
 20
52.324585
 11
81.324341
 21
51.716484
  0
LINE
  8
0
 10
77.675713
 20
51.716454
 11
78.283813
 21
51.108353
  0
LINE
  8
0
 10
78.283798
 20
52.324551
 11
78.891899
 21
51.716450
  0
LINE
  8
0
 10
80.108131
 20
51.716461
 11
80.716255
 21
52.324585
  0
LINE
  8
0
 10
80.716225
 20
51.108356
 11
81.324326
 21
51.716457
  0
LINE
  8
0
 10
80.108147
 20
49.284027
 11
80.716248
 21
48.675926
  0
LINE
  8
0
 10
80.716232
 20
49.892124
 11
81.324333
 21
49.284023
  0
LINE
  8
0
 10
35.675636
 20
51.716496
 11
36.283760
 21
52.324619
  0
LINE
  8
0
 10
38.716217
 20
48.675915
 11
39.324341
 21
49.284039
  0
LINE
  8
0
 10
35.675659
 20
49.284065
 11
36.283760
 21
49.892170
  0
LINE
  8
0
 10
36.283791
 20
48.675888
 11
36.891914
 21
49.284012
  0
LINE
  8
0
 10
35.675655
 20
49.284058
 11
36.283783
 21
48.675930
  0
LINE
  8
0
 10
38.716228
 20
52.324631
 11
39.324356
 21
51.716503
  0
LINE
  8
0
 10
35.675655
 20
51.716507
 11
36.283779
 21
51.108383
  0
LINE
  8
0
 10
36.283779
 20
52.324631
 11
36.891903
 21
51.716507
  0
LINE
  8
0
 10
38.108086
 20
51.716496
 11
38.716209
 21
52.324619
  0
LINE
  8
0
 10
38.716240
 20
51.108337
 11
39.324364
 21
51.716461
  0
LINE
  8
0
 10
38.108131
 20
49.284031
 11
38.716232
 21
48.675930
  0
LINE
  8
0
 10
38.716255
 20
49.892155
 11
39.324356
 21
49.284054
  0
LINE
  8
0
 10
35.675644
 20
151.716476
 11
36.283745
 21
152.324570
  0
LINE
  8
0
 10
38.716194
 20
148.675919
 11
39.324299
 21
149.284027
  0
LINE
  8
0
 10
35.675644
 20
149.284027
 11
36.283745
 21
149.892120
  0
LINE
  8
0
 10
36.283756
 20
148.675919
 11
36.891857
 21
149.284027
  0
LINE
  8
0
 10
35.675663
 20
149.284042
 11
36.283764
 21
148.675934
  0
LINE
  8
0
 10
38.716228
 20
152.324585
 11
39.324329
 21
151.716476
  0
LINE
  8
0
 10
35.675674
 20
151.716476
 11
36.283779
 21
151.108383
  0
LINE
  8
0
 10
36.283806
 20
152.324615
 11
36.891907
 21
151.716507
  0
LINE
  8
0
 10
38.108093
 20
151.716476
 11
38.716194
 21
152.324570
  0
LINE
  8
0
 10
38.716206
 20
151.108368
 11
39.324306
 21
151.716476
  0
LINE
  8
0
 10
38.108124
 20
149.284027
 11
38.716228
 21
148.675934
  0
LINE
  8
0
 10
38.716255
 20
149.892166
 11
39.324356
 21
149.284058
  0
LINE
  8
0
 10
32.500000
 20
145.500229
 11
37.500000
 21
145.500229
  0
LINE
  8
0
 10
32.500000
 20
55.500233
 11
37.500000
 21
55.500233
  0
LINE
  8
0
 10
42.500000
 20
155.500229
 11
42.500000
 21
150.500229
  0
LINE
  8
0
 10
74.500000
 20
155.500229
 11
74.500000
 21
150.500229
  0
LINE
  8
0
 10
79.500000
 20
55.500233
 11
84.500000
 21
55.500233
  0
LINE
  8
0
 10
42.500000
 20
50.500233
 11
42.500000
 21
45.500233
  0
LINE
  8
0
 10
79.500000
 20
145.500229
 11
84.500000
 21
145.500229
  0
LINE
  8
0
 10
74.500000
 20
50.500233
 11
74.500000
 21
45.500233
  0
LINE
  8
0
 10
82.500000
 20
36.500233
 11
84.300018
 21
36.500233
  0
LINE
  8
0
 10
61.063202
 20
0.000233
 11
77.936829
 21
0.000233
  0
LINE
  8
0
 10
69.500000
 20
18.200245
 11
69.500000
 21
8.200245
  0
LINE
  8
0
 10
56.500000
 20
20.000233
 11
82.500000
 21
20.000233
  0
LINE
  8
0
 10
57.500000
 20
34.000233
 11
57.500000
 21
29.000233
  0
LINE
  8
0
 10
81.500000
 20
34.000233
 11
81.500000
 21
29.000233
  0
LINE
  8
0
 10
56.000000
 20
34.000233
 11
83.000000
 21
34.000233
  0
LINE
  8
0
 10
56.000000
 20
35.500233
 11
56.000000
 21
34.000233
  0
LINE
  8
0
 10
83.000000
 20
35.500233
 11
83.000000
 21
34.000233
  0
LINE
  8
0
 10
58.143921
 20
34.000233
 11
58.143921
 21
29.000233
  0
LINE
  8
0
 10
68.856110
 20
34.000233
 11
68.856110
 21
29.000233
  0
LINE
  8
0
 10
70.143951
 20
34.000233
 11
70.143951
 21
29.000233
  0
LINE
  8
0
 10
80.856079
 20
34.000233
 11
80.856079
 21
29.000233
  0
LINE
  8
0
 10
57.500000
 20
29.000233
 11
81.500000
 21
29.000233
  0
LINE
  8
0
 10
79.977509
 20
29.000233
 11
79.977509
 21
20.000233
  0
LINE
  8
0
 10
59.022491
 20
29.000233
 11
59.022491
 21
20.000233
  0
LINE
  8
0
 10
78.815491
 20
29.000233
 11
78.815491
 21
20.000233
  0
LINE
  8
0
 10
60.184509
 20
29.000233
 11
60.184509
 21
20.000233
  0
LINE
  8
0
 10
56.500000
 20
18.200245
 11
82.500000
 21
18.200245
  0
LINE
  8
0
 10
56.500000
 20
20.000233
 11
56.500000
 21
18.200245
  0
LINE
  8
0
 10
82.500000
 20
20.000233
 11
82.500000
 21
18.200245
  0
LINE
  8
0
 10
67.830139
 20
18.200245
 11
67.830139
 21
9.200245
  0
LINE
  8
0
 10
68.942017
 20
18.200245
 11
68.942017
 21
9.200245
  0
LINE
  8
0
 10
70.058014
 20
18.200245
 11
70.058014
 21
9.200245
  0
LINE
  8
0
 10
71.169861
 20
18.200245
 11
71.169861
 21
9.200245
  0
LINE
  8
0
 10
81.500000
 20
18.200245
 11
81.500000
 21
6.929981
  0
LINE
  8
0
 10
57.500000
 20
18.200245
 11
57.500000
 21
6.929981
  0
LINE
  8
0
 10
57.973053
 20
18.200245
 11
57.973053
 21
9.200245
  0
LINE
  8
0
 10
58.531067
 20
18.200245
 11
58.531067
 21
9.200245
  0
LINE
  8
0
 10
59.169891
 20
18.200245
 11
59.169891
 21
9.200245
  0
LINE
  8
0
 10
60.613319
 20
0.282036
 11
57.600273
 21
6.493546
  0
LINE
  8
0
 10
78.386696
 20
0.282013
 11
81.399750
 21
6.493519
  0
LINE
  8
0
 10
68.461304
 20
18.200245
 11
68.461304
 21
8.200245
  0
LINE
  8
0
 10
70.538696
 20
18.200245
 11
70.538696
 21
8.200245
  0
LINE
  8
0
 10
67.830109
 20
9.200237
 11
68.461288
 21
8.200241
  0
LINE
  8
0
 10
68.461250
 20
8.200230
 11
68.941948
 21
9.200218
  0
LINE
  8
0
 10
68.942024
 20
9.200211
 11
69.500023
 21
8.200188
  0
LINE
  8
0
 10
69.500046
 20
8.200222
 11
70.058037
 21
9.200218
  0
LINE
  8
0
 10
70.057999
 20
9.200233
 11
70.538696
 21
8.200245
  0
LINE
  8
0
 10
70.538681
 20
8.200195
 11
71.169846
 21
9.200191
  0
LINE
  8
0
 10
59.169830
 20
9.200203
 11
59.569710
 21
8.200191
  0
LINE
  8
0
 10
59.569756
 20
8.200237
 11
58.531059
 21
9.200233
  0
LINE
  8
0
 10
58.530975
 20
9.200214
 11
59.011681
 21
8.200195
  0
LINE
  8
0
 10
59.011719
 20
8.200203
 11
57.973015
 21
9.200191
  0
LINE
  8
0
 10
57.973038
 20
9.200218
 11
58.531036
 21
8.200226
  0
LINE
  8
0
 10
58.531021
 20
8.200245
 11
57.499992
 21
9.200230
  0
LINE
  8
0
 10
79.830170
 20
9.200195
 11
79.430305
 21
8.200184
  0
LINE
  8
0
 10
79.430267
 20
8.200249
 11
80.468964
 21
9.200253
  0
LINE
  8
0
 10
80.469032
 20
9.200253
 11
79.988342
 21
8.200256
  0
LINE
  8
0
 10
79.988258
 20
8.200176
 11
81.026985
 21
9.200188
  0
LINE
  8
0
 10
81.026917
 20
9.200207
 11
80.468918
 21
8.200214
  0
LINE
  8
0
 10
80.469017
 20
8.200222
 11
81.500038
 21
9.200211
  0
LINE
  8
0
 10
79.830139
 20
18.200245
 11
79.830139
 21
9.200245
  0
LINE
  8
0
 10
80.468964
 20
18.200245
 11
80.468964
 21
9.200245
  0
LINE
  8
0
 10
81.026978
 20
18.200245
 11
81.026978
 21
9.200245
  0
LINE
  8
0
 10
25.972630
 20
151.518478
 11
26.481747
 21
152.027603
  0
LINE
  8
0
 10
28.518196
 20
148.972916
 11
29.027313
 21
149.482040
  0
LINE
  8
0
 10
25.972630
 20
149.482010
 11
26.481747
 21
149.991135
  0
LINE
  8
0
 10
26.481754
 20
148.972900
 11
26.990875
 21
149.482010
  0
LINE
  8
0
 10
25.972652
 20
149.482025
 11
26.481770
 21
148.972916
  0
LINE
  8
0
 10
28.518234
 20
152.027618
 11
29.027351
 21
151.518494
  0
LINE
  8
0
 10
25.972645
 20
151.518494
 11
26.481766
 21
151.009384
  0
LINE
  8
0
 10
26.481766
 20
152.027618
 11
26.990883
 21
151.518494
  0
LINE
  8
0
 10
28.009102
 20
151.518478
 11
28.518219
 21
152.027603
  0
LINE
  8
0
 10
28.518227
 20
151.009369
 11
29.027344
 21
151.518478
  0
LINE
  8
0
 10
28.009117
 20
149.482025
 11
28.518234
 21
148.972916
  0
LINE
  8
0
 10
28.518234
 20
149.991150
 11
29.027351
 21
149.482025
  0
LINE
  8
0
 10
25.972626
 20
51.518501
 11
26.481743
 21
52.027618
  0
LINE
  8
0
 10
28.518208
 20
48.972916
 11
29.027328
 21
49.482033
  0
LINE
  8
0
 10
25.972645
 20
49.482056
 11
26.481762
 21
49.991173
  0
LINE
  8
0
 10
26.481739
 20
48.972916
 11
26.990860
 21
49.482033
  0
LINE
  8
0
 10
25.972626
 20
49.482037
 11
26.481743
 21
48.972919
  0
LINE
  8
0
 10
28.518219
 20
52.027630
 11
29.027336
 21
51.518513
  0
LINE
  8
0
 10
25.972626
 20
51.518505
 11
26.481743
 21
51.009388
  0
LINE
  8
0
 10
26.481750
 20
52.027630
 11
26.990868
 21
51.518513
  0
LINE
  8
0
 10
28.518211
 20
51.009384
 11
29.027328
 21
51.518501
  0
LINE
  8
0
 10
28.009098
 20
49.482033
 11
28.518215
 21
48.972916
  0
LINE
  8
0
 10
28.518223
 20
49.991158
 11
29.027340
 21
49.482040
  0
LINE
  8
0
 10
51.899994
 20
60.850239
 11
59.899994
 21
60.850239
  0
LINE
  8
0
 10
60.899994
 20
80.850235
 11
60.899994
 21
61.850239
  0
LINE
  8
0
 10
50.899994
 20
80.850235
 11
50.899994
 21
61.850239
  0
LINE
  8
0
 10
51.899994
 20
81.850235
 11
59.899994
 21
81.850235
  0
LINE
  8
0
 10
24.500000
 20
36.500233
 11
22.700012
 21
36.500233
  0
LINE
  8
0
 10
56.500000
 20
36.500233
 11
50.500000
 21
36.500233
  0
LINE
  8
0
 10
45.936829
 20
0.000233
 11
29.063202
 21
0.000233
  0
LINE
  8
0
 10
37.500000
 20
18.200245
 11
37.500000
 21
8.200245
  0
LINE
  8
0
 10
50.500000
 20
20.000233
 11
24.500000
 21
20.000233
  0
LINE
  8
0
 10
49.500000
 20
34.000233
 11
49.500000
 21
29.000233
  0
LINE
  8
0
 10
25.500000
 20
34.000233
 11
25.500000
 21
29.000233
  0
LINE
  8
0
 10
51.000000
 20
34.000233
 11
24.000000
 21
34.000233
  0
LINE
  8
0
 10
24.000000
 20
35.500233
 11
24.000000
 21
34.000233
  0
LINE
  8
0
 10
48.856079
 20
34.000233
 11
48.856079
 21
29.000233
  0
LINE
  8
0
 10
38.143921
 20
34.000233
 11
38.143921
 21
29.000233
  0
LINE
  8
0
 10
36.856079
 20
34.000233
 11
36.856079
 21
29.000233
  0
LINE
  8
0
 10
26.143921
 20
34.000233
 11
26.143921
 21
29.000233
  0
LINE
  8
0
 10
49.500000
 20
29.000233
 11
25.500000
 21
29.000233
  0
LINE
  8
0
 10
27.022522
 20
29.000233
 11
27.022522
 21
20.000233
  0
LINE
  8
0
 10
47.977509
 20
29.000233
 11
47.977509
 21
20.000233
  0
LINE
  8
0
 10
28.184509
 20
29.000233
 11
28.184509
 21
20.000233
  0
LINE
  8
0
 10
46.815521
 20
29.000233
 11
46.815521
 21
20.000233
  0
LINE
  8
0
 10
50.500000
 20
18.200245
 11
24.500000
 21
18.200245
  0
LINE
  8
0
 10
50.500000
 20
20.000233
 11
50.500000
 21
18.200245
  0
LINE
  8
0
 10
24.500000
 20
20.000233
 11
24.500000
 21
18.200245
  0
LINE
  8
0
 10
39.169891
 20
18.200245
 11
39.169891
 21
9.200245
  0
LINE
  8
0
 10
38.058014
 20
18.200245
 11
38.058014
 21
9.200245
  0
LINE
  8
0
 10
36.942017
 20
18.200245
 11
36.942017
 21
9.200245
  0
LINE
  8
0
 10
35.830139
 20
18.200245
 11
35.830139
 21
9.200245
  0
LINE
  8
0
 10
25.500000
 20
18.200245
 11
25.500000
 21
6.929981
  0
LINE
  8
0
 10
49.500000
 20
18.200245
 11
49.500000
 21
6.929981
  0
LINE
  8
0
 10
49.026978
 20
18.200245
 11
49.026978
 21
9.200245
  0
LINE
  8
0
 10
48.468964
 20
18.200245
 11
48.468964
 21
9.200245
  0
LINE
  8
0
 10
47.830139
 20
18.200245
 11
47.830139
 21
9.200245
  0
LINE
  8
0
 10
46.386673
 20
0.282013
 11
49.399719
 21
6.493523
  0
LINE
  8
0
 10
28.613335
 20
0.282001
 11
25.600285
 21
6.493511
  0
LINE
  8
0
 10
38.538696
 20
18.200245
 11
38.538696
 21
8.200245
  0
LINE
  8
0
 10
36.461304
 20
18.200245
 11
36.461304
 21
8.200245
  0
LINE
  8
0
 10
39.169861
 20
9.200233
 11
38.538685
 21
8.200241
  0
LINE
  8
0
 10
38.538658
 20
8.200211
 11
38.057949
 21
9.200226
  0
LINE
  8
0
 10
38.058014
 20
9.200188
 11
37.500027
 21
8.200188
  0
LINE
  8
0
 10
37.499989
 20
8.200214
 11
36.941978
 21
9.200237
  0
LINE
  8
0
 10
36.941990
 20
9.200268
 11
36.461288
 21
8.200279
  0
LINE
  8
0
 10
36.461285
 20
8.200188
 11
35.830120
 21
9.200188
  0
LINE
  8
0
 10
47.830105
 20
9.200176
 11
47.430241
 21
8.200195
  0
LINE
  8
0
 10
47.430202
 20
8.200230
 11
48.468922
 21
9.200249
  0
LINE
  8
0
 10
48.468925
 20
9.200203
 11
47.988228
 21
8.200214
  0
LINE
  8
0
 10
47.988220
 20
8.200199
 11
49.026947
 21
9.200207
  0
LINE
  8
0
 10
49.026924
 20
9.200207
 11
48.468922
 21
8.200214
  0
LINE
  8
0
 10
48.468987
 20
8.200230
 11
49.500034
 21
9.200237
  0
LINE
  8
0
 10
27.169830
 20
9.200184
 11
27.569687
 21
8.200199
  0
LINE
  8
0
 10
27.569733
 20
8.200249
 11
26.531040
 21
9.200253
  0
LINE
  8
0
 10
26.531033
 20
9.200253
 11
27.011734
 21
8.200230
  0
LINE
  8
0
 10
27.011723
 20
8.200188
 11
25.972996
 21
9.200195
  0
LINE
  8
0
 10
25.973019
 20
9.200233
 11
26.531021
 21
8.200241
  0
LINE
  8
0
 10
26.531013
 20
8.200233
 11
25.499989
 21
9.200226
  0
LINE
  8
0
 10
27.169891
 20
18.200245
 11
27.169891
 21
9.200245
  0
LINE
  8
0
 10
26.531067
 20
18.200245
 11
26.531067
 21
9.200245
  0
LINE
  8
0
 10
25.973022
 20
18.200245
 11
25.973022
 21
9.200245
  0
LINE
  8
0
 10
51.000000
 20
35.500233
 11
51.000000
 21
34.000233
  0
LINE
  8
0
 10
37.500000
 20
42.004566
 11
37.500000
 21
-5.918102
  0
LINE
  8
0
 10
69.500000
 20
42.004566
 11
69.500000
 21
-6.513409
  0
LINE
  8
0
 10
15.700623
 20
164.694534
 11
15.700623
 21
162.299606
  0
LINE
  8
0
 10
16.299347
 20
164.694534
 11
16.299347
 21
162.299606
  0
LINE
  8
0
 10
13.305695
 20
161.700882
 11
15.700623
 21
161.700882
  0
LINE
  8
0
 10
13.305695
 20
162.299606
 11
15.700623
 21
162.299606
  0
LINE
  8
0
 10
15.700623
 20
159.305984
 11
16.299347
 21
159.305984
  0
LINE
  8
0
 10
15.700623
 20
164.694534
 11
16.299347
 21
164.694534
  0
LINE
  8
0
 10
13.305695
 20
162.299606
 11
13.305695
 21
161.700882
  0
LINE
  8
0
 10
18.694244
 20
162.299606
 11
18.694244
 21
161.700882
  0
LINE
  8
0
 10
16.299347
 20
161.700882
 11
18.694244
 21
161.700882
  0
LINE
  8
0
 10
16.299347
 20
161.700882
 11
16.299347
 21
159.305984
  0
LINE
  8
0
 10
16.299347
 20
162.299606
 11
18.694244
 21
162.299606
  0
LINE
  8
0
 10
15.700623
 20
161.700882
 11
15.700623
 21
159.305984
  0
LINE
  8
0
 10
9.099426
 20
162.000229
 11
22.994568
 21
162.000229
  0
LINE
  8
0
 10
16.000000
 20
168.946609
 11
16.000000
 21
154.891769
  0
LINE
  8
0
 10
288.700623
 20
164.694534
 11
288.700623
 21
162.299606
  0
LINE
  8
0
 10
289.299347
 20
164.694534
 11
289.299347
 21
162.299606
  0
LINE
  8
0
 10
286.305695
 20
161.700882
 11
288.700623
 21
161.700882
  0
LINE
  8
0
 10
286.305695
 20
162.299606
 11
288.700623
 21
162.299606
  0
LINE
  8
0
 10
288.700623
 20
159.305984
 11
289.299347
 21
159.305984
  0
LINE
  8
0
 10
288.700623
 20
164.694534
 11
289.299347
 21
164.694534
  0
LINE
  8
0
 10
286.305695
 20
162.299606
 11
286.305695
 21
161.700882
  0
LINE
  8
0
 10
291.694244
 20
162.299606
 11
291.694244
 21
161.700882
  0
LINE
  8
0
 10
289.299347
 20
161.700882
 11
291.694244
 21
161.700882
  0
LINE
  8
0
 10
289.299347
 20
161.700882
 11
289.299347
 21
159.305984
  0
LINE
  8
0
 10
289.299347
 20
162.299606
 11
291.694244
 21
162.299606
  0
LINE
  8
0
 10
288.700623
 20
161.700882
 11
288.700623
 21
159.305984
  0
LINE
  8
0
 10
282.099426
 20
162.000229
 11
295.994568
 21
162.000229
  0
LINE
  8
0
 10
289.000000
 20
168.946609
 11
289.000000
 21
154.891769
  0
LINE
  8
0
 10
85.000000
 20
121.000229
 11
95.805115
 21
121.000229
  0
LINE
  8
0
 10
85.000000
 20
121.000229
 11
95.805115
 21
121.000229
  0
LINE
  8
0
 10
86.000000
 20
119.250229
 11
87.714630
 21
119.250229
  0
LINE
  8
0
 10
86.000000
 20
122.750229
 11
87.714630
 21
122.750229
  0
LINE
  8
0
 10
86.000000
 20
89.250229
 11
87.714630
 21
89.250229
  0
LINE
  8
0
 10
86.000000
 20
92.750229
 11
87.714630
 21
92.750229
  0
LINE
  8
0
 10
118.000000
 20
119.250229
 11
116.285370
 21
119.250229
  0
LINE
  8
0
 10
118.000000
 20
122.750229
 11
116.285370
 21
122.750229
  0
LINE
  8
0
 10
118.000000
 20
89.250229
 11
116.285370
 21
89.250229
  0
LINE
  8
0
 10
118.000000
 20
92.750229
 11
116.285370
 21
92.750229
  0
LINE
  8
0
 10
27.500000
 20
154.684494
 11
27.500000
 21
146.767227
  0
LINE
  8
0
 10
23.497620
 20
150.500229
 11
31.152039
 21
150.500229
  0
LINE
  8
0
 10
37.500000
 20
155.218307
 11
37.500000
 21
145.954147
  0
LINE
  8
0
 10
32.696045
 20
150.500229
 11
42.091614
 21
150.500229
  0
LINE
  8
0
 10
79.500000
 20
155.669998
 11
79.500000
 21
144.763229
  0
LINE
  8
0
 10
73.530609
 20
150.500229
 11
84.470215
 21
150.500229
  0
LINE
  8
0
 10
23.736145
 20
50.500233
 11
31.045166
 21
50.500233
  0
LINE
  8
0
 10
27.500000
 20
54.258961
 11
27.500000
 21
46.890278
  0
LINE
  8
0
 10
37.500000
 20
55.227894
 11
37.500000
 21
45.784962
  0
LINE
  8
0
 10
79.500000
 20
55.166981
 11
79.500000
 21
45.506824
  0
LINE
  8
0
 10
28.009136
 20
51.518501
 11
28.518246
 21
52.027622
  0
LINE
  8
0
 10
32.310181
 20
50.500233
 11
42.213074
 21
50.500233
  0
LINE
  8
0
 10
74.809570
 20
50.500233
 11
84.290802
 21
50.500233
  0
LINE
  8
0
 10
13.250000
 20
158.170303
 11
13.250000
 21
157.000229
  0
LINE
  8
0
 10
18.750000
 20
158.170303
 11
18.750000
 21
157.000229
  0
LINE
  8
0
 10
286.250000
 20
158.170303
 11
286.250000
 21
157.000229
  0
LINE
  8
0
 10
291.750000
 20
158.170303
 11
291.750000
 21
157.000229
  0
LINE
  8
0
 10
24.500000
 20
36.500233
 11
50.500000
 21
36.500233
  0
LINE
  8
0
 10
24.000000
 20
35.500233
 11
51.000000
 21
35.500233
  0
LINE
  8
0
 10
24.500000
 20
36.500233
 11
24.500000
 21
35.500233
  0
LINE
  8
0
 10
50.500000
 20
36.500233
 11
50.500000
 21
35.500233
  0
LINE
  8
0
 10
56.500000
 20
36.500233
 11
82.500000
 21
36.500233
  0
LINE
  8
0
 10
56.000000
 20
35.500233
 11
83.000000
 21
35.500233
  0
LINE
  8
0
 10
56.500000
 20
36.500233
 11
56.500000
 21
35.500233
  0
LINE
  8
0
 10
82.500000
 20
36.500233
 11
82.500000
 21
35.500233
  0
LINE
  8
0
 10
201.000000
 20
45.817616
 11
201.000000
 21
193.123764
  0
LINE
  8
0
 10
310.107910
 20
106.000229
 11
-14.362015
 21
106.000229
  0
ARC
  8
0
 10
304.000000
 20
209.000229
 40
3.000000
 50
0.000000
 51
90.000000
  0
ARC
  8
0
 10
319.000000
 20
164.000229
 40
2.000000
 50
0.000000
 51
90.000000
  0
ARC
  8
0
 10
319.000000
 20
150.000229
 40
2.000000
 50
270.000000
 51
0.000000
  0
ARC
  8
0
 10
320.000000
 20
162.500229
 40
1.000000
 50
270.000000
 51
0.000000
  0
ARC
  8
0
 10
320.000000
 20
151.500229
 40
1.000000
 50
0.000000
 51
90.000000
  0
ARC
  8
0
 10
315.000000
 20
157.000229
 40
4.500000
 50
90.000000
 51
270.000000
  0
ARC
  8
0
 10
308.000000
 20
147.000229
 40
1.000000
 50
90.000000
 51
180.000000
  0
ARC
  8
0
 10
308.000000
 20
70.000229
 40
1.000000
 50
180.000000
 51
270.000000
  0
ARC
  8
0
 10
315.000000
 20
59.999989
 40
4.499996
 50
90.000000
 51
270.000000
  0
ARC
  8
0
 10
304.000000
 20
53.999989
 40
3.000000
 50
270.000000
 51
359.999939
  0
ARC
  8
0
 10
319.000000
 20
52.999989
 40
2.000000
 50
270.000000
 51
0.000000
  0
ARC
  8
0
 10
319.000000
 20
67.000229
 40
2.000000
 50
0.000000
 51
90.000000
  0
ARC
  8
0
 10
320.000000
 20
65.500229
 40
1.000000
 50
270.000000
 51
0.000000
  0
ARC
  8
0
 10
320.000000
 20
54.499989
 40
1.000000
 50
0.000000
 51
90.000000
  0
ARC
  8
0
 10
1.000000
 20
209.000229
 40
3.000000
 50
89.999985
 51
180.000000
  0
ARC
  8
0
 10
-14.000000
 20
164.000229
 40
2.000000
 50
89.999969
 51
180.000000
  0
ARC
  8
0
 10
-14.000000
 20
150.000229
 40
2.000000
 50
180.000000
 51
270.000031
  0
ARC
  8
0
 10
-15.000000
 20
162.500229
 40
1.000000
 50
180.000000
 51
270.000000
  0
ARC
  8
0
 10
-15.000000
 20
151.500229
 40
1.000000
 50
90.000000
 51
180.000000
  0
ARC
  8
0
 10
-10.000000
 20
157.000229
 40
4.500000
 50
269.999969
 51
89.999924
  0
ARC
  8
0
 10
-3.000000
 20
147.000229
 40
1.000000
 50
0.000000
 51
89.999916
  0
ARC
  8
0
 10
-3.000000
 20
70.000229
 40
1.000000
 50
269.999969
 51
0.000000
  0
ARC
  8
0
 10
-10.000000
 20
59.999989
 40
4.500000
 50
269.999969
 51
89.999924
  0
ARC
  8
0
 10
1.000000
 20
53.999989
 40
3.000000
 50
180.000076
 51
270.000031
  0
ARC
  8
0
 10
-14.000000
 20
52.999989
 40
2.000000
 50
180.000000
 51
270.000031
  0
ARC
  8
0
 10
-14.000000
 20
67.000229
 40
2.000000
 50
89.999969
 51
180.000000
  0
ARC
  8
0
 10
-15.000000
 20
65.500229
 40
1.000000
 50
180.000000
 51
270.000000
  0
ARC
  8
0
 10
-15.000000
 20
54.499989
 40
1.000000
 50
90.000000
 51
180.000000
  0
ARC
  8
0
 10
122.000031
 20
202.000229
 40
3.000000
 50
90.000000
 51
180.000000
  0
ARC
  8
0
 10
148.000031
 20
202.000229
 40
3.000000
 50
0.000000
 51
90.000000
  0
ARC
  8
0
 10
148.000000
 20
40.999989
 40
3.000000
 50
270.000000
 51
359.999939
  0
ARC
  8
0
 10
122.000000
 20
40.999989
 40
3.000000
 50
179.999924
 51
270.000000
  0
ARC
  8
0
 10
131.000031
 20
135.000229
 40
2.000000
 50
90.000000
 51
180.000000
  0
ARC
  8
0
 10
139.000031
 20
135.000229
 40
2.000000
 50
0.000000
 51
90.000000
  0
ARC
  8
0
 10
139.000000
 20
77.000229
 40
2.000000
 50
270.000000
 51
0.000000
  0
ARC
  8
0
 10
131.000000
 20
77.000229
 40
2.000000
 50
179.999786
 51
270.000000
  0
ARC
  8
0
 10
131.000031
 20
135.000229
 40
1.000000
 50
90.000000
 51
180.000000
  0
ARC
  8
0
 10
139.000031
 20
135.000229
 40
1.000000
 50
0.000000
 51
90.000000
  0
ARC
  8
0
 10
139.000000
 20
77.000229
 40
1.000000
 50
270.000000
 51
0.000000
  0
ARC
  8
0
 10
131.000000
 20
77.000229
 40
1.000000
 50
180.000000
 51
270.000000
  0
CIRCLE
  8
0
 10
114.500000
 20
121.000229
 40
2.500000
  0
ARC
  8
0
 10
122.500000
 20
91.000229
 40
3.000000
 50
270.000000
 51
90.000000
  0
ARC
  8
0
 10
147.500000
 20
91.000229
 40
3.000000
 50
90.000000
 51
270.000000
  0
CIRCLE
  8
0
 10
114.500000
 20
121.000229
 40
2.500000
  0
ARC
  8
0
 10
122.500000
 20
121.000229
 40
3.000000
 50
270.000000
 51
90.000000
  0
CIRCLE
  8
0
 10
122.500000
 20
121.000229
 40
2.500000
  0
ARC
  8
0
 10
147.500000
 20
121.000229
 40
3.000000
 50
90.000000
 51
270.000000
  0
CIRCLE
  8
0
 10
147.500000
 20
121.000229
 40
2.500000
  0
CIRCLE
  8
0
 10
147.500000
 20
91.000229
 40
2.500000
  0
CIRCLE
  8
0
 10
147.500000
 20
121.000229
 40
2.500000
  0
CIRCLE
  8
0
 10
122.500000
 20
121.000229
 40
2.500000
  0
ARC
  8
0
 10
155.000031
 20
183.000229
 40
3.000000
 50
90.000000
 51
180.000000
  0
ARC
  8
0
 10
181.000031
 20
183.000229
 40
3.000000
 50
0.000000
 51
90.000000
  0
ARC
  8
0
 10
181.000000
 20
40.999989
 40
3.000000
 50
270.000000
 51
359.999939
  0
ARC
  8
0
 10
155.000000
 20
40.999989
 40
3.000000
 50
179.999924
 51
270.000000
  0
ARC
  8
0
 10
164.000031
 20
135.000229
 40
2.000000
 50
90.000000
 51
180.000000
  0
ARC
  8
0
 10
172.000031
 20
135.000229
 40
2.000000
 50
0.000000
 51
90.000000
  0
ARC
  8
0
 10
172.000000
 20
77.000229
 40
2.000000
 50
270.000000
 51
0.000000
  0
ARC
  8
0
 10
164.000000
 20
77.000229
 40
2.000000
 50
179.999786
 51
270.000000
  0
ARC
  8
0
 10
164.000031
 20
135.000229
 40
1.000000
 50
90.000000
 51
180.000000
  0
ARC
  8
0
 10
172.000031
 20
135.000229
 40
1.000000
 50
0.000000
 51
90.000000
  0
ARC
  8
0
 10
172.000000
 20
77.000229
 40
1.000000
 50
270.000000
 51
0.000000
  0
ARC
  8
0
 10
164.000000
 20
77.000229
 40
1.000000
 50
180.000000
 51
270.000000
  0
CIRCLE
  8
0
 10
155.500000
 20
91.000229
 40
2.500000
  0
ARC
  8
0
 10
155.500000
 20
91.000229
 40
3.000000
 50
270.000000
 51
90.000000
  0
ARC
  8
0
 10
180.500000
 20
91.000229
 40
3.000000
 50
90.000000
 51
270.000000
  0
CIRCLE
  8
0
 10
155.500000
 20
91.000229
 40
2.500000
  0
ARC
  8
0
 10
155.500000
 20
121.000229
 40
3.000000
 50
270.000000
 51
90.000000
  0
CIRCLE
  8
0
 10
155.500000
 20
121.000229
 40
2.500000
  0
ARC
  8
0
 10
180.500000
 20
121.000229
 40
3.000000
 50
90.000000
 51
270.000000
  0
CIRCLE
  8
0
 10
180.500000
 20
121.000229
 40
2.500000
  0
CIRCLE
  8
0
 10
180.500000
 20
91.000229
 40
2.500000
  0
CIRCLE
  8
0
 10
180.500000
 20
121.000229
 40
2.500000
  0
CIRCLE
  8
0
 10
155.500000
 20
121.000229
 40
2.500000
  0
CIRCLE
  8
0
 10
122.500000
 20
91.000229
 40
2.500000
  0
CIRCLE
  8
0
 10
122.500000
 20
91.000229
 40
2.500000
  0
CIRCLE
  8
0
 10
114.500000
 20
91.000229
 40
2.500000
  0
CIRCLE
  8
0
 10
114.500000
 20
91.000229
 40
2.500000
  0
ARC
  8
0
 10
89.500000
 20
91.000229
 40
2.499998
 50
135.572952
 51
0.000000
  0
ARC
  8
0
 10
89.500000
 20
91.000229
 40
2.500000
 50
0.000000
 51
135.572952
  0
CIRCLE
  8
0
 10
89.500000
 20
121.000229
 40
2.500000
  0
ARC
  8
0
 10
308.500000
 20
207.000229
 40
1.500000
 50
0.000000
 51
90.000000
  0
ARC
  8
0
 10
313.000000
 20
168.000229
 40
3.000000
 50
270.000000
 51
0.000000
  0
ARC
  8
0
 10
313.000000
 20
204.000229
 40
3.000000
 50
0.000000
 51
90.000000
  0
ARC
  8
0
 10
308.500000
 20
165.000229
 40
1.500000
 50
270.000000
 51
0.000000
  0
ARC
  8
0
 10
-3.500000
 20
165.000229
 40
1.500000
 50
180.000000
 51
270.000031
  0
ARC
  8
0
 10
-3.500000
 20
207.000229
 40
1.500000
 50
89.999985
 51
180.000000
  0
ARC
  8
0
 10
-8.000000
 20
168.000229
 40
3.000000
 50
180.000000
 51
270.000031
  0
ARC
  8
0
 10
-8.000000
 20
204.000229
 40
3.000000
 50
89.999985
 51
180.000000
  0
ARC
  8
0
 10
84.500000
 20
155.500229
 40
1.000000
 50
0.000000
 51
90.000000
  0
ARC
  8
0
 10
22.500000
 20
155.500229
 40
1.000000
 50
90.000000
 51
180.000000
  0
ARC
  8
0
 10
22.500000
 20
45.500233
 40
1.000000
 50
180.000000
 51
270.000000
  0
ARC
  8
0
 10
84.500000
 20
45.500233
 40
1.000000
 50
270.000000
 51
0.000000
  0
ARC
  8
0
 10
84.300018
 20
36.700245
 40
0.200001
 50
270.000000
 51
0.000000
  0
ARC
  8
0
 10
21.500000
 20
43.768208
 40
1.000000
 50
0.000000
 51
59.999962
  0
ARC
  8
0
 10
85.500000
 20
43.768208
 40
0.999999
 50
120.000038
 51
180.000000
  0
ARC
  8
0
 10
32.500000
 20
45.500233
 40
1.000000
 50
180.000000
 51
270.000000
  0
ARC
  8
0
 10
32.500000
 20
155.500229
 40
1.000000
 50
90.000000
 51
180.000000
  0
ARC
  8
0
 10
70.600006
 20
151.550247
 40
1.000000
 50
0.000000
 51
90.000000
  0
ARC
  8
0
 10
46.399994
 20
151.550247
 40
1.000000
 50
90.000000
 51
180.000000
  0
ARC
  8
0
 10
46.399994
 20
49.350239
 40
1.000000
 50
180.000000
 51
270.000000
  0
ARC
  8
0
 10
70.600006
 20
49.350239
 40
1.000000
 50
270.000000
 51
0.000000
  0
CIRCLE
  8
0
 10
79.500000
 20
150.500229
 40
4.150000
  0
ARC
  8
0
 10
79.500000
 20
152.324570
 40
0.859995
 50
225.000000
 51
315.000000
  0
ARC
  8
0
 10
77.675659
 20
150.500229
 40
0.859995
 50
315.000000
 51
45.000000
  0
ARC
  8
0
 10
81.324341
 20
150.500229
 40
0.860006
 50
134.999283
 51
224.999634
  0
ARC
  8
0
 10
79.500000
 20
148.675888
 40
0.859995
 50
45.000000
 51
134.999283
  0
CIRCLE
  8
0
 10
79.500000
 20
50.500233
 40
4.150000
  0
ARC
  8
0
 10
79.500000
 20
52.324574
 40
0.859998
 50
225.000183
 51
314.999817
  0
ARC
  8
0
 10
77.675659
 20
50.500233
 40
0.859998
 50
314.999817
 51
45.000179
  0
ARC
  8
0
 10
81.324341
 20
50.500233
 40
0.859998
 50
134.999817
 51
224.999817
  0
ARC
  8
0
 10
79.500000
 20
48.675922
 40
0.859998
 50
45.000179
 51
134.999817
  0
CIRCLE
  8
0
 10
37.500000
 20
50.500233
 40
4.150000
  0
ARC
  8
0
 10
37.500000
 20
52.324574
 40
0.860001
 50
225.000000
 51
315.000000
  0
ARC
  8
0
 10
35.675659
 20
50.500233
 40
0.860001
 50
315.000000
 51
45.000000
  0
ARC
  8
0
 10
39.324341
 20
50.500233
 40
0.860001
 50
135.000000
 51
225.000000
  0
ARC
  8
0
 10
37.500000
 20
48.675922
 40
0.860001
 50
45.000000
 51
135.000000
  0
CIRCLE
  8
0
 10
37.500000
 20
150.500229
 40
4.150000
  0
ARC
  8
0
 10
37.500000
 20
152.324570
 40
0.859998
 50
224.999817
 51
315.000183
  0
ARC
  8
0
 10
35.675659
 20
150.500229
 40
0.859998
 50
315.000183
 51
44.999821
  0
ARC
  8
0
 10
39.324341
 20
150.500229
 40
0.860009
 50
134.999466
 51
224.999817
  0
ARC
  8
0
 10
37.500000
 20
148.675888
 40
0.859998
 50
44.999821
 51
134.999466
  0
ARC
  8
0
 10
37.500000
 20
150.500229
 40
5.000000
 50
270.000000
 51
0.000000
  0
ARC
  8
0
 10
79.500000
 20
150.500229
 40
5.000000
 50
180.000000
 51
270.000000
  0
ARC
  8
0
 10
79.500000
 20
50.500233
 40
5.000000
 50
90.000000
 51
179.999954
  0
ARC
  8
0
 10
37.500000
 20
50.500233
 40
5.000000
 50
0.000000
 51
90.000000
  0
ARC
  8
0
 10
32.500000
 20
56.500233
 40
1.000000
 50
180.000000
 51
270.000000
  0
ARC
  8
0
 10
43.500000
 20
45.500233
 40
1.000000
 50
180.000000
 51
270.000000
  0
ARC
  8
0
 10
73.500000
 20
45.500233
 40
1.000000
 50
270.000000
 51
0.000000
  0
ARC
  8
0
 10
84.500000
 20
56.500233
 40
1.000000
 50
270.000000
 51
0.000000
  0
ARC
  8
0
 10
84.500000
 20
144.500229
 40
1.000000
 50
0.000000
 51
90.000000
  0
ARC
  8
0
 10
73.500000
 20
155.500229
 40
1.000000
 50
0.000000
 51
90.000000
  0
ARC
  8
0
 10
43.500000
 20
155.500229
 40
1.000000
 50
90.000000
 51
180.000000
  0
ARC
  8
0
 10
32.500000
 20
144.500229
 40
1.000000
 50
90.000000
 51
180.000000
  0
ARC
  8
0
 10
63.500000
 20
11.700245
 40
4.999993
 50
209.999939
 51
330.000061
  0
ARC
  8
0
 10
75.500000
 20
11.700245
 40
5.000004
 50
209.999969
 51
330.000031
  0
ARC
  8
0
 10
77.936829
 20
0.500233
 40
0.500000
 50
270.000000
 51
334.123474
  0
ARC
  8
0
 10
61.063202
 20
0.500233
 40
0.499999
 50
205.876511
 51
270.000000
  0
ARC
  8
0
 10
58.500000
 20
6.929981
 40
1.000000
 50
180.000000
 51
205.876907
  0
ARC
  8
0
 10
80.500000
 20
6.929981
 40
1.000001
 50
334.123108
 51
0.000000
  0
CIRCLE
  8
0
 10
27.500000
 20
150.500229
 40
3.150000
  0
ARC
  8
0
 10
27.500000
 20
152.027573
 40
0.719995
 50
224.999573
 51
315.000427
  0
ARC
  8
0
 10
25.972656
 20
150.500229
 40
0.719995
 50
315.000427
 51
45.000431
  0
ARC
  8
0
 10
29.027344
 20
150.500229
 40
0.720006
 50
134.999573
 51
224.999573
  0
ARC
  8
0
 10
27.500000
 20
148.972885
 40
0.720006
 50
45.000431
 51
134.999573
  0
CIRCLE
  8
0
 10
27.500000
 20
50.500233
 40
3.150000
  0
ARC
  8
0
 10
27.500000
 20
52.027607
 40
0.720000
 50
225.000000
 51
315.000000
  0
ARC
  8
0
 10
25.972656
 20
50.500233
 40
0.720000
 50
315.000000
 51
45.000000
  0
ARC
  8
0
 10
29.027344
 20
50.500233
 40
0.720000
 50
135.000000
 51
225.000000
  0
ARC
  8
0
 10
27.500000
 20
48.972889
 40
0.720000
 50
45.000000
 51
135.000000
  0
ARC
  8
0
 10
51.899994
 20
61.850239
 40
1.000000
 50
180.000000
 51
270.000000
  0
ARC
  8
0
 10
59.899994
 20
61.850239
 40
1.000000
 50
270.000000
 51
0.000000
  0
ARC
  8
0
 10
51.899994
 20
80.850235
 40
1.000000
 50
90.000000
 51
180.000000
  0
ARC
  8
0
 10
59.899994
 20
80.850235
 40
1.000000
 50
0.000000
 51
90.000000
  0
ARC
  8
0
 10
43.500000
 20
11.700245
 40
4.999993
 50
209.999939
 51
330.000061
  0
ARC
  8
0
 10
31.500000
 20
11.700245
 40
5.000004
 50
209.999969
 51
330.000031
  0
ARC
  8
0
 10
29.063202
 20
0.500233
 40
0.499999
 50
205.876511
 51
270.000000
  0
ARC
  8
0
 10
45.936829
 20
0.500233
 40
0.500000
 50
270.000000
 51
334.123474
  0
ARC
  8
0
 10
48.500000
 20
6.929981
 40
1.000001
 50
334.123108
 51
0.000000
  0
ARC
  8
0
 10
26.500000
 20
6.929981
 40
1.000000
 50
180.000000
 51
205.876907
  0
CIRCLE
  8
0
 10
16.000000
 20
162.000229
 40
4.714968
  0
CIRCLE
  8
0
 10
289.000000
 20
162.000229
 40
4.714968
  0
TEXT
  8
0
 10
125.206993
 20
76.880226
 40
3.200000
  1
B
 50
180.000000
 41
1.052632
 51
0.000000
  7
STANDARD
  0
TEXT
  8
0
 10
144.792969
 20
135.120224
 40
3.200000
  1
A
 50
0.000000
 41
1.052632
 51
0.000000
  7
STANDARD
  0
TEXT
  8
0
 10
158.207001
 20
76.880226
 40
3.200000
  1
B
 50
180.000000
 41
1.052632
 51
0.000000
  7
STANDARD
  0
TEXT
  8
0
 10
177.792969
 20
135.120224
 40
3.200000
  1
A
 50
0.000000
 41
1.052632
 51
0.000000
  7
STANDARD
  0
POINT
  8
0
 10
201.000000
 20
106.000229
  0
LINE
  8
0
 10
206.000000
 20
77.000229
 11
206.000000
 21
135.000229
  0
LINE
  8
0
 10
196.000000
 20
77.000229
 11
196.000000
 21
135.000229
  0
LINE
  8
0
 10
207.000000
 20
77.000229
 11
207.000000
 21
135.000229
  0
LINE
  8
0
 10
195.000000
 20
77.000229
 11
195.000000
 21
135.000229
  0
LINE
  8
0
 10
213.500000
 20
116.500229
 11
213.500000
 21
125.500229
  0
LINE
  8
0
 10
188.500000
 20
86.500229
 11
188.500000
 21
95.500229
  0
LINE
  8
0
 10
218.000000
 20
121.000229
 11
209.000000
 21
121.000229
  0
LINE
  8
0
 10
193.000000
 20
91.000229
 11
184.000000
 21
91.000229
  0
LINE
  8
0
 10
206.000000
 20
126.000229
 11
196.000000
 21
126.000229
  0
LINE
  8
0
 10
206.000000
 20
86.000229
 11
196.000000
 21
86.000229
  0
LINE
  8
0
 10
205.000031
 20
136.000229
 11
197.000031
 21
136.000229
  0
LINE
  8
0
 10
205.000000
 20
76.000229
 11
197.000000
 21
76.000229
  0
LINE
  8
0
 10
205.000031
 20
137.000229
 11
197.000031
 21
137.000229
  0
LINE
  8
0
 10
205.000000
 20
75.000229
 11
197.000000
 21
75.000229
  0
LINE
  8
0
 10
217.000031
 20
142.000229
 11
185.000031
 21
142.000229
  0
LINE
  8
0
 10
217.000000
 20
70.000229
 11
185.000000
 21
70.000229
  0
LINE
  8
0
 10
214.000000
 20
61.999989
 11
188.000000
 21
61.999989
  0
LINE
  8
0
 10
217.000031
 20
162.000229
 11
185.000031
 21
162.000229
  0
LINE
  8
0
 10
214.000031
 20
186.000229
 11
188.000031
 21
186.000229
  0
LINE
  8
0
 10
188.500000
 20
94.000229
 11
185.000000
 21
94.000229
  0
LINE
  8
0
 10
188.500000
 20
88.000229
 11
185.000000
 21
88.000229
  0
LINE
  8
0
 10
213.500000
 20
88.000229
 11
217.000000
 21
88.000229
  0
LINE
  8
0
 10
213.500000
 20
94.000229
 11
217.000000
 21
94.000229
  0
LINE
  8
0
 10
188.500000
 20
124.000229
 11
185.000000
 21
124.000229
  0
LINE
  8
0
 10
188.500000
 20
118.000229
 11
185.000000
 21
118.000229
  0
LINE
  8
0
 10
213.500000
 20
124.000229
 11
217.000000
 21
124.000229
  0
LINE
  8
0
 10
213.500000
 20
118.000229
 11
217.000000
 21
118.000229
  0
LINE
  8
0
 10
193.000000
 20
121.000229
 11
184.000000
 21
121.000229
  0
LINE
  8
0
 10
188.500000
 20
125.500229
 11
188.500000
 21
116.500229
  0
LINE
  8
0
 10
213.500000
 20
95.500229
 11
213.500000
 21
86.500229
  0
LINE
  8
0
 10
218.000000
 20
91.000229
 11
209.000000
 21
91.000229
  0
LINE
  8
0
 10
215.500000
 20
133.500229
 11
215.500000
 21
140.500229
  0
LINE
  8
0
 10
209.699982
 20
140.500229
 11
215.499969
 21
140.500229
  0
LINE
  8
0
 10
209.699982
 20
133.500229
 11
209.699982
 21
140.500229
  0
LINE
  8
0
 10
209.699982
 20
133.500229
 11
215.499969
 21
133.500229
  0
LINE
  8
0
 10
192.300018
 20
78.500229
 11
186.500000
 21
78.500229
  0
LINE
  8
0
 10
192.299988
 20
78.500229
 11
192.299988
 21
71.500229
  0
LINE
  8
0
 10
192.300018
 20
71.500229
 11
186.500000
 21
71.500229
  0
LINE
  8
0
 10
186.500000
 20
78.500229
 11
186.500000
 21
71.500229
  0
LINE
  8
0
 10
189.221680
 20
92.250229
 11
187.778320
 21
92.250229
  0
LINE
  8
0
 10
189.221680
 20
89.750229
 11
187.778320
 21
89.750229
  0
LINE
  8
0
 10
189.221588
 20
89.749962
 11
189.943268
 21
90.999947
  0
LINE
  8
0
 10
187.056534
 20
90.999977
 11
187.778214
 21
92.249962
  0
LINE
  8
0
 10
187.777832
 20
89.750351
 11
187.056152
 21
91.000336
  0
LINE
  8
0
 10
189.942902
 20
91.000336
 11
189.221222
 21
92.250320
  0
LINE
  8
0
 10
214.221680
 20
89.750229
 11
212.778320
 21
89.750229
  0
LINE
  8
0
 10
214.221375
 20
89.750069
 11
214.943069
 21
91.000061
  0
LINE
  8
0
 10
212.056320
 20
91.000069
 11
212.778000
 21
92.250053
  0
LINE
  8
0
 10
212.777618
 20
89.750175
 11
212.055939
 21
91.000168
  0
LINE
  8
0
 10
214.942688
 20
91.000183
 11
214.221008
 21
92.250175
  0
LINE
  8
0
 10
214.221680
 20
92.250229
 11
212.778320
 21
92.250229
  0
LINE
  8
0
 10
214.221680
 20
119.750229
 11
212.778320
 21
119.750229
  0
LINE
  8
0
 10
214.221497
 20
119.750275
 11
214.943176
 21
121.000259
  0
LINE
  8
0
 10
212.056427
 20
121.000259
 11
212.778107
 21
122.250244
  0
LINE
  8
0
 10
212.778198
 20
119.750183
 11
212.056519
 21
121.000168
  0
LINE
  8
0
 10
214.943283
 20
121.000183
 11
214.221619
 21
122.250168
  0
LINE
  8
0
 10
214.221680
 20
122.250229
 11
212.778320
 21
122.250229
  0
LINE
  8
0
 10
189.221680
 20
119.750229
 11
187.778320
 21
119.750229
  0
LINE
  8
0
 10
189.221695
 20
119.750145
 11
189.943375
 21
121.000130
  0
LINE
  8
0
 10
187.056641
 20
121.000145
 11
187.778320
 21
122.250130
  0
LINE
  8
0
 10
187.777985
 20
119.750076
 11
187.056305
 21
121.000061
  0
LINE
  8
0
 10
189.943054
 20
121.000076
 11
189.221375
 21
122.250061
  0
LINE
  8
0
 10
189.221680
 20
122.250229
 11
187.778320
 21
122.250229
  0
LINE
  8
0
 10
198.850006
 20
186.699936
 11
203.149994
 21
186.699936
  0
LINE
  8
0
 10
198.850006
 20
186.000229
 11
198.850006
 21
186.699936
  0
LINE
  8
0
 10
203.149994
 20
186.000229
 11
203.149994
 21
186.699936
  0
LINE
  8
0
 10
217.000000
 20
65.000229
 11
217.000000
 21
183.000229
  0
LINE
  8
0
 10
185.000031
 20
183.000244
 11
185.000000
 21
65.000229
  0
CIRCLE
  8
0
 10
213.500000
 20
121.000229
 40
2.500000
  0
CIRCLE
  8
0
 10
188.500000
 20
121.000229
 40
2.500000
  0
ARC
  8
0
 10
214.000000
 20
65.000229
 40
2.999996
 50
270.000000
 51
0.000000
  0
ARC
  8
0
 10
188.000000
 20
65.000229
 40
3.000000
 50
180.000000
 51
270.000000
  0
ARC
  8
0
 10
188.000031
 20
183.000229
 40
3.000000
 50
90.000000
 51
180.000000
  0
ARC
  8
0
 10
214.000031
 20
183.000229
 40
3.000000
 50
0.000000
 51
90.000000
  0
ARC
  8
0
 10
197.000031
 20
135.000229
 40
2.000000
 50
90.000000
 51
180.000000
  0
ARC
  8
0
 10
205.000031
 20
135.000229
 40
2.000000
 50
0.000000
 51
90.000000
  0
ARC
  8
0
 10
205.000000
 20
77.000229
 40
2.000000
 50
270.000000
 51
0.000000
  0
ARC
  8
0
 10
197.000000
 20
77.000229
 40
2.000000
 50
179.999786
 51
270.000000
  0
ARC
  8
0
 10
197.000031
 20
135.000229
 40
1.000000
 50
90.000000
 51
180.000000
  0
ARC
  8
0
 10
205.000031
 20
135.000229
 40
1.000000
 50
0.000000
 51
90.000000
  0
ARC
  8
0
 10
205.000000
 20
77.000229
 40
1.000000
 50
270.000000
 51
0.000000
  0
ARC
  8
0
 10
197.000000
 20
77.000229
 40
1.000000
 50
180.000000
 51
270.000000
  0
CIRCLE
  8
0
 10
188.500000
 20
91.000229
 40
2.500000
  0
ARC
  8
0
 10
188.500000
 20
91.000229
 40
3.000000
 50
270.000000
 51
90.000000
  0
ARC
  8
0
 10
213.500000
 20
91.000229
 40
3.000000
 50
90.000000
 51
270.000000
  0
CIRCLE
  8
0
 10
188.500000
 20
91.000229
 40
2.500000
  0
ARC
  8
0
 10
188.500000
 20
121.000229
 40
3.000000
 50
270.000000
 51
90.000000
  0
CIRCLE
  8
0
 10
188.500000
 20
121.000229
 40
2.500000
  0
ARC
  8
0
 10
213.500000
 20
121.000229
 40
3.000000
 50
90.000000
 51
270.000000
  0
CIRCLE
  8
0
 10
213.500000
 20
121.000229
 40
2.500000
  0
CIRCLE
  8
0
 10
213.500000
 20
91.000229
 40
2.500000
  0
TEXT
  8
0
 10
191.207001
 20
76.880226
 40
3.200000
  1
B
 50
180.000000
 41
1.052632
 51
0.000000
  7
STANDARD
  0
TEXT
  8
0
 10
210.792969
 20
135.120224
 40
3.200000
  1
A
 50
0.000000
 41
1.052632
 51
0.000000
  7
STANDARD
  0
POINT
  8
0
 10
234.000000
 20
106.000229
  0
LINE
  8
0
 10
239.000000
 20
77.000229
 11
239.000000
 21
135.000229
  0
LINE
  8
0
 10
229.000000
 20
77.000229
 11
229.000000
 21
135.000229
  0
LINE
  8
0
 10
240.000000
 20
77.000229
 11
240.000000
 21
135.000229
  0
LINE
  8
0
 10
228.000000
 20
77.000229
 11
228.000000
 21
135.000229
  0
LINE
  8
0
 10
246.500000
 20
116.500229
 11
246.500000
 21
125.500229
  0
LINE
  8
0
 10
221.500000
 20
86.500229
 11
221.500000
 21
95.500229
  0
LINE
  8
0
 10
251.000000
 20
121.000229
 11
242.000000
 21
121.000229
  0
LINE
  8
0
 10
226.000000
 20
91.000229
 11
217.000000
 21
91.000229
  0
LINE
  8
0
 10
239.000000
 20
126.000229
 11
229.000000
 21
126.000229
  0
LINE
  8
0
 10
239.000000
 20
86.000229
 11
229.000000
 21
86.000229
  0
LINE
  8
0
 10
238.000031
 20
136.000229
 11
230.000031
 21
136.000229
  0
LINE
  8
0
 10
238.000000
 20
76.000229
 11
230.000000
 21
76.000229
  0
LINE
  8
0
 10
238.000031
 20
137.000229
 11
230.000031
 21
137.000229
  0
LINE
  8
0
 10
238.000000
 20
75.000229
 11
230.000000
 21
75.000229
  0
LINE
  8
0
 10
250.000031
 20
142.000229
 11
218.000031
 21
142.000229
  0
LINE
  8
0
 10
250.000000
 20
70.000229
 11
218.000000
 21
70.000229
  0
LINE
  8
0
 10
247.000000
 20
61.999989
 11
221.000000
 21
61.999989
  0
LINE
  8
0
 10
250.000031
 20
162.000229
 11
218.000031
 21
162.000229
  0
LINE
  8
0
 10
247.000031
 20
186.000229
 11
221.000031
 21
186.000229
  0
LINE
  8
0
 10
221.500000
 20
94.000229
 11
218.000000
 21
94.000229
  0
LINE
  8
0
 10
221.500000
 20
88.000229
 11
218.000000
 21
88.000229
  0
LINE
  8
0
 10
246.500000
 20
88.000229
 11
250.000000
 21
88.000229
  0
LINE
  8
0
 10
246.500000
 20
94.000229
 11
250.000000
 21
94.000229
  0
LINE
  8
0
 10
221.500000
 20
124.000229
 11
218.000000
 21
124.000229
  0
LINE
  8
0
 10
221.500000
 20
118.000229
 11
218.000000
 21
118.000229
  0
LINE
  8
0
 10
246.500000
 20
124.000229
 11
250.000000
 21
124.000229
  0
LINE
  8
0
 10
246.500000
 20
118.000229
 11
250.000000
 21
118.000229
  0
LINE
  8
0
 10
226.000000
 20
121.000229
 11
217.000000
 21
121.000229
  0
LINE
  8
0
 10
221.500000
 20
125.500229
 11
221.500000
 21
116.500229
  0
LINE
  8
0
 10
246.500000
 20
95.500229
 11
246.500000
 21
86.500229
  0
LINE
  8
0
 10
251.000000
 20
91.000229
 11
242.000000
 21
91.000229
  0
LINE
  8
0
 10
248.500000
 20
133.500229
 11
248.500000
 21
140.500229
  0
LINE
  8
0
 10
242.699982
 20
140.500229
 11
248.499969
 21
140.500229
  0
LINE
  8
0
 10
242.699982
 20
133.500229
 11
242.699982
 21
140.500229
  0
LINE
  8
0
 10
242.699982
 20
133.500229
 11
248.499969
 21
133.500229
  0
LINE
  8
0
 10
225.300018
 20
78.500229
 11
219.500000
 21
78.500229
  0
LINE
  8
0
 10
225.299988
 20
78.500229
 11
225.299988
 21
71.500229
  0
LINE
  8
0
 10
225.300018
 20
71.500229
 11
219.500000
 21
71.500229
  0
LINE
  8
0
 10
219.500000
 20
78.500229
 11
219.500000
 21
71.500229
  0
LINE
  8
0
 10
222.221680
 20
92.250229
 11
220.778320
 21
92.250229
  0
LINE
  8
0
 10
222.221680
 20
89.750229
 11
220.778320
 21
89.750229
  0
LINE
  8
0
 10
222.221588
 20
89.749962
 11
222.943268
 21
90.999947
  0
LINE
  8
0
 10
220.056534
 20
90.999977
 11
220.778214
 21
92.249962
  0
LINE
  8
0
 10
220.777832
 20
89.750351
 11
220.056152
 21
91.000336
  0
LINE
  8
0
 10
222.942902
 20
91.000336
 11
222.221222
 21
92.250320
  0
LINE
  8
0
 10
247.221680
 20
89.750229
 11
245.778320
 21
89.750229
  0
LINE
  8
0
 10
247.221375
 20
89.750069
 11
247.943054
 21
91.000061
  0
LINE
  8
0
 10
245.056320
 20
91.000069
 11
245.778000
 21
92.250053
  0
LINE
  8
0
 10
245.777618
 20
89.750175
 11
245.055939
 21
91.000168
  0
LINE
  8
0
 10
247.942688
 20
91.000183
 11
247.221008
 21
92.250175
  0
LINE
  8
0
 10
247.221680
 20
92.250229
 11
245.778320
 21
92.250229
  0
LINE
  8
0
 10
247.221680
 20
119.750229
 11
245.778320
 21
119.750229
  0
LINE
  8
0
 10
247.221497
 20
119.750275
 11
247.943176
 21
121.000259
  0
LINE
  8
0
 10
245.056427
 20
121.000259
 11
245.778107
 21
122.250244
  0
LINE
  8
0
 10
245.778198
 20
119.750183
 11
245.056519
 21
121.000168
  0
LINE
  8
0
 10
247.943298
 20
121.000183
 11
247.221619
 21
122.250168
  0
LINE
  8
0
 10
247.221680
 20
122.250229
 11
245.778320
 21
122.250229
  0
LINE
  8
0
 10
222.221680
 20
119.750229
 11
220.778320
 21
119.750229
  0
LINE
  8
0
 10
222.221695
 20
119.750145
 11
222.943375
 21
121.000130
  0
LINE
  8
0
 10
220.056641
 20
121.000145
 11
220.778320
 21
122.250130
  0
LINE
  8
0
 10
220.777985
 20
119.750076
 11
220.056305
 21
121.000061
  0
LINE
  8
0
 10
222.943054
 20
121.000076
 11
222.221375
 21
122.250061
  0
LINE
  8
0
 10
222.221680
 20
122.250229
 11
220.778320
 21
122.250229
  0
LINE
  8
0
 10
231.850006
 20
186.699936
 11
236.149994
 21
186.699936
  0
LINE
  8
0
 10
231.850006
 20
186.000229
 11
231.850006
 21
186.699936
  0
LINE
  8
0
 10
236.149994
 20
186.000229
 11
236.149994
 21
186.699936
  0
LINE
  8
0
 10
250.000000
 20
65.000229
 11
250.000000
 21
183.000229
  0
LINE
  8
0
 10
218.000031
 20
183.000244
 11
218.000000
 21
65.000229
  0
CIRCLE
  8
0
 10
246.500000
 20
121.000229
 40
2.500000
  0
CIRCLE
  8
0
 10
221.500000
 20
121.000229
 40
2.500000
  0
ARC
  8
0
 10
247.000000
 20
65.000229
 40
2.999996
 50
270.000000
 51
0.000000
  0
ARC
  8
0
 10
221.000000
 20
65.000229
 40
3.000000
 50
180.000000
 51
270.000000
  0
ARC
  8
0
 10
221.000031
 20
183.000229
 40
3.000000
 50
90.000000
 51
180.000000
  0
ARC
  8
0
 10
247.000031
 20
183.000229
 40
3.000000
 50
0.000000
 51
90.000000
  0
ARC
  8
0
 10
230.000031
 20
135.000229
 40
2.000000
 50
90.000000
 51
180.000000
  0
ARC
  8
0
 10
238.000031
 20
135.000229
 40
2.000000
 50
0.000000
 51
90.000000
  0
ARC
  8
0
 10
238.000000
 20
77.000229
 40
2.000000
 50
270.000000
 51
0.000000
  0
ARC
  8
0
 10
230.000000
 20
77.000229
 40
2.000000
 50
179.999786
 51
270.000000
  0
ARC
  8
0
 10
230.000031
 20
135.000229
 40
1.000000
 50
90.000000
 51
180.000000
  0
ARC
  8
0
 10
238.000031
 20
135.000229
 40
1.000000
 50
0.000000
 51
90.000000
  0
ARC
  8
0
 10
238.000000
 20
77.000229
 40
1.000000
 50
270.000000
 51
0.000000
  0
ARC
  8
0
 10
230.000000
 20
77.000229
 40
1.000000
 50
180.000000
 51
270.000000
  0
CIRCLE
  8
0
 10
221.500000
 20
91.000229
 40
2.500000
  0
ARC
  8
0
 10
221.500000
 20
91.000229
 40
3.000000
 50
270.000000
 51
90.000000
  0
ARC
  8
0
 10
246.500000
 20
91.000229
 40
3.000000
 50
90.000000
 51
270.000000
  0
CIRCLE
  8
0
 10
221.500000
 20
91.000229
 40
2.500000
  0
ARC
  8
0
 10
221.500000
 20
121.000229
 40
3.000000
 50
270.000000
 51
90.000000
  0
CIRCLE
  8
0
 10
221.500000
 20
121.000229
 40
2.500000
  0
ARC
  8
0
 10
246.500000
 20
121.000229
 40
3.000000
 50
90.000000
 51
270.000000
  0
CIRCLE
  8
0
 10
246.500000
 20
121.000229
 40
2.500000
  0
CIRCLE
  8
0
 10
246.500000
 20
91.000229
 40
2.500000
  0
TEXT
  8
0
 10
224.207001
 20
76.880226
 40
3.200000
  1
B
 50
180.000000
 41
1.052632
 51
0.000000
  7
STANDARD
  0
TEXT
  8
0
 10
243.792969
 20
135.120224
 40
3.200000
  1
A
 50
0.000000
 41
1.052632
 51
0.000000
  7
STANDARD
  0
POINT
  8
0
 10
267.000000
 20
106.000229
  0
LINE
  8
0
 10
272.000000
 20
77.000229
 11
272.000000
 21
135.000229
  0
LINE
  8
0
 10
262.000000
 20
77.000229
 11
262.000000
 21
135.000229
  0
LINE
  8
0
 10
273.000000
 20
77.000229
 11
273.000000
 21
135.000229
  0
LINE
  8
0
 10
261.000000
 20
77.000229
 11
261.000000
 21
135.000229
  0
LINE
  8
0
 10
279.500000
 20
116.500229
 11
279.500000
 21
125.500229
  0
LINE
  8
0
 10
254.500000
 20
86.500229
 11
254.500000
 21
95.500229
  0
LINE
  8
0
 10
284.000000
 20
121.000229
 11
275.000000
 21
121.000229
  0
LINE
  8
0
 10
259.000000
 20
91.000229
 11
250.000000
 21
91.000229
  0
LINE
  8
0
 10
272.000000
 20
126.000229
 11
262.000000
 21
126.000229
  0
LINE
  8
0
 10
272.000000
 20
86.000229
 11
262.000000
 21
86.000229
  0
LINE
  8
0
 10
271.000031
 20
136.000229
 11
263.000031
 21
136.000229
  0
LINE
  8
0
 10
271.000000
 20
76.000229
 11
263.000000
 21
76.000229
  0
LINE
  8
0
 10
271.000031
 20
137.000229
 11
263.000031
 21
137.000229
  0
LINE
  8
0
 10
271.000000
 20
75.000229
 11
263.000000
 21
75.000229
  0
LINE
  8
0
 10
283.000031
 20
142.000229
 11
251.000031
 21
142.000229
  0
LINE
  8
0
 10
283.000000
 20
70.000229
 11
251.000000
 21
70.000229
  0
LINE
  8
0
 10
280.000000
 20
61.999989
 11
254.000000
 21
61.999989
  0
LINE
  8
0
 10
283.000031
 20
162.000229
 11
251.000031
 21
162.000229
  0
LINE
  8
0
 10
280.000031
 20
186.000229
 11
254.000031
 21
186.000229
  0
LINE
  8
0
 10
254.500000
 20
94.000229
 11
251.000000
 21
94.000229
  0
LINE
  8
0
 10
254.500000
 20
88.000229
 11
251.000000
 21
88.000229
  0
LINE
  8
0
 10
279.500000
 20
88.000229
 11
283.000000
 21
88.000229
  0
LINE
  8
0
 10
279.500000
 20
94.000229
 11
283.000000
 21
94.000229
  0
LINE
  8
0
 10
254.500000
 20
124.000229
 11
251.000000
 21
124.000229
  0
LINE
  8
0
 10
254.500000
 20
118.000229
 11
251.000000
 21
118.000229
  0
LINE
  8
0
 10
279.500000
 20
124.000229
 11
283.000000
 21
124.000229
  0
LINE
  8
0
 10
279.500000
 20
118.000229
 11
283.000000
 21
118.000229
  0
LINE
  8
0
 10
259.000000
 20
121.000229
 11
250.000000
 21
121.000229
  0
LINE
  8
0
 10
254.500000
 20
125.500229
 11
254.500000
 21
116.500229
  0
LINE
  8
0
 10
279.500000
 20
95.500229
 11
279.500000
 21
86.500229
  0
LINE
  8
0
 10
284.000000
 20
91.000229
 11
275.000000
 21
91.000229
  0
LINE
  8
0
 10
281.500000
 20
133.500229
 11
281.500000
 21
140.500229
  0
LINE
  8
0
 10
275.699982
 20
140.500229
 11
281.499969
 21
140.500229
  0
LINE
  8
0
 10
275.699982
 20
133.500229
 11
275.699982
 21
140.500229
  0
LINE
  8
0
 10
275.699982
 20
133.500229
 11
281.499969
 21
133.500229
  0
LINE
  8
0
 10
258.300018
 20
78.500229
 11
252.500000
 21
78.500229
  0
LINE
  8
0
 10
258.299988
 20
78.500229
 11
258.299988
 21
71.500229
  0
LINE
  8
0
 10
258.300018
 20
71.500229
 11
252.500000
 21
71.500229
  0
LINE
  8
0
 10
252.500000
 20
78.500229
 11
252.500000
 21
71.500229
  0
LINE
  8
0
 10
255.221680
 20
92.250229
 11
253.778320
 21
92.250229
  0
LINE
  8
0
 10
255.221680
 20
89.750229
 11
253.778320
 21
89.750229
  0
LINE
  8
0
 10
255.221588
 20
89.749962
 11
255.943268
 21
90.999947
  0
LINE
  8
0
 10
253.056519
 20
90.999977
 11
253.778198
 21
92.249962
  0
LINE
  8
0
 10
253.777832
 20
89.750351
 11
253.056152
 21
91.000336
  0
LINE
  8
0
 10
255.942902
 20
91.000336
 11
255.221222
 21
92.250320
  0
LINE
  8
0
 10
280.221680
 20
89.750229
 11
278.778320
 21
89.750229
  0
LINE
  8
0
 10
280.221375
 20
89.750069
 11
280.943054
 21
91.000061
  0
LINE
  8
0
 10
278.056335
 20
91.000069
 11
278.778015
 21
92.250053
  0
LINE
  8
0
 10
278.777618
 20
89.750175
 11
278.055939
 21
91.000168
  0
LINE
  8
0
 10
280.942688
 20
91.000183
 11
280.221008
 21
92.250175
  0
LINE
  8
0
 10
280.221680
 20
92.250229
 11
278.778320
 21
92.250229
  0
LINE
  8
0
 10
280.221680
 20
119.750229
 11
278.778320
 21
119.750229
  0
LINE
  8
0
 10
280.221497
 20
119.750275
 11
280.943176
 21
121.000259
  0
LINE
  8
0
 10
278.056427
 20
121.000259
 11
278.778107
 21
122.250244
  0
LINE
  8
0
 10
278.778198
 20
119.750183
 11
278.056519
 21
121.000168
  0
LINE
  8
0
 10
280.943298
 20
121.000183
 11
280.221619
 21
122.250168
  0
LINE
  8
0
 10
280.221680
 20
122.250229
 11
278.778320
 21
122.250229
  0
LINE
  8
0
 10
255.221680
 20
119.750229
 11
253.778320
 21
119.750229
  0
LINE
  8
0
 10
255.221680
 20
119.750145
 11
255.943359
 21
121.000130
  0
LINE
  8
0
 10
253.056641
 20
121.000145
 11
253.778320
 21
122.250130
  0
LINE
  8
0
 10
253.777985
 20
119.750076
 11
253.056305
 21
121.000061
  0
LINE
  8
0
 10
255.943054
 20
121.000076
 11
255.221375
 21
122.250061
  0
LINE
  8
0
 10
255.221680
 20
122.250229
 11
253.778320
 21
122.250229
  0
LINE
  8
0
 10
264.850006
 20
186.699936
 11
269.149994
 21
186.699936
  0
LINE
  8
0
 10
264.850006
 20
186.000229
 11
264.850006
 21
186.699936
  0
LINE
  8
0
 10
269.149994
 20
186.000229
 11
269.149994
 21
186.699936
  0
LINE
  8
0
 10
283.000000
 20
65.000229
 11
283.000000
 21
183.000229
  0
LINE
  8
0
 10
251.000031
 20
183.000244
 11
251.000000
 21
65.000229
  0
CIRCLE
  8
0
 10
279.500000
 20
121.000229
 40
2.500000
  0
CIRCLE
  8
0
 10
254.500000
 20
121.000229
 40
2.500000
  0
ARC
  8
0
 10
280.000000
 20
65.000229
 40
2.999996
 50
270.000000
 51
0.000000
  0
ARC
  8
0
 10
254.000000
 20
65.000229
 40
3.000000
 50
180.000000
 51
270.000000
  0
ARC
  8
0
 10
254.000031
 20
183.000229
 40
3.000000
 50
90.000000
 51
180.000000
  0
ARC
  8
0
 10
280.000031
 20
183.000229
 40
3.000000
 50
0.000000
 51
90.000000
  0
ARC
  8
0
 10
263.000031
 20
135.000229
 40
2.000000
 50
90.000000
 51
180.000000
  0
ARC
  8
0
 10
271.000031
 20
135.000229
 40
2.000000
 50
0.000000
 51
90.000000
  0
ARC
  8
0
 10
271.000000
 20
77.000229
 40
2.000000
 50
270.000000
 51
0.000000
  0
ARC
  8
0
 10
263.000000
 20
77.000229
 40
2.000000
 50
179.999786
 51
270.000000
  0
ARC
  8
0
 10
263.000031
 20
135.000229
 40
1.000000
 50
90.000000
 51
180.000000
  0
ARC
  8
0
 10
271.000031
 20
135.000229
 40
1.000000
 50
0.000000
 51
90.000000
  0
ARC
  8
0
 10
271.000000
 20
77.000229
 40
1.000000
 50
270.000000
 51
0.000000
  0
ARC
  8
0
 10
263.000000
 20
77.000229
 40
1.000000
 50
180.000000
 51
270.000000
  0
CIRCLE
  8
0
 10
254.500000
 20
91.000229
 40
2.500000
  0
ARC
  8
0
 10
254.500000
 20
91.000229
 40
3.000000
 50
270.000000
 51
90.000000
  0
ARC
  8
0
 10
279.500000
 20
91.000229
 40
3.000000
 50
90.000000
 51
270.000000
  0
CIRCLE
  8
0
 10
254.500000
 20
91.000229
 40
2.500000
  0
ARC
  8
0
 10
254.500000
 20
121.000229
 40
3.000000
 50
270.000000
 51
90.000000
  0
CIRCLE
  8
0
 10
254.500000
 20
121.000229
 40
2.500000
  0
ARC
  8
0
 10
279.500000
 20
121.000229
 40
3.000000
 50
90.000000
 51
270.000000
  0
CIRCLE
  8
0
 10
279.500000
 20
121.000229
 40
2.500000
  0
CIRCLE
  8
0
 10
279.500000
 20
91.000229
 40
2.500000
  0
TEXT
  8
0
 10
257.207001
 20
76.880226
 40
3.200000
  1
B
 50
180.000000
 41
1.052632
 51
0.000000
  7
STANDARD
  0
TEXT
  8
0
 10
276.792969
 20
135.120224
 40
3.200000
  1
A
 50
0.000000
 41
1.052632
 51
0.000000
  7
STANDARD
  0
POINT
  8
0
 10
-10.000000
 20
-209.999969
  0
POINT
  8
0
 10
315.000000
 20
-209.999969
  0
LINE
  8
0
 10
118.999817
 20
-147.999878
 11
118.999817
 21
-169.749878
  0
LINE
  8
0
 10
304.000000
 20
-147.999878
 11
284.000000
 21
-147.999878
  0
LINE
  8
0
 10
284.000000
 20
-147.999878
 11
284.000000
 21
-169.749878
  0
LINE
  8
0
 10
307.000000
 20
-150.999878
 11
307.000000
 21
-196.999969
  0
LINE
  8
0
 10
321.000000
 20
-209.999969
 11
284.000000
 21
-209.999969
  0
LINE
  8
0
 10
320.000000
 20
-197.999969
 11
304.000000
 21
-197.999969
  0
LINE
  8
0
 10
321.000000
 20
-198.999969
 11
321.000000
 21
-209.999969
  0
LINE
  8
0
 10
1.000000
 20
-147.999878
 11
21.000000
 21
-147.999878
  0
LINE
  8
0
 10
85.999817
 20
-142.399872
 11
85.999817
 21
-147.999878
  0
LINE
  8
0
 10
-2.000000
 20
-150.999878
 11
-2.000000
 21
-196.999969
  0
LINE
  8
0
 10
76.409180
 20
-176.999878
 11
96.571106
 21
-176.999878
  0
LINE
  8
0
 10
-15.000000
 20
-197.999969
 11
1.000000
 21
-197.999969
  0
LINE
  8
0
 10
-16.000000
 20
-198.999969
 11
-16.000000
 21
-209.999969
  0
LINE
  8
0
 10
-16.000000
 20
-209.999969
 11
21.000000
 21
-209.999969
  0
LINE
  8
0
 10
4.000000
 20
-162.699890
 11
18.000000
 21
-162.699890
  0
LINE
  8
0
 10
4.000000
 20
-157.299896
 11
18.000000
 21
-157.299896
  0
LINE
  8
0
 10
4.000000
 20
-191.300018
 11
18.000000
 21
-191.300018
  0
LINE
  8
0
 10
4.000000
 20
-196.699921
 11
18.000000
 21
-196.699921
  0
LINE
  8
0
 10
19.000000
 20
-158.299896
 11
19.000000
 21
-161.699890
  0
LINE
  8
0
 10
3.000000
 20
-158.299896
 11
3.000000
 21
-161.699890
  0
LINE
  8
0
 10
3.000000
 20
-192.300018
 11
3.000000
 21
-195.699921
  0
LINE
  8
0
 10
19.000000
 20
-192.300018
 11
19.000000
 21
-195.699921
  0
LINE
  8
0
 10
9.000000
 20
-191.999664
 11
16.999886
 21
-193.999634
  0
LINE
  8
0
 10
17.000013
 20
-193.999725
 11
8.999474
 21
-195.999847
  0
LINE
  8
0
 10
9.000000
 20
-195.999969
 11
9.000000
 21
-191.999969
  0
LINE
  8
0
 10
16.999876
 20
-159.999680
 11
8.999990
 21
-161.999649
  0
LINE
  8
0
 10
9.000000
 20
-161.999878
 11
9.000000
 21
-157.999878
  0
LINE
  8
0
 10
8.999647
 20
-157.999573
 11
17.000006
 21
-159.999664
  0
LINE
  8
0
 10
112.000000
 20
-138.399872
 11
117.000000
 21
-138.399872
  0
LINE
  8
0
 10
114.500000
 20
-137.637329
 11
114.500000
 21
-143.281158
  0
LINE
  8
0
 10
117.000000
 20
-138.399872
 11
117.000000
 21
-142.399872
  0
LINE
  8
0
 10
112.000000
 20
-138.399872
 11
112.000000
 21
-142.399872
  0
LINE
  8
0
 10
85.999908
 20
-146.399872
 11
118.000000
 21
-146.399872
  0
LINE
  8
0
 10
118.000000
 20
-142.399872
 11
118.000000
 21
-147.999878
  0
LINE
  8
0
 10
118.999817
 20
-184.249969
 11
118.999817
 21
-207.999969
  0
LINE
  8
0
 10
284.000000
 20
-184.249969
 11
284.000000
 21
-209.999969
  0
LINE
  8
0
 10
85.999954
 20
-175.267776
 11
87.499855
 21
-176.133743
  0
LINE
  8
0
 10
84.499825
 20
-176.133881
 11
85.999802
 21
-175.267868
  0
LINE
  8
0
 10
84.499969
 20
-177.865829
 11
85.999870
 21
-178.731796
  0
LINE
  8
0
 10
85.999817
 20
-178.731964
 11
87.499794
 21
-177.865967
  0
LINE
  8
0
 10
87.499817
 20
-176.133850
 11
87.499817
 21
-177.865906
  0
LINE
  8
0
 10
84.499817
 20
-176.133850
 11
84.499817
 21
-177.865906
  0
LINE
  8
0
 10
291.250000
 20
-169.749878
 11
291.250000
 21
-184.249969
  0
LINE
  8
0
 10
78.000000
 20
-172.499878
 11
93.999817
 21
-172.499878
  0
LINE
  8
0
 10
78.000000
 20
-181.499969
 11
93.999817
 21
-181.499969
  0
LINE
  8
0
 10
292.000000
 20
-169.499878
 11
292.000000
 21
-184.499969
  0
LINE
  8
0
 10
13.000000
 20
-169.499878
 11
21.000000
 21
-169.499878
  0
LINE
  8
0
 10
13.000000
 20
-169.499878
 11
13.000000
 21
-184.499969
  0
LINE
  8
0
 10
13.000000
 20
-184.499969
 11
21.000000
 21
-184.499969
  0
LINE
  8
0
 10
126.999817
 20
-169.499878
 11
126.999817
 21
-184.499969
  0
LINE
  8
0
 10
102.999817
 20
-137.540436
 11
102.999817
 21
-212.842499
  0
LINE
  8
0
 10
21.000000
 20
-172.999878
 11
21.000000
 21
-180.999969
  0
LINE
  8
0
 10
-10.000000
 20
-195.895721
 11
-10.000000
 21
-212.424774
  0
LINE
  8
0
 10
315.000000
 20
-195.652802
 11
315.000000
 21
-212.667938
  0
LINE
  8
0
 10
167.999817
 20
-85.142548
 11
167.999817
 21
-215.152557
  0
LINE
  8
0
 10
85.999908
 20
-142.399872
 11
118.000000
 21
-142.399872
  0
LINE
  8
0
 10
86.999908
 20
-138.399872
 11
91.999908
 21
-138.399872
  0
LINE
  8
0
 10
89.499908
 20
-137.637329
 11
89.499908
 21
-143.281158
  0
LINE
  8
0
 10
91.999908
 20
-138.399872
 11
91.999908
 21
-142.399872
  0
LINE
  8
0
 10
86.999908
 20
-138.399872
 11
86.999908
 21
-142.399872
  0
LINE
  8
0
 10
21.000000
 20
-143.999878
 11
21.000000
 21
-169.499878
  0
LINE
  8
0
 10
21.000000
 20
-184.499969
 11
21.000000
 21
-209.999969
  0
LINE
  8
0
 10
11.409180
 20
-176.999878
 11
31.571289
 21
-176.999878
  0
LINE
  8
0
 10
21.000082
 20
-175.267853
 11
22.499981
 21
-176.133820
  0
LINE
  8
0
 10
19.499828
 20
-176.133865
 11
20.999805
 21
-175.267853
  0
LINE
  8
0
 10
19.500097
 20
-177.865906
 11
20.999996
 21
-178.731873
  0
LINE
  8
0
 10
20.999825
 20
-178.731964
 11
22.499802
 21
-177.865936
  0
LINE
  8
0
 10
22.500000
 20
-176.133850
 11
22.500000
 21
-177.865906
  0
LINE
  8
0
 10
19.500000
 20
-176.133850
 11
19.500000
 21
-177.865906
  0
LINE
  8
0
 10
13.000000
 20
-172.499878
 11
29.000000
 21
-172.499878
  0
LINE
  8
0
 10
13.000000
 20
-181.499969
 11
29.000000
 21
-181.499969
  0
LINE
  8
0
 10
86.000000
 20
-172.999878
 11
86.000000
 21
-180.999969
  0
LINE
  8
0
 10
78.000000
 20
-169.499878
 11
93.999634
 21
-169.499878
  0
LINE
  8
0
 10
78.000000
 20
-169.499878
 11
78.000000
 21
-184.499969
  0
LINE
  8
0
 10
78.000000
 20
-184.499969
 11
93.999634
 21
-184.499969
  0
LINE
  8
0
 10
29.000000
 20
-169.499878
 11
21.000000
 21
-169.499878
  0
LINE
  8
0
 10
29.000000
 20
-169.499878
 11
29.000000
 21
-184.499969
  0
LINE
  8
0
 10
29.000000
 20
-184.499969
 11
21.000000
 21
-184.499969
  0
LINE
  8
0
 10
85.999817
 20
-207.999969
 11
21.000000
 21
-207.999969
  0
LINE
  8
0
 10
85.999817
 20
-143.999878
 11
85.500000
 21
-143.999878
  0
LINE
  8
0
 10
85.500000
 20
-125.999878
 11
21.500000
 21
-125.999878
  0
LINE
  8
0
 10
85.500000
 20
-125.999878
 11
85.500000
 21
-143.999878
  0
LINE
  8
0
 10
21.500000
 20
-125.999878
 11
21.500000
 21
-143.999878
  0
LINE
  8
0
 10
21.500000
 20
-143.999878
 11
21.000000
 21
-143.999878
  0
LINE
  8
0
 10
200.999908
 20
-82.485718
 11
200.999908
 21
-215.152557
  0
LINE
  8
0
 10
-18.778320
 20
-177.499878
 11
2.977051
 21
-177.499878
  0
LINE
  8
0
 10
-5.000000
 20
-156.499878
 11
-5.000000
 21
-197.999969
  0
LINE
  8
0
 10
-11.000000
 20
-159.499878
 11
-11.000000
 21
-195.499969
  0
LINE
  8
0
 10
-8.000000
 20
-156.499878
 11
-5.000000
 21
-156.499878
  0
LINE
  8
0
 10
-3.500000
 20
-154.999878
 11
-2.000000
 21
-154.999878
  0
LINE
  8
0
 10
-11.000000
 20
-160.686249
 11
-5.000000
 21
-160.686249
  0
LINE
  8
0
 10
-11.000000
 20
-164.999878
 11
-5.000000
 21
-164.999878
  0
LINE
  8
0
 10
-11.000000
 20
-174.507538
 11
-5.000000
 21
-174.507538
  0
LINE
  8
0
 10
-11.000000
 20
-194.313446
 11
-5.000000
 21
-194.313446
  0
LINE
  8
0
 10
-11.000000
 20
-189.999969
 11
-5.000000
 21
-189.999969
  0
LINE
  8
0
 10
-11.000000
 20
-180.492157
 11
-5.000000
 21
-180.492157
  0
LINE
  8
0
 10
323.778320
 20
-177.499878
 11
302.022949
 21
-177.499878
  0
LINE
  8
0
 10
310.000000
 20
-156.499878
 11
310.000000
 21
-197.999969
  0
LINE
  8
0
 10
316.000000
 20
-159.499878
 11
316.000000
 21
-195.499969
  0
LINE
  8
0
 10
313.000000
 20
-156.499878
 11
310.000000
 21
-156.499878
  0
LINE
  8
0
 10
308.500000
 20
-154.999878
 11
307.000000
 21
-154.999878
  0
LINE
  8
0
 10
316.000000
 20
-160.686249
 11
310.000000
 21
-160.686249
  0
LINE
  8
0
 10
316.000000
 20
-164.999878
 11
310.000000
 21
-164.999878
  0
LINE
  8
0
 10
316.000000
 20
-174.507538
 11
310.000000
 21
-174.507538
  0
LINE
  8
0
 10
316.000000
 20
-194.313446
 11
310.000000
 21
-194.313446
  0
LINE
  8
0
 10
316.000000
 20
-189.999969
 11
310.000000
 21
-189.999969
  0
LINE
  8
0
 10
316.000000
 20
-180.492157
 11
310.000000
 21
-180.492157
  0
LINE
  8
0
 10
21.500000
 20
-143.999878
 11
85.500000
 21
-143.999878
  0
LINE
  8
0
 10
37.500000
 20
-158.999878
 11
69.500000
 21
-158.999878
  0
LINE
  8
0
 10
37.500000
 20
-128.999878
 11
69.500000
 21
-128.999878
  0
LINE
  8
0
 10
69.500000
 20
-159.999878
 11
69.500000
 21
-127.999878
  0
LINE
  8
0
 10
37.500000
 20
-159.999878
 11
37.500000
 21
-127.999878
  0
LINE
  8
0
 10
21.500000
 20
-123.999878
 11
85.500000
 21
-123.999878
  0
LINE
  8
0
 10
21.500000
 20
-125.999878
 11
21.500000
 21
-123.999878
  0
LINE
  8
0
 10
85.500000
 20
-125.999878
 11
85.500000
 21
-123.999878
  0
LINE
  8
0
 10
32.795898
 20
-51.499878
 11
84.204102
 21
-51.499878
  0
LINE
  8
0
 10
32.754395
 20
-54.499878
 11
42.200195
 21
-54.499878
  0
LINE
  8
0
 10
74.799805
 20
-54.499878
 11
84.245483
 21
-54.499878
  0
LINE
  8
0
 10
37.500000
 20
-50.499878
 11
37.500000
 21
-55.499878
  0
LINE
  8
0
 10
79.500000
 20
-50.499878
 11
79.500000
 21
-55.499878
  0
LINE
  8
0
 10
41.649902
 20
-52.799866
 11
33.350098
 21
-52.799866
  0
LINE
  8
0
 10
41.649902
 20
-52.799866
 11
41.649902
 21
-54.499878
  0
LINE
  8
0
 10
33.350098
 20
-52.799866
 11
33.350098
 21
-54.499878
  0
LINE
  8
0
 10
83.649994
 20
-52.799866
 11
75.350098
 21
-52.799866
  0
LINE
  8
0
 10
83.649994
 20
-52.799866
 11
83.649994
 21
-54.499878
  0
LINE
  8
0
 10
75.350098
 20
-52.799866
 11
75.350098
 21
-54.499878
  0
LINE
  8
0
 10
31.499908
 20
-123.999908
 11
32.495827
 21
-51.795776
  0
LINE
  8
0
 10
84.504074
 20
-51.795792
 11
85.500000
 21
-123.999916
  0
LINE
  8
0
 10
42.500000
 20
-51.799866
 11
42.500000
 21
-54.199860
  0
LINE
  8
0
 10
74.500000
 20
-51.799866
 11
74.500000
 21
-54.199860
  0
LINE
  8
0
 10
67.830154
 20
-131.107635
 11
59.169922
 21
-136.107620
  0
LINE
  8
0
 10
79.830170
 20
-151.892273
 11
71.169945
 21
-156.892258
  0
LINE
  8
0
 10
57.500000
 20
-148.999878
 11
57.500000
 21
-138.999878
  0
LINE
  8
0
 10
81.500000
 20
-148.999878
 11
81.500000
 21
-138.999878
  0
LINE
  8
0
 10
67.830132
 20
-156.892197
 11
59.169884
 21
-151.892197
  0
LINE
  8
0
 10
79.830132
 20
-136.107605
 11
71.169876
 21
-131.107605
  0
LINE
  8
0
 10
35.830029
 20
-131.107391
 11
27.169773
 21
-136.107391
  0
LINE
  8
0
 10
47.830151
 20
-151.892212
 11
39.169899
 21
-156.892212
  0
LINE
  8
0
 10
25.500000
 20
-148.999878
 11
25.500000
 21
-138.999878
  0
LINE
  8
0
 10
49.500000
 20
-148.999878
 11
49.500000
 21
-138.999878
  0
LINE
  8
0
 10
35.830063
 20
-156.892166
 11
27.169807
 21
-151.892166
  0
LINE
  8
0
 10
47.830067
 20
-136.107544
 11
39.169815
 21
-131.107544
  0
LINE
  8
0
 10
30.649902
 20
-123.624359
 11
30.649902
 21
-123.999878
  0
LINE
  8
0
 10
24.350098
 20
-123.624359
 11
24.350098
 21
-123.999878
  0
LINE
  8
0
 10
24.350098
 20
-123.624359
 11
30.649902
 21
-123.624359
  0
LINE
  8
0
 10
15.700653
 20
-145.163605
 11
15.700653
 21
-146.802429
  0
LINE
  8
0
 10
15.700653
 20
-146.802429
 11
16.299377
 21
-146.802429
  0
LINE
  8
0
 10
16.299377
 20
-145.163605
 11
16.299377
 21
-146.802429
  0
LINE
  8
0
 10
11.285034
 20
-147.550842
 11
20.714966
 21
-147.550842
  0
LINE
  8
0
 10
20.714966
 20
-147.550842
 11
20.714966
 21
-147.999878
  0
LINE
  8
0
 10
11.285034
 20
-147.550842
 11
11.285034
 21
-147.999878
  0
LINE
  8
0
 10
16.000000
 20
-142.935333
 11
16.000000
 21
-151.008606
  0
LINE
  8
0
 10
288.700653
 20
-145.163605
 11
288.700653
 21
-146.802429
  0
LINE
  8
0
 10
288.700653
 20
-146.802429
 11
289.299377
 21
-146.802429
  0
LINE
  8
0
 10
289.299377
 20
-145.163605
 11
289.299377
 21
-146.802429
  0
LINE
  8
0
 10
284.285034
 20
-147.550842
 11
293.714966
 21
-147.550842
  0
LINE
  8
0
 10
293.714966
 20
-147.550842
 11
293.714966
 21
-147.999878
  0
LINE
  8
0
 10
284.285034
 20
-147.550842
 11
284.285034
 21
-147.999878
  0
LINE
  8
0
 10
289.000000
 20
-142.935333
 11
289.000000
 21
-151.008606
  0
LINE
  8
0
 10
27.500000
 20
-120.180634
 11
27.500000
 21
-125.476227
  0
LINE
  8
0
 10
134.999817
 20
-85.142548
 11
134.999817
 21
-215.152557
  0
ARC
  8
0
 10
304.000000
 20
-150.999878
 40
3.000000
 50
0.000000
 51
90.000000
  0
ARC
  8
0
 10
320.000000
 20
-198.999969
 40
1.000000
 50
0.000000
 51
90.000000
  0
ARC
  8
0
 10
308.000000
 20
-196.999969
 40
1.000000
 50
180.000000
 51
270.000000
  0
ARC
  8
0
 10
1.000000
 20
-150.999878
 40
3.000000
 50
89.999985
 51
180.000000
  0
ARC
  8
0
 10
-15.000000
 20
-198.999969
 40
1.000000
 50
90.000000
 51
180.000000
  0
ARC
  8
0
 10
-3.000000
 20
-196.999969
 40
1.000000
 50
270.000031
 51
0.000000
  0
ARC
  8
0
 10
4.000000
 20
-158.299896
 40
1.000000
 50
90.000000
 51
180.000000
  0
ARC
  8
0
 10
4.000000
 20
-161.699890
 40
1.000000
 50
180.000000
 51
270.000000
  0
ARC
  8
0
 10
18.000000
 20
-161.699890
 40
1.000000
 50
270.000000
 51
0.000000
  0
ARC
  8
0
 10
18.000000
 20
-158.299896
 40
1.000000
 50
0.000000
 51
90.000000
  0
ARC
  8
0
 10
4.000000
 20
-192.300018
 40
1.000000
 50
90.000000
 51
180.000000
  0
ARC
  8
0
 10
4.000000
 20
-195.699921
 40
1.000000
 50
180.000000
 51
270.000000
  0
ARC
  8
0
 10
18.000000
 20
-195.699921
 40
1.000000
 50
270.000000
 51
0.000000
  0
ARC
  8
0
 10
18.000000
 20
-192.300018
 40
1.000000
 50
0.000000
 51
90.000000
  0
CIRCLE
  8
0
 10
85.999817
 20
-176.999878
 40
3.500000
  0
CIRCLE
  8
0
 10
21.000000
 20
-176.999878
 40
3.500000
  0
ARC
  8
0
 10
-3.500000
 20
-156.499878
 40
1.500000
 50
89.999985
 51
180.000000
  0
ARC
  8
0
 10
-8.000000
 20
-195.499969
 40
3.000000
 50
180.000000
 51
236.442703
  0
ARC
  8
0
 10
-8.000000
 20
-159.499878
 40
3.000000
 50
89.999985
 51
180.000000
  0
ARC
  8
0
 10
308.500000
 20
-156.499878
 40
1.500000
 50
0.000000
 51
90.000000
  0
ARC
  8
0
 10
313.000000
 20
-195.499969
 40
3.000007
 50
303.557526
 51
0.000000
  0
ARC
  8
0
 10
313.000000
 20
-159.499878
 40
3.000000
 50
0.000000
 51
90.000000
  0
ARC
  8
0
 10
37.500000
 20
-143.999878
 40
15.000000
 50
89.999924
 51
269.999939
  0
ARC
  8
0
 10
69.500000
 20
-143.999878
 40
15.000000
 50
269.999969
 51
89.999939
  0
ARC
  8
0
 10
37.500000
 20
-61.917938
 40
10.018056
 50
65.527794
 51
114.472191
  0
ARC
  8
0
 10
79.500000
 20
-61.917938
 40
10.018058
 50
65.527771
 51
114.472191
  0
ARC
  8
0
 10
32.795898
 20
-51.799866
 40
0.300003
 50
90.000000
 51
179.210220
  0
ARC
  8
0
 10
84.204102
 20
-51.799866
 40
0.300001
 50
0.789774
 51
90.000000
  0
ARC
  8
0
 10
84.245483
 20
-54.799866
 40
0.300001
 50
0.789774
 51
90.000000
  0
ARC
  8
0
 10
32.754395
 20
-54.799866
 40
0.300003
 50
90.000000
 51
179.210220
  0
ARC
  8
0
 10
42.200195
 20
-54.199860
 40
0.300003
 50
270.000000
 51
0.000000
  0
ARC
  8
0
 10
42.799805
 20
-51.799866
 40
0.300003
 50
90.000000
 51
180.000000
  0
ARC
  8
0
 10
74.799805
 20
-54.199860
 40
0.300003
 50
180.000000
 51
270.000000
  0
ARC
  8
0
 10
74.200195
 20
-51.799866
 40
0.300003
 50
0.000000
 51
90.000000
  0
CIRCLE
  8
0
 10
69.500000
 20
-143.999878
 40
13.000000
  0
CIRCLE
  8
0
 10
69.500000
 20
-143.999878
 40
6.500000
  0
CIRCLE
  8
0
 10
69.500000
 20
-143.999878
 40
7.500000
  0
CIRCLE
  8
0
 10
37.500000
 20
-143.999878
 40
13.000000
  0
CIRCLE
  8
0
 10
37.500000
 20
-143.999878
 40
6.500000
  0
CIRCLE
  8
0
 10
37.500000
 20
-143.999878
 40
7.500000
  0
ARC
  8
0
 10
27.500000
 20
-126.699860
 40
4.600003
 50
50.484497
 51
129.515503
  0
ARC
  8
0
 10
30.036621
 20
-123.624359
 40
0.613335
 50
0.000000
 51
50.484707
  0
ARC
  8
0
 10
24.963379
 20
-123.624359
 40
0.613334
 50
129.515289
 51
180.000000
  0
ARC
  8
0
 10
16.000000
 20
-150.994659
 40
5.838732
 50
36.144615
 51
143.855377
  0
ARC
  8
0
 10
289.000000
 20
-150.994659
 40
5.838740
 50
36.144562
 51
143.855438
  0
TEXT
  8
0
 10
5.221500
 20
-160.439880
 40
1.599999
  1
A
 50
0.000000
 41
1.052632
 51
0.000000
  7
STANDARD
  0
TEXT
  8
0
 10
5.221500
 20
-194.439972
 40
1.599999
  1
B
 50
0.000000
 41
1.052632
 51
0.000000
  7
STANDARD
  0
POINT
  8
0
 10
118.999817
 20
-147.999878
  0
LINE
  8
0
 10
122.499817
 20
-138.399872
 11
122.499817
 21
-147.399872
  0
LINE
  8
0
 10
120.499817
 20
-91.399872
 11
149.499817
 21
-91.399872
  0
LINE
  8
0
 10
118.999817
 20
-146.399872
 11
150.999817
 21
-146.399872
  0
LINE
  8
0
 10
118.999817
 20
-101.399872
 11
150.999817
 21
-101.399872
  0
LINE
  8
0
 10
118.999817
 20
-131.399872
 11
150.999817
 21
-131.399872
  0
LINE
  8
0
 10
150.999817
 20
-92.899872
 11
150.999817
 21
-147.999878
  0
LINE
  8
0
 10
118.999817
 20
-92.899872
 11
118.999817
 21
-147.999878
  0
LINE
  8
0
 10
118.999817
 20
-139.899872
 11
122.499817
 21
-139.899872
  0
LINE
  8
0
 10
125.499817
 20
-142.899872
 11
125.499817
 21
-146.399872
  0
LINE
  8
0
 10
117.999817
 20
-142.899872
 11
126.999817
 21
-142.899872
  0
LINE
  8
0
 10
131.499817
 20
-135.499878
 11
138.499817
 21
-135.499878
  0
LINE
  8
0
 10
147.499817
 20
-138.399872
 11
147.499817
 21
-147.399872
  0
LINE
  8
0
 10
150.999817
 20
-139.899872
 11
147.499817
 21
-139.899872
  0
LINE
  8
0
 10
144.499817
 20
-142.899872
 11
144.499817
 21
-146.399872
  0
LINE
  8
0
 10
118.999817
 20
-102.799866
 11
150.999817
 21
-102.799866
  0
LINE
  8
0
 10
118.999817
 20
-104.799866
 11
150.999817
 21
-104.799866
  0
LINE
  8
0
 10
118.999817
 20
-106.399872
 11
134.999817
 21
-106.399872
  0
LINE
  8
0
 10
118.999817
 20
-108.399872
 11
134.999817
 21
-108.399872
  0
LINE
  8
0
 10
118.999817
 20
-109.999878
 11
150.999817
 21
-109.999878
  0
LINE
  8
0
 10
118.999817
 20
-111.999878
 11
150.999817
 21
-111.999878
  0
LINE
  8
0
 10
118.999817
 20
-113.599884
 11
150.999817
 21
-113.599884
  0
LINE
  8
0
 10
118.999817
 20
-115.599884
 11
150.999817
 21
-115.599884
  0
LINE
  8
0
 10
118.999817
 20
-117.199860
 11
150.999817
 21
-117.199860
  0
LINE
  8
0
 10
118.999817
 20
-119.199860
 11
150.999817
 21
-119.199860
  0
LINE
  8
0
 10
118.999817
 20
-120.799866
 11
150.999817
 21
-120.799866
  0
LINE
  8
0
 10
118.999817
 20
-122.799866
 11
150.999817
 21
-122.799866
  0
LINE
  8
0
 10
118.999817
 20
-124.399872
 11
150.999817
 21
-124.399872
  0
LINE
  8
0
 10
118.999817
 20
-126.399872
 11
150.999817
 21
-126.399872
  0
LINE
  8
0
 10
118.999817
 20
-127.999878
 11
150.999817
 21
-127.999878
  0
LINE
  8
0
 10
118.999817
 20
-129.999878
 11
150.999817
 21
-129.999878
  0
LINE
  8
0
 10
147.999817
 20
-106.399872
 11
147.999817
 21
-108.399872
  0
LINE
  8
0
 10
147.999817
 20
-106.399872
 11
150.999817
 21
-106.399872
  0
LINE
  8
0
 10
147.999817
 20
-108.399872
 11
150.999817
 21
-108.399872
  0
LINE
  8
0
 10
134.999817
 20
-106.399872
 11
134.999817
 21
-108.399872
  0
LINE
  8
0
 10
124.489777
 20
-142.699890
 11
122.699799
 21
-142.699890
  0
LINE
  8
0
 10
124.489777
 20
-143.099884
 11
122.699799
 21
-143.099884
  0
LINE
  8
0
 10
122.699799
 20
-140.909912
 11
122.699799
 21
-142.699890
  0
LINE
  8
0
 10
122.299805
 20
-140.909912
 11
122.299805
 21
-142.699890
  0
LINE
  8
0
 10
122.299805
 20
-142.699890
 11
120.509827
 21
-142.699890
  0
LINE
  8
0
 10
122.299805
 20
-143.099884
 11
122.299805
 21
-144.889862
  0
LINE
  8
0
 10
122.699799
 20
-143.099884
 11
122.699799
 21
-144.889862
  0
LINE
  8
0
 10
122.299805
 20
-143.099884
 11
120.509827
 21
-143.099884
  0
LINE
  8
0
 10
151.999817
 20
-142.899872
 11
142.999817
 21
-142.899872
  0
LINE
  8
0
 10
149.489807
 20
-142.699890
 11
147.699829
 21
-142.699890
  0
LINE
  8
0
 10
149.489807
 20
-143.099884
 11
147.699829
 21
-143.099884
  0
LINE
  8
0
 10
147.699829
 20
-140.909912
 11
147.699829
 21
-142.699890
  0
LINE
  8
0
 10
147.299805
 20
-140.909912
 11
147.299805
 21
-142.699890
  0
LINE
  8
0
 10
147.299805
 20
-142.699890
 11
145.509827
 21
-142.699890
  0
LINE
  8
0
 10
147.299805
 20
-143.099884
 11
147.299805
 21
-144.889862
  0
LINE
  8
0
 10
147.699829
 20
-143.099884
 11
147.699829
 21
-144.889862
  0
LINE
  8
0
 10
147.299805
 20
-143.099884
 11
145.509827
 21
-143.099884
  0
ARC
  8
0
 10
149.499817
 20
-92.899872
 40
1.500000
 50
0.000000
 51
90.000000
  0
ARC
  8
0
 10
120.499817
 20
-92.899872
 40
1.500000
 50
90.000000
 51
180.000000
  0
CIRCLE
  8
0
 10
122.499817
 20
-142.899872
 40
2.500000
  0
ARC
  8
0
 10
122.499817
 20
-142.899872
 40
3.000000
 50
0.000000
 51
90.000000
  0
CIRCLE
  8
0
 10
134.999817
 20
-135.499878
 40
2.150000
  0
CIRCLE
  8
0
 10
134.999817
 20
-135.499878
 40
1.500000
  0
CIRCLE
  8
0
 10
147.499817
 20
-142.899872
 40
2.500000
  0
ARC
  8
0
 10
147.499817
 20
-142.899872
 40
3.000000
 50
90.000000
 51
180.000000
  0
ARC
  8
0
 10
147.499817
 20
-142.899872
 40
2.000000
 50
84.260918
 51
95.739082
  0
ARC
  8
0
 10
122.499817
 20
-142.899872
 40
2.000000
 50
174.260910
 51
185.739090
  0
ARC
  8
0
 10
122.499817
 20
-142.899872
 40
2.000000
 50
264.260925
 51
275.739075
  0
ARC
  8
0
 10
122.499817
 20
-142.899872
 40
2.000000
 50
354.260925
 51
5.739083
  0
ARC
  8
0
 10
147.499817
 20
-142.899872
 40
2.000000
 50
264.260925
 51
275.739075
  0
ARC
  8
0
 10
147.499817
 20
-142.899872
 40
2.000000
 50
174.260910
 51
185.739090
  0
ARC
  8
0
 10
147.499817
 20
-142.899872
 40
2.000000
 50
354.260925
 51
5.739083
  0
TEXT
  8
0
 10
138.974915
 20
-107.839874
 40
1.599999
  1
DC24V
 50
0.000000
 41
0.690779
 51
0.000000
  7
STANDARD
  0
POINT
  8
0
 10
151.999817
 20
-147.999878
  0
LINE
  8
0
 10
155.499817
 20
-138.399872
 11
155.499817
 21
-147.399872
  0
LINE
  8
0
 10
153.499817
 20
-91.399872
 11
182.499817
 21
-91.399872
  0
LINE
  8
0
 10
151.999817
 20
-146.399872
 11
183.999817
 21
-146.399872
  0
LINE
  8
0
 10
151.999817
 20
-101.399872
 11
183.999817
 21
-101.399872
  0
LINE
  8
0
 10
151.999817
 20
-131.399872
 11
183.999817
 21
-131.399872
  0
LINE
  8
0
 10
183.999817
 20
-92.899872
 11
183.999817
 21
-147.999878
  0
LINE
  8
0
 10
151.999817
 20
-92.899872
 11
151.999817
 21
-147.999878
  0
LINE
  8
0
 10
151.999817
 20
-139.899872
 11
155.499817
 21
-139.899872
  0
LINE
  8
0
 10
158.499817
 20
-142.899872
 11
158.499817
 21
-146.399872
  0
LINE
  8
0
 10
150.999817
 20
-142.899872
 11
159.999817
 21
-142.899872
  0
LINE
  8
0
 10
164.499817
 20
-135.499878
 11
171.499817
 21
-135.499878
  0
LINE
  8
0
 10
180.499817
 20
-138.399872
 11
180.499817
 21
-147.399872
  0
LINE
  8
0
 10
183.999817
 20
-139.899872
 11
180.499817
 21
-139.899872
  0
LINE
  8
0
 10
177.499817
 20
-142.899872
 11
177.499817
 21
-146.399872
  0
LINE
  8
0
 10
151.999817
 20
-102.799866
 11
183.999817
 21
-102.799866
  0
LINE
  8
0
 10
151.999817
 20
-104.799866
 11
183.999817
 21
-104.799866
  0
LINE
  8
0
 10
151.999817
 20
-106.399872
 11
167.999817
 21
-106.399872
  0
LINE
  8
0
 10
151.999817
 20
-108.399872
 11
167.999817
 21
-108.399872
  0
LINE
  8
0
 10
151.999817
 20
-109.999878
 11
183.999817
 21
-109.999878
  0
LINE
  8
0
 10
151.999817
 20
-111.999878
 11
183.999817
 21
-111.999878
  0
LINE
  8
0
 10
151.999817
 20
-113.599884
 11
183.999817
 21
-113.599884
  0
LINE
  8
0
 10
151.999817
 20
-115.599884
 11
183.999817
 21
-115.599884
  0
LINE
  8
0
 10
151.999817
 20
-117.199860
 11
183.999817
 21
-117.199860
  0
LINE
  8
0
 10
151.999817
 20
-119.199860
 11
183.999817
 21
-119.199860
  0
LINE
  8
0
 10
151.999817
 20
-120.799866
 11
183.999817
 21
-120.799866
  0
LINE
  8
0
 10
151.999817
 20
-122.799866
 11
183.999817
 21
-122.799866
  0
LINE
  8
0
 10
151.999817
 20
-124.399872
 11
183.999817
 21
-124.399872
  0
LINE
  8
0
 10
151.999817
 20
-126.399872
 11
183.999817
 21
-126.399872
  0
LINE
  8
0
 10
151.999817
 20
-127.999878
 11
183.999817
 21
-127.999878
  0
LINE
  8
0
 10
151.999817
 20
-129.999878
 11
183.999817
 21
-129.999878
  0
LINE
  8
0
 10
180.999817
 20
-106.399872
 11
180.999817
 21
-108.399872
  0
LINE
  8
0
 10
180.999817
 20
-106.399872
 11
183.999817
 21
-106.399872
  0
LINE
  8
0
 10
180.999817
 20
-108.399872
 11
183.999817
 21
-108.399872
  0
LINE
  8
0
 10
167.999817
 20
-106.399872
 11
167.999817
 21
-108.399872
  0
LINE
  8
0
 10
157.489777
 20
-142.699890
 11
155.699799
 21
-142.699890
  0
LINE
  8
0
 10
157.489777
 20
-143.099884
 11
155.699799
 21
-143.099884
  0
LINE
  8
0
 10
155.699799
 20
-140.909912
 11
155.699799
 21
-142.699890
  0
LINE
  8
0
 10
155.299805
 20
-140.909912
 11
155.299805
 21
-142.699890
  0
LINE
  8
0
 10
155.299805
 20
-142.699890
 11
153.509827
 21
-142.699890
  0
LINE
  8
0
 10
155.299805
 20
-143.099884
 11
155.299805
 21
-144.889862
  0
LINE
  8
0
 10
155.699799
 20
-143.099884
 11
155.699799
 21
-144.889862
  0
LINE
  8
0
 10
155.299805
 20
-143.099884
 11
153.509827
 21
-143.099884
  0
LINE
  8
0
 10
184.999817
 20
-142.899872
 11
175.999817
 21
-142.899872
  0
LINE
  8
0
 10
182.489807
 20
-142.699890
 11
180.699829
 21
-142.699890
  0
LINE
  8
0
 10
182.489807
 20
-143.099884
 11
180.699829
 21
-143.099884
  0
LINE
  8
0
 10
180.699829
 20
-140.909912
 11
180.699829
 21
-142.699890
  0
LINE
  8
0
 10
180.299805
 20
-140.909912
 11
180.299805
 21
-142.699890
  0
LINE
  8
0
 10
180.299805
 20
-142.699890
 11
178.509827
 21
-142.699890
  0
LINE
  8
0
 10
180.299805
 20
-143.099884
 11
180.299805
 21
-144.889862
  0
LINE
  8
0
 10
180.699829
 20
-143.099884
 11
180.699829
 21
-144.889862
  0
LINE
  8
0
 10
180.299805
 20
-143.099884
 11
178.509827
 21
-143.099884
  0
ARC
  8
0
 10
182.499817
 20
-92.899872
 40
1.500000
 50
0.000000
 51
90.000000
  0
ARC
  8
0
 10
153.499817
 20
-92.899872
 40
1.500000
 50
90.000000
 51
180.000000
  0
CIRCLE
  8
0
 10
155.499817
 20
-142.899872
 40
2.500000
  0
ARC
  8
0
 10
155.499817
 20
-142.899872
 40
3.000000
 50
0.000000
 51
90.000000
  0
CIRCLE
  8
0
 10
167.999817
 20
-135.499878
 40
2.150000
  0
CIRCLE
  8
0
 10
167.999817
 20
-135.499878
 40
1.500000
  0
CIRCLE
  8
0
 10
180.499817
 20
-142.899872
 40
2.500000
  0
ARC
  8
0
 10
180.499817
 20
-142.899872
 40
3.000000
 50
90.000000
 51
180.000000
  0
ARC
  8
0
 10
180.499817
 20
-142.899872
 40
2.000000
 50
84.260918
 51
95.739082
  0
ARC
  8
0
 10
155.499817
 20
-142.899872
 40
2.000000
 50
174.260910
 51
185.739090
  0
ARC
  8
0
 10
155.499817
 20
-142.899872
 40
2.000000
 50
264.260925
 51
275.739075
  0
ARC
  8
0
 10
155.499817
 20
-142.899872
 40
2.000000
 50
354.260925
 51
5.739083
  0
ARC
  8
0
 10
180.499817
 20
-142.899872
 40
2.000000
 50
264.260925
 51
275.739075
  0
ARC
  8
0
 10
180.499817
 20
-142.899872
 40
2.000000
 50
174.260910
 51
185.739090
  0
ARC
  8
0
 10
180.499817
 20
-142.899872
 40
2.000000
 50
354.260925
 51
5.739083
  0
TEXT
  8
0
 10
171.974915
 20
-107.839874
 40
1.599999
  1
DC24V
 50
0.000000
 41
0.690779
 51
0.000000
  7
STANDARD
  0
POINT
  8
0
 10
184.999908
 20
-147.999878
  0
LINE
  8
0
 10
212.499908
 20
-107.533844
 11
212.499908
 21
-109.265900
  0
LINE
  8
0
 10
210.999878
 20
-106.667480
 11
212.499771
 21
-107.533447
  0
LINE
  8
0
 10
209.499878
 20
-109.265549
 11
210.999771
 21
-110.131516
  0
LINE
  8
0
 10
210.999893
 20
-110.131798
 11
212.499786
 21
-109.265831
  0
LINE
  8
0
 10
209.499878
 20
-107.533737
 11
210.999786
 21
-106.667770
  0
LINE
  8
0
 10
209.499908
 20
-107.533844
 11
209.499908
 21
-109.265900
  0
LINE
  8
0
 10
186.499908
 20
-91.399872
 11
215.499908
 21
-91.399872
  0
LINE
  8
0
 10
184.999908
 20
-146.399872
 11
216.999908
 21
-146.399872
  0
LINE
  8
0
 10
216.999908
 20
-92.899872
 11
216.999908
 21
-147.999878
  0
LINE
  8
0
 10
184.999908
 20
-92.899872
 11
184.999908
 21
-147.999878
  0
LINE
  8
0
 10
189.999817
 20
-133.667694
 11
191.499695
 21
-134.533630
  0
LINE
  8
0
 10
188.499832
 20
-134.533936
 11
189.999832
 21
-133.667908
  0
LINE
  8
0
 10
188.499832
 20
-136.265701
 11
189.999710
 21
-137.131653
  0
LINE
  8
0
 10
189.999832
 20
-137.131989
 11
191.499832
 21
-136.265961
  0
LINE
  8
0
 10
191.499908
 20
-134.533844
 11
191.499908
 21
-136.265900
  0
LINE
  8
0
 10
188.499908
 20
-134.533844
 11
188.499908
 21
-136.265900
  0
LINE
  8
0
 10
184.999908
 20
-135.399872
 11
194.999908
 21
-135.399872
  0
LINE
  8
0
 10
205.999908
 20
-108.399872
 11
215.999908
 21
-108.399872
  0
LINE
  8
0
 10
189.999908
 20
-130.399872
 11
189.999908
 21
-140.399872
  0
LINE
  8
0
 10
210.999908
 20
-103.399872
 11
210.999908
 21
-113.399872
  0
CIRCLE
  8
0
 10
210.999908
 20
-108.399872
 40
4.000000
  0
CIRCLE
  8
0
 10
210.999908
 20
-108.399872
 40
3.500000
  0
ARC
  8
0
 10
215.499908
 20
-92.899872
 40
1.500000
 50
0.000000
 51
90.000000
  0
ARC
  8
0
 10
186.499908
 20
-92.899872
 40
1.500000
 50
90.000000
 51
180.000000
  0
CIRCLE
  8
0
 10
189.999908
 20
-135.399872
 40
3.500000
  0
CIRCLE
  8
0
 10
189.999908
 20
-135.399872
 40
4.000000
  0
POINT
  8
0
 10
217.999908
 20
-147.999878
  0
LINE
  8
0
 10
245.499908
 20
-107.533844
 11
245.499908
 21
-109.265900
  0
LINE
  8
0
 10
243.999878
 20
-106.667480
 11
245.499771
 21
-107.533447
  0
LINE
  8
0
 10
242.499878
 20
-109.265549
 11
243.999771
 21
-110.131516
  0
LINE
  8
0
 10
243.999893
 20
-110.131798
 11
245.499786
 21
-109.265831
  0
LINE
  8
0
 10
242.499878
 20
-107.533737
 11
243.999786
 21
-106.667770
  0
LINE
  8
0
 10
242.499908
 20
-107.533844
 11
242.499908
 21
-109.265900
  0
LINE
  8
0
 10
219.499908
 20
-91.399872
 11
248.499908
 21
-91.399872
  0
LINE
  8
0
 10
217.999908
 20
-146.399872
 11
249.999908
 21
-146.399872
  0
LINE
  8
0
 10
249.999908
 20
-92.899872
 11
249.999908
 21
-147.999878
  0
LINE
  8
0
 10
217.999908
 20
-92.899872
 11
217.999908
 21
-147.999878
  0
LINE
  8
0
 10
222.999817
 20
-133.667694
 11
224.499695
 21
-134.533630
  0
LINE
  8
0
 10
221.499832
 20
-134.533936
 11
222.999832
 21
-133.667908
  0
LINE
  8
0
 10
221.499832
 20
-136.265701
 11
222.999710
 21
-137.131653
  0
LINE
  8
0
 10
222.999832
 20
-137.131989
 11
224.499832
 21
-136.265961
  0
LINE
  8
0
 10
224.499908
 20
-134.533844
 11
224.499908
 21
-136.265900
  0
LINE
  8
0
 10
221.499908
 20
-134.533844
 11
221.499908
 21
-136.265900
  0
LINE
  8
0
 10
217.999908
 20
-135.399872
 11
227.999908
 21
-135.399872
  0
LINE
  8
0
 10
238.999908
 20
-108.399872
 11
248.999908
 21
-108.399872
  0
LINE
  8
0
 10
222.999908
 20
-130.399872
 11
222.999908
 21
-140.399872
  0
LINE
  8
0
 10
243.999908
 20
-103.399872
 11
243.999908
 21
-113.399872
  0
CIRCLE
  8
0
 10
243.999908
 20
-108.399872
 40
4.000000
  0
CIRCLE
  8
0
 10
243.999908
 20
-108.399872
 40
3.500000
  0
ARC
  8
0
 10
248.499908
 20
-92.899872
 40
1.500000
 50
0.000000
 51
90.000000
  0
ARC
  8
0
 10
219.499908
 20
-92.899872
 40
1.500000
 50
90.000000
 51
180.000000
  0
CIRCLE
  8
0
 10
222.999908
 20
-135.399872
 40
3.500000
  0
CIRCLE
  8
0
 10
222.999908
 20
-135.399872
 40
4.000000
  0
POINT
  8
0
 10
250.999908
 20
-147.999878
  0
LINE
  8
0
 10
278.499908
 20
-107.533844
 11
278.499908
 21
-109.265900
  0
LINE
  8
0
 10
276.999878
 20
-106.667480
 11
278.499756
 21
-107.533447
  0
LINE
  8
0
 10
275.499878
 20
-109.265549
 11
276.999786
 21
-110.131516
  0
LINE
  8
0
 10
276.999878
 20
-110.131798
 11
278.499786
 21
-109.265831
  0
LINE
  8
0
 10
275.499878
 20
-107.533737
 11
276.999786
 21
-106.667770
  0
LINE
  8
0
 10
275.499908
 20
-107.533844
 11
275.499908
 21
-109.265900
  0
LINE
  8
0
 10
252.499908
 20
-91.399872
 11
281.499908
 21
-91.399872
  0
LINE
  8
0
 10
250.999908
 20
-146.399872
 11
282.999908
 21
-146.399872
  0
LINE
  8
0
 10
282.999908
 20
-92.899872
 11
282.999908
 21
-147.999878
  0
LINE
  8
0
 10
250.999908
 20
-92.899872
 11
250.999908
 21
-147.999878
  0
LINE
  8
0
 10
255.999817
 20
-133.667694
 11
257.499695
 21
-134.533630
  0
LINE
  8
0
 10
254.499817
 20
-134.533936
 11
255.999817
 21
-133.667908
  0
LINE
  8
0
 10
254.499847
 20
-136.265701
 11
255.999695
 21
-137.131653
  0
LINE
  8
0
 10
255.999817
 20
-137.131989
 11
257.499847
 21
-136.265961
  0
LINE
  8
0
 10
257.499908
 20
-134.533844
 11
257.499908
 21
-136.265900
  0
LINE
  8
0
 10
254.499908
 20
-134.533844
 11
254.499908
 21
-136.265900
  0
LINE
  8
0
 10
250.999908
 20
-135.399872
 11
260.999908
 21
-135.399872
  0
LINE
  8
0
 10
271.999908
 20
-108.399872
 11
281.999908
 21
-108.399872
  0
LINE
  8
0
 10
255.999908
 20
-130.399872
 11
255.999908
 21
-140.399872
  0
LINE
  8
0
 10
276.999908
 20
-103.399872
 11
276.999908
 21
-113.399872
  0
CIRCLE
  8
0
 10
276.999908
 20
-108.399872
 40
4.000000
  0
CIRCLE
  8
0
 10
276.999908
 20
-108.399872
 40
3.500000
  0
ARC
  8
0
 10
281.499908
 20
-92.899872
 40
1.500000
 50
0.000000
 51
90.000000
  0
ARC
  8
0
 10
252.499908
 20
-92.899872
 40
1.500000
 50
90.000000
 51
180.000000
  0
CIRCLE
  8
0
 10
255.999908
 20
-135.399872
 40
3.500000
  0
CIRCLE
  8
0
 10
255.999908
 20
-135.399872
 40
4.000000
  0
POINT
  8
0
 10
118.999817
 20
-147.999878
  0
POINT
  8
0
 10
86.000000
 20
-176.999878
  0
POINT
  8
0
 10
118.999817
 20
-176.999878
  0
POINT
  8
0
 10
118.999817
 20
-176.999878
  0
POINT
  8
0
 10
105.999725
 20
-159.999939
  0
POINT
  8
0
 10
98.999725
 20
-193.999969
  0
LINE
  8
0
 10
110.999817
 20
-181.499969
 11
126.999817
 21
-181.499969
  0
LINE
  8
0
 10
110.999817
 20
-184.499969
 11
126.999817
 21
-184.499969
  0
LINE
  8
0
 10
118.999725
 20
-207.999969
 11
85.999817
 21
-207.999969
  0
LINE
  8
0
 10
118.999725
 20
-147.999878
 11
85.999725
 21
-147.999878
  0
LINE
  8
0
 10
109.413910
 20
-193.999969
 11
87.992523
 21
-193.999969
  0
LINE
  8
0
 10
105.999725
 20
-149.166443
 11
105.999725
 21
-170.166443
  0
LINE
  8
0
 10
115.929352
 20
-159.999939
 11
95.666412
 21
-159.999939
  0
LINE
  8
0
 10
115.068512
 20
-159.999939
 11
103.171356
 21
-159.999939
  0
LINE
  8
0
 10
93.999817
 20
-169.499878
 11
93.999817
 21
-184.499969
  0
LINE
  8
0
 10
120.499817
 20
-176.133850
 11
120.499817
 21
-177.865906
  0
LINE
  8
0
 10
118.999786
 20
-175.267639
 11
120.499680
 21
-176.133606
  0
LINE
  8
0
 10
117.499786
 20
-177.865692
 11
118.999695
 21
-178.731659
  0
LINE
  8
0
 10
118.999802
 20
-178.731995
 11
120.499802
 21
-177.865967
  0
LINE
  8
0
 10
117.499794
 20
-176.133942
 11
118.999786
 21
-175.267914
  0
LINE
  8
0
 10
117.499817
 20
-176.133850
 11
117.499817
 21
-177.865906
  0
LINE
  8
0
 10
110.999817
 20
-172.499878
 11
126.999817
 21
-172.499878
  0
LINE
  8
0
 10
85.999817
 20
-184.499969
 11
85.999817
 21
-207.999969
  0
LINE
  8
0
 10
110.999817
 20
-169.499878
 11
126.999817
 21
-169.499878
  0
LINE
  8
0
 10
110.999817
 20
-169.499878
 11
110.999817
 21
-184.499969
  0
LINE
  8
0
 10
85.999817
 20
-147.999878
 11
85.999817
 21
-169.499878
  0
LINE
  8
0
 10
118.999817
 20
-172.999878
 11
118.999817
 21
-180.999969
  0
LINE
  8
0
 10
109.454010
 20
-176.999878
 11
129.386078
 21
-176.999878
  0
LINE
  8
0
 10
98.999725
 20
-183.166473
 11
98.999725
 21
-204.166473
  0
CIRCLE
  8
0
 10
105.999725
 20
-159.999939
 40
7.474998
  0
CIRCLE
  8
0
 10
105.999725
 20
-159.999939
 40
8.330999
  0
CIRCLE
  8
0
 10
98.999725
 20
-193.999969
 40
7.474998
  0
CIRCLE
  8
0
 10
118.999817
 20
-176.999878
 40
3.500000
  0
CIRCLE
  8
0
 10
98.999725
 20
-193.999969
 40
8.330999
  0
POINT
  8
0
 10
151.999786
 20
-147.999878
  0
POINT
  8
0
 10
118.999969
 20
-176.999878
  0
POINT
  8
0
 10
151.999786
 20
-176.999878
  0
POINT
  8
0
 10
151.999786
 20
-176.999878
  0
POINT
  8
0
 10
138.999695
 20
-159.999939
  0
POINT
  8
0
 10
131.999695
 20
-193.999969
  0
LINE
  8
0
 10
143.999786
 20
-181.499969
 11
159.999786
 21
-181.499969
  0
LINE
  8
0
 10
143.999786
 20
-184.499969
 11
159.999786
 21
-184.499969
  0
LINE
  8
0
 10
151.999695
 20
-207.999969
 11
118.999786
 21
-207.999969
  0
LINE
  8
0
 10
151.999695
 20
-147.999878
 11
118.999695
 21
-147.999878
  0
LINE
  8
0
 10
142.413879
 20
-193.999969
 11
120.992493
 21
-193.999969
  0
LINE
  8
0
 10
138.999695
 20
-149.166443
 11
138.999695
 21
-170.166443
  0
LINE
  8
0
 10
148.929321
 20
-159.999939
 11
128.666382
 21
-159.999939
  0
LINE
  8
0
 10
148.068481
 20
-159.999939
 11
136.171326
 21
-159.999939
  0
LINE
  8
0
 10
126.999786
 20
-169.499878
 11
126.999786
 21
-184.499969
  0
LINE
  8
0
 10
153.499786
 20
-176.133850
 11
153.499786
 21
-177.865906
  0
LINE
  8
0
 10
151.999756
 20
-175.267639
 11
153.499649
 21
-176.133606
  0
LINE
  8
0
 10
150.499756
 20
-177.865692
 11
151.999664
 21
-178.731659
  0
LINE
  8
0
 10
151.999771
 20
-178.731995
 11
153.499771
 21
-177.865967
  0
LINE
  8
0
 10
150.499756
 20
-176.133942
 11
151.999756
 21
-175.267914
  0
LINE
  8
0
 10
150.499786
 20
-176.133850
 11
150.499786
 21
-177.865906
  0
LINE
  8
0
 10
143.999786
 20
-172.499878
 11
159.999786
 21
-172.499878
  0
LINE
  8
0
 10
118.999786
 20
-184.499969
 11
118.999786
 21
-207.999969
  0
LINE
  8
0
 10
143.999786
 20
-169.499878
 11
159.999786
 21
-169.499878
  0
LINE
  8
0
 10
143.999786
 20
-169.499878
 11
143.999786
 21
-184.499969
  0
LINE
  8
0
 10
118.999786
 20
-147.999878
 11
118.999786
 21
-169.499878
  0
LINE
  8
0
 10
151.999786
 20
-172.999878
 11
151.999786
 21
-180.999969
  0
LINE
  8
0
 10
142.453979
 20
-176.999878
 11
162.386047
 21
-176.999878
  0
LINE
  8
0
 10
131.999695
 20
-183.166473
 11
131.999695
 21
-204.166473
  0
CIRCLE
  8
0
 10
138.999695
 20
-159.999939
 40
7.474998
  0
CIRCLE
  8
0
 10
138.999695
 20
-159.999939
 40
8.330999
  0
CIRCLE
  8
0
 10
131.999695
 20
-193.999969
 40
7.474998
  0
CIRCLE
  8
0
 10
151.999786
 20
-176.999878
 40
3.500000
  0
CIRCLE
  8
0
 10
131.999695
 20
-193.999969
 40
8.330999
  0
POINT
  8
0
 10
184.999756
 20
-147.999878
  0
POINT
  8
0
 10
151.999939
 20
-176.999878
  0
POINT
  8
0
 10
184.999756
 20
-176.999878
  0
POINT
  8
0
 10
184.999756
 20
-176.999878
  0
POINT
  8
0
 10
171.999664
 20
-159.999939
  0
POINT
  8
0
 10
164.999664
 20
-193.999969
  0
LINE
  8
0
 10
176.999756
 20
-181.499969
 11
192.999756
 21
-181.499969
  0
LINE
  8
0
 10
176.999756
 20
-184.499969
 11
192.999756
 21
-184.499969
  0
LINE
  8
0
 10
184.999664
 20
-207.999969
 11
151.999756
 21
-207.999969
  0
LINE
  8
0
 10
184.999664
 20
-147.999878
 11
151.999664
 21
-147.999878
  0
LINE
  8
0
 10
175.413849
 20
-193.999969
 11
153.992462
 21
-193.999969
  0
LINE
  8
0
 10
171.999664
 20
-149.166443
 11
171.999664
 21
-170.166443
  0
LINE
  8
0
 10
181.929291
 20
-159.999939
 11
161.666351
 21
-159.999939
  0
LINE
  8
0
 10
181.068451
 20
-159.999939
 11
169.171295
 21
-159.999939
  0
LINE
  8
0
 10
159.999756
 20
-169.499878
 11
159.999756
 21
-184.499969
  0
LINE
  8
0
 10
186.499756
 20
-176.133850
 11
186.499756
 21
-177.865906
  0
LINE
  8
0
 10
184.999725
 20
-175.267639
 11
186.499619
 21
-176.133606
  0
LINE
  8
0
 10
183.499725
 20
-177.865692
 11
184.999634
 21
-178.731659
  0
LINE
  8
0
 10
184.999741
 20
-178.731995
 11
186.499741
 21
-177.865967
  0
LINE
  8
0
 10
183.499725
 20
-176.133942
 11
184.999725
 21
-175.267914
  0
LINE
  8
0
 10
183.499756
 20
-176.133850
 11
183.499756
 21
-177.865906
  0
LINE
  8
0
 10
176.999756
 20
-172.499878
 11
192.999756
 21
-172.499878
  0
LINE
  8
0
 10
151.999756
 20
-184.499969
 11
151.999756
 21
-207.999969
  0
LINE
  8
0
 10
176.999756
 20
-169.499878
 11
192.999756
 21
-169.499878
  0
LINE
  8
0
 10
176.999756
 20
-169.499878
 11
176.999756
 21
-184.499969
  0
LINE
  8
0
 10
151.999756
 20
-147.999878
 11
151.999756
 21
-169.499878
  0
LINE
  8
0
 10
184.999756
 20
-172.999878
 11
184.999756
 21
-180.999969
  0
LINE
  8
0
 10
175.453949
 20
-176.999878
 11
195.386017
 21
-176.999878
  0
LINE
  8
0
 10
164.999664
 20
-183.166473
 11
164.999664
 21
-204.166473
  0
CIRCLE
  8
0
 10
171.999664
 20
-159.999939
 40
7.474998
  0
CIRCLE
  8
0
 10
171.999664
 20
-159.999939
 40
8.330999
  0
CIRCLE
  8
0
 10
164.999664
 20
-193.999969
 40
7.474998
  0
CIRCLE
  8
0
 10
184.999756
 20
-176.999878
 40
3.500000
  0
CIRCLE
  8
0
 10
164.999664
 20
-193.999969
 40
8.330999
  0
POINT
  8
0
 10
217.999817
 20
-147.999878
  0
POINT
  8
0
 10
185.000000
 20
-176.999878
  0
POINT
  8
0
 10
217.999817
 20
-176.999878
  0
POINT
  8
0
 10
217.999817
 20
-176.999878
  0
POINT
  8
0
 10
204.999725
 20
-159.999939
  0
POINT
  8
0
 10
197.999725
 20
-193.999969
  0
LINE
  8
0
 10
209.999817
 20
-181.499969
 11
225.999817
 21
-181.499969
  0
LINE
  8
0
 10
209.999817
 20
-184.499969
 11
225.999817
 21
-184.499969
  0
LINE
  8
0
 10
217.999725
 20
-207.999969
 11
184.999817
 21
-207.999969
  0
LINE
  8
0
 10
217.999725
 20
-147.999878
 11
184.999725
 21
-147.999878
  0
LINE
  8
0
 10
208.413910
 20
-193.999969
 11
186.992523
 21
-193.999969
  0
LINE
  8
0
 10
204.999725
 20
-149.166443
 11
204.999725
 21
-170.166443
  0
LINE
  8
0
 10
214.929352
 20
-159.999939
 11
194.666412
 21
-159.999939
  0
LINE
  8
0
 10
214.068512
 20
-159.999939
 11
202.171356
 21
-159.999939
  0
LINE
  8
0
 10
192.999817
 20
-169.499878
 11
192.999817
 21
-184.499969
  0
LINE
  8
0
 10
219.499817
 20
-176.133850
 11
219.499817
 21
-177.865906
  0
LINE
  8
0
 10
217.999786
 20
-175.267639
 11
219.499680
 21
-176.133606
  0
LINE
  8
0
 10
216.499786
 20
-177.865692
 11
217.999695
 21
-178.731659
  0
LINE
  8
0
 10
217.999802
 20
-178.731995
 11
219.499802
 21
-177.865967
  0
LINE
  8
0
 10
216.499786
 20
-176.133942
 11
217.999786
 21
-175.267914
  0
LINE
  8
0
 10
216.499817
 20
-176.133850
 11
216.499817
 21
-177.865906
  0
LINE
  8
0
 10
209.999817
 20
-172.499878
 11
225.999817
 21
-172.499878
  0
LINE
  8
0
 10
184.999817
 20
-184.499969
 11
184.999817
 21
-207.999969
  0
LINE
  8
0
 10
209.999817
 20
-169.499878
 11
225.999817
 21
-169.499878
  0
LINE
  8
0
 10
209.999817
 20
-169.499878
 11
209.999817
 21
-184.499969
  0
LINE
  8
0
 10
184.999817
 20
-147.999878
 11
184.999817
 21
-169.499878
  0
LINE
  8
0
 10
217.999817
 20
-172.999878
 11
217.999817
 21
-180.999969
  0
LINE
  8
0
 10
208.454010
 20
-176.999878
 11
228.386078
 21
-176.999878
  0
LINE
  8
0
 10
197.999725
 20
-183.166473
 11
197.999725
 21
-204.166473
  0
CIRCLE
  8
0
 10
204.999725
 20
-159.999939
 40
7.474998
  0
CIRCLE
  8
0
 10
204.999725
 20
-159.999939
 40
8.330999
  0
CIRCLE
  8
0
 10
197.999725
 20
-193.999969
 40
7.474998
  0
CIRCLE
  8
0
 10
217.999817
 20
-176.999878
 40
3.500000
  0
CIRCLE
  8
0
 10
197.999725
 20
-193.999969
 40
8.330999
  0
POINT
  8
0
 10
250.999817
 20
-147.999878
  0
POINT
  8
0
 10
218.000000
 20
-176.999878
  0
POINT
  8
0
 10
250.999817
 20
-176.999878
  0
POINT
  8
0
 10
250.999817
 20
-176.999878
  0
POINT
  8
0
 10
237.999725
 20
-159.999939
  0
POINT
  8
0
 10
230.999725
 20
-193.999969
  0
LINE
  8
0
 10
242.999817
 20
-181.499969
 11
258.999817
 21
-181.499969
  0
LINE
  8
0
 10
242.999817
 20
-184.499969
 11
258.999817
 21
-184.499969
  0
LINE
  8
0
 10
250.999725
 20
-207.999969
 11
217.999817
 21
-207.999969
  0
LINE
  8
0
 10
250.999725
 20
-147.999878
 11
217.999725
 21
-147.999878
  0
LINE
  8
0
 10
241.413910
 20
-193.999969
 11
219.992523
 21
-193.999969
  0
LINE
  8
0
 10
237.999725
 20
-149.166443
 11
237.999725
 21
-170.166443
  0
LINE
  8
0
 10
247.929352
 20
-159.999939
 11
227.666412
 21
-159.999939
  0
LINE
  8
0
 10
247.068512
 20
-159.999939
 11
235.171356
 21
-159.999939
  0
LINE
  8
0
 10
225.999817
 20
-169.499878
 11
225.999817
 21
-184.499969
  0
LINE
  8
0
 10
252.499817
 20
-176.133850
 11
252.499817
 21
-177.865906
  0
LINE
  8
0
 10
250.999786
 20
-175.267639
 11
252.499664
 21
-176.133606
  0
LINE
  8
0
 10
249.499786
 20
-177.865692
 11
250.999695
 21
-178.731659
  0
LINE
  8
0
 10
250.999786
 20
-178.731995
 11
252.499817
 21
-177.865967
  0
LINE
  8
0
 10
249.499786
 20
-176.133942
 11
250.999786
 21
-175.267914
  0
LINE
  8
0
 10
249.499817
 20
-176.133850
 11
249.499817
 21
-177.865906
  0
LINE
  8
0
 10
242.999817
 20
-172.499878
 11
258.999817
 21
-172.499878
  0
LINE
  8
0
 10
217.999817
 20
-184.499969
 11
217.999817
 21
-207.999969
  0
LINE
  8
0
 10
242.999817
 20
-169.499878
 11
258.999817
 21
-169.499878
  0
LINE
  8
0
 10
242.999817
 20
-169.499878
 11
242.999817
 21
-184.499969
  0
LINE
  8
0
 10
217.999817
 20
-147.999878
 11
217.999817
 21
-169.499878
  0
LINE
  8
0
 10
250.999817
 20
-172.999878
 11
250.999817
 21
-180.999969
  0
LINE
  8
0
 10
241.454010
 20
-176.999878
 11
261.386078
 21
-176.999878
  0
LINE
  8
0
 10
230.999725
 20
-183.166473
 11
230.999725
 21
-204.166473
  0
CIRCLE
  8
0
 10
237.999725
 20
-159.999939
 40
7.474998
  0
CIRCLE
  8
0
 10
237.999725
 20
-159.999939
 40
8.330999
  0
CIRCLE
  8
0
 10
230.999725
 20
-193.999969
 40
7.474998
  0
CIRCLE
  8
0
 10
250.999817
 20
-176.999878
 40
3.500000
  0
CIRCLE
  8
0
 10
230.999725
 20
-193.999969
 40
8.330999
  0
POINT
  8
0
 10
283.999817
 20
-147.999878
  0
POINT
  8
0
 10
251.000000
 20
-176.999878
  0
POINT
  8
0
 10
283.999817
 20
-176.999878
  0
POINT
  8
0
 10
283.999817
 20
-176.999878
  0
POINT
  8
0
 10
270.999725
 20
-159.999939
  0
POINT
  8
0
 10
263.999725
 20
-193.999969
  0
LINE
  8
0
 10
275.999817
 20
-181.499969
 11
291.999817
 21
-181.499969
  0
LINE
  8
0
 10
275.999817
 20
-184.499969
 11
291.999817
 21
-184.499969
  0
LINE
  8
0
 10
283.999725
 20
-207.999969
 11
250.999817
 21
-207.999969
  0
LINE
  8
0
 10
283.999725
 20
-147.999878
 11
250.999725
 21
-147.999878
  0
LINE
  8
0
 10
274.413910
 20
-193.999969
 11
252.992523
 21
-193.999969
  0
LINE
  8
0
 10
270.999725
 20
-149.166443
 11
270.999725
 21
-170.166443
  0
LINE
  8
0
 10
280.929352
 20
-159.999939
 11
260.666412
 21
-159.999939
  0
LINE
  8
0
 10
280.068512
 20
-159.999939
 11
268.171356
 21
-159.999939
  0
LINE
  8
0
 10
258.999817
 20
-169.499878
 11
258.999817
 21
-184.499969
  0
LINE
  8
0
 10
285.499817
 20
-176.133850
 11
285.499817
 21
-177.865906
  0
LINE
  8
0
 10
283.999786
 20
-175.267639
 11
285.499664
 21
-176.133606
  0
LINE
  8
0
 10
282.499786
 20
-177.865692
 11
283.999695
 21
-178.731659
  0
LINE
  8
0
 10
283.999786
 20
-178.731995
 11
285.499817
 21
-177.865967
  0
LINE
  8
0
 10
282.499786
 20
-176.133942
 11
283.999786
 21
-175.267914
  0
LINE
  8
0
 10
282.499817
 20
-176.133850
 11
282.499817
 21
-177.865906
  0
LINE
  8
0
 10
275.999817
 20
-172.499878
 11
291.999817
 21
-172.499878
  0
LINE
  8
0
 10
250.999817
 20
-184.499969
 11
250.999817
 21
-207.999969
  0
LINE
  8
0
 10
275.999817
 20
-169.499878
 11
291.999817
 21
-169.499878
  0
LINE
  8
0
 10
275.999817
 20
-169.499878
 11
275.999817
 21
-184.499969
  0
LINE
  8
0
 10
250.999817
 20
-147.999878
 11
250.999817
 21
-169.499878
  0
LINE
  8
0
 10
283.999817
 20
-172.999878
 11
283.999817
 21
-180.999969
  0
LINE
  8
0
 10
274.454010
 20
-176.999878
 11
294.386078
 21
-176.999878
  0
LINE
  8
0
 10
263.999725
 20
-183.166473
 11
263.999725
 21
-204.166473
  0
CIRCLE
  8
0
 10
270.999725
 20
-159.999939
 40
7.474998
  0
CIRCLE
  8
0
 10
270.999725
 20
-159.999939
 40
8.330999
  0
CIRCLE
  8
0
 10
263.999725
 20
-193.999969
 40
7.474998
  0
CIRCLE
  8
0
 10
283.999817
 20
-176.999878
 40
3.500000
  0
CIRCLE
  8
0
 10
263.999725
 20
-193.999969
 40
8.330999
  0
POINT
  8
0
 10
-299.999939
 20
59.999989
  0
POINT
  8
0
 10
-141.499939
 20
59.999989
  0
LINE
  8
0
 10
-181.399841
 20
39.499989
 11
-181.399841
 21
44.949879
  0
LINE
  8
0
 10
-181.399841
 20
162.000229
 11
-236.099548
 21
162.000229
  0
LINE
  8
0
 10
-232.899841
 20
199.920151
 11
-232.899841
 21
205.745834
  0
LINE
  8
0
 10
-229.899841
 20
201.000229
 11
-236.399841
 21
201.000229
  0
LINE
  8
0
 10
-231.899841
 20
204.000229
 11
-233.899841
 21
204.000229
  0
LINE
  8
0
 10
-229.899841
 20
201.000229
 11
-229.899841
 21
205.000229
  0
LINE
  8
0
 10
-235.399841
 20
201.000229
 11
-235.399841
 21
202.500229
  0
LINE
  8
0
 10
-230.399841
 20
201.000229
 11
-230.399841
 21
202.500229
  0
LINE
  8
0
 10
-230.399841
 20
202.000229
 11
-235.399841
 21
202.000229
  0
LINE
  8
0
 10
-227.649841
 20
205.000229
 11
-227.649841
 21
205.699936
  0
LINE
  8
0
 10
-223.350037
 20
205.000229
 11
-223.350037
 21
205.699936
  0
LINE
  8
0
 10
-223.350037
 20
205.699936
 11
-227.649841
 21
205.699936
  0
LINE
  8
0
 10
-182.899841
 20
205.000229
 11
-234.899841
 21
205.000229
  0
LINE
  8
0
 10
-192.799744
 20
205.000229
 11
-192.799744
 21
182.000229
  0
LINE
  8
0
 10
-194.799744
 20
205.000229
 11
-194.799744
 21
182.000229
  0
LINE
  8
0
 10
-196.399841
 20
205.000229
 11
-196.399841
 21
182.000229
  0
LINE
  8
0
 10
-198.399841
 20
205.000229
 11
-198.399841
 21
182.000229
  0
LINE
  8
0
 10
-199.999939
 20
205.000229
 11
-199.999939
 21
182.000229
  0
LINE
  8
0
 10
-201.999939
 20
205.000229
 11
-201.999939
 21
182.000229
  0
LINE
  8
0
 10
-203.600037
 20
205.000229
 11
-203.600037
 21
182.000229
  0
LINE
  8
0
 10
-205.600037
 20
205.000229
 11
-205.600037
 21
182.000229
  0
LINE
  8
0
 10
-207.199646
 20
205.000229
 11
-207.199646
 21
182.000229
  0
LINE
  8
0
 10
-209.199646
 20
205.000229
 11
-209.199646
 21
182.000229
  0
LINE
  8
0
 10
-210.799744
 20
205.000229
 11
-210.799744
 21
182.000229
  0
LINE
  8
0
 10
-212.799744
 20
205.000229
 11
-212.799744
 21
182.000229
  0
LINE
  8
0
 10
-214.399841
 20
205.000229
 11
-214.399841
 21
182.000229
  0
LINE
  8
0
 10
-216.399841
 20
205.000229
 11
-216.399841
 21
182.000229
  0
LINE
  8
0
 10
-217.999939
 20
205.000229
 11
-217.999939
 21
182.000229
  0
LINE
  8
0
 10
-219.999939
 20
205.000229
 11
-219.999939
 21
182.000229
  0
LINE
  8
0
 10
-191.399841
 20
205.000229
 11
-191.399841
 21
182.000229
  0
LINE
  8
0
 10
-221.399841
 20
205.000229
 11
-221.399841
 21
182.000229
  0
LINE
  8
0
 10
-192.799744
 20
37.999989
 11
-192.799744
 21
44.792622
  0
LINE
  8
0
 10
-194.799744
 20
37.999989
 11
-194.799744
 21
44.765034
  0
LINE
  8
0
 10
-196.399841
 20
37.999989
 11
-196.399841
 21
44.742970
  0
LINE
  8
0
 10
-198.399841
 20
37.999989
 11
-198.399841
 21
44.715382
  0
LINE
  8
0
 10
-199.999939
 20
37.999989
 11
-199.999939
 21
44.693317
  0
LINE
  8
0
 10
-201.999939
 20
37.999989
 11
-201.999939
 21
44.665730
  0
LINE
  8
0
 10
-203.600037
 20
37.999989
 11
-203.600037
 21
44.643665
  0
LINE
  8
0
 10
-205.600037
 20
37.999989
 11
-205.600037
 21
44.616077
  0
LINE
  8
0
 10
-207.199646
 20
37.999989
 11
-207.199646
 21
44.594013
  0
LINE
  8
0
 10
-209.199646
 20
37.999989
 11
-209.199646
 21
44.566425
  0
LINE
  8
0
 10
-210.799744
 20
37.999989
 11
-210.799744
 21
44.544361
  0
LINE
  8
0
 10
-212.799744
 20
37.999989
 11
-212.799744
 21
44.516773
  0
LINE
  8
0
 10
-214.399841
 20
37.999989
 11
-214.399841
 21
44.500233
  0
LINE
  8
0
 10
-216.399841
 20
37.999989
 11
-216.399841
 21
44.700306
  0
LINE
  8
0
 10
-217.999939
 20
37.999989
 11
-217.999939
 21
44.500233
  0
LINE
  8
0
 10
-182.899841
 20
37.999989
 11
-218.999939
 21
37.999989
  0
LINE
  8
0
 10
-191.399841
 20
37.999989
 11
-191.399841
 21
44.811939
  0
LINE
  8
0
 10
-232.699646
 20
203.000229
 11
-233.100037
 21
203.000229
  0
LINE
  8
0
 10
-232.699646
 20
203.000229
 11
-232.699646
 21
204.000229
  0
LINE
  8
0
 10
-233.100037
 20
203.000229
 11
-233.100037
 21
204.000229
  0
LINE
  8
0
 10
-240.999939
 20
50.999989
 11
-299.999939
 21
50.999989
  0
LINE
  8
0
 10
-237.999939
 20
196.631088
 11
-237.999939
 21
53.999989
  0
LINE
  8
0
 10
-299.999939
 20
166.000229
 11
-299.999939
 21
148.000229
  0
LINE
  8
0
 10
-300.000366
 20
166.000458
 11
-297.939728
 21
168.061111
  0
LINE
  8
0
 10
-287.999939
 20
165.000229
 11
-287.999939
 21
149.000229
  0
LINE
  8
0
 10
-284.721130
 20
59.999989
 11
-302.440857
 21
59.999989
  0
LINE
  8
0
 10
-284.407166
 20
157.000229
 11
-301.186462
 21
157.000229
  0
LINE
  8
0
 10
-288.999939
 20
148.000229
 11
-299.999939
 21
148.000229
  0
LINE
  8
0
 10
-288.999939
 20
166.000229
 11
-299.999939
 21
166.000229
  0
LINE
  8
0
 10
-288.999939
 20
69.000229
 11
-299.999939
 21
69.000229
  0
LINE
  8
0
 10
-287.999939
 20
68.000229
 11
-287.999939
 21
51.999989
  0
LINE
  8
0
 10
-288.999939
 20
152.500229
 11
-299.999939
 21
152.500229
  0
LINE
  8
0
 10
-288.999939
 20
161.500229
 11
-299.999939
 21
161.500229
  0
LINE
  8
0
 10
-288.999939
 20
55.499989
 11
-299.999939
 21
55.499989
  0
LINE
  8
0
 10
-288.999939
 20
64.500229
 11
-299.999939
 21
64.500229
  0
LINE
  8
0
 10
-298.999939
 20
147.000229
 11
-298.999939
 21
70.000229
  0
LINE
  8
0
 10
-299.999939
 20
69.000229
 11
-299.999939
 21
50.999989
  0
LINE
  8
0
 10
-297.499939
 20
196.605209
 11
-297.499939
 21
169.121323
  0
LINE
  8
0
 10
-267.499939
 20
211.000229
 11
-267.499939
 21
161.000229
  0
LINE
  8
0
 10
-242.499939
 20
186.000229
 11
-292.499939
 21
186.000229
  0
LINE
  8
0
 10
-250.999939
 20
131.000229
 11
-276.999939
 21
131.000229
  0
LINE
  8
0
 10
-250.999939
 20
81.000229
 11
-276.999939
 21
81.000229
  0
LINE
  8
0
 10
-280.999939
 20
119.000229
 11
-280.999939
 21
93.000229
  0
LINE
  8
0
 10
-263.999939
 20
145.469955
 11
-263.999939
 21
68.000229
  0
LINE
  8
0
 10
-286.999939
 20
145.500229
 11
-286.999939
 21
129.500229
  0
LINE
  8
0
 10
-278.999939
 20
137.500229
 11
-294.999939
 21
137.500229
  0
LINE
  8
0
 10
-215.999939
 20
144.000229
 11
-215.999939
 21
67.000229
  0
LINE
  8
0
 10
-215.999939
 20
156.500229
 11
-215.999939
 21
44.500233
  0
LINE
  8
0
 10
-237.999939
 20
156.500229
 11
-216.999939
 21
156.500229
  0
LINE
  8
0
 10
-252.999939
 20
44.500233
 11
-216.999939
 21
44.500233
  0
LINE
  8
0
 10
-253.999939
 20
50.999989
 11
-253.999939
 21
45.500233
  0
LINE
  8
0
 10
-248.700134
 20
36.500233
 11
-246.999939
 21
36.500233
  0
LINE
  8
0
 10
-248.999939
 20
43.500233
 11
-248.999939
 21
36.800282
  0
LINE
  8
0
 10
-218.999939
 20
43.500233
 11
-218.999939
 21
36.800282
  0
LINE
  8
0
 10
-141.499939
 20
154.513901
 11
-141.499939
 21
46.486561
  0
LINE
  8
0
 10
-212.985641
 20
156.486069
 11
-142.486008
 21
155.513657
  0
LINE
  8
0
 10
-142.486328
 20
45.486591
 11
-212.986450
 21
44.514175
  0
LINE
  8
0
 10
-144.499939
 20
155.245834
 11
-144.499939
 21
145.800034
  0
LINE
  8
0
 10
-144.200134
 20
145.500229
 11
-141.799744
 21
145.500229
  0
LINE
  8
0
 10
-144.200134
 20
55.500233
 11
-141.799744
 21
55.500233
  0
LINE
  8
0
 10
-144.499939
 20
55.200184
 11
-144.499939
 21
45.754871
  0
LINE
  8
0
 10
-142.799744
 20
146.350327
 11
-142.799744
 21
154.650131
  0
LINE
  8
0
 10
-142.799744
 20
146.350327
 11
-144.499939
 21
146.350327
  0
LINE
  8
0
 10
-142.799744
 20
154.650131
 11
-144.499939
 21
154.650131
  0
LINE
  8
0
 10
-142.799744
 20
46.350330
 11
-142.799744
 21
54.650379
  0
LINE
  8
0
 10
-142.799744
 20
46.350330
 11
-144.499939
 21
46.350330
  0
LINE
  8
0
 10
-142.799744
 20
54.650135
 11
-144.499939
 21
54.650135
  0
LINE
  8
0
 10
-145.499939
 20
50.500233
 11
-140.499939
 21
50.500233
  0
LINE
  8
0
 10
-145.499939
 20
150.500229
 11
-140.499939
 21
150.500229
  0
LINE
  8
0
 10
-246.999939
 20
20.000233
 11
-220.999939
 21
20.000233
  0
LINE
  8
0
 10
-247.499939
 20
34.000233
 11
-220.499939
 21
34.000233
  0
LINE
  8
0
 10
-247.499939
 20
35.500233
 11
-247.499939
 21
29.000233
  0
LINE
  8
0
 10
-220.499939
 20
35.500233
 11
-220.499939
 21
29.000233
  0
LINE
  8
0
 10
-247.499939
 20
29.000233
 11
-220.499939
 21
29.000233
  0
LINE
  8
0
 10
-223.522400
 20
29.000233
 11
-223.522400
 21
20.000233
  0
LINE
  8
0
 10
-244.477478
 20
29.000233
 11
-244.477478
 21
20.000233
  0
LINE
  8
0
 10
-224.684509
 20
29.000233
 11
-224.684509
 21
20.000233
  0
LINE
  8
0
 10
-243.315369
 20
29.000233
 11
-243.315369
 21
20.000233
  0
LINE
  8
0
 10
-246.999939
 20
18.200184
 11
-220.999939
 21
18.200184
  0
LINE
  8
0
 10
-246.999939
 20
20.000233
 11
-246.999939
 21
18.200184
  0
LINE
  8
0
 10
-220.999939
 20
20.000233
 11
-220.999939
 21
18.200184
  0
LINE
  8
0
 10
-220.999939
 20
36.500233
 11
-219.299744
 21
36.500233
  0
LINE
  8
0
 10
-240.184509
 20
34.000233
 11
-240.184509
 21
29.000233
  0
LINE
  8
0
 10
-241.299744
 20
34.000233
 11
-241.299744
 21
29.000233
  0
LINE
  8
0
 10
-227.815369
 20
34.000233
 11
-227.815369
 21
29.000233
  0
LINE
  8
0
 10
-226.700134
 20
34.000233
 11
-226.700134
 21
29.000233
  0
LINE
  8
0
 10
-238.999939
 20
18.200184
 11
-238.999939
 21
9.200184
  0
LINE
  8
0
 10
-239.133728
 20
18.200184
 11
-239.133728
 21
8.200184
  0
LINE
  8
0
 10
-240.010681
 20
18.200184
 11
-240.010681
 21
9.200184
  0
LINE
  8
0
 10
-240.055603
 20
18.200184
 11
-240.055603
 21
8.200184
  0
LINE
  8
0
 10
-241.892517
 20
18.200184
 11
-241.892517
 21
9.200184
  0
LINE
  8
0
 10
-246.892517
 20
18.200184
 11
-246.892517
 21
9.200184
  0
LINE
  8
0
 10
-246.988220
 20
18.200184
 11
-246.988220
 21
6.989979
  0
LINE
  8
0
 10
-228.999939
 20
18.200184
 11
-228.999939
 21
9.200184
  0
LINE
  8
0
 10
-228.866638
 20
18.200184
 11
-228.866638
 21
8.200184
  0
LINE
  8
0
 10
-227.989197
 20
18.200184
 11
-227.989197
 21
9.200184
  0
LINE
  8
0
 10
-227.944763
 20
18.200184
 11
-227.944763
 21
8.200184
  0
LINE
  8
0
 10
-227.022888
 20
18.200184
 11
-227.022888
 21
8.200184
  0
LINE
  8
0
 10
-226.107849
 20
18.200184
 11
-226.107849
 21
9.200184
  0
LINE
  8
0
 10
-221.107849
 20
18.200184
 11
-221.107849
 21
9.200184
  0
LINE
  8
0
 10
-221.012146
 20
18.200184
 11
-221.012146
 21
6.989979
  0
LINE
  8
0
 10
-239.000183
 20
9.200310
 11
-239.133759
 21
8.200157
  0
LINE
  8
0
 10
-239.133286
 20
8.199947
 11
-240.010406
 21
9.199829
  0
LINE
  8
0
 10
-240.011139
 20
9.200119
 11
-240.055725
 21
8.200134
  0
LINE
  8
0
 10
-240.055191
 20
8.199970
 11
-240.976898
 21
9.199806
  0
LINE
  8
0
 10
-240.977478
 20
18.200184
 11
-240.977478
 21
8.200184
  0
LINE
  8
0
 10
-240.977249
 20
8.200146
 11
-241.892303
 21
9.200134
  0
LINE
  8
0
 10
-242.199158
 20
0.000233
 11
-225.800720
 21
0.000233
  0
LINE
  8
0
 10
-228.999481
 20
9.199924
 11
-228.865906
 21
8.200016
  0
LINE
  8
0
 10
-228.866241
 20
8.200066
 11
-227.989044
 21
9.200077
  0
LINE
  8
0
 10
-227.988770
 20
9.200260
 11
-227.944153
 21
8.200279
  0
LINE
  8
0
 10
-227.944397
 20
8.200062
 11
-227.022537
 21
9.200050
  0
LINE
  8
0
 10
-227.023224
 20
8.200706
 11
-226.108215
 21
9.200722
  0
LINE
  8
0
 10
-246.892624
 20
9.200123
 11
-246.988373
 21
8.200302
  0
LINE
  8
0
 10
-221.011841
 20
8.200150
 11
-221.107620
 21
9.200459
  0
LINE
  8
0
 10
-246.833191
 20
6.455570
 11
-243.044388
 21
0.465881
  0
LINE
  8
0
 10
-221.166718
 20
6.455235
 11
-224.955475
 21
0.465492
  0
LINE
  8
0
 10
-213.624451
 20
147.350327
 11
-213.999939
 21
147.350327
  0
LINE
  8
0
 10
-213.624451
 20
153.650131
 11
-213.999939
 21
153.650131
  0
LINE
  8
0
 10
-213.624451
 20
153.650131
 11
-213.624451
 21
147.350327
  0
LINE
  8
0
 10
-213.624451
 20
47.350330
 11
-213.999939
 21
47.350330
  0
LINE
  8
0
 10
-213.624451
 20
53.650135
 11
-213.999939
 21
53.650135
  0
LINE
  8
0
 10
-213.624451
 20
53.650135
 11
-213.624451
 21
47.350330
  0
LINE
  8
0
 10
-213.999939
 20
156.500229
 11
-213.999939
 21
44.500233
  0
LINE
  8
0
 10
-215.999939
 20
156.500229
 11
-213.999939
 21
156.500229
  0
LINE
  8
0
 10
-213.999939
 20
44.500233
 11
-215.999939
 21
44.500233
  0
LINE
  8
0
 10
-181.399841
 20
156.050430
 11
-181.399841
 21
203.500229
  0
LINE
  8
0
 10
-236.399841
 20
156.500229
 11
-236.399841
 21
158.397751
  0
LINE
  8
0
 10
-181.399841
 20
182.000229
 11
-236.099548
 21
182.000229
  0
LINE
  8
0
 10
-233.999939
 20
41.743153
 11
-233.999939
 21
-5.212658
  0
LINE
  8
0
 10
-261.950134
 20
189.204330
 11
-261.950134
 21
182.796127
  0
LINE
  8
0
 10
-267.499847
 20
192.408539
 11
-261.950195
 21
189.204437
  0
LINE
  8
0
 10
-267.500061
 20
179.592102
 11
-261.950256
 21
182.796280
  0
LINE
  8
0
 10
-273.049744
 20
189.204330
 11
-273.049744
 21
182.796127
  0
LINE
  8
0
 10
-267.500153
 20
192.408768
 11
-273.049835
 21
189.204666
  0
LINE
  8
0
 10
-267.500000
 20
179.591904
 11
-273.049652
 21
182.796005
  0
LINE
  8
0
 10
-235.163666
 20
162.299576
 11
-236.802490
 21
162.299576
  0
LINE
  8
0
 10
-236.802490
 20
162.299576
 11
-236.802490
 21
161.700851
  0
LINE
  8
0
 10
-235.163666
 20
161.700851
 11
-236.802490
 21
161.700851
  0
LINE
  8
0
 10
-237.550903
 20
166.715195
 11
-237.550903
 21
157.285263
  0
LINE
  8
0
 10
-237.550903
 20
157.285263
 11
-237.999939
 21
157.285263
  0
LINE
  8
0
 10
-237.550903
 20
166.715195
 11
-237.999939
 21
166.715195
  0
LINE
  8
0
 10
-232.935394
 20
162.000229
 11
-241.008667
 21
162.000229
  0
LINE
  8
0
 10
-217.920715
 20
150.500229
 11
-209.650848
 21
150.500229
  0
LINE
  8
0
 10
-217.970673
 20
50.500233
 11
-209.052673
 21
50.500233
  0
LINE
  8
0
 10
-225.499939
 20
202.787094
 11
-225.499939
 21
208.612778
  0
LINE
  8
0
 10
-236.399841
 20
165.602707
 11
-236.399841
 21
203.500229
  0
LINE
  8
0
 10
-246.999939
 20
36.500233
 11
-220.999939
 21
36.500233
  0
LINE
  8
0
 10
-247.499939
 20
35.500233
 11
-220.499939
 21
35.500233
  0
LINE
  8
0
 10
-246.999939
 20
36.500233
 11
-246.999939
 21
35.500233
  0
LINE
  8
0
 10
-220.999939
 20
36.500233
 11
-220.999939
 21
35.500233
  0
ARC
  8
0
 10
-182.899841
 20
203.500229
 40
1.500000
 50
0.000000
 51
90.000000
  0
ARC
  8
0
 10
-182.899841
 20
39.499989
 40
1.500000
 50
270.000000
 51
0.000000
  0
ARC
  8
0
 10
-234.899841
 20
203.500229
 40
1.500000
 50
90.000000
 51
180.000000
  0
ARC
  8
0
 10
-231.899841
 20
202.500229
 40
1.500000
 50
0.000000
 51
90.000000
  0
ARC
  8
0
 10
-233.899841
 20
202.500229
 40
1.500000
 50
90.000000
 51
180.000000
  0
CIRCLE
  8
0
 10
-263.999939
 20
131.000229
 40
10.477499
  0
CIRCLE
  8
0
 10
-263.999939
 20
131.000229
 40
9.315500
  0
CIRCLE
  8
0
 10
-280.999939
 20
106.000229
 40
10.477499
  0
CIRCLE
  8
0
 10
-280.999939
 20
106.000229
 40
9.315500
  0
CIRCLE
  8
0
 10
-263.999939
 20
81.000229
 40
10.477499
  0
CIRCLE
  8
0
 10
-263.999939
 20
81.000229
 40
9.315500
  0
ARC
  8
0
 10
-240.999939
 20
53.999989
 40
3.000000
 50
270.000000
 51
0.000000
  0
ARC
  8
0
 10
-288.999939
 20
165.000229
 40
1.000000
 50
0.000000
 51
90.000000
  0
ARC
  8
0
 10
-288.999939
 20
149.000229
 40
1.000000
 50
270.000000
 51
0.000000
  0
ARC
  8
0
 10
-288.999939
 20
68.000229
 40
1.000000
 50
0.000000
 51
90.000000
  0
ARC
  8
0
 10
-288.999939
 20
51.999989
 40
1.000000
 50
270.000000
 51
0.000000
  0
ARC
  8
0
 10
-288.999939
 20
162.500229
 40
1.000000
 50
270.000000
 51
0.000000
  0
ARC
  8
0
 10
-288.999939
 20
151.500229
 40
1.000000
 50
0.000000
 51
90.000000
  0
ARC
  8
0
 10
-288.999939
 20
65.500229
 40
1.000000
 50
270.000000
 51
0.000000
  0
ARC
  8
0
 10
-288.999939
 20
54.499989
 40
1.000000
 50
0.000000
 51
90.000000
  0
ARC
  8
0
 10
-267.499939
 20
-87.999954
 40
300.000000
 50
87.083710
 51
93.016907
  0
ARC
  8
0
 10
-252.999939
 20
196.631088
 40
15.000000
 50
0.000000
 51
87.083710
  0
ARC
  8
0
 10
-299.999939
 20
147.000229
 40
1.000000
 50
0.000000
 51
90.000000
  0
ARC
  8
0
 10
-299.999939
 20
70.000229
 40
1.000000
 50
270.000000
 51
0.000000
  0
ARC
  8
0
 10
-298.999939
 20
169.121323
 40
1.500002
 50
315.000427
 51
0.000000
  0
ARC
  8
0
 10
-282.499939
 20
196.605209
 40
15.000007
 50
93.016907
 51
180.000000
  0
CIRCLE
  8
0
 10
-286.999939
 20
137.500229
 40
4.278000
  0
CIRCLE
  8
0
 10
-286.999939
 20
137.500229
 40
4.863998
  0
ARC
  8
0
 10
-151.917908
 20
50.500233
 40
10.018056
 50
335.527802
 51
24.472187
  0
ARC
  8
0
 10
-151.917908
 20
150.500229
 40
10.018055
 50
335.527802
 51
24.472187
  0
ARC
  8
0
 10
-144.200134
 20
145.800034
 40
0.300003
 50
180.000000
 51
270.000000
  0
ARC
  8
0
 10
-144.799744
 20
155.245834
 40
0.300003
 50
0.000000
 51
89.210228
  0
ARC
  8
0
 10
-141.799744
 20
145.200424
 40
0.300003
 50
0.000000
 51
90.000000
  0
ARC
  8
0
 10
-144.799744
 20
45.754871
 40
0.300001
 50
270.789764
 51
0.000000
  0
ARC
  8
0
 10
-248.700134
 20
36.800282
 40
0.300003
 50
180.000000
 51
270.000000
  0
ARC
  8
0
 10
-219.299744
 20
36.800282
 40
0.299999
 50
270.000000
 51
0.000000
  0
ARC
  8
0
 10
-252.999939
 20
45.500233
 40
1.000000
 50
180.000000
 51
270.000000
  0
ARC
  8
0
 10
-216.999939
 20
45.500233
 40
1.000000
 50
270.000000
 51
0.000000
  0
ARC
  8
0
 10
-216.999939
 20
155.500229
 40
1.000000
 50
0.000000
 51
90.000000
  0
ARC
  8
0
 10
-249.999939
 20
43.500233
 40
1.000000
 50
0.000000
 51
90.000000
  0
ARC
  8
0
 10
-217.999939
 20
43.500233
 40
1.000000
 50
90.000000
 51
180.000000
  0
ARC
  8
0
 10
-212.999939
 20
155.486557
 40
1.000004
 50
89.209641
 51
180.000000
  0
ARC
  8
0
 10
-142.499939
 20
154.513901
 40
1.000000
 50
0.000000
 51
89.209641
  0
ARC
  8
0
 10
-142.499939
 20
46.486561
 40
1.000000
 50
270.790375
 51
0.000000
  0
ARC
  8
0
 10
-212.999939
 20
45.514149
 40
1.000000
 50
180.000000
 51
270.790375
  0
ARC
  8
0
 10
-141.799744
 20
55.800282
 40
0.299999
 50
270.000000
 51
0.000000
  0
ARC
  8
0
 10
-144.200134
 20
55.200184
 40
0.299999
 50
90.000000
 51
180.000000
  0
ARC
  8
0
 10
-233.999939
 20
12.950428
 40
6.250086
 50
216.870483
 51
323.129547
  0
ARC
  8
0
 10
-246.892517
 20
12.950184
 40
6.250022
 50
269.514618
 51
323.129791
  0
ARC
  8
0
 10
-221.107849
 20
12.950184
 40
6.250025
 50
216.870209
 51
270.485260
  0
ARC
  8
0
 10
-242.199158
 20
1.000233
 40
1.000005
 50
212.315277
 51
270.000000
  0
ARC
  8
0
 10
-225.800720
 20
1.000233
 40
1.000000
 50
270.000000
 51
327.684906
  0
ARC
  8
0
 10
-245.988220
 20
6.989979
 40
1.000000
 50
180.000000
 51
212.315094
  0
ARC
  8
0
 10
-222.012146
 20
6.989979
 40
1.000001
 50
327.685089
 51
0.000000
  0
ARC
  8
0
 10
-216.700134
 20
150.500229
 40
4.599989
 50
320.484558
 51
39.515602
  0
ARC
  8
0
 10
-213.624451
 20
147.963608
 40
0.613327
 50
270.000000
 51
320.484436
  0
ARC
  8
0
 10
-213.624451
 20
153.036850
 40
0.613337
 50
39.515568
 51
90.000000
  0
ARC
  8
0
 10
-216.700134
 20
50.500233
 40
4.599997
 50
320.484436
 51
39.515564
  0
ARC
  8
0
 10
-213.624451
 20
47.963612
 40
0.613335
 50
270.000000
 51
320.484711
  0
ARC
  8
0
 10
-213.624451
 20
53.036854
 40
0.613334
 50
39.515293
 51
90.000000
  0
CIRCLE
  8
0
 10
-267.499939
 20
186.000229
 40
22.500000
  0
ARC
  8
0
 10
-267.499939
 20
186.000229
 40
20.999992
 50
8.192099
 51
36.807865
  0
ARC
  8
0
 10
-252.650818
 20
200.849350
 40
3.000004
 50
139.092850
 51
310.907135
  0
ARC
  8
0
 10
-246.499939
 20
186.000229
 40
3.000002
 50
94.095917
 51
265.903809
  0
ARC
  8
0
 10
-252.650818
 20
171.151108
 40
3.000004
 50
49.092854
 51
220.907333
  0
ARC
  8
0
 10
-267.499939
 20
165.000229
 40
3.000004
 50
4.096206
 51
175.903793
  0
ARC
  8
0
 10
-282.349060
 20
171.151108
 40
2.999993
 50
319.092651
 51
130.907150
  0
ARC
  8
0
 10
-288.499939
 20
186.000229
 40
3.000004
 50
274.096191
 51
85.903793
  0
ARC
  8
0
 10
-282.349060
 20
200.849350
 40
3.000004
 50
229.092850
 51
40.907337
  0
ARC
  8
0
 10
-267.499939
 20
186.000229
 40
20.999996
 50
323.192139
 51
351.807892
  0
ARC
  8
0
 10
-267.499939
 20
186.000229
 40
20.999992
 50
278.192108
 51
306.807892
  0
ARC
  8
0
 10
-267.499939
 20
186.000229
 40
20.999996
 50
143.192139
 51
171.807907
  0
ARC
  8
0
 10
-267.499939
 20
186.000229
 40
21.000006
 50
233.192093
 51
261.807983
  0
ARC
  8
0
 10
-267.499939
 20
186.000229
 40
20.999992
 50
188.192093
 51
216.807861
  0
ARC
  8
0
 10
-267.499939
 20
207.000229
 40
3.000002
 50
184.095917
 51
355.904083
  0
ARC
  8
0
 10
-267.499939
 20
186.000229
 40
20.999992
 50
98.192101
 51
126.807899
  0
ARC
  8
0
 10
-267.499939
 20
186.000229
 40
21.000006
 50
53.192101
 51
81.807907
  0
ARC
  8
0
 10
-240.994720
 20
162.000229
 40
5.838727
 50
306.144653
 51
53.855438
  0
TEXT
  8
0
 10
-249.883087
 20
107.803947
 40
3.200000
  1
P
 50
270.100006
 41
1.052631
 51
0.000000
  7
STANDARD
  0
TEXT
  8
0
 10
-249.885880
 20
84.403946
 40
3.200000
  1
R2
 50
270.100006
 41
1.052631
 51
0.000000
  7
STANDARD
  0
TEXT
  8
0
 10
-249.885880
 20
134.403931
 40
3.200000
  1
R1
 50
270.100006
 41
1.052631
 51
0.000000
  7
STANDARD
  0
TEXT
  8
0
 10
-279.885895
 20
140.903931
 40
3.200000
  1
PR
 50
270.100006
 41
1.052631
 51
0.000000
  7
STANDARD
  0
ENDSEC
  0
EOF
