  0
SECTION
  2
HEADER
  0
ENDSEC
  0
SECTION
  2
TABLES
  0
TABLE
  2
LTYPE
 70
     4
  0
LTYPE
  2
CONTINUOUS
 70
    64
  3
Solid line
 72
    65
 73
     0
 40
0.000000
  0
LTYPE
  2
DASHED
 70
    64
  3
__ __ __ __ __ __ __ __ __ __ __ __ __ __ __
 72
    65
 73
     2
 40
3.500000
 49
2.000000
 49
-1.500000
  0
LTYPE
  2
CENTER
 70
    64
  3
____ _ ____ _ ____ _ ____ _ ____ _ ____ _ ____
 72
    65
 73
     4
 40
17.500000
 49
13.000000
 49
-1.500000
 49
1.500000
 49
-1.500000
  0
LTYPE
  2
PHANTOM
 70
    64
  3
_____ _ _ _____ _ _ _____ _ _ _____ _ _ ____  
 72
    65
 73
     6
 40
15.500000
 49
8.000000
 49
-1.500000
 49
1.500000
 49
-1.500000
 49
1.500000
 49
-1.500000
  0
LTYPE
  2
DASHED1
 70
    64
  3
__ __ __ __ __ __ __ __ __ __ __ __ __ __ __
 72
    65
 73
     2
 40
1.500000
 49
1.000000
 49
-0.500000
  0
LTYPE
  2
DASHED2
 70
    64
  3
__ __ __ __ __ __ __ __ __ __ __ __ __ __ __
 72
    65
 73
     2
 40
3.500000
 49
2.500000
 49
-1.000000
  0
LTYPE
  2
DASHED3
 70
    64
  3
__ __ __ __ __ __ __ __ __ __ __ __ __ __ __
 72
    65
 73
     2
 40
6.000000
 49
4.000000
 49
-2.000000
  0
LTYPE
  2
DASHED4
 70
    64
  3
__ __ __ __ __ __ __ __ __ __ __ __ __ __ __
 72
    65
 73
     2
 40
12.000000
 49
10.000000
 49
-2.000000
  0
LTYPE
  2
DASHED5
 70
    64
  3
__ __ __ __ __ __ __ __ __ __ __ __ __ __ __
 72
    65
 73
     2
 40
17.000000
 49
15.000000
 49
-2.000000
  0
LTYPE
  2
DASHED6
 70
    64
  3
__ __ __ __ __ __ __ __ __ __ __ __ __ __ __
 72
    65
 73
     2
 40
29.000000
 49
27.000000
 49
-2.000000
  0
LTYPE
  2
PHANTOM1
 70
    64
  3
_____ _ _ _____ _ _ _____ _ _ _____ _ _ ____  
 72
    65
 73
     6
 40
31.000000
 49
25.000000
 49
-1.500000
 49
1.000000
 49
-1.000000
 49
1.000000
 49
-1.500000
  0
LTYPE
  2
PHANTOM2
 70
    64
  3
_____ _ _ _____ _ _ _____ _ _ _____ _ _ ____  
 72
    65
 73
     6
 40
36.000000
 49
27.000000
 49
-1.500000
 49
2.500000
 49
-1.000000
 49
2.500000
 49
-1.500000
  0
LTYPE
  2
PHANTOM3
 70
    64
  3
_____ _ _ _____ _ _ _____ _ _ _____ _ _ ____  
 72
    65
 73
     6
 40
78.000000
 49
64.000000
 49
-2.000000
 49
4.000000
 49
-2.000000
 49
4.000000
 49
-2.000000
  0
LTYPE
  2
CENTER1
 70
    64
  3
____ _ ____ _ ____ _ ____ _ ____ _ ____ _ ____
 72
    65
 73
     4
 40
19.000000
 49
14.000000
 49
-1.000000
 49
3.000000
 49
-1.000000
  0
LTYPE
  2
CENTER2
 70
    64
  3
____ _ ____ _ ____ _ ____ _ ____ _ ____ _ ____
 72
    65
 73
     4
 40
28.500000
 49
25.000000
 49
-1.000000
 49
1.500000
 49
-1.000000
  0
LTYPE
  2
CENTER3
 70
    64
  3
____ _ ____ _ ____ _ ____ _ ____ _ ____ _ ____
 72
    65
 73
     4
 40
31.500000
 49
27.000000
 49
-1.000000
 49
2.500000
 49
-1.000000
  0
LTYPE
  2
CENTER4
 70
    64
  3
____ _ ____ _ ____ _ ____ _ ____ _ ____ _ ____
 72
    65
 73
     4
 40
50.000000
 49
45.000000
 49
-1.000000
 49
3.000000
 49
-1.000000
  0
LTYPE
  2
CENTER5
 70
    64
  3
____ _ ____ _ ____ _ ____ _ ____ _ ____ _ ____
 72
    65
 73
     4
 40
100.000000
 49
92.000000
 49
-2.000000
 49
4.000000
 49
-2.000000
  0
LTYPE
  2
SBK1
 70
    64
  3
______ _ _ _ ______ _ _ _ ______ _ _ _ _____  
 72
    65
 73
     8
 40
60.500000
 49
45.000000
 49
-2.000000
 49
2.500000
 49
-2.000000
 49
2.500000
 49
-2.000000
 49
2.500000
 49
-2.000000
  0
LTYPE
  2
SBK2
 70
    64
  3
______ _ _ _ ______ _ _ _ ______ _ _ _ _____  
 72
    65
 73
     8
 40
84.000000
 49
64.000000
 49
-2.000000
 49
4.000000
 49
-2.000000
 49
4.000000
 49
-2.000000
 49
4.000000
 49
-2.000000
  0
LTYPE
  2
STCH
 70
    64
  3
__ __ __ __ __ __ __ __ __ __ __ __ __ __ __
 72
    65
 73
     2
 40
3.000000
 49
1.000000
 49
-2.000000
  0
LTYPE
  2
MTCH
 70
    64
  3
_____ _ _ _____ _ _ _____ _ _ _____ _ _ ____  
 72
    65
 73
     6
 40
80.000000
 49
66.000000
 49
-2.000000
 49
4.000000
 49
-2.000000
 49
4.000000
 49
-2.000000
  0
ENDTAB
  0
TABLE
  2
LAYER
 70
     1
  0
LAYER
  2
0
 70
     0
 62
     7
  6
CONTINUOUS
  0
ENDTAB
  0
TABLE
  2
STYLE
 70
     1
  0
STYLE
  2
STANDARD
 70
     0
 40
0.000000
 41
1.000000
 50
0.000000
 71
     0
 42
0.200000
  3
txt
  4
BIGFONT
  0
ENDTAB
  0
TABLE
  2
VIEW
 70
     0
  0
ENDTAB
  0
ENDSEC
  0
SECTION
  2
BLOCKS
  0
ENDSEC
  0
SECTION
  2
ENTITIES
  0
POINT
  8
0
 10
-199.999969
 20
20.000000
  0
POINT
  8
0
 10
-81.399963
 20
20.000000
  0
POINT
  8
0
 10
-29.999994
 20
20.000000
  0
POINT
  8
0
 10
164.000000
 20
20.000000
  0
POINT
  8
0
 10
-29.999994
 20
-149.999969
  0
POINT
  8
0
 10
164.000000
 20
-149.999969
  0
LINE
  8
0
 10
182.099976
 20
-175.000000
 11
282.099976
 21
-175.000000
  0
LINE
  8
0
 10
182.099976
 20
-175.000000
 11
182.099976
 21
-195.000000
  0
LINE
  8
0
 10
182.099976
 20
180.500000
 11
282.099976
 21
180.500000
  0
LINE
  8
0
 10
-281.250000
 20
180.500000
 11
-181.250000
 21
180.500000
  0
LINE
  8
0
 10
-181.250000
 20
195.500000
 11
-181.250000
 21
180.500000
  0
LINE
  8
0
 10
182.099976
 20
180.500000
 11
182.099976
 21
195.500000
  0
LINE
  8
0
 10
-297.000000
 20
210.000000
 11
297.000000
 21
210.000000
  0
LINE
  8
0
 10
-297.000000
 20
210.000000
 11
-297.000000
 21
-210.000000
  0
LINE
  8
0
 10
-297.000000
 20
-210.000000
 11
297.000000
 21
-210.000000
  0
LINE
  8
0
 10
297.000000
 20
210.000000
 11
297.000000
 21
-210.000000
  0
LINE
  8
0
 10
-281.250000
 20
-195.000000
 11
282.099976
 21
-195.000000
  0
LINE
  8
0
 10
282.099976
 20
195.500000
 11
282.099976
 21
-195.000000
  0
LINE
  8
0
 10
-281.250000
 20
195.500000
 11
282.099976
 21
195.500000
  0
LINE
  8
0
 10
-281.250000
 20
195.500000
 11
-281.250000
 21
-195.000000
  0
TEXT
  8
0
 10
178.000870
 20
-190.300003
 40
7.000000
  1
ＫＯＧＡＮＥＩ，ＣＯＲＰ．
 50
0.000000
 41
0.902367
 51
15.000000
  7
STANDARD
  0
TEXT
  8
0
 10
188.021667
 20
183.779999
 40
5.800000
  1
DATE: MAY ,1992
 50
0.000000
 41
1.052632
 51
0.000000
  7
STANDARD
  0
TEXT
  8
0
 10
-249.228317
 20
183.779999
 40
5.800000
  1
430M*A
 50
0.000000
 41
1.052632
 51
0.000000
  7
STANDARD
  0
TEXT
  8
0
 10
-269.528320
 20
-166.220001
 40
5.800000
  1
MODEL: 430M*A
 50
0.000000
 41
1.052632
 51
0.000000
  7
STANDARD
  0
POINT
  8
0
 10
-29.999994
 20
20.000000
  0
POINT
  8
0
 10
164.000000
 20
20.000000
  0
LINE
  8
0
 10
-18.999971
 20
172.000000
 11
153.000000
 21
172.000000
  0
LINE
  8
0
 10
66.000008
 20
117.000000
 11
67.000008
 21
117.000000
  0
LINE
  8
0
 10
146.000000
 20
172.000000
 11
146.000000
 21
117.000000
  0
LINE
  8
0
 10
150.328918
 20
117.000000
 11
176.933411
 21
117.000000
  0
LINE
  8
0
 10
164.000000
 20
121.500000
 11
169.000000
 21
121.500000
  0
LINE
  8
0
 10
164.000000
 20
112.500000
 11
169.000000
 21
112.500000
  0
LINE
  8
0
 10
157.000000
 20
108.000000
 11
168.000000
 21
108.000000
  0
LINE
  8
0
 10
164.236053
 20
126.000000
 11
168.000000
 21
126.000000
  0
LINE
  8
0
 10
170.000000
 20
124.000000
 11
170.000000
 21
122.500000
  0
LINE
  8
0
 10
170.000000
 20
111.500000
 11
170.000000
 21
110.000000
  0
LINE
  8
0
 10
164.000000
 20
123.101624
 11
164.000000
 21
110.983398
  0
LINE
  8
0
 10
133.000000
 20
117.000000
 11
133.000000
 21
11.000000
  0
LINE
  8
0
 10
156.000000
 20
169.000000
 11
156.000000
 21
14.000000
  0
LINE
  8
0
 10
66.000008
 20
11.000000
 11
67.000008
 21
11.000000
  0
LINE
  8
0
 10
150.726013
 20
20.000000
 11
174.550934
 21
20.000000
  0
LINE
  8
0
 10
164.000000
 20
24.500000
 11
169.000000
 21
24.500000
  0
LINE
  8
0
 10
164.000000
 20
15.500000
 11
169.000000
 21
15.500000
  0
LINE
  8
0
 10
157.000000
 20
29.000000
 11
168.000000
 21
29.000000
  0
LINE
  8
0
 10
170.000000
 20
27.000000
 11
170.000000
 21
25.124451
  0
LINE
  8
0
 10
170.000000
 20
14.500000
 11
170.000000
 21
13.000000
  0
LINE
  8
0
 10
164.000000
 20
25.382263
 11
164.000000
 21
14.000000
  0
LINE
  8
0
 10
-26.107752
 20
65.999969
 11
160.107758
 21
65.999969
  0
LINE
  8
0
 10
34.000008
 20
117.000000
 11
33.000008
 21
117.000000
  0
LINE
  8
0
 10
-11.999994
 20
172.000000
 11
-11.999994
 21
117.000000
  0
LINE
  8
0
 10
-16.328913
 20
117.000000
 11
-37.366692
 21
117.000000
  0
LINE
  8
0
 10
-29.999994
 20
121.500000
 11
-34.999992
 21
121.500000
  0
LINE
  8
0
 10
-29.999994
 20
112.500000
 11
-34.999992
 21
112.500000
  0
LINE
  8
0
 10
-22.999994
 20
126.000000
 11
-33.999992
 21
126.000000
  0
LINE
  8
0
 10
-35.999992
 20
124.000031
 11
-35.999992
 21
122.500031
  0
LINE
  8
0
 10
-35.999992
 20
111.500031
 11
-35.999992
 21
110.000000
  0
LINE
  8
0
 10
-29.999994
 20
123.101624
 11
-29.999994
 21
110.983398
  0
LINE
  8
0
 10
-21.999994
 20
169.000000
 11
-21.999994
 21
14.000000
  0
LINE
  8
0
 10
-16.726038
 20
20.000000
 11
-37.850822
 21
20.000000
  0
LINE
  8
0
 10
-30.000025
 20
24.500000
 11
-35.000023
 21
24.500000
  0
LINE
  8
0
 10
-30.000025
 20
15.500000
 11
-35.000023
 21
15.500000
  0
LINE
  8
0
 10
-23.000025
 20
29.000000
 11
-34.000023
 21
29.000000
  0
LINE
  8
0
 10
-35.999992
 20
27.000000
 11
-35.999992
 21
25.124451
  0
LINE
  8
0
 10
-35.999992
 20
14.500000
 11
-35.999992
 21
13.000000
  0
LINE
  8
0
 10
-29.999994
 20
25.382263
 11
-29.999994
 21
14.000000
  0
LINE
  8
0
 10
99.000008
 20
117.000000
 11
146.000000
 21
117.000000
  0
LINE
  8
0
 10
1.000006
 20
117.000000
 11
-11.999994
 21
117.000000
  0
LINE
  8
0
 10
99.000008
 20
11.000000
 11
168.000000
 21
11.000000
  0
LINE
  8
0
 10
34.000008
 20
11.000000
 11
-34.000023
 21
11.000000
  0
LINE
  8
0
 10
17.000006
 20
5.817688
 11
17.000006
 21
153.123962
  0
LINE
  8
0
 10
12.000006
 20
36.999969
 11
12.000006
 21
94.999969
  0
LINE
  8
0
 10
22.000006
 20
36.999969
 11
22.000006
 21
94.999969
  0
LINE
  8
0
 10
11.000006
 20
36.999969
 11
11.000006
 21
94.999969
  0
LINE
  8
0
 10
23.000006
 20
36.999969
 11
23.000006
 21
94.999969
  0
LINE
  8
0
 10
4.500006
 20
76.499969
 11
4.500006
 21
85.499969
  0
LINE
  8
0
 10
29.500006
 20
46.499969
 11
29.500006
 21
55.499969
  0
LINE
  8
0
 10
33.000008
 20
24.999969
 11
33.000008
 21
142.999969
  0
LINE
  8
0
 10
0.000006
 20
80.999969
 11
9.000006
 21
80.999969
  0
LINE
  8
0
 10
25.000006
 20
50.999969
 11
34.000008
 21
50.999969
  0
LINE
  8
0
 10
12.000006
 20
85.999969
 11
22.000006
 21
85.999969
  0
LINE
  8
0
 10
12.000006
 20
45.999969
 11
22.000006
 21
45.999969
  0
LINE
  8
0
 10
12.999975
 20
95.999969
 11
20.999975
 21
95.999969
  0
LINE
  8
0
 10
13.000006
 20
35.999969
 11
21.000006
 21
35.999969
  0
LINE
  8
0
 10
12.999975
 20
96.999969
 11
20.999975
 21
96.999969
  0
LINE
  8
0
 10
13.000006
 20
34.999969
 11
21.000006
 21
34.999969
  0
LINE
  8
0
 10
0.999975
 20
101.999969
 11
32.999977
 21
101.999969
  0
LINE
  8
0
 10
1.000006
 20
29.999969
 11
33.000008
 21
29.999969
  0
LINE
  8
0
 10
4.000006
 20
21.999969
 11
30.000006
 21
21.999969
  0
LINE
  8
0
 10
0.999975
 20
121.999969
 11
32.999977
 21
121.999969
  0
LINE
  8
0
 10
3.999975
 20
145.999969
 11
29.999975
 21
145.999969
  0
LINE
  8
0
 10
29.500006
 20
53.999969
 11
33.000008
 21
53.999969
  0
LINE
  8
0
 10
29.500006
 20
47.999969
 11
33.000008
 21
47.999969
  0
LINE
  8
0
 10
4.500006
 20
47.999969
 11
1.000006
 21
47.999969
  0
LINE
  8
0
 10
4.500006
 20
53.999969
 11
1.000006
 21
53.999969
  0
LINE
  8
0
 10
29.500006
 20
83.999969
 11
33.000008
 21
83.999969
  0
LINE
  8
0
 10
29.500006
 20
77.999969
 11
33.000008
 21
77.999969
  0
LINE
  8
0
 10
4.500006
 20
83.999969
 11
1.000006
 21
83.999969
  0
LINE
  8
0
 10
4.500006
 20
77.999969
 11
1.000006
 21
77.999969
  0
LINE
  8
0
 10
25.000006
 20
80.999969
 11
34.000008
 21
80.999969
  0
LINE
  8
0
 10
29.500006
 20
85.499969
 11
29.500006
 21
76.499969
  0
LINE
  8
0
 10
4.500006
 20
55.499969
 11
4.500006
 21
46.499969
  0
LINE
  8
0
 10
0.000006
 20
50.999969
 11
9.000006
 21
50.999969
  0
LINE
  8
0
 10
31.500006
 20
93.499969
 11
31.500006
 21
100.499969
  0
LINE
  8
0
 10
25.699987
 20
100.499969
 11
31.499975
 21
100.499969
  0
LINE
  8
0
 10
25.699987
 20
93.499969
 11
25.699987
 21
100.499969
  0
LINE
  8
0
 10
25.699987
 20
93.499969
 11
31.499975
 21
93.499969
  0
LINE
  8
0
 10
8.300024
 20
38.499969
 11
2.500006
 21
38.499969
  0
LINE
  8
0
 10
8.299994
 20
38.499969
 11
8.299994
 21
31.499969
  0
LINE
  8
0
 10
8.300024
 20
31.499969
 11
2.500006
 21
31.499969
  0
LINE
  8
0
 10
2.500006
 20
38.499969
 11
2.500006
 21
31.499969
  0
LINE
  8
0
 10
28.778326
 20
52.249969
 11
30.221685
 21
52.249969
  0
LINE
  8
0
 10
28.778326
 20
49.749969
 11
30.221685
 21
49.749969
  0
LINE
  8
0
 10
28.778322
 20
49.749996
 11
28.056643
 21
50.999985
  0
LINE
  8
0
 10
30.943373
 20
51.000000
 11
30.221693
 21
52.249985
  0
LINE
  8
0
 10
30.221872
 20
49.749886
 11
30.943567
 21
50.999897
  0
LINE
  8
0
 10
28.056810
 20
50.999886
 11
28.778502
 21
52.249897
  0
LINE
  8
0
 10
3.778326
 20
49.749969
 11
5.221685
 21
49.749969
  0
LINE
  8
0
 10
3.778315
 20
49.749985
 11
3.056635
 21
50.999973
  0
LINE
  8
0
 10
5.943388
 20
50.999985
 11
5.221693
 21
52.249996
  0
LINE
  8
0
 10
5.221891
 20
49.749863
 11
5.943586
 21
50.999878
  0
LINE
  8
0
 10
3.056795
 20
50.999847
 11
3.778490
 21
52.249859
  0
LINE
  8
0
 10
3.778326
 20
52.249969
 11
5.221685
 21
52.249969
  0
LINE
  8
0
 10
3.778326
 20
79.749969
 11
5.221685
 21
79.749969
  0
LINE
  8
0
 10
3.778330
 20
79.749962
 11
3.056631
 21
80.999969
  0
LINE
  8
0
 10
5.943380
 20
80.999969
 11
5.221685
 21
82.249977
  0
LINE
  8
0
 10
5.221857
 20
79.749924
 11
5.943537
 21
80.999908
  0
LINE
  8
0
 10
3.056765
 20
80.999939
 11
3.778460
 21
82.249947
  0
LINE
  8
0
 10
3.778326
 20
82.249969
 11
5.221685
 21
82.249969
  0
LINE
  8
0
 10
28.778326
 20
79.749969
 11
30.221685
 21
79.749969
  0
LINE
  8
0
 10
28.778315
 20
79.749977
 11
28.056620
 21
80.999985
  0
LINE
  8
0
 10
30.943384
 20
80.999969
 11
30.221689
 21
82.249985
  0
LINE
  8
0
 10
30.221907
 20
79.749908
 11
30.943602
 21
80.999924
  0
LINE
  8
0
 10
28.056814
 20
80.999924
 11
28.778494
 21
82.249908
  0
LINE
  8
0
 10
28.778326
 20
82.249969
 11
30.221685
 21
82.249969
  0
LINE
  8
0
 10
1.000006
 20
11.000000
 11
1.000006
 21
142.999969
  0
LINE
  8
0
 10
83.000008
 20
-8.465820
 11
83.000008
 21
153.123962
  0
LINE
  8
0
 10
78.000008
 20
36.999969
 11
78.000008
 21
94.999969
  0
LINE
  8
0
 10
88.000008
 20
36.999969
 11
88.000008
 21
94.999969
  0
LINE
  8
0
 10
77.000008
 20
36.999969
 11
77.000008
 21
94.999969
  0
LINE
  8
0
 10
89.000008
 20
36.999969
 11
89.000008
 21
94.999969
  0
LINE
  8
0
 10
70.500008
 20
76.499969
 11
70.500008
 21
85.499969
  0
LINE
  8
0
 10
128.500000
 20
76.499969
 11
128.500000
 21
85.499969
  0
LINE
  8
0
 10
99.000008
 20
0.999969
 11
99.000008
 21
162.000000
  0
LINE
  8
0
 10
66.000008
 20
80.999969
 11
75.000008
 21
80.999969
  0
LINE
  8
0
 10
124.000008
 20
80.999969
 11
134.805115
 21
80.999969
  0
LINE
  8
0
 10
78.000008
 20
85.999969
 11
88.000008
 21
85.999969
  0
LINE
  8
0
 10
78.000008
 20
45.999969
 11
88.000008
 21
45.999969
  0
LINE
  8
0
 10
78.999977
 20
95.999969
 11
86.999977
 21
95.999969
  0
LINE
  8
0
 10
79.000008
 20
35.999969
 11
87.000008
 21
35.999969
  0
LINE
  8
0
 10
78.999977
 20
96.999969
 11
86.999977
 21
96.999969
  0
LINE
  8
0
 10
79.000008
 20
34.999969
 11
87.000008
 21
34.999969
  0
LINE
  8
0
 10
66.999977
 20
120.999969
 11
98.999977
 21
120.999969
  0
LINE
  8
0
 10
67.000008
 20
29.999969
 11
99.000008
 21
29.999969
  0
LINE
  8
0
 10
67.000008
 20
21.999969
 11
99.000008
 21
21.999969
  0
LINE
  8
0
 10
70.000008
 20
-2.000031
 11
96.000008
 21
-2.000031
  0
LINE
  8
0
 10
66.999977
 20
140.999969
 11
98.999977
 21
140.999969
  0
LINE
  8
0
 10
69.999977
 20
164.999969
 11
95.999977
 21
164.999969
  0
LINE
  8
0
 10
95.500008
 20
53.999969
 11
99.000008
 21
53.999969
  0
LINE
  8
0
 10
95.500008
 20
47.999969
 11
99.000008
 21
47.999969
  0
LINE
  8
0
 10
70.500008
 20
47.999969
 11
67.000008
 21
47.999969
  0
LINE
  8
0
 10
70.500008
 20
53.999969
 11
67.000008
 21
53.999969
  0
LINE
  8
0
 10
95.500008
 20
83.999969
 11
99.000008
 21
83.999969
  0
LINE
  8
0
 10
95.500008
 20
77.999969
 11
99.000008
 21
77.999969
  0
LINE
  8
0
 10
70.500008
 20
83.999969
 11
67.000008
 21
83.999969
  0
LINE
  8
0
 10
70.500008
 20
77.999969
 11
67.000008
 21
77.999969
  0
LINE
  8
0
 10
91.000008
 20
80.999969
 11
100.138435
 21
80.999969
  0
LINE
  8
0
 10
95.500008
 20
85.499969
 11
95.500008
 21
76.499969
  0
LINE
  8
0
 10
70.500008
 20
55.499969
 11
70.500008
 21
46.499969
  0
LINE
  8
0
 10
66.000008
 20
50.999969
 11
75.000008
 21
50.999969
  0
LINE
  8
0
 10
97.500008
 20
93.499969
 11
97.500008
 21
100.499969
  0
LINE
  8
0
 10
91.699989
 20
100.499969
 11
97.499977
 21
100.499969
  0
LINE
  8
0
 10
91.699989
 20
93.499969
 11
91.699989
 21
100.499969
  0
LINE
  8
0
 10
91.699989
 20
93.499969
 11
97.499977
 21
93.499969
  0
LINE
  8
0
 10
74.300026
 20
38.499969
 11
68.500008
 21
38.499969
  0
LINE
  8
0
 10
74.299995
 20
38.499969
 11
74.299995
 21
31.499969
  0
LINE
  8
0
 10
74.300026
 20
31.499969
 11
68.500008
 21
31.499969
  0
LINE
  8
0
 10
68.500008
 20
38.499969
 11
68.500008
 21
31.499969
  0
LINE
  8
0
 10
127.778328
 20
82.249969
 11
129.221680
 21
82.249969
  0
LINE
  8
0
 10
127.778328
 20
79.749969
 11
129.221680
 21
79.749969
  0
LINE
  8
0
 10
127.778313
 20
79.749954
 11
127.056633
 21
80.999939
  0
LINE
  8
0
 10
129.943359
 20
80.999954
 11
129.221680
 21
82.249947
  0
LINE
  8
0
 10
129.222031
 20
79.749878
 11
129.943710
 21
80.999870
  0
LINE
  8
0
 10
127.057030
 20
80.999847
 11
127.778709
 21
82.249840
  0
LINE
  8
0
 10
69.778328
 20
49.749969
 11
71.221687
 21
49.749969
  0
LINE
  8
0
 10
69.778336
 20
49.749989
 11
69.056656
 21
50.999977
  0
LINE
  8
0
 10
71.943405
 20
50.999985
 11
71.221710
 21
52.250000
  0
LINE
  8
0
 10
71.222000
 20
49.749870
 11
71.943680
 21
50.999855
  0
LINE
  8
0
 10
69.056900
 20
50.999847
 11
69.778580
 21
52.249832
  0
LINE
  8
0
 10
69.778328
 20
52.249969
 11
71.221687
 21
52.249969
  0
LINE
  8
0
 10
69.778328
 20
79.749969
 11
71.221687
 21
79.749969
  0
LINE
  8
0
 10
69.778336
 20
79.749962
 11
69.056641
 21
80.999969
  0
LINE
  8
0
 10
71.943405
 20
80.999962
 11
71.221710
 21
82.249969
  0
LINE
  8
0
 10
71.221916
 20
79.749878
 11
71.943611
 21
80.999893
  0
LINE
  8
0
 10
69.056839
 20
80.999893
 11
69.778534
 21
82.249901
  0
LINE
  8
0
 10
69.778328
 20
82.249969
 11
71.221687
 21
82.249969
  0
LINE
  8
0
 10
94.778328
 20
79.749969
 11
96.221687
 21
79.749969
  0
LINE
  8
0
 10
94.778313
 20
79.750015
 11
94.056633
 21
81.000000
  0
LINE
  8
0
 10
96.943382
 20
81.000008
 11
96.221703
 21
82.249992
  0
LINE
  8
0
 10
96.221962
 20
79.749870
 11
96.943657
 21
80.999886
  0
LINE
  8
0
 10
94.056900
 20
80.999893
 11
94.778580
 21
82.249878
  0
LINE
  8
0
 10
94.778328
 20
82.249969
 11
96.221687
 21
82.249969
  0
LINE
  8
0
 10
67.000008
 20
0.999969
 11
67.000008
 21
161.999969
  0
LINE
  8
0
 10
50.000008
 20
-8.465820
 11
50.000008
 21
153.123962
  0
LINE
  8
0
 10
45.000008
 20
36.999969
 11
45.000008
 21
94.999969
  0
LINE
  8
0
 10
55.000008
 20
36.999969
 11
55.000008
 21
94.999969
  0
LINE
  8
0
 10
44.000008
 20
36.999969
 11
44.000008
 21
94.999969
  0
LINE
  8
0
 10
56.000008
 20
36.999969
 11
56.000008
 21
94.999969
  0
LINE
  8
0
 10
37.500008
 20
76.499969
 11
37.500008
 21
85.499969
  0
LINE
  8
0
 10
62.500008
 20
46.499969
 11
62.500008
 21
55.499969
  0
LINE
  8
0
 10
66.000008
 20
0.999969
 11
66.000008
 21
142.999969
  0
LINE
  8
0
 10
33.000008
 20
80.999969
 11
42.000008
 21
80.999969
  0
LINE
  8
0
 10
58.000008
 20
50.999969
 11
67.000008
 21
50.999969
  0
LINE
  8
0
 10
45.000008
 20
85.999969
 11
55.000008
 21
85.999969
  0
LINE
  8
0
 10
45.000008
 20
45.999969
 11
55.000008
 21
45.999969
  0
LINE
  8
0
 10
45.999977
 20
95.999969
 11
53.999977
 21
95.999969
  0
LINE
  8
0
 10
46.000008
 20
35.999969
 11
54.000008
 21
35.999969
  0
LINE
  8
0
 10
45.999977
 20
96.999969
 11
53.999977
 21
96.999969
  0
LINE
  8
0
 10
46.000008
 20
34.999969
 11
54.000008
 21
34.999969
  0
LINE
  8
0
 10
33.999977
 20
101.999969
 11
65.999977
 21
101.999969
  0
LINE
  8
0
 10
34.000008
 20
29.999969
 11
66.000008
 21
29.999969
  0
LINE
  8
0
 10
34.000008
 20
21.999969
 11
66.000008
 21
21.999969
  0
LINE
  8
0
 10
37.000008
 20
-2.000031
 11
63.000008
 21
-2.000031
  0
LINE
  8
0
 10
33.999977
 20
121.999969
 11
65.999977
 21
121.999969
  0
LINE
  8
0
 10
36.999977
 20
145.999969
 11
62.999977
 21
145.999969
  0
LINE
  8
0
 10
62.500008
 20
53.999969
 11
66.000008
 21
53.999969
  0
LINE
  8
0
 10
62.500008
 20
47.999969
 11
66.000008
 21
47.999969
  0
LINE
  8
0
 10
37.500008
 20
47.999969
 11
34.000008
 21
47.999969
  0
LINE
  8
0
 10
37.500008
 20
53.999969
 11
34.000008
 21
53.999969
  0
LINE
  8
0
 10
62.500008
 20
83.999969
 11
66.000008
 21
83.999969
  0
LINE
  8
0
 10
62.500008
 20
77.999969
 11
66.000008
 21
77.999969
  0
LINE
  8
0
 10
37.500008
 20
83.999969
 11
34.000008
 21
83.999969
  0
LINE
  8
0
 10
37.500008
 20
77.999969
 11
34.000008
 21
77.999969
  0
LINE
  8
0
 10
58.000008
 20
80.999969
 11
67.000008
 21
80.999969
  0
LINE
  8
0
 10
62.500008
 20
85.499969
 11
62.500008
 21
76.499969
  0
LINE
  8
0
 10
37.500008
 20
55.499969
 11
37.500008
 21
46.499969
  0
LINE
  8
0
 10
33.000008
 20
50.999969
 11
42.000008
 21
50.999969
  0
LINE
  8
0
 10
64.500008
 20
93.499969
 11
64.500008
 21
100.499969
  0
LINE
  8
0
 10
58.699989
 20
100.499969
 11
64.499977
 21
100.499969
  0
LINE
  8
0
 10
58.699989
 20
93.499969
 11
58.699989
 21
100.499969
  0
LINE
  8
0
 10
58.699989
 20
93.499969
 11
64.499977
 21
93.499969
  0
LINE
  8
0
 10
41.300026
 20
38.499969
 11
35.500008
 21
38.499969
  0
LINE
  8
0
 10
41.299995
 20
38.499969
 11
41.299995
 21
31.499969
  0
LINE
  8
0
 10
41.300026
 20
31.499969
 11
35.500008
 21
31.499969
  0
LINE
  8
0
 10
35.500008
 20
38.499969
 11
35.500008
 21
31.499969
  0
LINE
  8
0
 10
61.778328
 20
52.249969
 11
63.221687
 21
52.249969
  0
LINE
  8
0
 10
61.778328
 20
49.749969
 11
63.221687
 21
49.749969
  0
LINE
  8
0
 10
61.778320
 20
49.749985
 11
61.056625
 21
51.000000
  0
LINE
  8
0
 10
63.943390
 20
50.999989
 11
63.221695
 21
52.250000
  0
LINE
  8
0
 10
63.221970
 20
49.749840
 11
63.943665
 21
50.999855
  0
LINE
  8
0
 10
61.056885
 20
50.999855
 11
61.778564
 21
52.249840
  0
LINE
  8
0
 10
36.778328
 20
49.749969
 11
38.221687
 21
49.749969
  0
LINE
  8
0
 10
36.778305
 20
49.749989
 11
36.056625
 21
50.999977
  0
LINE
  8
0
 10
38.943382
 20
50.999985
 11
38.221703
 21
52.249973
  0
LINE
  8
0
 10
38.221893
 20
49.749874
 11
38.943588
 21
50.999886
  0
LINE
  8
0
 10
36.056824
 20
50.999878
 11
36.778519
 21
52.249889
  0
LINE
  8
0
 10
36.778328
 20
52.249969
 11
38.221687
 21
52.249969
  0
LINE
  8
0
 10
36.778328
 20
79.749969
 11
38.221687
 21
79.749969
  0
LINE
  8
0
 10
36.778320
 20
79.749969
 11
36.056641
 21
80.999954
  0
LINE
  8
0
 10
38.943375
 20
80.999969
 11
38.221680
 21
82.249985
  0
LINE
  8
0
 10
38.221901
 20
79.749916
 11
38.943596
 21
80.999924
  0
LINE
  8
0
 10
36.056770
 20
80.999916
 11
36.778465
 21
82.249924
  0
LINE
  8
0
 10
36.778328
 20
82.249969
 11
38.221687
 21
82.249969
  0
LINE
  8
0
 10
61.778328
 20
79.749969
 11
63.221687
 21
79.749969
  0
LINE
  8
0
 10
61.778320
 20
79.749954
 11
61.056625
 21
80.999969
  0
LINE
  8
0
 10
63.943375
 20
80.999977
 11
63.221680
 21
82.249992
  0
LINE
  8
0
 10
63.221909
 20
79.749924
 11
63.943581
 21
80.999908
  0
LINE
  8
0
 10
61.056816
 20
80.999893
 11
61.778511
 21
82.249901
  0
LINE
  8
0
 10
61.778328
 20
82.249969
 11
63.221687
 21
82.249969
  0
LINE
  8
0
 10
34.000008
 20
0.999969
 11
34.000008
 21
142.999969
  0
LINE
  8
0
 10
47.850014
 20
-2.700043
 11
52.150002
 21
-2.700043
  0
LINE
  8
0
 10
47.850014
 20
-2.000031
 11
47.850014
 21
-2.700012
  0
LINE
  8
0
 10
52.150002
 20
-2.000031
 11
52.150002
 21
-2.700012
  0
LINE
  8
0
 10
19.150000
 20
146.699982
 11
14.850012
 21
146.699982
  0
LINE
  8
0
 10
19.150000
 20
145.999969
 11
19.150000
 21
146.699982
  0
LINE
  8
0
 10
14.850012
 20
145.999969
 11
14.850012
 21
146.699982
  0
LINE
  8
0
 10
85.150002
 20
-2.000031
 11
85.150002
 21
-2.700012
  0
LINE
  8
0
 10
80.850014
 20
-2.700043
 11
85.150002
 21
-2.700043
  0
LINE
  8
0
 10
80.850014
 20
-2.000031
 11
80.850014
 21
-2.700012
  0
LINE
  8
0
 10
85.150002
 20
165.699982
 11
80.850014
 21
165.699982
  0
LINE
  8
0
 10
85.150002
 20
164.999969
 11
85.150002
 21
165.699982
  0
LINE
  8
0
 10
80.850014
 20
164.999969
 11
80.850014
 21
165.699982
  0
LINE
  8
0
 10
52.150002
 20
146.699982
 11
47.850014
 21
146.699982
  0
LINE
  8
0
 10
52.150002
 20
145.999969
 11
52.150002
 21
146.699982
  0
LINE
  8
0
 10
47.850014
 20
145.999969
 11
47.850014
 21
146.699982
  0
LINE
  8
0
 10
-4.299372
 20
124.694305
 11
-4.299372
 21
122.299377
  0
LINE
  8
0
 10
-3.700647
 20
124.694305
 11
-3.700647
 21
122.299377
  0
LINE
  8
0
 10
-6.694300
 20
121.700653
 11
-4.299372
 21
121.700653
  0
LINE
  8
0
 10
-6.694300
 20
122.299377
 11
-4.299372
 21
122.299377
  0
LINE
  8
0
 10
-4.299372
 20
119.305756
 11
-3.700647
 21
119.305756
  0
LINE
  8
0
 10
-4.299372
 20
124.694305
 11
-3.700647
 21
124.694305
  0
LINE
  8
0
 10
-6.694300
 20
122.299377
 11
-6.694300
 21
121.700653
  0
LINE
  8
0
 10
-1.305750
 20
122.299377
 11
-1.305750
 21
121.700653
  0
LINE
  8
0
 10
-3.700647
 20
121.700653
 11
-1.305750
 21
121.700653
  0
LINE
  8
0
 10
-3.700647
 20
121.700653
 11
-3.700647
 21
119.305756
  0
LINE
  8
0
 10
-3.700647
 20
122.299377
 11
-1.305750
 21
122.299377
  0
LINE
  8
0
 10
-4.299372
 20
121.700653
 11
-4.299372
 21
119.305756
  0
LINE
  8
0
 10
137.700623
 20
124.694305
 11
137.700623
 21
122.299377
  0
LINE
  8
0
 10
138.299347
 20
124.694305
 11
138.299347
 21
122.299377
  0
LINE
  8
0
 10
135.305695
 20
121.700653
 11
137.700623
 21
121.700653
  0
LINE
  8
0
 10
135.305695
 20
122.299377
 11
137.700623
 21
122.299377
  0
LINE
  8
0
 10
137.700623
 20
119.305756
 11
138.299347
 21
119.305756
  0
LINE
  8
0
 10
137.700623
 20
124.694305
 11
138.299347
 21
124.694305
  0
LINE
  8
0
 10
135.305695
 20
122.299377
 11
135.305695
 21
121.700653
  0
LINE
  8
0
 10
140.694244
 20
122.299377
 11
140.694244
 21
121.700653
  0
LINE
  8
0
 10
138.299347
 20
121.700653
 11
140.694244
 21
121.700653
  0
LINE
  8
0
 10
138.299347
 20
121.700653
 11
138.299347
 21
119.305756
  0
LINE
  8
0
 10
138.299347
 20
122.299377
 11
140.694244
 21
122.299377
  0
LINE
  8
0
 10
137.700623
 20
121.700653
 11
137.700623
 21
119.305756
  0
LINE
  8
0
 10
66.999977
 20
101.999969
 11
98.999977
 21
101.999969
  0
LINE
  8
0
 10
1.000006
 20
23.499969
 11
1.401922
 21
23.499969
  0
LINE
  8
0
 10
33.000008
 20
104.499969
 11
34.000008
 21
104.499969
  0
LINE
  8
0
 10
100.000008
 20
23.499969
 11
132.000000
 21
23.499969
  0
LINE
  8
0
 10
66.000008
 20
23.499969
 11
67.000008
 21
23.499969
  0
LINE
  8
0
 10
66.000008
 20
104.499969
 11
67.000008
 21
104.499969
  0
LINE
  8
0
 10
32.598091
 20
23.499969
 11
34.000008
 21
23.499969
  0
LINE
  8
0
 10
-12.000002
 20
170.000000
 11
146.000000
 21
170.000000
  0
LINE
  8
0
 10
-12.000002
 20
167.500000
 11
146.000000
 21
167.500000
  0
LINE
  8
0
 10
-11.999994
 20
164.000000
 11
67.763924
 21
164.000000
  0
LINE
  8
0
 10
-11.999994
 20
159.500000
 11
67.000008
 21
159.500000
  0
LINE
  8
0
 10
-11.999994
 20
154.500000
 11
67.000008
 21
154.500000
  0
LINE
  8
0
 10
-11.999994
 20
149.500000
 11
67.000008
 21
149.500000
  0
LINE
  8
0
 10
-11.999994
 20
144.500000
 11
1.000006
 21
144.500000
  0
LINE
  8
0
 10
-11.999994
 20
139.500000
 11
1.000006
 21
139.500000
  0
LINE
  8
0
 10
-11.999994
 20
134.500000
 11
1.000006
 21
134.500000
  0
LINE
  8
0
 10
-11.999994
 20
129.500000
 11
1.000006
 21
129.500000
  0
LINE
  8
0
 10
98.236000
 20
163.999969
 11
145.999969
 21
163.999969
  0
LINE
  8
0
 10
99.000008
 20
159.500000
 11
146.000000
 21
159.500000
  0
LINE
  8
0
 10
99.000008
 20
144.500000
 11
146.000000
 21
144.500000
  0
LINE
  8
0
 10
99.000008
 20
149.500000
 11
146.000000
 21
149.500000
  0
LINE
  8
0
 10
99.000008
 20
154.500000
 11
146.000000
 21
154.500000
  0
LINE
  8
0
 10
99.000008
 20
129.500000
 11
146.000000
 21
129.500000
  0
LINE
  8
0
 10
99.000008
 20
134.500000
 11
146.000000
 21
134.500000
  0
LINE
  8
0
 10
99.000008
 20
139.500000
 11
146.000000
 21
139.500000
  0
LINE
  8
0
 10
116.000008
 20
5.783356
 11
116.000008
 21
153.123962
  0
LINE
  8
0
 10
100.000008
 20
11.000000
 11
100.000008
 21
117.000000
  0
LINE
  8
0
 10
100.000008
 20
108.499969
 11
132.000000
 21
108.499969
  0
LINE
  8
0
 10
95.500008
 20
46.499969
 11
95.500008
 21
55.499969
  0
LINE
  8
0
 10
91.000008
 20
50.999969
 11
101.805092
 21
50.999969
  0
LINE
  8
0
 10
94.778328
 20
52.249969
 11
96.221687
 21
52.249969
  0
LINE
  8
0
 10
94.778328
 20
49.749969
 11
96.221687
 21
49.749969
  0
LINE
  8
0
 10
94.778343
 20
49.749992
 11
94.056664
 21
50.999977
  0
LINE
  8
0
 10
96.943390
 20
50.999992
 11
96.221710
 21
52.249977
  0
LINE
  8
0
 10
96.222000
 20
49.749870
 11
96.943695
 21
50.999882
  0
LINE
  8
0
 10
94.056961
 20
50.999855
 11
94.778656
 21
52.249866
  0
LINE
  8
0
 10
128.500000
 20
46.499969
 11
128.500000
 21
55.499969
  0
LINE
  8
0
 10
124.000008
 20
50.999969
 11
134.805115
 21
50.999969
  0
LINE
  8
0
 10
127.778328
 20
52.249969
 11
129.221680
 21
52.249969
  0
LINE
  8
0
 10
127.778328
 20
49.749969
 11
129.221680
 21
49.749969
  0
LINE
  8
0
 10
127.778328
 20
49.749992
 11
127.056648
 21
50.999977
  0
LINE
  8
0
 10
129.943375
 20
50.999947
 11
129.221695
 21
52.249931
  0
LINE
  8
0
 10
129.222015
 20
49.749874
 11
129.943695
 21
50.999863
  0
LINE
  8
0
 10
127.056984
 20
50.999859
 11
127.778664
 21
52.249844
  0
LINE
  8
0
 10
103.500008
 20
46.499969
 11
103.500008
 21
55.499969
  0
LINE
  8
0
 10
99.000008
 20
50.999969
 11
109.805122
 21
50.999969
  0
LINE
  8
0
 10
102.778328
 20
52.249969
 11
104.221687
 21
52.249969
  0
LINE
  8
0
 10
102.778328
 20
49.749969
 11
104.221687
 21
49.749969
  0
LINE
  8
0
 10
102.778328
 20
49.750000
 11
102.056648
 21
50.999985
  0
LINE
  8
0
 10
104.943398
 20
51.000000
 11
104.221718
 21
52.249985
  0
LINE
  8
0
 10
104.221992
 20
49.749874
 11
104.943672
 21
50.999863
  0
LINE
  8
0
 10
102.056969
 20
50.999855
 11
102.778664
 21
52.249870
  0
LINE
  8
0
 10
103.500008
 20
76.499969
 11
103.500008
 21
85.499969
  0
LINE
  8
0
 10
99.000008
 20
80.999969
 11
109.805122
 21
80.999969
  0
LINE
  8
0
 10
102.778328
 20
82.249969
 11
104.221687
 21
82.249969
  0
LINE
  8
0
 10
102.778328
 20
79.749969
 11
104.221687
 21
79.749969
  0
LINE
  8
0
 10
102.778343
 20
79.749977
 11
102.056664
 21
80.999969
  0
LINE
  8
0
 10
104.943382
 20
80.999977
 11
104.221703
 21
82.249969
  0
LINE
  8
0
 10
104.222023
 20
79.749870
 11
104.943703
 21
80.999855
  0
LINE
  8
0
 10
102.056984
 20
80.999847
 11
102.778664
 21
82.249840
  0
LINE
  8
0
 10
172.778320
 20
146.000000
 11
151.022949
 21
146.000000
  0
LINE
  8
0
 10
159.000000
 20
167.000000
 11
159.000000
 21
125.000000
  0
LINE
  8
0
 10
165.000000
 20
164.000000
 11
165.000000
 21
128.000000
  0
LINE
  8
0
 10
162.000000
 20
125.000000
 11
159.000000
 21
125.000000
  0
LINE
  8
0
 10
162.000000
 20
167.000000
 11
159.000000
 21
167.000000
  0
LINE
  8
0
 10
157.500000
 20
123.500000
 11
156.000000
 21
123.500000
  0
LINE
  8
0
 10
157.500000
 20
168.500000
 11
156.000000
 21
168.500000
  0
LINE
  8
0
 10
165.000000
 20
162.813629
 11
159.000000
 21
162.813629
  0
LINE
  8
0
 10
165.000000
 20
158.500000
 11
159.000000
 21
158.500000
  0
LINE
  8
0
 10
165.000000
 20
148.992340
 11
159.000000
 21
148.992340
  0
LINE
  8
0
 10
165.000000
 20
129.186371
 11
159.000000
 21
129.186371
  0
LINE
  8
0
 10
165.000000
 20
133.500000
 11
159.000000
 21
133.500000
  0
LINE
  8
0
 10
165.000000
 20
143.007660
 11
159.000000
 21
143.007660
  0
LINE
  8
0
 10
-22.999994
 20
108.000000
 11
-33.999992
 21
108.000000
  0
LINE
  8
0
 10
100.000008
 20
49.249969
 11
101.714638
 21
49.249969
  0
LINE
  8
0
 10
100.000008
 20
52.749969
 11
101.714638
 21
52.749969
  0
LINE
  8
0
 10
100.000008
 20
79.249969
 11
101.714638
 21
79.249969
  0
LINE
  8
0
 10
100.000008
 20
82.749969
 11
101.714638
 21
82.749969
  0
LINE
  8
0
 10
130.285370
 20
79.249969
 11
132.000000
 21
79.249969
  0
LINE
  8
0
 10
130.285370
 20
82.749969
 11
132.000000
 21
82.749969
  0
LINE
  8
0
 10
130.285370
 20
49.249969
 11
132.000000
 21
49.249969
  0
LINE
  8
0
 10
130.285370
 20
52.749969
 11
132.000000
 21
52.749969
  0
LINE
  8
0
 10
-10.263666
 20
122.000000
 11
2.424597
 21
122.000000
  0
LINE
  8
0
 10
-3.999994
 20
128.606598
 11
-3.999994
 21
114.385773
  0
LINE
  8
0
 10
138.000000
 20
128.459808
 11
138.000000
 21
114.787018
  0
LINE
  8
0
 10
131.034363
 20
122.000000
 11
145.003571
 21
122.000000
  0
LINE
  8
0
 10
132.000000
 20
23.499969
 11
132.000000
 21
108.499969
  0
LINE
  8
0
 10
-6.749994
 20
118.170074
 11
-6.749994
 21
117.000000
  0
LINE
  8
0
 10
-1.249994
 20
118.170074
 11
-1.249994
 21
117.000000
  0
LINE
  8
0
 10
135.250000
 20
118.170074
 11
135.250000
 21
117.000000
  0
LINE
  8
0
 10
140.750000
 20
118.170074
 11
140.750000
 21
117.000000
  0
LINE
  8
0
 10
132.000000
 20
104.499969
 11
133.000000
 21
104.499969
  0
LINE
  8
0
 10
99.000008
 20
104.499969
 11
100.000008
 21
104.499969
  0
LINE
  8
0
 10
99.000008
 20
23.499969
 11
132.999969
 21
23.499969
  0
ARC
  8
0
 10
152.999969
 20
169.000000
 40
3.000000
 50
0.000000
 51
90.000000
  0
ARC
  8
0
 10
168.000000
 20
124.000000
 40
2.000000
 50
0.000000
 51
90.000000
  0
ARC
  8
0
 10
168.000000
 20
110.000000
 40
2.000000
 50
270.000000
 51
0.000000
  0
ARC
  8
0
 10
169.000000
 20
122.500000
 40
1.000000
 50
270.000000
 51
0.000000
  0
ARC
  8
0
 10
169.000000
 20
111.500000
 40
1.000000
 50
0.000000
 51
90.000000
  0
ARC
  8
0
 10
164.000000
 20
117.000000
 40
4.500000
 50
90.000000
 51
270.000000
  0
ARC
  8
0
 10
157.000000
 20
107.000000
 40
1.000000
 50
90.000000
 51
180.000000
  0
ARC
  8
0
 10
157.000000
 20
30.000000
 40
1.000000
 50
180.000000
 51
270.000000
  0
ARC
  8
0
 10
164.000000
 20
20.000000
 40
4.500000
 50
90.000000
 51
270.000000
  0
ARC
  8
0
 10
153.000000
 20
14.000000
 40
3.000000
 50
270.000000
 51
359.999969
  0
ARC
  8
0
 10
168.000000
 20
13.000000
 40
2.000000
 50
270.000000
 51
359.999939
  0
ARC
  8
0
 10
168.000000
 20
27.000000
 40
2.000000
 50
359.999939
 51
90.000000
  0
ARC
  8
0
 10
169.000000
 20
25.500000
 40
1.000000
 50
270.000000
 51
0.000000
  0
ARC
  8
0
 10
169.000000
 20
14.500000
 40
1.000000
 50
0.000000
 51
90.000000
  0
ARC
  8
0
 10
-18.999964
 20
169.000000
 40
3.000000
 50
89.999962
 51
180.000000
  0
ARC
  8
0
 10
-33.999962
 20
124.000000
 40
2.000000
 50
90.000000
 51
180.000000
  0
ARC
  8
0
 10
-33.999962
 20
110.000000
 40
2.000000
 50
180.000000
 51
270.000000
  0
ARC
  8
0
 10
-34.999962
 20
122.500000
 40
1.000000
 50
180.000000
 51
270.000000
  0
ARC
  8
0
 10
-34.999962
 20
111.500000
 40
1.000000
 50
90.000000
 51
180.000000
  0
ARC
  8
0
 10
-29.999964
 20
117.000000
 40
4.500000
 50
269.999939
 51
89.999924
  0
ARC
  8
0
 10
-22.999964
 20
127.000000
 40
1.000000
 50
270.000122
 51
0.000000
  0
ARC
  8
0
 10
-23.000025
 20
30.000000
 40
1.000000
 50
270.000000
 51
0.000000
  0
ARC
  8
0
 10
-30.000025
 20
20.000000
 40
4.500000
 50
269.999939
 51
89.999924
  0
ARC
  8
0
 10
-19.000025
 20
14.000000
 40
3.000000
 50
180.000015
 51
270.000000
  0
ARC
  8
0
 10
-34.000023
 20
13.000000
 40
2.000000
 50
180.000000
 51
270.000000
  0
ARC
  8
0
 10
-34.000023
 20
27.000000
 40
2.000000
 50
90.000000
 51
180.000000
  0
ARC
  8
0
 10
-35.000023
 20
25.500000
 40
1.000000
 50
180.000000
 51
270.000000
  0
ARC
  8
0
 10
-35.000023
 20
14.500000
 40
1.000000
 50
90.000000
 51
180.000000
  0
ARC
  8
0
 10
29.999975
 20
143.000000
 40
3.000002
 50
0.000000
 51
90.000076
  0
ARC
  8
0
 10
3.999975
 20
142.999969
 40
3.000000
 50
90.000076
 51
180.000000
  0
ARC
  8
0
 10
20.999975
 20
94.999969
 40
2.000000
 50
0.000000
 51
90.000000
  0
ARC
  8
0
 10
12.999975
 20
94.999969
 40
2.000000
 50
90.000000
 51
180.000000
  0
ARC
  8
0
 10
13.000006
 20
36.999969
 40
2.000000
 50
180.000000
 51
270.000000
  0
ARC
  8
0
 10
21.000006
 20
36.999969
 40
2.000000
 50
270.000000
 51
0.000000
  0
ARC
  8
0
 10
20.999975
 20
94.999969
 40
1.000000
 50
0.000000
 51
90.000000
  0
ARC
  8
0
 10
12.999975
 20
94.999969
 40
1.000000
 50
90.000000
 51
180.000000
  0
ARC
  8
0
 10
13.000006
 20
36.999969
 40
1.000000
 50
180.000000
 51
270.000000
  0
ARC
  8
0
 10
21.000006
 20
36.999969
 40
1.000000
 50
270.000000
 51
0.000000
  0
CIRCLE
  8
0
 10
29.500006
 20
50.999969
 40
2.500000
  0
ARC
  8
0
 10
29.500006
 20
50.999969
 40
3.000000
 50
90.000076
 51
270.000000
  0
ARC
  8
0
 10
4.500006
 20
50.999969
 40
3.000000
 50
269.999939
 51
89.999924
  0
CIRCLE
  8
0
 10
29.500006
 20
50.999969
 40
2.500000
  0
ARC
  8
0
 10
29.500006
 20
80.999969
 40
3.000000
 50
90.000076
 51
270.000000
  0
CIRCLE
  8
0
 10
29.500006
 20
80.999969
 40
2.500000
  0
ARC
  8
0
 10
4.500006
 20
80.999969
 40
3.000000
 50
270.000000
 51
90.000000
  0
CIRCLE
  8
0
 10
4.500006
 20
80.999969
 40
2.500000
  0
CIRCLE
  8
0
 10
4.500006
 20
50.999969
 40
2.500000
  0
CIRCLE
  8
0
 10
4.500006
 20
80.999969
 40
2.500000
  0
CIRCLE
  8
0
 10
29.500006
 20
80.999969
 40
2.500000
  0
ARC
  8
0
 10
95.999977
 20
162.000000
 40
3.000000
 50
0.000000
 51
90.000000
  0
ARC
  8
0
 10
69.999977
 20
161.999969
 40
3.000000
 50
90.000000
 51
180.000000
  0
ARC
  8
0
 10
70.000008
 20
0.999969
 40
3.000000
 50
180.000031
 51
270.000000
  0
ARC
  8
0
 10
96.000008
 20
0.999969
 40
3.000000
 50
270.000000
 51
0.000036
  0
ARC
  8
0
 10
86.999977
 20
94.999969
 40
2.000000
 50
0.000000
 51
90.000000
  0
ARC
  8
0
 10
78.999977
 20
94.999969
 40
2.000000
 50
90.000000
 51
180.000000
  0
ARC
  8
0
 10
79.000008
 20
36.999969
 40
2.000000
 50
180.000000
 51
270.000000
  0
ARC
  8
0
 10
87.000008
 20
36.999969
 40
2.000000
 50
270.000000
 51
0.000000
  0
ARC
  8
0
 10
86.999977
 20
94.999969
 40
1.000000
 50
0.000000
 51
90.000000
  0
ARC
  8
0
 10
78.999977
 20
94.999969
 40
1.000000
 50
90.000000
 51
180.000000
  0
ARC
  8
0
 10
79.000008
 20
36.999969
 40
1.000000
 50
180.000000
 51
270.000000
  0
ARC
  8
0
 10
87.000008
 20
36.999969
 40
1.000000
 50
270.000000
 51
0.000000
  0
CIRCLE
  8
0
 10
128.500000
 20
80.999969
 40
2.500000
  0
ARC
  8
0
 10
95.500008
 20
50.999969
 40
3.000000
 50
90.000000
 51
270.000000
  0
ARC
  8
0
 10
70.500008
 20
50.999969
 40
3.000000
 50
270.000000
 51
90.000000
  0
CIRCLE
  8
0
 10
128.500000
 20
80.999969
 40
2.500000
  0
ARC
  8
0
 10
95.500008
 20
80.999969
 40
3.000000
 50
90.000000
 51
270.000000
  0
CIRCLE
  8
0
 10
95.500008
 20
80.999969
 40
2.500000
  0
ARC
  8
0
 10
70.500008
 20
80.999969
 40
3.000000
 50
270.000000
 51
90.000000
  0
CIRCLE
  8
0
 10
70.500008
 20
80.999969
 40
2.500000
  0
CIRCLE
  8
0
 10
70.500008
 20
50.999969
 40
2.500000
  0
CIRCLE
  8
0
 10
70.500008
 20
80.999969
 40
2.500000
  0
CIRCLE
  8
0
 10
95.500008
 20
80.999969
 40
2.500000
  0
ARC
  8
0
 10
62.999977
 20
143.000000
 40
3.000000
 50
0.000000
 51
90.000000
  0
ARC
  8
0
 10
36.999977
 20
142.999969
 40
3.000000
 50
90.000000
 51
180.000000
  0
ARC
  8
0
 10
37.000008
 20
0.999969
 40
3.000000
 50
180.000031
 51
270.000000
  0
ARC
  8
0
 10
63.000008
 20
0.999969
 40
3.000000
 50
270.000000
 51
0.000036
  0
ARC
  8
0
 10
53.999977
 20
94.999969
 40
2.000000
 50
0.000000
 51
90.000000
  0
ARC
  8
0
 10
45.999977
 20
94.999969
 40
2.000000
 50
90.000000
 51
180.000000
  0
ARC
  8
0
 10
46.000008
 20
36.999969
 40
2.000000
 50
180.000000
 51
270.000000
  0
ARC
  8
0
 10
54.000008
 20
36.999969
 40
2.000000
 50
270.000000
 51
0.000000
  0
ARC
  8
0
 10
53.999977
 20
94.999969
 40
1.000000
 50
0.000000
 51
90.000000
  0
ARC
  8
0
 10
45.999977
 20
94.999969
 40
1.000000
 50
90.000000
 51
180.000000
  0
ARC
  8
0
 10
46.000008
 20
36.999969
 40
1.000000
 50
180.000000
 51
270.000000
  0
ARC
  8
0
 10
54.000008
 20
36.999969
 40
1.000000
 50
270.000000
 51
0.000000
  0
CIRCLE
  8
0
 10
62.500008
 20
50.999969
 40
2.500000
  0
ARC
  8
0
 10
62.500008
 20
50.999969
 40
3.000000
 50
90.000000
 51
270.000000
  0
ARC
  8
0
 10
37.500008
 20
50.999969
 40
3.000000
 50
270.000000
 51
90.000000
  0
CIRCLE
  8
0
 10
62.500008
 20
50.999969
 40
2.500000
  0
ARC
  8
0
 10
62.500008
 20
80.999969
 40
3.000000
 50
90.000000
 51
270.000000
  0
CIRCLE
  8
0
 10
62.500008
 20
80.999969
 40
2.500000
  0
ARC
  8
0
 10
37.500008
 20
80.999969
 40
3.000000
 50
270.000000
 51
90.000000
  0
CIRCLE
  8
0
 10
37.500008
 20
80.999969
 40
2.500000
  0
CIRCLE
  8
0
 10
37.500008
 20
50.999969
 40
2.500000
  0
CIRCLE
  8
0
 10
37.500008
 20
80.999969
 40
2.500000
  0
CIRCLE
  8
0
 10
62.500008
 20
80.999969
 40
2.500000
  0
CIRCLE
  8
0
 10
-3.999994
 20
122.000000
 40
4.714968
  0
CIRCLE
  8
0
 10
138.000000
 20
122.000000
 40
4.714968
  0
ARC
  8
0
 10
30.000006
 20
24.999969
 40
3.000000
 50
269.999939
 51
359.999969
  0
ARC
  8
0
 10
4.000006
 20
24.999969
 40
3.000000
 50
180.000000
 51
270.000000
  0
CIRCLE
  8
0
 10
95.500008
 20
50.999969
 40
2.500000
  0
CIRCLE
  8
0
 10
95.500008
 20
50.999969
 40
2.500000
  0
CIRCLE
  8
0
 10
128.500000
 20
50.999969
 40
2.500000
  0
CIRCLE
  8
0
 10
128.500000
 20
50.999969
 40
2.500000
  0
CIRCLE
  8
0
 10
103.500008
 20
50.999969
 40
2.500000
  0
CIRCLE
  8
0
 10
103.500008
 20
50.999969
 40
2.500000
  0
CIRCLE
  8
0
 10
103.500008
 20
80.999969
 40
2.500000
  0
CIRCLE
  8
0
 10
103.500008
 20
80.999969
 40
2.500000
  0
ARC
  8
0
 10
157.500000
 20
125.000000
 40
1.500000
 50
270.000000
 51
0.000000
  0
ARC
  8
0
 10
157.500000
 20
167.000000
 40
1.500000
 50
0.000000
 51
90.000000
  0
ARC
  8
0
 10
162.000000
 20
128.000000
 40
3.000000
 50
270.000000
 51
0.000000
  0
ARC
  8
0
 10
162.000000
 20
164.000000
 40
3.000000
 50
0.000000
 51
90.000000
  0
ARC
  8
0
 10
-22.999964
 20
107.000000
 40
1.000000
 50
0.000000
 51
89.999893
  0
TEXT
  8
0
 10
7.207001
 20
36.879967
 40
3.200000
  1
B
 50
180.000000
 41
1.052632
 51
0.000000
  7
STANDARD
  0
TEXT
  8
0
 10
26.792982
 20
95.119972
 40
3.200000
  1
A
 50
0.000000
 41
1.052632
 51
0.000000
  7
STANDARD
  0
TEXT
  8
0
 10
73.207001
 20
36.879967
 40
3.200000
  1
B
 50
180.000000
 41
1.052632
 51
0.000000
  7
STANDARD
  0
TEXT
  8
0
 10
92.792984
 20
95.119972
 40
3.200000
  1
A
 50
0.000000
 41
1.052632
 51
0.000000
  7
STANDARD
  0
TEXT
  8
0
 10
40.207005
 20
36.879967
 40
3.200000
  1
B
 50
180.000000
 41
1.052632
 51
0.000000
  7
STANDARD
  0
TEXT
  8
0
 10
59.792984
 20
95.119972
 40
3.200000
  1
A
 50
0.000000
 41
1.052632
 51
0.000000
  7
STANDARD
  0
POINT
  8
0
 10
-29.999994
 20
-149.999969
  0
POINT
  8
0
 10
164.000000
 20
-149.999969
  0
LINE
  8
0
 10
133.000000
 20
-87.999969
 11
66.999825
 21
-87.999969
  0
LINE
  8
0
 10
153.000000
 20
-87.999969
 11
133.000000
 21
-87.999969
  0
LINE
  8
0
 10
156.000000
 20
-90.999969
 11
156.000000
 21
-136.999969
  0
LINE
  8
0
 10
170.000000
 20
-149.999969
 11
133.000000
 21
-149.999969
  0
LINE
  8
0
 10
169.000000
 20
-137.999969
 11
153.000000
 21
-137.999969
  0
LINE
  8
0
 10
170.000000
 20
-138.999969
 11
170.000000
 21
-149.999969
  0
LINE
  8
0
 10
-19.000177
 20
-87.999969
 11
0.999823
 21
-87.999969
  0
LINE
  8
0
 10
0.999823
 20
-86.999969
 11
0.999823
 21
-109.749969
  0
LINE
  8
0
 10
-22.000177
 20
-90.999969
 11
-22.000177
 21
-137.000000
  0
LINE
  8
0
 10
-8.590845
 20
-116.999969
 11
11.571112
 21
-116.999969
  0
LINE
  8
0
 10
-22.000177
 20
-149.999969
 11
0.999823
 21
-149.999969
  0
LINE
  8
0
 10
-35.000175
 20
-137.999969
 11
-19.000177
 21
-137.999969
  0
LINE
  8
0
 10
-36.000175
 20
-139.000000
 11
-36.000175
 21
-150.000000
  0
LINE
  8
0
 10
-36.000175
 20
-149.999969
 11
-22.000177
 21
-149.999969
  0
LINE
  8
0
 10
-16.000177
 20
-102.699982
 11
-2.000177
 21
-102.699982
  0
LINE
  8
0
 10
-16.000177
 20
-97.299988
 11
-2.000177
 21
-97.299988
  0
LINE
  8
0
 10
-16.000177
 20
-131.299988
 11
-2.000177
 21
-131.299988
  0
LINE
  8
0
 10
-16.000177
 20
-136.699982
 11
-2.000177
 21
-136.699982
  0
LINE
  8
0
 10
-1.000177
 20
-98.299988
 11
-1.000177
 21
-101.699982
  0
LINE
  8
0
 10
-17.000177
 20
-98.299988
 11
-17.000177
 21
-101.699982
  0
LINE
  8
0
 10
-17.000177
 20
-132.299988
 11
-17.000177
 21
-135.699982
  0
LINE
  8
0
 10
-1.000177
 20
-132.299988
 11
-1.000177
 21
-135.699982
  0
LINE
  8
0
 10
-11.000080
 20
-131.999725
 11
-3.000074
 21
-133.999725
  0
LINE
  8
0
 10
-3.000132
 20
-133.999893
 11
-11.000135
 21
-135.999893
  0
LINE
  8
0
 10
-11.000177
 20
-135.999969
 11
-11.000177
 21
-131.999969
  0
LINE
  8
0
 10
-3.000147
 20
-99.999817
 11
-11.000151
 21
-101.999817
  0
LINE
  8
0
 10
-11.000177
 20
-101.999969
 11
-11.000177
 21
-97.999969
  0
LINE
  8
0
 10
-11.000080
 20
-97.999702
 11
-3.000074
 21
-99.999702
  0
LINE
  8
0
 10
28.499731
 20
-47.533936
 11
28.499731
 21
-49.265991
  0
LINE
  8
0
 10
26.999712
 20
-46.667671
 11
28.499716
 21
-47.533699
  0
LINE
  8
0
 10
25.499720
 20
-49.265823
 11
26.999723
 21
-50.131851
  0
LINE
  8
0
 10
26.999678
 20
-50.132019
 11
28.499681
 21
-49.265991
  0
LINE
  8
0
 10
25.499678
 20
-47.533943
 11
26.999681
 21
-46.667915
  0
LINE
  8
0
 10
25.499731
 20
-47.533936
 11
25.499731
 21
-49.265991
  0
LINE
  8
0
 10
2.499731
 20
-31.399963
 11
31.499731
 21
-31.399963
  0
LINE
  8
0
 10
0.999731
 20
-86.399963
 11
131.999908
 21
-86.399963
  0
LINE
  8
0
 10
32.999733
 20
-32.899963
 11
32.999733
 21
-86.399963
  0
LINE
  8
0
 10
0.999731
 20
-32.899963
 11
0.999731
 21
-87.999969
  0
LINE
  8
0
 10
125.999916
 20
-78.399963
 11
130.999908
 21
-78.399963
  0
LINE
  8
0
 10
128.499908
 20
-77.637421
 11
128.499908
 21
-83.281250
  0
LINE
  8
0
 10
130.999908
 20
-78.399963
 11
130.999908
 21
-82.399963
  0
LINE
  8
0
 10
125.999916
 20
-78.399963
 11
125.999916
 21
-82.399963
  0
LINE
  8
0
 10
131.999908
 20
-82.399963
 11
131.999908
 21
-87.999969
  0
LINE
  8
0
 10
99.999916
 20
-82.399963
 11
99.999916
 21
-86.399963
  0
LINE
  8
0
 10
-4.299524
 20
-85.163696
 11
-4.299524
 21
-86.802521
  0
LINE
  8
0
 10
-4.299524
 20
-86.802521
 11
-3.700800
 21
-86.802521
  0
LINE
  8
0
 10
-3.700800
 20
-85.163696
 11
-3.700800
 21
-86.802521
  0
LINE
  8
0
 10
-8.715143
 20
-87.550934
 11
0.714788
 21
-87.550934
  0
LINE
  8
0
 10
0.714788
 20
-87.550934
 11
0.714788
 21
-87.999969
  0
LINE
  8
0
 10
-8.715143
 20
-87.550934
 11
-8.715143
 21
-87.999969
  0
LINE
  8
0
 10
0.999823
 20
-124.249969
 11
0.999823
 21
-149.999969
  0
LINE
  8
0
 10
0.999819
 20
-115.267769
 11
2.499823
 21
-116.133797
  0
LINE
  8
0
 10
-0.500164
 20
-116.133942
 11
0.999813
 21
-115.267929
  0
LINE
  8
0
 10
-0.500166
 20
-117.865822
 11
0.999840
 21
-118.731850
  0
LINE
  8
0
 10
0.999840
 20
-118.732025
 11
2.499819
 21
-117.866013
  0
LINE
  8
0
 10
2.499823
 20
-116.133942
 11
2.499823
 21
-117.865997
  0
LINE
  8
0
 10
-0.500177
 20
-116.133942
 11
-0.500177
 21
-117.865997
  0
LINE
  8
0
 10
5.999666
 20
-73.667770
 11
7.499670
 21
-74.533798
  0
LINE
  8
0
 10
4.499659
 20
-74.533958
 11
5.999666
 21
-73.667931
  0
LINE
  8
0
 10
4.499697
 20
-76.265793
 11
5.999701
 21
-77.131821
  0
LINE
  8
0
 10
5.999659
 20
-77.132034
 11
7.499662
 21
-76.266006
  0
LINE
  8
0
 10
7.499731
 20
-74.533936
 11
7.499731
 21
-76.265991
  0
LINE
  8
0
 10
4.499731
 20
-74.533936
 11
4.499731
 21
-76.265991
  0
LINE
  8
0
 10
-7.000177
 20
-112.499969
 11
8.999823
 21
-112.499969
  0
LINE
  8
0
 10
-7.000177
 20
-121.499969
 11
8.999823
 21
-121.499969
  0
LINE
  8
0
 10
-7.000177
 20
-109.499969
 11
8.999823
 21
-109.499969
  0
LINE
  8
0
 10
-7.000177
 20
-109.499969
 11
-7.000177
 21
-124.499969
  0
LINE
  8
0
 10
16.999823
 20
-25.476044
 11
16.999823
 21
-152.842651
  0
LINE
  8
0
 10
0.999731
 20
-75.399963
 11
10.999731
 21
-75.399963
  0
LINE
  8
0
 10
21.999731
 20
-48.399963
 11
31.999731
 21
-48.399963
  0
LINE
  8
0
 10
5.999731
 20
-70.399963
 11
5.999731
 21
-80.399963
  0
LINE
  8
0
 10
26.999731
 20
-43.399963
 11
26.999731
 21
-53.399963
  0
LINE
  8
0
 10
0.999823
 20
-112.999969
 11
0.999823
 21
-120.999969
  0
LINE
  8
0
 10
-30.000177
 20
-135.895905
 11
-30.000177
 21
-152.424957
  0
LINE
  8
0
 10
164.000000
 20
-135.652832
 11
164.000000
 21
-152.668030
  0
LINE
  8
0
 10
99.999916
 20
-82.399963
 11
131.999908
 21
-82.399963
  0
LINE
  8
0
 10
100.999916
 20
-78.399963
 11
105.999916
 21
-78.399963
  0
LINE
  8
0
 10
103.499916
 20
-77.637421
 11
103.499916
 21
-83.281250
  0
LINE
  8
0
 10
105.999916
 20
-78.399963
 11
105.999916
 21
-82.399963
  0
LINE
  8
0
 10
100.999916
 20
-78.399963
 11
100.999916
 21
-82.399963
  0
LINE
  8
0
 10
172.778320
 20
-117.499969
 11
151.022949
 21
-117.499969
  0
LINE
  8
0
 10
159.000000
 20
-96.499969
 11
159.000000
 21
-137.999969
  0
LINE
  8
0
 10
165.000000
 20
-99.499969
 11
165.000000
 21
-135.499969
  0
LINE
  8
0
 10
162.000000
 20
-96.499969
 11
159.000000
 21
-96.499969
  0
LINE
  8
0
 10
157.500000
 20
-94.999969
 11
156.000000
 21
-94.999969
  0
LINE
  8
0
 10
165.000000
 20
-100.686340
 11
159.000000
 21
-100.686340
  0
LINE
  8
0
 10
165.000000
 20
-104.999969
 11
159.000000
 21
-104.999969
  0
LINE
  8
0
 10
165.000000
 20
-114.507629
 11
159.000000
 21
-114.507629
  0
LINE
  8
0
 10
165.000000
 20
-134.313599
 11
159.000000
 21
-134.313599
  0
LINE
  8
0
 10
165.000000
 20
-129.999969
 11
159.000000
 21
-129.999969
  0
LINE
  8
0
 10
165.000000
 20
-120.492310
 11
159.000000
 21
-120.492310
  0
LINE
  8
0
 10
-4.000177
 20
-82.935425
 11
-4.000177
 21
-91.008698
  0
LINE
  8
0
 10
137.700653
 20
-85.163696
 11
137.700653
 21
-86.802521
  0
LINE
  8
0
 10
137.700653
 20
-86.802521
 11
138.299377
 21
-86.802521
  0
LINE
  8
0
 10
138.299377
 20
-85.163696
 11
138.299377
 21
-86.802521
  0
LINE
  8
0
 10
133.285034
 20
-87.550934
 11
142.714966
 21
-87.550934
  0
LINE
  8
0
 10
142.714966
 20
-87.550934
 11
142.714966
 21
-87.999969
  0
LINE
  8
0
 10
133.285034
 20
-87.550934
 11
133.285034
 21
-87.999969
  0
LINE
  8
0
 10
138.000000
 20
-82.935425
 11
138.000000
 21
-91.008698
  0
LINE
  8
0
 10
-7.000177
 20
-124.499969
 11
8.999823
 21
-124.499969
  0
LINE
  8
0
 10
141.000183
 20
-109.499969
 11
141.000183
 21
-124.499969
  0
LINE
  8
0
 10
133.000183
 20
-148.000031
 11
133.000000
 21
-149.999969
  0
ARC
  8
0
 10
153.000000
 20
-90.999969
 40
3.000000
 50
0.000000
 51
90.000000
  0
ARC
  8
0
 10
169.000000
 20
-138.999969
 40
1.000000
 50
0.000000
 51
90.000000
  0
ARC
  8
0
 10
157.000000
 20
-136.999969
 40
1.000000
 50
180.000000
 51
270.000000
  0
ARC
  8
0
 10
-19.000177
 20
-90.999969
 40
3.000000
 50
89.999962
 51
180.000000
  0
ARC
  8
0
 10
-35.000175
 20
-139.000000
 40
1.000000
 50
90.000000
 51
180.000000
  0
ARC
  8
0
 10
-23.000177
 20
-136.999969
 40
1.000000
 50
270.000000
 51
0.000000
  0
ARC
  8
0
 10
-16.000177
 20
-98.299988
 40
1.000000
 50
90.000000
 51
180.000000
  0
ARC
  8
0
 10
-16.000177
 20
-101.699982
 40
1.000000
 50
180.000000
 51
270.000000
  0
ARC
  8
0
 10
-2.000177
 20
-101.699982
 40
1.000000
 50
270.000000
 51
0.000000
  0
ARC
  8
0
 10
-2.000177
 20
-98.299988
 40
1.000000
 50
0.000000
 51
90.000000
  0
ARC
  8
0
 10
-16.000177
 20
-132.299988
 40
1.000000
 50
90.000000
 51
180.000000
  0
ARC
  8
0
 10
-16.000177
 20
-135.699982
 40
1.000000
 50
180.000000
 51
270.000000
  0
ARC
  8
0
 10
-2.000177
 20
-135.699982
 40
1.000000
 50
270.000000
 51
0.000000
  0
ARC
  8
0
 10
-2.000177
 20
-132.299988
 40
1.000000
 50
0.000000
 51
90.000000
  0
CIRCLE
  8
0
 10
26.999731
 20
-48.399963
 40
3.500000
  0
ARC
  8
0
 10
31.499731
 20
-32.899963
 40
1.500002
 50
0.000000
 51
90.000000
  0
ARC
  8
0
 10
2.499731
 20
-32.899963
 40
1.500000
 50
90.000000
 51
180.000000
  0
ARC
  8
0
 10
-4.000177
 20
-90.994751
 40
5.838732
 50
36.144615
 51
143.855377
  0
CIRCLE
  8
0
 10
0.999823
 20
-116.999969
 40
3.500000
  0
CIRCLE
  8
0
 10
5.999731
 20
-75.399963
 40
3.500000
  0
CIRCLE
  8
0
 10
5.999731
 20
-75.399963
 40
4.000000
  0
CIRCLE
  8
0
 10
26.999731
 20
-48.399963
 40
4.000000
  0
ARC
  8
0
 10
157.500000
 20
-96.499969
 40
1.500000
 50
0.000000
 51
90.000000
  0
ARC
  8
0
 10
162.000000
 20
-135.499969
 40
2.999999
 50
303.557281
 51
0.000000
  0
ARC
  8
0
 10
162.000000
 20
-99.499969
 40
3.000000
 50
0.000000
 51
90.000000
  0
ARC
  8
0
 10
138.000000
 20
-90.994751
 40
5.838727
 50
36.144650
 51
143.855347
  0
TEXT
  8
0
 10
-14.778677
 20
-100.439972
 40
1.599999
  1
A
 50
0.000000
 41
1.052632
 51
0.000000
  7
STANDARD
  0
TEXT
  8
0
 10
-14.778677
 20
-134.439972
 40
1.599999
  1
B
 50
0.000000
 41
1.052632
 51
0.000000
  7
STANDARD
  0
POINT
  8
0
 10
33.999825
 20
-86.399963
  0
LINE
  8
0
 10
37.499825
 20
-78.399963
 11
37.499825
 21
-87.399963
  0
LINE
  8
0
 10
35.499825
 20
-31.399963
 11
64.499825
 21
-31.399963
  0
LINE
  8
0
 10
33.999825
 20
-41.399963
 11
65.999825
 21
-41.399963
  0
LINE
  8
0
 10
33.999825
 20
-71.399963
 11
65.999825
 21
-71.399963
  0
LINE
  8
0
 10
65.999825
 20
-32.899963
 11
65.999825
 21
-86.399963
  0
LINE
  8
0
 10
33.999825
 20
-32.899963
 11
33.999825
 21
-86.399963
  0
LINE
  8
0
 10
33.999825
 20
-79.899963
 11
37.499825
 21
-79.899963
  0
LINE
  8
0
 10
40.499825
 20
-82.899963
 11
40.499825
 21
-86.399963
  0
LINE
  8
0
 10
32.999825
 20
-82.899963
 11
41.999825
 21
-82.899963
  0
LINE
  8
0
 10
46.499825
 20
-75.499969
 11
53.499825
 21
-75.499969
  0
LINE
  8
0
 10
62.499825
 20
-78.399963
 11
62.499825
 21
-87.399963
  0
LINE
  8
0
 10
65.999825
 20
-79.899963
 11
62.499825
 21
-79.899963
  0
LINE
  8
0
 10
59.499825
 20
-82.899963
 11
59.499825
 21
-86.399963
  0
LINE
  8
0
 10
41.999825
 20
-82.899963
 11
32.999825
 21
-82.899963
  0
LINE
  8
0
 10
33.999825
 20
-42.799957
 11
65.999825
 21
-42.799957
  0
LINE
  8
0
 10
33.999825
 20
-44.799957
 11
65.999825
 21
-44.799957
  0
LINE
  8
0
 10
33.999825
 20
-46.399963
 11
49.999825
 21
-46.399963
  0
LINE
  8
0
 10
33.999825
 20
-48.399963
 11
49.999825
 21
-48.399963
  0
LINE
  8
0
 10
33.999825
 20
-49.999969
 11
65.999825
 21
-49.999969
  0
LINE
  8
0
 10
33.999825
 20
-51.999969
 11
65.999825
 21
-51.999969
  0
LINE
  8
0
 10
33.999825
 20
-53.599976
 11
65.999825
 21
-53.599976
  0
LINE
  8
0
 10
33.999825
 20
-55.599976
 11
65.999825
 21
-55.599976
  0
LINE
  8
0
 10
33.999825
 20
-57.199951
 11
65.999825
 21
-57.199951
  0
LINE
  8
0
 10
33.999825
 20
-59.199951
 11
65.999825
 21
-59.199951
  0
LINE
  8
0
 10
33.999825
 20
-60.799957
 11
65.999825
 21
-60.799957
  0
LINE
  8
0
 10
33.999825
 20
-62.799957
 11
65.999825
 21
-62.799957
  0
LINE
  8
0
 10
33.999825
 20
-64.399963
 11
65.999825
 21
-64.399963
  0
LINE
  8
0
 10
33.999825
 20
-66.399963
 11
65.999825
 21
-66.399963
  0
LINE
  8
0
 10
33.999825
 20
-67.999969
 11
65.999825
 21
-67.999969
  0
LINE
  8
0
 10
33.999825
 20
-69.999969
 11
65.999825
 21
-69.999969
  0
LINE
  8
0
 10
62.999825
 20
-46.399963
 11
62.999825
 21
-48.399963
  0
LINE
  8
0
 10
62.999825
 20
-46.399963
 11
65.999825
 21
-46.399963
  0
LINE
  8
0
 10
62.999825
 20
-48.399963
 11
65.999825
 21
-48.399963
  0
LINE
  8
0
 10
49.999825
 20
-46.399963
 11
49.999825
 21
-48.399963
  0
LINE
  8
0
 10
39.489784
 20
-82.699982
 11
37.699806
 21
-82.699982
  0
LINE
  8
0
 10
39.489784
 20
-83.099976
 11
37.699806
 21
-83.099976
  0
LINE
  8
0
 10
37.699806
 20
-80.910004
 11
37.699806
 21
-82.699982
  0
LINE
  8
0
 10
37.299812
 20
-80.910004
 11
37.299812
 21
-82.699982
  0
LINE
  8
0
 10
37.299812
 20
-82.699982
 11
35.509834
 21
-82.699982
  0
LINE
  8
0
 10
37.299812
 20
-83.099976
 11
37.299812
 21
-84.889954
  0
LINE
  8
0
 10
37.699806
 20
-83.099976
 11
37.699806
 21
-84.889954
  0
LINE
  8
0
 10
37.299812
 20
-83.099976
 11
35.509834
 21
-83.099976
  0
LINE
  8
0
 10
66.999825
 20
-82.899963
 11
57.999825
 21
-82.899963
  0
LINE
  8
0
 10
64.489815
 20
-82.699982
 11
62.699837
 21
-82.699982
  0
LINE
  8
0
 10
64.489815
 20
-83.099976
 11
62.699837
 21
-83.099976
  0
LINE
  8
0
 10
62.699837
 20
-80.910004
 11
62.699837
 21
-82.699982
  0
LINE
  8
0
 10
62.299812
 20
-80.910004
 11
62.299812
 21
-82.699982
  0
LINE
  8
0
 10
62.299812
 20
-82.699982
 11
60.509834
 21
-82.699982
  0
LINE
  8
0
 10
62.299812
 20
-83.099976
 11
62.299812
 21
-84.889954
  0
LINE
  8
0
 10
62.699837
 20
-83.099976
 11
62.699837
 21
-84.889954
  0
LINE
  8
0
 10
62.299812
 20
-83.099976
 11
60.509834
 21
-83.099976
  0
ARC
  8
0
 10
64.499825
 20
-32.899963
 40
1.500000
 50
0.000000
 51
90.000000
  0
ARC
  8
0
 10
35.499825
 20
-32.899963
 40
1.500000
 50
90.000000
 51
180.000000
  0
CIRCLE
  8
0
 10
37.499825
 20
-82.899963
 40
2.500000
  0
ARC
  8
0
 10
37.499825
 20
-82.899963
 40
3.000000
 50
0.000000
 51
90.000000
  0
CIRCLE
  8
0
 10
49.999825
 20
-75.499969
 40
2.150000
  0
CIRCLE
  8
0
 10
49.999825
 20
-75.499969
 40
1.500000
  0
CIRCLE
  8
0
 10
62.499825
 20
-82.899963
 40
2.500000
  0
ARC
  8
0
 10
62.499825
 20
-82.899963
 40
3.000000
 50
90.000000
 51
180.000000
  0
ARC
  8
0
 10
62.499825
 20
-82.899963
 40
2.000000
 50
84.260918
 51
95.739082
  0
ARC
  8
0
 10
37.499825
 20
-82.899963
 40
2.000000
 50
174.260696
 51
185.739090
  0
ARC
  8
0
 10
37.499825
 20
-82.899963
 40
2.000000
 50
264.260925
 51
275.739075
  0
ARC
  8
0
 10
37.499825
 20
-82.899963
 40
2.000000
 50
354.260925
 51
5.739083
  0
ARC
  8
0
 10
62.499825
 20
-82.899963
 40
2.000000
 50
264.260925
 51
275.739075
  0
ARC
  8
0
 10
62.499825
 20
-82.899963
 40
2.000000
 50
174.260696
 51
185.739090
  0
ARC
  8
0
 10
62.499825
 20
-82.899963
 40
2.000000
 50
354.260925
 51
5.739083
  0
TEXT
  8
0
 10
53.974918
 20
-47.839962
 40
1.599999
  1
DC24V
 50
0.000000
 41
0.690779
 51
0.000000
  7
STANDARD
  0
POINT
  8
0
 10
66.999825
 20
-86.399963
  0
LINE
  8
0
 10
70.499825
 20
-78.399963
 11
70.499825
 21
-87.399963
  0
LINE
  8
0
 10
68.499825
 20
-31.399963
 11
97.499825
 21
-31.399963
  0
LINE
  8
0
 10
66.999825
 20
-41.399963
 11
98.999825
 21
-41.399963
  0
LINE
  8
0
 10
66.999825
 20
-71.399963
 11
98.999825
 21
-71.399963
  0
LINE
  8
0
 10
98.999825
 20
-32.899963
 11
98.999825
 21
-86.399963
  0
LINE
  8
0
 10
66.999825
 20
-32.899963
 11
66.999825
 21
-86.399963
  0
LINE
  8
0
 10
66.999825
 20
-79.899963
 11
70.499825
 21
-79.899963
  0
LINE
  8
0
 10
73.499825
 20
-82.899963
 11
73.499825
 21
-86.399963
  0
LINE
  8
0
 10
65.999825
 20
-82.899963
 11
74.999825
 21
-82.899963
  0
LINE
  8
0
 10
79.499825
 20
-75.499969
 11
86.499825
 21
-75.499969
  0
LINE
  8
0
 10
95.499825
 20
-78.399963
 11
95.499825
 21
-87.399963
  0
LINE
  8
0
 10
98.999825
 20
-79.899963
 11
95.499825
 21
-79.899963
  0
LINE
  8
0
 10
92.499825
 20
-82.899963
 11
92.499825
 21
-86.399963
  0
LINE
  8
0
 10
74.999825
 20
-82.899963
 11
65.999825
 21
-82.899963
  0
LINE
  8
0
 10
66.999825
 20
-42.799957
 11
98.999825
 21
-42.799957
  0
LINE
  8
0
 10
66.999825
 20
-44.799957
 11
98.999825
 21
-44.799957
  0
LINE
  8
0
 10
66.999825
 20
-46.399963
 11
82.999825
 21
-46.399963
  0
LINE
  8
0
 10
66.999825
 20
-48.399963
 11
82.999825
 21
-48.399963
  0
LINE
  8
0
 10
66.999825
 20
-49.999969
 11
98.999825
 21
-49.999969
  0
LINE
  8
0
 10
66.999825
 20
-51.999969
 11
98.999825
 21
-51.999969
  0
LINE
  8
0
 10
66.999825
 20
-53.599976
 11
98.999825
 21
-53.599976
  0
LINE
  8
0
 10
66.999825
 20
-55.599976
 11
98.999825
 21
-55.599976
  0
LINE
  8
0
 10
66.999825
 20
-57.199951
 11
98.999825
 21
-57.199951
  0
LINE
  8
0
 10
66.999825
 20
-59.199951
 11
98.999825
 21
-59.199951
  0
LINE
  8
0
 10
66.999825
 20
-60.799957
 11
98.999825
 21
-60.799957
  0
LINE
  8
0
 10
66.999825
 20
-62.799957
 11
98.999825
 21
-62.799957
  0
LINE
  8
0
 10
66.999825
 20
-64.399963
 11
98.999825
 21
-64.399963
  0
LINE
  8
0
 10
66.999825
 20
-66.399963
 11
98.999825
 21
-66.399963
  0
LINE
  8
0
 10
66.999825
 20
-67.999969
 11
98.999825
 21
-67.999969
  0
LINE
  8
0
 10
66.999825
 20
-69.999969
 11
98.999825
 21
-69.999969
  0
LINE
  8
0
 10
95.999825
 20
-46.399963
 11
95.999825
 21
-48.399963
  0
LINE
  8
0
 10
95.999825
 20
-46.399963
 11
98.999825
 21
-46.399963
  0
LINE
  8
0
 10
95.999825
 20
-48.399963
 11
98.999825
 21
-48.399963
  0
LINE
  8
0
 10
82.999825
 20
-46.399963
 11
82.999825
 21
-48.399963
  0
LINE
  8
0
 10
72.489784
 20
-82.699982
 11
70.699806
 21
-82.699982
  0
LINE
  8
0
 10
72.489784
 20
-83.099976
 11
70.699806
 21
-83.099976
  0
LINE
  8
0
 10
70.699806
 20
-80.910004
 11
70.699806
 21
-82.699982
  0
LINE
  8
0
 10
70.299812
 20
-80.910004
 11
70.299812
 21
-82.699982
  0
LINE
  8
0
 10
70.299812
 20
-82.699982
 11
68.509834
 21
-82.699982
  0
LINE
  8
0
 10
70.299812
 20
-83.099976
 11
70.299812
 21
-84.889954
  0
LINE
  8
0
 10
70.699806
 20
-83.099976
 11
70.699806
 21
-84.889954
  0
LINE
  8
0
 10
70.299812
 20
-83.099976
 11
68.509834
 21
-83.099976
  0
LINE
  8
0
 10
99.999825
 20
-82.899963
 11
90.999825
 21
-82.899963
  0
LINE
  8
0
 10
97.489815
 20
-82.699982
 11
95.699837
 21
-82.699982
  0
LINE
  8
0
 10
97.489815
 20
-83.099976
 11
95.699837
 21
-83.099976
  0
LINE
  8
0
 10
95.699837
 20
-80.910004
 11
95.699837
 21
-82.699982
  0
LINE
  8
0
 10
95.299812
 20
-80.910004
 11
95.299812
 21
-82.699982
  0
LINE
  8
0
 10
95.299812
 20
-82.699982
 11
93.509834
 21
-82.699982
  0
LINE
  8
0
 10
95.299812
 20
-83.099976
 11
95.299812
 21
-84.889954
  0
LINE
  8
0
 10
95.699837
 20
-83.099976
 11
95.699837
 21
-84.889954
  0
LINE
  8
0
 10
95.299812
 20
-83.099976
 11
93.509834
 21
-83.099976
  0
ARC
  8
0
 10
97.499825
 20
-32.899963
 40
1.500000
 50
0.000000
 51
90.000000
  0
ARC
  8
0
 10
68.499825
 20
-32.899963
 40
1.500000
 50
90.000000
 51
180.000000
  0
CIRCLE
  8
0
 10
70.499825
 20
-82.899963
 40
2.500000
  0
ARC
  8
0
 10
70.499825
 20
-82.899963
 40
3.000000
 50
0.000000
 51
90.000000
  0
CIRCLE
  8
0
 10
82.999825
 20
-75.499969
 40
2.150000
  0
CIRCLE
  8
0
 10
82.999825
 20
-75.499969
 40
1.500000
  0
CIRCLE
  8
0
 10
95.499825
 20
-82.899963
 40
2.500000
  0
ARC
  8
0
 10
95.499825
 20
-82.899963
 40
3.000000
 50
90.000000
 51
180.000000
  0
ARC
  8
0
 10
95.499825
 20
-82.899963
 40
2.000000
 50
84.260918
 51
95.739082
  0
ARC
  8
0
 10
70.499825
 20
-82.899963
 40
2.000000
 50
174.260696
 51
185.739090
  0
ARC
  8
0
 10
70.499825
 20
-82.899963
 40
2.000000
 50
264.260925
 51
275.739075
  0
ARC
  8
0
 10
70.499825
 20
-82.899963
 40
2.000000
 50
354.260925
 51
5.739083
  0
ARC
  8
0
 10
95.499825
 20
-82.899963
 40
2.000000
 50
264.260925
 51
275.739075
  0
ARC
  8
0
 10
95.499825
 20
-82.899963
 40
2.000000
 50
174.260696
 51
185.739090
  0
ARC
  8
0
 10
95.499825
 20
-82.899963
 40
2.000000
 50
354.260925
 51
5.739083
  0
TEXT
  8
0
 10
86.974915
 20
-47.839962
 40
1.599999
  1
DC24V
 50
0.000000
 41
0.690779
 51
0.000000
  7
STANDARD
  0
POINT
  8
0
 10
0.999823
 20
-116.999969
  0
POINT
  8
0
 10
33.999916
 20
-116.999969
  0
LINE
  8
0
 10
33.999825
 20
-147.999969
 11
0.999823
 21
-147.999969
  0
LINE
  8
0
 10
33.999825
 20
-87.999969
 11
0.999823
 21
-87.999969
  0
LINE
  8
0
 10
24.414007
 20
-134.000031
 11
2.992620
 21
-134.000031
  0
LINE
  8
0
 10
13.999823
 20
-123.166656
 11
13.999823
 21
-144.166656
  0
LINE
  8
0
 10
30.929449
 20
-100.000031
 11
10.666510
 21
-100.000031
  0
LINE
  8
0
 10
30.068609
 20
-100.000031
 11
18.171453
 21
-100.000031
  0
LINE
  8
0
 10
20.999853
 20
-90.040291
 11
20.999853
 21
-110.392303
  0
LINE
  8
0
 10
33.999916
 20
-87.999969
 11
33.999916
 21
-109.499969
  0
LINE
  8
0
 10
35.499916
 20
-116.133942
 11
35.499916
 21
-117.865997
  0
LINE
  8
0
 10
33.999916
 20
-115.267746
 11
35.499916
 21
-116.133774
  0
LINE
  8
0
 10
32.499954
 20
-117.865814
 11
33.999931
 21
-118.731827
  0
LINE
  8
0
 10
33.999886
 20
-118.732048
 11
35.499886
 21
-117.866020
  0
LINE
  8
0
 10
32.499893
 20
-116.133980
 11
33.999901
 21
-115.267952
  0
LINE
  8
0
 10
32.499916
 20
-116.133942
 11
32.499916
 21
-117.865997
  0
LINE
  8
0
 10
33.999916
 20
-124.499969
 11
33.999916
 21
-148.000031
  0
LINE
  8
0
 10
24.454107
 20
-116.999969
 11
44.386177
 21
-116.999969
  0
LINE
  8
0
 10
25.999914
 20
-112.499969
 11
41.999916
 21
-112.499969
  0
LINE
  8
0
 10
25.999914
 20
-121.499969
 11
41.999916
 21
-121.499969
  0
LINE
  8
0
 10
8.999914
 20
-109.499969
 11
8.999914
 21
-124.499969
  0
LINE
  8
0
 10
25.999914
 20
-109.499969
 11
41.999916
 21
-109.499969
  0
LINE
  8
0
 10
25.999914
 20
-109.499969
 11
25.999914
 21
-124.499969
  0
LINE
  8
0
 10
25.999914
 20
-124.499969
 11
41.999916
 21
-124.499969
  0
LINE
  8
0
 10
33.999916
 20
-112.999969
 11
33.999916
 21
-120.999969
  0
CIRCLE
  8
0
 10
20.999823
 20
-100.000031
 40
7.474998
  0
CIRCLE
  8
0
 10
13.999823
 20
-134.000031
 40
8.330999
  0
CIRCLE
  8
0
 10
13.999823
 20
-134.000031
 40
7.474998
  0
CIRCLE
  8
0
 10
20.999823
 20
-100.000031
 40
8.330999
  0
CIRCLE
  8
0
 10
33.999916
 20
-116.999969
 40
3.500000
  0
POINT
  8
0
 10
33.999916
 20
-116.999969
  0
POINT
  8
0
 10
67.000008
 20
-116.999969
  0
LINE
  8
0
 10
66.999916
 20
-147.999969
 11
33.999916
 21
-147.999969
  0
LINE
  8
0
 10
66.999916
 20
-87.999969
 11
33.999916
 21
-87.999969
  0
LINE
  8
0
 10
57.414101
 20
-134.000031
 11
35.992714
 21
-134.000031
  0
LINE
  8
0
 10
46.999916
 20
-123.166656
 11
46.999916
 21
-144.166656
  0
LINE
  8
0
 10
63.929543
 20
-100.000031
 11
43.666603
 21
-100.000031
  0
LINE
  8
0
 10
63.068703
 20
-100.000031
 11
51.171547
 21
-100.000031
  0
LINE
  8
0
 10
53.999947
 20
-90.040291
 11
53.999947
 21
-110.392303
  0
LINE
  8
0
 10
67.000008
 20
-87.999969
 11
67.000008
 21
-109.499969
  0
LINE
  8
0
 10
68.500008
 20
-116.133942
 11
68.500008
 21
-117.865997
  0
LINE
  8
0
 10
67.000008
 20
-115.267746
 11
68.500008
 21
-116.133774
  0
LINE
  8
0
 10
65.500046
 20
-117.865814
 11
67.000023
 21
-118.731827
  0
LINE
  8
0
 10
66.999977
 20
-118.732048
 11
68.499977
 21
-117.866020
  0
LINE
  8
0
 10
65.499992
 20
-116.133980
 11
66.999992
 21
-115.267952
  0
LINE
  8
0
 10
65.500008
 20
-116.133942
 11
65.500008
 21
-117.865997
  0
LINE
  8
0
 10
67.000008
 20
-124.499969
 11
67.000008
 21
-148.000031
  0
LINE
  8
0
 10
57.454201
 20
-116.999969
 11
77.386269
 21
-116.999969
  0
LINE
  8
0
 10
59.000008
 20
-112.499969
 11
75.000008
 21
-112.499969
  0
LINE
  8
0
 10
59.000008
 20
-121.499969
 11
75.000008
 21
-121.499969
  0
LINE
  8
0
 10
42.000008
 20
-109.499969
 11
42.000008
 21
-124.499969
  0
LINE
  8
0
 10
59.000008
 20
-109.499969
 11
75.000008
 21
-109.499969
  0
LINE
  8
0
 10
59.000008
 20
-109.499969
 11
59.000008
 21
-124.499969
  0
LINE
  8
0
 10
59.000008
 20
-124.499969
 11
75.000008
 21
-124.499969
  0
LINE
  8
0
 10
67.000008
 20
-112.999969
 11
67.000008
 21
-120.999969
  0
CIRCLE
  8
0
 10
53.999916
 20
-100.000031
 40
7.474998
  0
CIRCLE
  8
0
 10
46.999916
 20
-134.000031
 40
8.330999
  0
CIRCLE
  8
0
 10
46.999916
 20
-134.000031
 40
7.474998
  0
CIRCLE
  8
0
 10
53.999916
 20
-100.000031
 40
8.330999
  0
CIRCLE
  8
0
 10
67.000008
 20
-116.999969
 40
3.500000
  0
POINT
  8
0
 10
67.000008
 20
-116.999969
  0
POINT
  8
0
 10
100.000099
 20
-116.999969
  0
LINE
  8
0
 10
100.000008
 20
-147.999969
 11
67.000008
 21
-147.999969
  0
LINE
  8
0
 10
100.000008
 20
-87.999969
 11
67.000008
 21
-87.999969
  0
LINE
  8
0
 10
90.414192
 20
-134.000031
 11
68.992805
 21
-134.000031
  0
LINE
  8
0
 10
80.000008
 20
-123.166656
 11
80.000008
 21
-144.166656
  0
LINE
  8
0
 10
96.929634
 20
-100.000031
 11
76.666695
 21
-100.000031
  0
LINE
  8
0
 10
96.068794
 20
-100.000031
 11
84.171638
 21
-100.000031
  0
LINE
  8
0
 10
87.000038
 20
-90.040291
 11
87.000038
 21
-110.392303
  0
LINE
  8
0
 10
100.000099
 20
-87.999969
 11
100.000099
 21
-109.499969
  0
LINE
  8
0
 10
101.500099
 20
-116.133942
 11
101.500099
 21
-117.865997
  0
LINE
  8
0
 10
100.000099
 20
-115.267746
 11
101.500099
 21
-116.133774
  0
LINE
  8
0
 10
98.500130
 20
-117.865814
 11
100.000114
 21
-118.731827
  0
LINE
  8
0
 10
100.000069
 20
-118.732048
 11
101.500069
 21
-117.866020
  0
LINE
  8
0
 10
98.500084
 20
-116.133980
 11
100.000084
 21
-115.267952
  0
LINE
  8
0
 10
98.500099
 20
-116.133942
 11
98.500099
 21
-117.865997
  0
LINE
  8
0
 10
100.000099
 20
-124.499969
 11
100.000099
 21
-148.000031
  0
LINE
  8
0
 10
90.454292
 20
-116.999969
 11
110.386360
 21
-116.999969
  0
LINE
  8
0
 10
92.000099
 20
-112.499969
 11
108.000099
 21
-112.499969
  0
LINE
  8
0
 10
92.000099
 20
-121.499969
 11
108.000099
 21
-121.499969
  0
LINE
  8
0
 10
75.000099
 20
-109.499969
 11
75.000099
 21
-124.499969
  0
LINE
  8
0
 10
92.000099
 20
-109.499969
 11
108.000099
 21
-109.499969
  0
LINE
  8
0
 10
92.000099
 20
-109.499969
 11
92.000099
 21
-124.499969
  0
LINE
  8
0
 10
92.000099
 20
-124.499969
 11
108.000099
 21
-124.499969
  0
LINE
  8
0
 10
100.000099
 20
-112.999969
 11
100.000099
 21
-120.999969
  0
CIRCLE
  8
0
 10
87.000008
 20
-100.000031
 40
7.474998
  0
CIRCLE
  8
0
 10
80.000008
 20
-134.000031
 40
8.330999
  0
CIRCLE
  8
0
 10
80.000008
 20
-134.000031
 40
7.474998
  0
CIRCLE
  8
0
 10
87.000008
 20
-100.000031
 40
8.330999
  0
CIRCLE
  8
0
 10
100.000099
 20
-116.999969
 40
3.500000
  0
POINT
  8
0
 10
100.000099
 20
-116.999969
  0
POINT
  8
0
 10
133.000183
 20
-116.999969
  0
LINE
  8
0
 10
133.000092
 20
-147.999969
 11
100.000099
 21
-147.999969
  0
LINE
  8
0
 10
133.000092
 20
-87.999969
 11
100.000099
 21
-87.999969
  0
LINE
  8
0
 10
123.414284
 20
-134.000031
 11
101.992897
 21
-134.000031
  0
LINE
  8
0
 10
113.000099
 20
-123.166656
 11
113.000099
 21
-144.166656
  0
LINE
  8
0
 10
129.929718
 20
-100.000031
 11
109.666786
 21
-100.000031
  0
LINE
  8
0
 10
129.068878
 20
-100.000031
 11
117.171730
 21
-100.000031
  0
LINE
  8
0
 10
120.000130
 20
-90.040291
 11
120.000130
 21
-110.392303
  0
LINE
  8
0
 10
133.000183
 20
-87.999969
 11
133.000183
 21
-109.499969
  0
LINE
  8
0
 10
134.500183
 20
-116.133942
 11
134.500183
 21
-117.865997
  0
LINE
  8
0
 10
133.000183
 20
-115.267746
 11
134.500183
 21
-116.133774
  0
LINE
  8
0
 10
131.500214
 20
-117.865814
 11
133.000198
 21
-118.731827
  0
LINE
  8
0
 10
133.000153
 20
-118.732048
 11
134.500153
 21
-117.866020
  0
LINE
  8
0
 10
131.500168
 20
-116.133980
 11
133.000168
 21
-115.267952
  0
LINE
  8
0
 10
131.500183
 20
-116.133942
 11
131.500183
 21
-117.865997
  0
LINE
  8
0
 10
133.000183
 20
-124.499969
 11
133.000183
 21
-148.000031
  0
LINE
  8
0
 10
123.454384
 20
-116.999969
 11
143.386444
 21
-116.999969
  0
LINE
  8
0
 10
125.000191
 20
-112.499969
 11
141.000183
 21
-112.499969
  0
LINE
  8
0
 10
125.000191
 20
-121.499969
 11
141.000183
 21
-121.499969
  0
LINE
  8
0
 10
108.000191
 20
-109.499969
 11
108.000191
 21
-124.499969
  0
LINE
  8
0
 10
125.000191
 20
-109.499969
 11
141.000183
 21
-109.499969
  0
LINE
  8
0
 10
125.000191
 20
-109.499969
 11
125.000191
 21
-124.499969
  0
LINE
  8
0
 10
125.000191
 20
-124.499969
 11
141.000183
 21
-124.499969
  0
LINE
  8
0
 10
133.000183
 20
-112.999969
 11
133.000183
 21
-120.999969
  0
CIRCLE
  8
0
 10
120.000099
 20
-100.000031
 40
7.474998
  0
CIRCLE
  8
0
 10
113.000099
 20
-134.000031
 40
8.330999
  0
CIRCLE
  8
0
 10
113.000099
 20
-134.000031
 40
7.474998
  0
CIRCLE
  8
0
 10
120.000099
 20
-100.000031
 40
8.330999
  0
CIRCLE
  8
0
 10
133.000183
 20
-116.999969
 40
3.500000
  0
POINT
  8
0
 10
-199.999969
 20
20.000000
  0
POINT
  8
0
 10
-81.399963
 20
20.000000
  0
LINE
  8
0
 10
-136.399963
 20
104.500000
 11
-138.000061
 21
104.500000
  0
LINE
  8
0
 10
-81.399963
 20
-0.500000
 11
-81.399963
 21
163.500000
  0
LINE
  8
0
 10
-81.399963
 20
48.000000
 11
-111.399963
 21
48.000000
  0
LINE
  8
0
 10
-81.399963
 20
54.000000
 11
-111.399963
 21
54.000000
  0
LINE
  8
0
 10
-111.399963
 20
48.000000
 11
-111.399963
 21
54.000000
  0
LINE
  8
0
 10
-107.399963
 20
48.500000
 11
-107.399963
 21
53.500000
  0
LINE
  8
0
 10
-81.399963
 20
22.000000
 11
-136.399963
 21
22.000000
  0
LINE
  8
0
 10
-81.399963
 20
122.000000
 11
-135.156097
 21
122.000000
  0
LINE
  8
0
 10
-81.399963
 20
102.000000
 11
-136.399963
 21
102.000000
  0
LINE
  8
0
 10
-91.399963
 20
30.000000
 11
-91.399963
 21
102.000000
  0
LINE
  8
0
 10
-81.399963
 20
30.000000
 11
-136.399963
 21
30.000000
  0
LINE
  8
0
 10
-106.637268
 20
51.000000
 11
-112.100647
 21
51.000000
  0
LINE
  8
0
 10
-107.399963
 20
53.500000
 11
-111.399963
 21
53.500000
  0
LINE
  8
0
 10
-107.399963
 20
48.500000
 11
-111.399963
 21
48.500000
  0
LINE
  8
0
 10
-81.399963
 20
84.000000
 11
-111.399963
 21
84.000000
  0
LINE
  8
0
 10
-81.399963
 20
78.000000
 11
-111.399963
 21
78.000000
  0
LINE
  8
0
 10
-111.399963
 20
84.000000
 11
-111.399963
 21
78.000000
  0
LINE
  8
0
 10
-132.899963
 20
159.920135
 11
-132.899963
 21
165.745850
  0
LINE
  8
0
 10
-129.899963
 20
161.000000
 11
-136.399963
 21
161.000000
  0
LINE
  8
0
 10
-131.899963
 20
164.000000
 11
-133.899963
 21
164.000000
  0
LINE
  8
0
 10
-129.899963
 20
161.000000
 11
-129.899963
 21
165.000000
  0
LINE
  8
0
 10
-135.399963
 20
161.000000
 11
-135.399963
 21
162.500000
  0
LINE
  8
0
 10
-130.399963
 20
161.000000
 11
-130.399963
 21
162.500000
  0
LINE
  8
0
 10
-130.399963
 20
162.000000
 11
-135.399963
 21
162.000000
  0
LINE
  8
0
 10
-127.649963
 20
165.000000
 11
-127.649963
 21
165.700012
  0
LINE
  8
0
 10
-123.350159
 20
165.000000
 11
-123.350159
 21
165.700012
  0
LINE
  8
0
 10
-123.350159
 20
165.700012
 11
-127.649963
 21
165.700012
  0
LINE
  8
0
 10
-132.899963
 20
3.079865
 11
-132.899963
 21
-2.745850
  0
LINE
  8
0
 10
-129.899963
 20
2.000000
 11
-136.399963
 21
2.000000
  0
LINE
  8
0
 10
-131.899963
 20
-1.000000
 11
-133.899963
 21
-1.000000
  0
LINE
  8
0
 10
-129.899963
 20
2.000000
 11
-129.899963
 21
-2.000000
  0
LINE
  8
0
 10
-135.399963
 20
2.000000
 11
-135.399963
 21
0.500000
  0
LINE
  8
0
 10
-130.399963
 20
2.000000
 11
-130.399963
 21
0.500000
  0
LINE
  8
0
 10
-130.399963
 20
1.000000
 11
-135.399963
 21
1.000000
  0
LINE
  8
0
 10
-82.899963
 20
165.000000
 11
-134.899963
 21
165.000000
  0
LINE
  8
0
 10
-92.799866
 20
165.000000
 11
-92.799866
 21
146.000000
  0
LINE
  8
0
 10
-94.799866
 20
165.000000
 11
-94.799866
 21
146.000000
  0
LINE
  8
0
 10
-96.399963
 20
165.000000
 11
-96.399963
 21
146.000000
  0
LINE
  8
0
 10
-98.399963
 20
165.000000
 11
-98.399963
 21
146.000000
  0
LINE
  8
0
 10
-100.000061
 20
165.000000
 11
-100.000061
 21
146.000000
  0
LINE
  8
0
 10
-102.000061
 20
165.000000
 11
-102.000061
 21
146.000000
  0
LINE
  8
0
 10
-103.600159
 20
165.000000
 11
-103.600159
 21
146.000000
  0
LINE
  8
0
 10
-105.600159
 20
165.000000
 11
-105.600159
 21
146.000000
  0
LINE
  8
0
 10
-107.199768
 20
165.000000
 11
-107.199768
 21
146.000000
  0
LINE
  8
0
 10
-109.199768
 20
165.000000
 11
-109.199768
 21
146.000000
  0
LINE
  8
0
 10
-110.799866
 20
165.000000
 11
-110.799866
 21
146.000000
  0
LINE
  8
0
 10
-112.799866
 20
165.000000
 11
-112.799866
 21
146.000000
  0
LINE
  8
0
 10
-114.399963
 20
165.000000
 11
-114.399963
 21
146.000000
  0
LINE
  8
0
 10
-116.399963
 20
165.000000
 11
-116.399963
 21
146.000000
  0
LINE
  8
0
 10
-118.000061
 20
165.000000
 11
-118.000061
 21
146.000000
  0
LINE
  8
0
 10
-120.000061
 20
165.000000
 11
-120.000061
 21
146.000000
  0
LINE
  8
0
 10
-91.399963
 20
165.000000
 11
-91.399963
 21
146.000000
  0
LINE
  8
0
 10
-121.399963
 20
165.000000
 11
-121.399963
 21
146.000000
  0
LINE
  8
0
 10
-82.899963
 20
-2.000000
 11
-134.899963
 21
-2.000000
  0
LINE
  8
0
 10
-92.799866
 20
-2.000000
 11
-92.799866
 21
22.000000
  0
LINE
  8
0
 10
-94.799866
 20
-2.000000
 11
-94.799866
 21
22.000000
  0
LINE
  8
0
 10
-96.399963
 20
-2.000000
 11
-96.399963
 21
22.000000
  0
LINE
  8
0
 10
-98.399963
 20
-2.000000
 11
-98.399963
 21
22.000000
  0
LINE
  8
0
 10
-100.000061
 20
-2.000000
 11
-100.000061
 21
22.000000
  0
LINE
  8
0
 10
-102.000061
 20
-2.000000
 11
-102.000061
 21
22.000000
  0
LINE
  8
0
 10
-103.600159
 20
-2.000000
 11
-103.600159
 21
22.000000
  0
LINE
  8
0
 10
-105.600159
 20
-2.000000
 11
-105.600159
 21
22.000000
  0
LINE
  8
0
 10
-107.199768
 20
-2.000000
 11
-107.199768
 21
22.000000
  0
LINE
  8
0
 10
-109.199768
 20
-2.000000
 11
-109.199768
 21
22.000000
  0
LINE
  8
0
 10
-110.799866
 20
-2.000000
 11
-110.799866
 21
22.000000
  0
LINE
  8
0
 10
-112.799866
 20
-2.000000
 11
-112.799866
 21
22.000000
  0
LINE
  8
0
 10
-114.399963
 20
-2.000000
 11
-114.399963
 21
22.000000
  0
LINE
  8
0
 10
-116.399963
 20
-2.000000
 11
-116.399963
 21
22.000000
  0
LINE
  8
0
 10
-118.000061
 20
-2.000000
 11
-118.000061
 21
22.000000
  0
LINE
  8
0
 10
-120.000061
 20
-2.000000
 11
-120.000061
 21
22.000000
  0
LINE
  8
0
 10
-91.399963
 20
-2.000000
 11
-91.399963
 21
22.000000
  0
LINE
  8
0
 10
-121.399963
 20
-2.000000
 11
-121.399963
 21
22.000000
  0
LINE
  8
0
 10
-133.100159
 20
0.000000
 11
-133.100159
 21
-1.000000
  0
LINE
  8
0
 10
-132.699768
 20
0.000000
 11
-132.699768
 21
-1.000000
  0
LINE
  8
0
 10
-132.699768
 20
0.000000
 11
-133.100159
 21
0.000000
  0
LINE
  8
0
 10
-132.699768
 20
163.000000
 11
-133.100159
 21
163.000000
  0
LINE
  8
0
 10
-132.699768
 20
163.000000
 11
-132.699768
 21
164.000000
  0
LINE
  8
0
 10
-133.100159
 20
163.000000
 11
-133.100159
 21
164.000000
  0
LINE
  8
0
 10
-75.695862
 20
66.000000
 11
-205.657135
 21
66.000000
  0
LINE
  8
0
 10
-141.000061
 20
11.000000
 11
-199.999969
 21
11.000000
  0
LINE
  8
0
 10
-138.000061
 20
156.630920
 11
-138.000061
 21
14.000000
  0
LINE
  8
0
 10
-199.999969
 20
126.000000
 11
-199.999969
 21
108.000000
  0
LINE
  8
0
 10
-199.999969
 20
125.999985
 11
-197.939316
 21
128.060638
  0
LINE
  8
0
 10
-187.999969
 20
125.000000
 11
-187.999969
 21
109.000000
  0
LINE
  8
0
 10
-184.721069
 20
20.000000
 11
-202.441101
 21
20.000000
  0
LINE
  8
0
 10
-184.407440
 20
117.000000
 11
-201.186584
 21
117.000000
  0
LINE
  8
0
 10
-188.999969
 20
108.000000
 11
-199.999969
 21
108.000000
  0
LINE
  8
0
 10
-188.999969
 20
126.000000
 11
-199.999969
 21
126.000000
  0
LINE
  8
0
 10
-188.999969
 20
29.000000
 11
-199.999969
 21
29.000000
  0
LINE
  8
0
 10
-187.999969
 20
28.000000
 11
-187.999969
 21
12.000000
  0
LINE
  8
0
 10
-188.999969
 20
112.500000
 11
-199.999969
 21
112.500000
  0
LINE
  8
0
 10
-188.999969
 20
121.500000
 11
-199.999969
 21
121.500000
  0
LINE
  8
0
 10
-188.999969
 20
15.500000
 11
-199.999969
 21
15.500000
  0
LINE
  8
0
 10
-188.999969
 20
24.500000
 11
-199.999969
 21
24.500000
  0
LINE
  8
0
 10
-198.999969
 20
107.000000
 11
-198.999969
 21
30.000000
  0
LINE
  8
0
 10
-199.999969
 20
29.000000
 11
-199.999969
 21
11.000000
  0
LINE
  8
0
 10
-197.499969
 20
156.605011
 11
-197.499969
 21
129.121338
  0
LINE
  8
0
 10
-123.350159
 20
-2.700012
 11
-127.649963
 21
-2.700012
  0
LINE
  8
0
 10
-123.350159
 20
-2.000000
 11
-123.350159
 21
-2.700012
  0
LINE
  8
0
 10
-127.649963
 20
-2.000000
 11
-127.649963
 21
-2.700012
  0
LINE
  8
0
 10
-136.399963
 20
-0.500000
 11
-136.399963
 21
118.397522
  0
LINE
  8
0
 10
-136.399963
 20
125.602478
 11
-136.399963
 21
163.500000
  0
LINE
  8
0
 10
-132.899963
 20
140.920135
 11
-132.899963
 21
146.745850
  0
LINE
  8
0
 10
-129.899963
 20
142.000000
 11
-136.399963
 21
142.000000
  0
LINE
  8
0
 10
-131.899963
 20
145.000000
 11
-133.899963
 21
145.000000
  0
LINE
  8
0
 10
-129.899963
 20
142.000000
 11
-129.899963
 21
146.000000
  0
LINE
  8
0
 10
-135.399963
 20
142.000000
 11
-135.399963
 21
143.500000
  0
LINE
  8
0
 10
-130.399963
 20
142.000000
 11
-130.399963
 21
143.500000
  0
LINE
  8
0
 10
-130.399963
 20
143.000000
 11
-135.399963
 21
143.000000
  0
LINE
  8
0
 10
-127.649963
 20
146.000000
 11
-127.649963
 21
146.700012
  0
LINE
  8
0
 10
-123.350159
 20
146.000000
 11
-123.350159
 21
146.700012
  0
LINE
  8
0
 10
-123.350159
 20
146.700012
 11
-127.649963
 21
146.700012
  0
LINE
  8
0
 10
-82.899963
 20
146.000000
 11
-134.899963
 21
146.000000
  0
LINE
  8
0
 10
-92.799866
 20
146.000000
 11
-92.799866
 21
122.000000
  0
LINE
  8
0
 10
-94.799866
 20
146.000000
 11
-94.799866
 21
122.000000
  0
LINE
  8
0
 10
-96.399963
 20
146.000000
 11
-96.399963
 21
122.000000
  0
LINE
  8
0
 10
-98.399963
 20
146.000000
 11
-98.399963
 21
122.000000
  0
LINE
  8
0
 10
-100.000061
 20
146.000000
 11
-100.000061
 21
122.000000
  0
LINE
  8
0
 10
-102.000061
 20
146.000000
 11
-102.000061
 21
122.000000
  0
LINE
  8
0
 10
-103.600159
 20
146.000000
 11
-103.600159
 21
122.000000
  0
LINE
  8
0
 10
-105.600159
 20
146.000000
 11
-105.600159
 21
122.000000
  0
LINE
  8
0
 10
-107.199768
 20
146.000000
 11
-107.199768
 21
122.000000
  0
LINE
  8
0
 10
-109.199768
 20
146.000000
 11
-109.199768
 21
122.000000
  0
LINE
  8
0
 10
-110.799866
 20
146.000000
 11
-110.799866
 21
122.000000
  0
LINE
  8
0
 10
-112.799866
 20
146.000000
 11
-112.799866
 21
122.000000
  0
LINE
  8
0
 10
-114.399963
 20
146.000000
 11
-114.399963
 21
122.000000
  0
LINE
  8
0
 10
-116.399963
 20
146.000000
 11
-116.399963
 21
122.000000
  0
LINE
  8
0
 10
-118.000061
 20
146.000000
 11
-118.000061
 21
122.000000
  0
LINE
  8
0
 10
-120.000061
 20
146.000000
 11
-120.000061
 21
122.000000
  0
LINE
  8
0
 10
-91.399963
 20
146.000000
 11
-91.399963
 21
122.000000
  0
LINE
  8
0
 10
-121.399963
 20
146.000000
 11
-121.399963
 21
122.000000
  0
LINE
  8
0
 10
-132.699768
 20
144.000000
 11
-133.100159
 21
144.000000
  0
LINE
  8
0
 10
-132.699768
 20
144.000000
 11
-132.699768
 21
145.000000
  0
LINE
  8
0
 10
-133.100159
 20
144.000000
 11
-133.100159
 21
145.000000
  0
LINE
  8
0
 10
-136.399963
 20
23.500000
 11
-138.000061
 21
23.500000
  0
LINE
  8
0
 10
-167.500061
 20
171.000000
 11
-167.500061
 21
121.000000
  0
LINE
  8
0
 10
-142.500061
 20
146.000000
 11
-192.499969
 21
146.000000
  0
LINE
  8
0
 10
-151.000061
 20
91.000000
 11
-176.999969
 21
91.000000
  0
LINE
  8
0
 10
-151.000061
 20
41.000000
 11
-176.999969
 21
41.000000
  0
LINE
  8
0
 10
-180.999969
 20
79.000000
 11
-180.999969
 21
53.000000
  0
LINE
  8
0
 10
-164.000061
 20
105.032684
 11
-164.000061
 21
28.000000
  0
LINE
  8
0
 10
-186.999969
 20
105.500000
 11
-186.999969
 21
89.500000
  0
LINE
  8
0
 10
-178.999969
 20
97.500000
 11
-194.999969
 21
97.500000
  0
LINE
  8
0
 10
-107.399963
 20
83.500000
 11
-107.399963
 21
78.500000
  0
LINE
  8
0
 10
-106.637268
 20
81.000000
 11
-112.281311
 21
81.000000
  0
LINE
  8
0
 10
-107.399963
 20
78.500000
 11
-111.399963
 21
78.500000
  0
LINE
  8
0
 10
-107.399963
 20
83.500000
 11
-111.399963
 21
83.500000
  0
LINE
  8
0
 10
-135.163788
 20
122.299347
 11
-136.802612
 21
122.299347
  0
LINE
  8
0
 10
-136.802612
 20
122.299347
 11
-136.802612
 21
121.700623
  0
LINE
  8
0
 10
-135.163788
 20
121.700623
 11
-136.802612
 21
121.700623
  0
LINE
  8
0
 10
-137.551025
 20
126.714966
 11
-137.551025
 21
117.285034
  0
LINE
  8
0
 10
-137.551025
 20
117.285034
 11
-138.000061
 21
117.285034
  0
LINE
  8
0
 10
-137.551025
 20
126.714966
 11
-138.000061
 21
126.714966
  0
LINE
  8
0
 10
-132.935516
 20
122.000000
 11
-141.008789
 21
122.000000
  0
LINE
  8
0
 10
-125.500061
 20
0.212845
 11
-125.500061
 21
-5.612869
  0
LINE
  8
0
 10
-125.500061
 20
143.787140
 11
-125.500061
 21
149.612854
  0
LINE
  8
0
 10
-125.500061
 20
162.787140
 11
-125.500061
 21
168.612854
  0
ARC
  8
0
 10
-82.899963
 20
163.500000
 40
1.500000
 50
0.000000
 51
90.000000
  0
ARC
  8
0
 10
-82.899963
 20
-0.500000
 40
1.500000
 50
270.000000
 51
0.000000
  0
ARC
  8
0
 10
-134.899963
 20
163.500000
 40
1.500000
 50
90.000000
 51
180.000000
  0
ARC
  8
0
 10
-134.899963
 20
-0.500000
 40
1.500000
 50
180.000000
 51
270.000000
  0
ARC
  8
0
 10
-131.899963
 20
162.500000
 40
1.500000
 50
0.000000
 51
90.000000
  0
ARC
  8
0
 10
-133.899963
 20
162.500000
 40
1.500000
 50
90.000000
 51
180.000000
  0
ARC
  8
0
 10
-133.899963
 20
0.500000
 40
1.500000
 50
180.000000
 51
270.000000
  0
ARC
  8
0
 10
-131.899963
 20
0.500000
 40
1.500000
 50
270.000000
 51
0.000000
  0
CIRCLE
  8
0
 10
-164.000061
 20
91.000000
 40
10.477499
  0
CIRCLE
  8
0
 10
-164.000061
 20
91.000000
 40
9.315500
  0
CIRCLE
  8
0
 10
-180.999969
 20
66.000000
 40
10.477499
  0
CIRCLE
  8
0
 10
-180.999969
 20
66.000000
 40
9.315500
  0
CIRCLE
  8
0
 10
-164.000061
 20
41.000000
 40
10.477499
  0
CIRCLE
  8
0
 10
-164.000061
 20
41.000000
 40
9.315500
  0
CIRCLE
  8
0
 10
-167.500061
 20
146.000000
 40
19.476000
  0
CIRCLE
  8
0
 10
-167.500061
 20
146.000000
 40
20.955000
  0
ARC
  8
0
 10
-141.000061
 20
14.000000
 40
3.000000
 50
270.000000
 51
359.999969
  0
ARC
  8
0
 10
-188.999969
 20
125.000000
 40
1.000000
 50
0.000000
 51
90.000000
  0
ARC
  8
0
 10
-188.999969
 20
109.000000
 40
1.000000
 50
270.000000
 51
0.000000
  0
ARC
  8
0
 10
-188.999969
 20
28.000000
 40
1.000000
 50
0.000000
 51
90.000000
  0
ARC
  8
0
 10
-188.999969
 20
12.000000
 40
1.000000
 50
270.000000
 51
0.000000
  0
ARC
  8
0
 10
-188.999969
 20
122.500000
 40
1.000000
 50
270.000000
 51
0.000000
  0
ARC
  8
0
 10
-188.999969
 20
111.500000
 40
1.000000
 50
0.000000
 51
90.000000
  0
ARC
  8
0
 10
-188.999969
 20
25.500000
 40
1.000000
 50
270.000000
 51
0.000000
  0
ARC
  8
0
 10
-188.999969
 20
14.500000
 40
1.000000
 50
0.000000
 51
90.000000
  0
ARC
  8
0
 10
-167.500061
 20
-127.999969
 40
300.000000
 50
87.083710
 51
93.016907
  0
ARC
  8
0
 10
-153.000061
 20
156.630920
 40
15.000000
 50
0.000000
 51
87.083710
  0
ARC
  8
0
 10
-199.999969
 20
107.000000
 40
1.000000
 50
0.000000
 51
90.000000
  0
ARC
  8
0
 10
-199.999969
 20
30.000000
 40
1.000000
 50
270.000000
 51
0.000000
  0
ARC
  8
0
 10
-198.999969
 20
129.121338
 40
1.500002
 50
314.999573
 51
0.000000
  0
ARC
  8
0
 10
-182.499969
 20
156.605011
 40
15.000008
 50
93.016960
 51
180.000000
  0
CIRCLE
  8
0
 10
-186.999969
 20
97.500000
 40
4.278000
  0
CIRCLE
  8
0
 10
-186.999969
 20
97.500000
 40
4.863998
  0
ARC
  8
0
 10
-134.899963
 20
144.500000
 40
1.500000
 50
90.000000
 51
180.000000
  0
ARC
  8
0
 10
-131.899963
 20
143.500000
 40
1.500000
 50
0.000000
 51
90.000000
  0
ARC
  8
0
 10
-133.899963
 20
143.500000
 40
1.500000
 50
90.000000
 51
180.000000
  0
ARC
  8
0
 10
-82.899963
 20
144.500000
 40
1.500000
 50
0.000000
 51
90.000000
  0
ARC
  8
0
 10
-82.899963
 20
23.500000
 40
1.500000
 50
270.000000
 51
0.000000
  0
ARC
  8
0
 10
-140.994843
 20
122.000000
 40
5.838734
 50
306.144592
 51
53.855392
  0
TEXT
  8
0
 10
-149.883209
 20
67.803719
 40
3.200000
  1
P
 50
270.100006
 41
1.052631
 51
0.000000
  7
STANDARD
  0
TEXT
  8
0
 10
-149.886002
 20
44.403717
 40
3.200000
  1
R2
 50
270.100006
 41
1.052631
 51
0.000000
  7
STANDARD
  0
TEXT
  8
0
 10
-149.886002
 20
94.403717
 40
3.200000
  1
R1
 50
270.100006
 41
1.052631
 51
0.000000
  7
STANDARD
  0
TEXT
  8
0
 10
-179.885910
 20
100.903748
 40
3.200000
  1
PR
 50
270.100006
 41
1.052631
 51
0.000000
  7
STANDARD
  0
ENDSEC
  0
EOF
