  0
SECTION
  2
HEADER
  0
ENDSEC
  0
SECTION
  2
TABLES
  0
TABLE
  2
LTYPE
 70
     4
  0
LTYPE
  2
CONTINUOUS
 70
    64
  3
Solid line
 72
    65
 73
     0
 40
0.000000
  0
LTYPE
  2
DASHED
 70
    64
  3
__ __ __ __ __ __ __ __ __ __ __ __ __ __ __
 72
    65
 73
     2
 40
3.500000
 49
2.000000
 49
-1.500000
  0
LTYPE
  2
CENTER
 70
    64
  3
____ _ ____ _ ____ _ ____ _ ____ _ ____ _ ____
 72
    65
 73
     4
 40
17.500000
 49
13.000000
 49
-1.500000
 49
1.500000
 49
-1.500000
  0
LTYPE
  2
PHANTOM
 70
    64
  3
_____ _ _ _____ _ _ _____ _ _ _____ _ _ ____  
 72
    65
 73
     6
 40
15.500000
 49
8.000000
 49
-1.500000
 49
1.500000
 49
-1.500000
 49
1.500000
 49
-1.500000
  0
LTYPE
  2
DASHED1
 70
    64
  3
__ __ __ __ __ __ __ __ __ __ __ __ __ __ __
 72
    65
 73
     2
 40
1.500000
 49
1.000000
 49
-0.500000
  0
LTYPE
  2
DASHED2
 70
    64
  3
__ __ __ __ __ __ __ __ __ __ __ __ __ __ __
 72
    65
 73
     2
 40
3.500000
 49
2.500000
 49
-1.000000
  0
LTYPE
  2
DASHED3
 70
    64
  3
__ __ __ __ __ __ __ __ __ __ __ __ __ __ __
 72
    65
 73
     2
 40
6.000000
 49
4.000000
 49
-2.000000
  0
LTYPE
  2
DASHED4
 70
    64
  3
__ __ __ __ __ __ __ __ __ __ __ __ __ __ __
 72
    65
 73
     2
 40
12.000000
 49
10.000000
 49
-2.000000
  0
LTYPE
  2
DASHED5
 70
    64
  3
__ __ __ __ __ __ __ __ __ __ __ __ __ __ __
 72
    65
 73
     2
 40
17.000000
 49
15.000000
 49
-2.000000
  0
LTYPE
  2
DASHED6
 70
    64
  3
__ __ __ __ __ __ __ __ __ __ __ __ __ __ __
 72
    65
 73
     2
 40
29.000000
 49
27.000000
 49
-2.000000
  0
LTYPE
  2
PHANTOM1
 70
    64
  3
_____ _ _ _____ _ _ _____ _ _ _____ _ _ ____  
 72
    65
 73
     6
 40
31.000000
 49
25.000000
 49
-1.500000
 49
1.000000
 49
-1.000000
 49
1.000000
 49
-1.500000
  0
LTYPE
  2
PHANTOM2
 70
    64
  3
_____ _ _ _____ _ _ _____ _ _ _____ _ _ ____  
 72
    65
 73
     6
 40
36.000000
 49
27.000000
 49
-1.500000
 49
2.500000
 49
-1.000000
 49
2.500000
 49
-1.500000
  0
LTYPE
  2
PHANTOM3
 70
    64
  3
_____ _ _ _____ _ _ _____ _ _ _____ _ _ ____  
 72
    65
 73
     6
 40
78.000000
 49
64.000000
 49
-2.000000
 49
4.000000
 49
-2.000000
 49
4.000000
 49
-2.000000
  0
LTYPE
  2
CENTER1
 70
    64
  3
____ _ ____ _ ____ _ ____ _ ____ _ ____ _ ____
 72
    65
 73
     4
 40
19.000000
 49
14.000000
 49
-1.000000
 49
3.000000
 49
-1.000000
  0
LTYPE
  2
CENTER2
 70
    64
  3
____ _ ____ _ ____ _ ____ _ ____ _ ____ _ ____
 72
    65
 73
     4
 40
28.500000
 49
25.000000
 49
-1.000000
 49
1.500000
 49
-1.000000
  0
LTYPE
  2
CENTER3
 70
    64
  3
____ _ ____ _ ____ _ ____ _ ____ _ ____ _ ____
 72
    65
 73
     4
 40
31.500000
 49
27.000000
 49
-1.000000
 49
2.500000
 49
-1.000000
  0
LTYPE
  2
CENTER4
 70
    64
  3
____ _ ____ _ ____ _ ____ _ ____ _ ____ _ ____
 72
    65
 73
     4
 40
50.000000
 49
45.000000
 49
-1.000000
 49
3.000000
 49
-1.000000
  0
LTYPE
  2
CENTER5
 70
    64
  3
____ _ ____ _ ____ _ ____ _ ____ _ ____ _ ____
 72
    65
 73
     4
 40
100.000000
 49
92.000000
 49
-2.000000
 49
4.000000
 49
-2.000000
  0
LTYPE
  2
SBK1
 70
    64
  3
______ _ _ _ ______ _ _ _ ______ _ _ _ _____  
 72
    65
 73
     8
 40
60.500000
 49
45.000000
 49
-2.000000
 49
2.500000
 49
-2.000000
 49
2.500000
 49
-2.000000
 49
2.500000
 49
-2.000000
  0
LTYPE
  2
SBK2
 70
    64
  3
______ _ _ _ ______ _ _ _ ______ _ _ _ _____  
 72
    65
 73
     8
 40
84.000000
 49
64.000000
 49
-2.000000
 49
4.000000
 49
-2.000000
 49
4.000000
 49
-2.000000
 49
4.000000
 49
-2.000000
  0
LTYPE
  2
STCH
 70
    64
  3
__ __ __ __ __ __ __ __ __ __ __ __ __ __ __
 72
    65
 73
     2
 40
3.000000
 49
1.000000
 49
-2.000000
  0
LTYPE
  2
MTCH
 70
    64
  3
_____ _ _ _____ _ _ _____ _ _ _____ _ _ ____  
 72
    65
 73
     6
 40
80.000000
 49
66.000000
 49
-2.000000
 49
4.000000
 49
-2.000000
 49
4.000000
 49
-2.000000
  0
ENDTAB
  0
TABLE
  2
LAYER
 70
     1
  0
LAYER
  2
0
 70
     0
 62
     7
  6
CONTINUOUS
  0
ENDTAB
  0
TABLE
  2
STYLE
 70
     1
  0
STYLE
  2
STANDARD
 70
     0
 40
0.000000
 41
1.000000
 50
0.000000
 71
     0
 42
0.200000
  3
txt
  4
BIGFONT
  0
ENDTAB
  0
TABLE
  2
VIEW
 70
     0
  0
ENDTAB
  0
ENDSEC
  0
SECTION
  2
BLOCKS
  0
ENDSEC
  0
SECTION
  2
ENTITIES
  0
LINE
  8
0
 10
182.099976
 20
-175.000000
 11
282.099976
 21
-175.000000
  0
LINE
  8
0
 10
182.099976
 20
-175.000000
 11
182.099976
 21
-195.000000
  0
LINE
  8
0
 10
182.099976
 20
180.500000
 11
282.099976
 21
180.500000
  0
LINE
  8
0
 10
-281.250000
 20
180.500000
 11
-181.250000
 21
180.500000
  0
LINE
  8
0
 10
-181.250000
 20
195.500000
 11
-181.250000
 21
180.500000
  0
LINE
  8
0
 10
182.099976
 20
180.500000
 11
182.099976
 21
195.500000
  0
LINE
  8
0
 10
-297.000000
 20
210.000000
 11
297.000000
 21
210.000000
  0
LINE
  8
0
 10
-297.000000
 20
210.000000
 11
-297.000000
 21
-210.000000
  0
LINE
  8
0
 10
-297.000000
 20
-210.000000
 11
297.000000
 21
-210.000000
  0
LINE
  8
0
 10
297.000000
 20
210.000000
 11
297.000000
 21
-210.000000
  0
LINE
  8
0
 10
-281.250000
 20
-195.000000
 11
282.099976
 21
-195.000000
  0
LINE
  8
0
 10
282.099976
 20
195.500000
 11
282.099976
 21
-195.000000
  0
LINE
  8
0
 10
-281.250000
 20
195.500000
 11
282.099976
 21
195.500000
  0
LINE
  8
0
 10
-281.250000
 20
195.500000
 11
-281.250000
 21
-195.000000
  0
TEXT
  8
0
 10
178.000870
 20
-190.300003
 40
7.000000
  1
ＫＯＧＡＮＥＩ，ＣＯＲＰ．
 50
0.000000
 41
0.902367
 51
15.000000
  7
STANDARD
  0
TEXT
  8
0
 10
188.021667
 20
183.779999
 40
5.800000
  1
DATE: MAY ,1992
 50
0.000000
 41
1.052632
 51
0.000000
  7
STANDARD
  0
TEXT
  8
0
 10
-252.128311
 20
183.779999
 40
5.800000
  1
430-4E2
 50
0.000000
 41
1.052632
 51
0.000000
  7
STANDARD
  0
TEXT
  8
0
 10
-264.028320
 20
163.779999
 40
5.800000
  1
MODEL: 430-4E2-262
 50
0.000000
 41
1.052632
 51
0.000000
  7
STANDARD
  0
POINT
  8
0
 10
-25.425003
 20
-48.999985
  0
POINT
  8
0
 10
21.074997
 20
-48.999985
  0
LINE
  8
0
 10
-4.425003
 20
-89.333313
 11
-4.425003
 21
84.353134
  0
LINE
  8
0
 10
-9.425003
 20
-46.999985
 11
-9.425003
 21
11.000015
  0
LINE
  8
0
 10
0.574997
 20
-46.999985
 11
0.574997
 21
11.000015
  0
LINE
  8
0
 10
-10.425003
 20
-46.999985
 11
-10.425003
 21
11.000015
  0
LINE
  8
0
 10
1.574997
 20
-46.999985
 11
1.574997
 21
11.000015
  0
LINE
  8
0
 10
-16.925003
 20
-7.499985
 11
-16.925003
 21
1.500015
  0
LINE
  8
0
 10
8.074997
 20
-37.499985
 11
8.074997
 21
-28.499985
  0
LINE
  8
0
 10
11.574997
 20
-83.000000
 11
11.574997
 21
59.000015
  0
LINE
  8
0
 10
-21.425003
 20
-3.000015
 11
-12.425003
 21
-3.000015
  0
LINE
  8
0
 10
3.574997
 20
-32.999985
 11
12.574997
 21
-32.999985
  0
LINE
  8
0
 10
-9.425003
 20
2.000000
 11
0.574997
 21
2.000000
  0
LINE
  8
0
 10
-9.425003
 20
-37.999985
 11
0.574997
 21
-37.999985
  0
LINE
  8
0
 10
-8.425003
 20
12.000000
 11
-0.425003
 21
12.000000
  0
LINE
  8
0
 10
-8.424973
 20
-47.999985
 11
-0.424973
 21
-47.999985
  0
LINE
  8
0
 10
-8.425003
 20
13.000000
 11
-0.425003
 21
13.000000
  0
LINE
  8
0
 10
-8.424973
 20
-48.999985
 11
-0.424973
 21
-48.999985
  0
LINE
  8
0
 10
-20.425003
 20
18.000000
 11
11.574997
 21
18.000000
  0
LINE
  8
0
 10
-20.424973
 20
-53.999985
 11
11.575027
 21
-53.999985
  0
LINE
  8
0
 10
-17.425003
 20
61.999985
 11
8.574997
 21
61.999985
  0
LINE
  8
0
 10
8.074997
 20
-29.999985
 11
11.574997
 21
-29.999985
  0
LINE
  8
0
 10
8.074997
 20
-35.999985
 11
11.574997
 21
-35.999985
  0
LINE
  8
0
 10
-16.925003
 20
-35.999985
 11
-20.425003
 21
-35.999985
  0
LINE
  8
0
 10
-16.925003
 20
-29.999985
 11
-20.425003
 21
-29.999985
  0
LINE
  8
0
 10
8.074997
 20
0.000000
 11
11.574997
 21
0.000000
  0
LINE
  8
0
 10
8.074997
 20
-6.000015
 11
11.574997
 21
-6.000015
  0
LINE
  8
0
 10
-16.925003
 20
0.000000
 11
-20.425003
 21
0.000000
  0
LINE
  8
0
 10
-16.925003
 20
-6.000015
 11
-20.425003
 21
-6.000015
  0
LINE
  8
0
 10
3.574997
 20
-3.000015
 11
12.574997
 21
-3.000015
  0
LINE
  8
0
 10
8.074997
 20
1.500015
 11
8.074997
 21
-7.499985
  0
LINE
  8
0
 10
-16.925003
 20
-28.499985
 11
-16.925003
 21
-37.499985
  0
LINE
  8
0
 10
-21.425003
 20
-32.999985
 11
-12.425003
 21
-32.999985
  0
LINE
  8
0
 10
10.074997
 20
9.500015
 11
10.074997
 21
16.500015
  0
LINE
  8
0
 10
4.275009
 20
16.500000
 11
10.074997
 21
16.500000
  0
LINE
  8
0
 10
4.275009
 20
9.500015
 11
4.275009
 21
16.500015
  0
LINE
  8
0
 10
4.274979
 20
9.500000
 11
10.074997
 21
9.500000
  0
LINE
  8
0
 10
-13.124985
 20
-45.499985
 11
-18.924973
 21
-45.499985
  0
LINE
  8
0
 10
-13.124985
 20
-45.499985
 11
-13.124985
 21
-52.499985
  0
LINE
  8
0
 10
-13.124985
 20
-52.499985
 11
-18.924973
 21
-52.499985
  0
LINE
  8
0
 10
-18.925003
 20
-45.499985
 11
-18.925003
 21
-52.499985
  0
LINE
  8
0
 10
7.353317
 20
-31.749985
 11
8.796707
 21
-31.749985
  0
LINE
  8
0
 10
7.353317
 20
-34.249985
 11
8.796707
 21
-34.249985
  0
LINE
  8
0
 10
7.353325
 20
-34.249958
 11
6.631630
 21
-32.999947
  0
LINE
  8
0
 10
9.518387
 20
-32.999962
 11
8.796692
 21
-31.749949
  0
LINE
  8
0
 10
8.797009
 20
-34.250175
 11
9.518696
 21
-33.000179
  0
LINE
  8
0
 10
6.631969
 20
-33.000137
 11
7.353657
 21
-31.750139
  0
LINE
  8
0
 10
-17.646683
 20
-34.249985
 11
-16.203293
 21
-34.249985
  0
LINE
  8
0
 10
-17.646690
 20
-34.249947
 11
-18.368370
 21
-32.999962
  0
LINE
  8
0
 10
-15.481625
 20
-32.999935
 11
-16.203304
 21
-31.749949
  0
LINE
  8
0
 10
-16.203012
 20
-34.250153
 11
-15.481323
 21
-33.000153
  0
LINE
  8
0
 10
-18.368101
 20
-33.000145
 11
-17.646414
 21
-31.750147
  0
LINE
  8
0
 10
-17.646683
 20
-31.749985
 11
-16.203293
 21
-31.749985
  0
LINE
  8
0
 10
-17.646683
 20
-4.250015
 11
-16.203293
 21
-4.250015
  0
LINE
  8
0
 10
-17.646683
 20
-4.249950
 11
-18.368362
 21
-2.999966
  0
LINE
  8
0
 10
-15.481595
 20
-2.999939
 11
-16.203289
 21
-1.749924
  0
LINE
  8
0
 10
-16.203072
 20
-4.250130
 11
-15.481378
 21
-3.000118
  0
LINE
  8
0
 10
-18.368168
 20
-3.000118
 11
-17.646481
 21
-1.750118
  0
LINE
  8
0
 10
-17.646683
 20
-1.750015
 11
-16.203293
 21
-1.750015
  0
LINE
  8
0
 10
7.353317
 20
-4.250015
 11
8.796707
 21
-4.250015
  0
LINE
  8
0
 10
7.353321
 20
-4.249947
 11
6.631641
 21
-2.999962
  0
LINE
  8
0
 10
9.518383
 20
-2.999947
 11
8.796688
 21
-1.749935
  0
LINE
  8
0
 10
8.797020
 20
-4.250206
 11
9.518715
 21
-3.000195
  0
LINE
  8
0
 10
6.631920
 20
-3.000149
 11
7.353615
 21
-1.750137
  0
LINE
  8
0
 10
7.353317
 20
-1.750015
 11
8.796707
 21
-1.750015
  0
LINE
  8
0
 10
-20.425003
 20
-83.000000
 11
-20.425003
 21
59.000015
  0
LINE
  8
0
 10
-2.274979
 20
62.699997
 11
-6.574966
 21
62.699997
  0
LINE
  8
0
 10
-2.274979
 20
62.000015
 11
-2.274979
 21
62.699997
  0
LINE
  8
0
 10
-6.574997
 20
62.000015
 11
-6.574997
 21
62.699997
  0
LINE
  8
0
 10
-29.925003
 20
38.000015
 11
-29.925003
 21
-58.999985
  0
LINE
  8
0
 10
21.075027
 20
38.000000
 11
11.574997
 21
38.000000
  0
LINE
  8
0
 10
18.074997
 20
-61.999985
 11
8.574997
 21
-61.999985
  0
LINE
  8
0
 10
21.074997
 20
38.000015
 11
21.074997
 21
-58.999985
  0
LINE
  8
0
 10
-25.425003
 20
-43.999985
 11
-28.925003
 21
-43.999985
  0
LINE
  8
0
 10
-25.425003
 20
-53.999985
 11
-28.925003
 21
-53.999985
  0
LINE
  8
0
 10
16.575027
 20
30.000000
 11
20.075027
 21
30.000000
  0
LINE
  8
0
 10
16.575027
 20
20.000000
 11
20.075027
 21
20.000000
  0
LINE
  8
0
 10
-19.425003
 20
-48.999985
 11
-31.425003
 21
-48.999985
  0
LINE
  8
0
 10
-25.425003
 20
-42.999985
 11
-25.425003
 21
-54.999985
  0
LINE
  8
0
 10
16.574997
 20
31.000015
 11
16.574997
 21
19.000015
  0
LINE
  8
0
 10
22.575027
 20
25.000000
 11
10.575027
 21
25.000000
  0
LINE
  8
0
 10
-26.591019
 20
-2.800003
 11
-26.591019
 21
-8.199997
  0
LINE
  8
0
 10
-24.724991
 20
-10.065994
 11
-22.524979
 21
-10.065994
  0
LINE
  8
0
 10
-20.658951
 20
-2.800003
 11
-20.658951
 21
-8.199997
  0
LINE
  8
0
 10
-24.724991
 20
-0.934006
 11
-22.524979
 21
-0.934006
  0
LINE
  8
0
 10
-26.591019
 20
-27.799973
 11
-26.591019
 21
-33.199966
  0
LINE
  8
0
 10
-24.724991
 20
-35.065994
 11
-22.524979
 21
-35.065994
  0
LINE
  8
0
 10
-20.658951
 20
-27.799973
 11
-20.658951
 21
-33.199966
  0
LINE
  8
0
 10
-24.724991
 20
-25.934006
 11
-22.524979
 21
-25.934006
  0
LINE
  8
0
 10
11.808975
 20
9.200012
 11
11.808975
 21
3.800018
  0
LINE
  8
0
 10
13.675003
 20
1.934006
 11
15.875015
 21
1.934006
  0
LINE
  8
0
 10
17.741043
 20
9.200012
 11
17.741043
 21
3.800018
  0
LINE
  8
0
 10
13.675003
 20
11.065994
 11
15.875015
 21
11.065994
  0
LINE
  8
0
 10
11.808975
 20
-15.300003
 11
11.808975
 21
-20.699966
  0
LINE
  8
0
 10
13.675003
 20
-22.565994
 11
15.875015
 21
-22.565994
  0
LINE
  8
0
 10
17.741043
 20
-15.300003
 11
17.741043
 21
-20.699966
  0
LINE
  8
0
 10
13.675003
 20
-13.434006
 11
15.875015
 21
-13.434006
  0
LINE
  8
0
 10
11.808975
 20
-39.799973
 11
11.808975
 21
-45.199966
  0
LINE
  8
0
 10
13.675003
 20
-47.065994
 11
15.875015
 21
-47.065994
  0
LINE
  8
0
 10
17.741043
 20
-39.799973
 11
17.741043
 21
-45.199966
  0
LINE
  8
0
 10
13.675003
 20
-37.934006
 11
15.875015
 21
-37.934006
  0
LINE
  8
0
 10
20.925003
 20
68.999985
 11
20.925003
 21
38.000000
  0
LINE
  8
0
 10
-29.774979
 20
68.999985
 11
-29.774979
 21
38.000000
  0
LINE
  8
0
 10
17.925003
 20
71.999985
 11
-26.774979
 21
71.999985
  0
LINE
  8
0
 10
-17.425003
 20
-61.999985
 11
-26.925003
 21
-61.999985
  0
LINE
  8
0
 10
8.574997
 20
-61.999985
 11
-17.425003
 21
-61.999985
  0
LINE
  8
0
 10
-20.425003
 20
38.000000
 11
-29.924973
 21
38.000000
  0
LINE
  8
0
 10
11.574997
 20
38.000000
 11
-20.425003
 21
38.000000
  0
LINE
  8
0
 10
11.574997
 20
-11.999992
 11
-20.425003
 21
-11.999992
  0
LINE
  8
0
 10
-6.574997
 20
-86.000000
 11
-6.574997
 21
-86.699982
  0
LINE
  8
0
 10
-17.425003
 20
-85.999969
 11
8.574997
 21
-85.999969
  0
LINE
  8
0
 10
-2.274979
 20
-86.699982
 11
-6.574966
 21
-86.699982
  0
LINE
  8
0
 10
-2.274979
 20
-86.000000
 11
-2.274979
 21
-86.699982
  0
ARC
  8
0
 10
8.574997
 20
59.000015
 40
3.000000
 50
0.000000
 51
90.000000
  0
ARC
  8
0
 10
-17.425003
 20
59.000015
 40
3.000000
 50
90.000000
 51
180.000000
  0
ARC
  8
0
 10
-0.425003
 20
11.000015
 40
2.000000
 50
0.000000
 51
90.000000
  0
ARC
  8
0
 10
-8.425003
 20
11.000015
 40
2.000000
 50
90.000000
 51
180.000000
  0
ARC
  8
0
 10
-8.424973
 20
-46.999985
 40
2.000000
 50
180.000000
 51
270.000000
  0
ARC
  8
0
 10
-0.424973
 20
-46.999985
 40
2.000000
 50
270.000000
 51
0.000000
  0
ARC
  8
0
 10
-0.425003
 20
11.000015
 40
1.000000
 50
0.000000
 51
90.000000
  0
ARC
  8
0
 10
-8.425003
 20
11.000015
 40
1.000000
 50
90.000000
 51
180.000000
  0
ARC
  8
0
 10
-8.424973
 20
-46.999985
 40
1.000000
 50
180.000000
 51
270.000000
  0
ARC
  8
0
 10
-0.424973
 20
-46.999985
 40
1.000000
 50
270.000000
 51
0.000000
  0
CIRCLE
  8
0
 10
8.074997
 20
-32.999985
 40
2.500000
  0
ARC
  8
0
 10
8.074997
 20
-32.999985
 40
3.000000
 50
90.000000
 51
270.000000
  0
ARC
  8
0
 10
-16.925003
 20
-32.999985
 40
3.000000
 50
270.000000
 51
90.000000
  0
CIRCLE
  8
0
 10
8.074997
 20
-32.999985
 40
2.500000
  0
ARC
  8
0
 10
8.074997
 20
-2.999985
 40
3.000000
 50
90.000000
 51
270.000000
  0
CIRCLE
  8
0
 10
8.074997
 20
-2.999985
 40
2.500000
  0
ARC
  8
0
 10
-16.925003
 20
-2.999985
 40
3.000000
 50
270.000061
 51
90.000038
  0
CIRCLE
  8
0
 10
-16.925003
 20
-2.999985
 40
2.500000
  0
CIRCLE
  8
0
 10
-16.925003
 20
-32.999985
 40
2.500000
  0
CIRCLE
  8
0
 10
-16.925003
 20
-2.999985
 40
2.500000
  0
CIRCLE
  8
0
 10
8.074997
 20
-2.999985
 40
2.500000
  0
ARC
  8
0
 10
-24.724991
 20
-2.800003
 40
1.865997
 50
89.999939
 51
179.999878
  0
ARC
  8
0
 10
15.875015
 20
-45.199966
 40
1.865997
 50
270.000000
 51
0.000000
  0
ARC
  8
0
 10
15.875015
 20
-39.799973
 40
1.865997
 50
0.000000
 51
90.000000
  0
ARC
  8
0
 10
-24.724991
 20
-27.799973
 40
1.865997
 50
89.999939
 51
179.999878
  0
ARC
  8
0
 10
-22.524979
 20
-27.799973
 40
1.865997
 50
0.000059
 51
90.000061
  0
ARC
  8
0
 10
-22.524979
 20
-33.199966
 40
1.865997
 50
270.000000
 51
0.000000
  0
ARC
  8
0
 10
13.675003
 20
3.800018
 40
1.865997
 50
180.000000
 51
270.000000
  0
ARC
  8
0
 10
15.875015
 20
3.800018
 40
1.865997
 50
270.000000
 51
0.000000
  0
ARC
  8
0
 10
13.675034
 20
9.200012
 40
1.865997
 50
89.999886
 51
179.999878
  0
ARC
  8
0
 10
13.675003
 20
-39.799973
 40
1.865997
 50
89.999886
 51
179.999878
  0
ARC
  8
0
 10
13.675003
 20
-45.199966
 40
1.865997
 50
180.000000
 51
270.000000
  0
ARC
  8
0
 10
13.675003
 20
-15.300003
 40
1.865997
 50
89.999886
 51
179.999878
  0
ARC
  8
0
 10
15.875015
 20
-15.300003
 40
1.865997
 50
0.000117
 51
90.000000
  0
ARC
  8
0
 10
-22.524979
 20
-8.199997
 40
1.865997
 50
270.000000
 51
0.000000
  0
ARC
  8
0
 10
-24.724991
 20
-8.199997
 40
1.865997
 50
180.000000
 51
269.999939
  0
ARC
  8
0
 10
15.875015
 20
9.200012
 40
1.865997
 50
0.000117
 51
90.000000
  0
ARC
  8
0
 10
13.675003
 20
-20.699966
 40
1.865997
 50
179.999939
 51
270.000000
  0
ARC
  8
0
 10
-22.524979
 20
-2.800003
 40
1.865997
 50
0.000117
 51
90.000061
  0
ARC
  8
0
 10
15.875015
 20
-20.699966
 40
1.865997
 50
270.000000
 51
0.000000
  0
ARC
  8
0
 10
-24.724991
 20
-33.199966
 40
1.865997
 50
180.000000
 51
269.999939
  0
ARC
  8
0
 10
18.074997
 20
-58.999985
 40
3.000000
 50
270.000000
 51
0.000000
  0
ARC
  8
0
 10
-26.925003
 20
-58.999985
 40
3.000000
 50
180.000000
 51
270.000000
  0
ARC
  8
0
 10
16.575027
 20
25.000015
 40
5.000000
 50
90.000000
 51
270.000000
  0
CIRCLE
  8
0
 10
16.575027
 20
25.000015
 40
2.750000
  0
CIRCLE
  8
0
 10
-25.425003
 20
-48.999985
 40
2.750000
  0
ARC
  8
0
 10
-25.425003
 20
-48.999985
 40
5.000000
 50
270.000031
 51
89.999977
  0
ARC
  8
0
 10
20.075027
 20
19.000015
 40
1.000000
 50
0.000000
 51
90.000000
  0
ARC
  8
0
 10
20.075027
 20
31.000015
 40
1.000000
 50
270.000000
 51
0.000000
  0
ARC
  8
0
 10
-28.925003
 20
-42.999985
 40
1.000000
 50
180.000000
 51
270.000000
  0
ARC
  8
0
 10
-28.925003
 20
-54.999985
 40
1.000000
 50
90.000000
 51
180.000000
  0
ARC
  8
0
 10
-26.774979
 20
68.999985
 40
3.000000
 50
90.000000
 51
180.000000
  0
ARC
  8
0
 10
17.925003
 20
68.999985
 40
3.000000
 50
0.000000
 51
90.000000
  0
ARC
  8
0
 10
8.574997
 20
-83.000000
 40
3.000000
 50
270.000000
 51
0.000000
  0
ARC
  8
0
 10
-17.425003
 20
-83.000000
 40
3.000000
 50
180.000000
 51
270.000000
  0
TEXT
  8
0
 10
-14.217977
 20
-47.119987
 40
3.200000
  1
B
 50
180.000000
 41
1.052632
 51
0.000000
  7
STANDARD
  0
TEXT
  8
0
 10
5.368003
 20
11.120015
 40
3.200000
  1
A
 50
0.000000
 41
1.052632
 51
0.000000
  7
STANDARD
  0
TEXT
  8
0
 10
15.215008
 20
4.921516
 40
1.599999
  1
R1
 50
90.000000
 41
1.052632
 51
0.000000
  7
STANDARD
  0
TEXT
  8
0
 10
15.215008
 20
-44.078484
 40
1.599999
  1
R2
 50
90.000000
 41
1.052632
 51
0.000000
  7
STANDARD
  0
TEXT
  8
0
 10
-24.064983
 20
-29.721485
 40
1.599999
  1
B
 50
270.000000
 41
1.052632
 51
0.000000
  7
STANDARD
  0
TEXT
  8
0
 10
15.215008
 20
-18.778484
 40
1.599999
  1
P
 50
90.000000
 41
1.052632
 51
0.000000
  7
STANDARD
  0
TEXT
  8
0
 10
-24.064983
 20
-4.721485
 40
1.599999
  1
A
 50
270.000000
 41
1.052632
 51
0.000000
  7
STANDARD
  0
POINT
  8
0
 10
16.574997
 20
178.599960
  0
POINT
  8
0
 10
-25.425003
 20
178.599960
  0
LINE
  8
0
 10
8.074997
 20
134.999985
 11
8.074997
 21
143.999985
  0
LINE
  8
0
 10
10.075058
 20
87.999985
 11
-18.924973
 21
87.999985
  0
LINE
  8
0
 10
11.574997
 20
142.999985
 11
-20.425003
 21
142.999985
  0
LINE
  8
0
 10
11.575027
 20
97.999985
 11
-20.424973
 21
97.999985
  0
LINE
  8
0
 10
11.575027
 20
127.999985
 11
-20.424973
 21
127.999985
  0
LINE
  8
0
 10
-20.425003
 20
89.499954
 11
-20.425003
 21
143.599960
  0
LINE
  8
0
 10
11.574997
 20
89.499985
 11
11.574997
 21
143.599991
  0
LINE
  8
0
 10
11.575027
 20
136.499985
 11
8.075027
 21
136.499985
  0
LINE
  8
0
 10
5.074997
 20
139.499985
 11
5.074997
 21
142.999985
  0
LINE
  8
0
 10
12.575027
 20
139.499985
 11
3.575027
 21
139.499985
  0
LINE
  8
0
 10
-0.924973
 20
132.099960
 11
-7.924973
 21
132.099960
  0
LINE
  8
0
 10
-16.925003
 20
134.999954
 11
-16.925003
 21
143.999954
  0
LINE
  8
0
 10
-20.425003
 20
136.499985
 11
-16.925003
 21
136.499985
  0
LINE
  8
0
 10
-13.925003
 20
139.499985
 11
-13.925003
 21
142.999985
  0
LINE
  8
0
 10
3.575027
 20
139.499985
 11
12.575027
 21
139.499985
  0
LINE
  8
0
 10
11.575027
 20
99.399979
 11
-20.424973
 21
99.399979
  0
LINE
  8
0
 10
11.575027
 20
101.399979
 11
-20.424973
 21
101.399979
  0
LINE
  8
0
 10
11.575027
 20
102.999985
 11
-4.424973
 21
102.999985
  0
LINE
  8
0
 10
11.575027
 20
104.999985
 11
-4.424973
 21
104.999985
  0
LINE
  8
0
 10
11.575027
 20
106.599960
 11
-20.424973
 21
106.599960
  0
LINE
  8
0
 10
11.575027
 20
108.599960
 11
-20.424973
 21
108.599960
  0
LINE
  8
0
 10
11.575027
 20
110.199966
 11
-20.424973
 21
110.199966
  0
LINE
  8
0
 10
11.575027
 20
112.199966
 11
-20.424973
 21
112.199966
  0
LINE
  8
0
 10
11.575027
 20
113.799973
 11
-20.424973
 21
113.799973
  0
LINE
  8
0
 10
11.575027
 20
115.799973
 11
-20.424973
 21
115.799973
  0
LINE
  8
0
 10
11.575027
 20
117.399979
 11
-20.424973
 21
117.399979
  0
LINE
  8
0
 10
11.575027
 20
119.399979
 11
-20.424973
 21
119.399979
  0
LINE
  8
0
 10
11.575027
 20
120.999954
 11
-20.424973
 21
120.999954
  0
LINE
  8
0
 10
11.575027
 20
122.999954
 11
-20.424973
 21
122.999954
  0
LINE
  8
0
 10
11.575027
 20
124.599960
 11
-20.424973
 21
124.599960
  0
LINE
  8
0
 10
11.575027
 20
126.599960
 11
-20.424973
 21
126.599960
  0
LINE
  8
0
 10
-17.425003
 20
102.999954
 11
-17.425003
 21
104.999954
  0
LINE
  8
0
 10
-17.424973
 20
102.999985
 11
-20.424973
 21
102.999985
  0
LINE
  8
0
 10
-17.424973
 20
104.999985
 11
-20.424973
 21
104.999985
  0
LINE
  8
0
 10
-4.425003
 20
102.999985
 11
-4.425003
 21
104.999985
  0
LINE
  8
0
 10
6.085037
 20
139.299973
 11
7.875015
 21
139.299973
  0
LINE
  8
0
 10
6.085037
 20
139.699966
 11
7.875015
 21
139.699966
  0
LINE
  8
0
 10
7.875015
 20
137.510025
 11
7.875015
 21
139.300003
  0
LINE
  8
0
 10
8.275009
 20
137.510025
 11
8.275009
 21
139.300003
  0
LINE
  8
0
 10
8.275009
 20
139.299973
 11
10.064987
 21
139.299973
  0
LINE
  8
0
 10
8.275009
 20
139.699997
 11
8.275009
 21
141.489975
  0
LINE
  8
0
 10
7.875015
 20
139.699997
 11
7.875015
 21
141.489975
  0
LINE
  8
0
 10
8.275009
 20
139.699966
 11
10.064987
 21
139.699966
  0
LINE
  8
0
 10
-21.425003
 20
139.499985
 11
-12.425003
 21
139.499985
  0
LINE
  8
0
 10
-18.914963
 20
139.299973
 11
-17.124985
 21
139.299973
  0
LINE
  8
0
 10
-18.914963
 20
139.699966
 11
-17.124985
 21
139.699966
  0
LINE
  8
0
 10
-17.124985
 20
137.509995
 11
-17.124985
 21
139.299973
  0
LINE
  8
0
 10
-16.724991
 20
137.509995
 11
-16.724991
 21
139.299973
  0
LINE
  8
0
 10
-16.724991
 20
139.299973
 11
-14.935013
 21
139.299973
  0
LINE
  8
0
 10
-16.724991
 20
139.699966
 11
-16.724991
 21
141.489944
  0
LINE
  8
0
 10
-17.124985
 20
139.699966
 11
-17.124985
 21
141.489944
  0
LINE
  8
0
 10
-16.724991
 20
139.699966
 11
-14.935013
 21
139.699966
  0
LINE
  8
0
 10
21.074997
 20
178.599960
 11
-29.925003
 21
178.599960
  0
LINE
  8
0
 10
18.074997
 20
144.599960
 11
-26.925003
 21
144.599960
  0
LINE
  8
0
 10
21.074997
 20
147.599960
 11
21.074997
 21
178.599960
  0
LINE
  8
0
 10
-29.925003
 20
147.599960
 11
-29.925003
 21
178.599960
  0
LINE
  8
0
 10
11.574997
 20
143.599960
 11
11.574997
 21
144.599960
  0
LINE
  8
0
 10
-20.425003
 20
143.599960
 11
-20.425003
 21
144.599960
  0
LINE
  8
0
 10
-4.425003
 20
184.763931
 11
-4.425003
 21
81.292282
  0
LINE
  8
0
 10
-36.760452
 20
161.349960
 11
27.173264
 21
161.349960
  0
LINE
  8
0
 10
-11.496048
 20
163.349960
 11
-11.496048
 21
159.349960
  0
LINE
  8
0
 10
-27.925003
 20
150.599960
 11
-19.925003
 21
150.599960
  0
LINE
  8
0
 10
-27.925003
 20
172.099960
 11
-19.925003
 21
172.099960
  0
LINE
  8
0
 10
11.074997
 20
172.099960
 11
19.074997
 21
172.099960
  0
LINE
  8
0
 10
11.074997
 20
150.599960
 11
19.074997
 21
150.599960
  0
LINE
  8
0
 10
-23.925003
 20
154.599960
 11
-23.925003
 21
146.599960
  0
LINE
  8
0
 10
-23.925003
 20
176.099960
 11
-23.925003
 21
168.099960
  0
LINE
  8
0
 10
15.074997
 20
176.099960
 11
15.074997
 21
168.099960
  0
LINE
  8
0
 10
15.074997
 20
154.599960
 11
15.074997
 21
146.599960
  0
LINE
  8
0
 10
-6.425003
 20
154.278915
 11
-2.425003
 21
154.278915
  0
LINE
  8
0
 10
-6.425003
 20
168.421036
 11
-2.425003
 21
168.421036
  0
LINE
  8
0
 10
2.646072
 20
163.349960
 11
2.646072
 21
159.349960
  0
LINE
  8
0
 10
7.875015
 20
137.510025
 11
8.275009
 21
137.510025
  0
LINE
  8
0
 10
13.802208
 20
172.948486
 11
14.226471
 21
173.372757
  0
LINE
  8
0
 10
15.923531
 20
170.827164
 11
16.347797
 21
171.251434
  0
LINE
  8
0
 10
13.802204
 20
171.251434
 11
14.226471
 21
171.675690
  0
LINE
  8
0
 10
14.226467
 20
170.827164
 11
14.650734
 21
171.251434
  0
LINE
  8
0
 10
13.802208
 20
171.251434
 11
14.226471
 21
170.827179
  0
LINE
  8
0
 10
15.923531
 20
173.372757
 11
16.347794
 21
172.948502
  0
LINE
  8
0
 10
13.802208
 20
172.948486
 11
14.226471
 21
172.524231
  0
LINE
  8
0
 10
14.226471
 20
173.372757
 11
14.650730
 21
172.948486
  0
LINE
  8
0
 10
15.499260
 20
172.948486
 11
15.923527
 21
173.372757
  0
LINE
  8
0
 10
15.923523
 20
172.524231
 11
16.347790
 21
172.948486
  0
LINE
  8
0
 10
15.499264
 20
171.251434
 11
15.923527
 21
170.827164
  0
LINE
  8
0
 10
15.923523
 20
171.675705
 11
16.347790
 21
171.251434
  0
LINE
  8
0
 10
13.802208
 20
151.448486
 11
14.226475
 21
151.872742
  0
LINE
  8
0
 10
15.923534
 20
149.327164
 11
16.347797
 21
149.751419
  0
LINE
  8
0
 10
13.802208
 20
149.751434
 11
14.226471
 21
150.175690
  0
LINE
  8
0
 10
14.226471
 20
149.327164
 11
14.650734
 21
149.751434
  0
LINE
  8
0
 10
13.802208
 20
149.751434
 11
14.226471
 21
149.327164
  0
LINE
  8
0
 10
15.923531
 20
151.872757
 11
16.347794
 21
151.448486
  0
LINE
  8
0
 10
13.802208
 20
151.448486
 11
14.226471
 21
151.024231
  0
LINE
  8
0
 10
14.226471
 20
151.872757
 11
14.650734
 21
151.448486
  0
LINE
  8
0
 10
15.499264
 20
151.448486
 11
15.923527
 21
151.872742
  0
LINE
  8
0
 10
15.923527
 20
151.024216
 11
16.347790
 21
151.448486
  0
LINE
  8
0
 10
15.499264
 20
149.751434
 11
15.923527
 21
149.327164
  0
LINE
  8
0
 10
15.923523
 20
150.175690
 11
16.347790
 21
149.751434
  0
LINE
  8
0
 10
-25.197796
 20
151.448486
 11
-24.773531
 21
151.872757
  0
LINE
  8
0
 10
-23.076473
 20
149.327164
 11
-22.652208
 21
149.751434
  0
LINE
  8
0
 10
-25.197790
 20
149.751434
 11
-24.773527
 21
150.175690
  0
LINE
  8
0
 10
-24.773527
 20
149.327164
 11
-24.349262
 21
149.751434
  0
LINE
  8
0
 10
-25.197794
 20
149.751434
 11
-24.773531
 21
149.327164
  0
LINE
  8
0
 10
-23.076477
 20
151.872742
 11
-22.652212
 21
151.448486
  0
LINE
  8
0
 10
-25.197798
 20
151.448486
 11
-24.773533
 21
151.024216
  0
LINE
  8
0
 10
-24.773531
 20
151.872757
 11
-24.349268
 21
151.448486
  0
LINE
  8
0
 10
-23.500736
 20
151.448486
 11
-23.076471
 21
151.872742
  0
LINE
  8
0
 10
-23.076471
 20
151.024216
 11
-22.652206
 21
151.448486
  0
LINE
  8
0
 10
-23.500740
 20
149.751434
 11
-23.076477
 21
149.327164
  0
LINE
  8
0
 10
-23.076475
 20
150.175690
 11
-22.652210
 21
149.751434
  0
LINE
  8
0
 10
-25.197794
 20
172.948486
 11
-24.773531
 21
173.372757
  0
LINE
  8
0
 10
-23.076473
 20
170.827164
 11
-22.652210
 21
171.251434
  0
LINE
  8
0
 10
-25.197794
 20
171.251434
 11
-24.773531
 21
171.675690
  0
LINE
  8
0
 10
-24.773529
 20
170.827164
 11
-24.349266
 21
171.251434
  0
LINE
  8
0
 10
-25.197796
 20
171.251434
 11
-24.773531
 21
170.827164
  0
LINE
  8
0
 10
-23.076475
 20
173.372757
 11
-22.652210
 21
172.948486
  0
LINE
  8
0
 10
-25.197796
 20
172.948486
 11
-24.773531
 21
172.524231
  0
LINE
  8
0
 10
-24.773533
 20
173.372757
 11
-24.349268
 21
172.948486
  0
LINE
  8
0
 10
-23.500738
 20
172.948486
 11
-23.076475
 21
173.372757
  0
LINE
  8
0
 10
-23.076473
 20
172.524231
 11
-22.652210
 21
172.948486
  0
LINE
  8
0
 10
-23.500740
 20
171.251434
 11
-23.076475
 21
170.827164
  0
LINE
  8
0
 10
-23.076477
 20
171.675690
 11
-22.652212
 21
171.251434
  0
ARC
  8
0
 10
-18.924973
 20
89.499954
 40
1.500000
 50
180.000000
 51
270.000000
  0
ARC
  8
0
 10
10.075058
 20
89.499985
 40
1.500000
 50
270.000000
 51
0.000000
  0
CIRCLE
  8
0
 10
8.075027
 20
139.499985
 40
2.500000
  0
ARC
  8
0
 10
8.075027
 20
139.499985
 40
3.000000
 50
180.000000
 51
270.000000
  0
CIRCLE
  8
0
 10
-4.424973
 20
132.099960
 40
2.150000
  0
CIRCLE
  8
0
 10
-4.424973
 20
132.099960
 40
1.500000
  0
CIRCLE
  8
0
 10
-16.925003
 20
139.499954
 40
2.500000
  0
ARC
  8
0
 10
-16.925003
 20
139.499954
 40
3.000000
 50
270.000000
 51
0.000000
  0
ARC
  8
0
 10
-16.925003
 20
139.499954
 40
2.000000
 50
264.260864
 51
275.739258
  0
ARC
  8
0
 10
8.075027
 20
139.499985
 40
2.000000
 50
354.260925
 51
5.739083
  0
ARC
  8
0
 10
8.075027
 20
139.499985
 40
2.000000
 50
84.260811
 51
95.739189
  0
ARC
  8
0
 10
8.075027
 20
139.499985
 40
2.000000
 50
174.260910
 51
185.739090
  0
ARC
  8
0
 10
-16.925003
 20
139.499954
 40
2.000000
 50
84.260811
 51
95.739136
  0
ARC
  8
0
 10
-16.925003
 20
139.499954
 40
2.000000
 50
354.260925
 51
5.739083
  0
ARC
  8
0
 10
-16.925003
 20
139.499954
 40
2.000000
 50
174.260910
 51
185.739090
  0
ARC
  8
0
 10
18.074997
 20
147.599960
 40
3.000000
 50
270.000000
 51
0.000000
  0
ARC
  8
0
 10
-26.925003
 20
147.599960
 40
3.000000
 50
180.000000
 51
269.999939
  0
CIRCLE
  8
0
 10
-4.425003
 20
161.349960
 40
11.900000
  0
CIRCLE
  8
0
 10
-11.496048
 20
161.349960
 40
1.050000
  0
CIRCLE
  8
0
 10
-11.496048
 20
161.349960
 40
1.350000
  0
CIRCLE
  8
0
 10
-4.425003
 20
168.421036
 40
1.350000
  0
CIRCLE
  8
0
 10
-4.425003
 20
168.421036
 40
1.050000
  0
CIRCLE
  8
0
 10
2.646072
 20
161.349960
 40
1.350000
  0
CIRCLE
  8
0
 10
2.646072
 20
161.349960
 40
1.050000
  0
CIRCLE
  8
0
 10
-4.425003
 20
154.278915
 40
1.350000
  0
CIRCLE
  8
0
 10
-4.425003
 20
154.278915
 40
1.050000
  0
CIRCLE
  8
0
 10
15.074997
 20
172.099960
 40
2.799999
  0
ARC
  8
0
 10
15.074997
 20
173.372757
 40
0.600004
 50
225.000519
 51
314.999481
  0
ARC
  8
0
 10
13.802204
 20
172.099960
 40
0.600004
 50
314.999481
 51
45.000515
  0
ARC
  8
0
 10
16.347790
 20
172.099960
 40
0.600004
 50
134.999481
 51
225.000519
  0
ARC
  8
0
 10
15.074997
 20
170.827164
 40
0.600004
 50
45.000515
 51
134.999481
  0
CIRCLE
  8
0
 10
15.074997
 20
150.599960
 40
2.799999
  0
ARC
  8
0
 10
15.074997
 20
151.872757
 40
0.600004
 50
225.000519
 51
314.999481
  0
ARC
  8
0
 10
13.802204
 20
150.599960
 40
0.600004
 50
314.999481
 51
45.000515
  0
ARC
  8
0
 10
16.347790
 20
150.599960
 40
0.600004
 50
134.999481
 51
225.000519
  0
ARC
  8
0
 10
15.074997
 20
149.327164
 40
0.600004
 50
45.000515
 51
134.999481
  0
CIRCLE
  8
0
 10
-23.925003
 20
150.599960
 40
2.799999
  0
ARC
  8
0
 10
-23.925003
 20
151.872757
 40
0.600005
 50
225.000381
 51
314.999603
  0
ARC
  8
0
 10
-25.197796
 20
150.599960
 40
0.600005
 50
314.999603
 51
45.000385
  0
ARC
  8
0
 10
-22.652210
 20
150.599960
 40
0.600005
 50
134.999619
 51
225.000381
  0
ARC
  8
0
 10
-23.925003
 20
149.327164
 40
0.600005
 50
45.000385
 51
134.999481
  0
CIRCLE
  8
0
 10
-23.925003
 20
172.099960
 40
2.799999
  0
ARC
  8
0
 10
-23.925003
 20
173.372757
 40
0.600005
 50
225.000381
 51
314.999603
  0
ARC
  8
0
 10
-25.197796
 20
172.099960
 40
0.600005
 50
314.999603
 51
45.000385
  0
ARC
  8
0
 10
-22.652210
 20
172.099960
 40
0.600005
 50
134.999619
 51
225.000381
  0
ARC
  8
0
 10
-23.925003
 20
170.827164
 40
0.600005
 50
45.000385
 51
134.999481
  0
TEXT
  8
0
 10
-13.880765
 20
161.507553
 40
1.250000
  1
C
 50
180.000000
 41
1.052632
 51
0.000000
  7
STANDARD
  0
TEXT
  8
0
 10
-3.838162
 20
151.364487
 40
1.250000
  1
B
 50
180.000000
 41
1.052632
 51
0.000000
  7
STANDARD
  0
TEXT
  8
0
 10
-3.099268
 20
171.124313
 40
1.000000
  1
GND
 50
180.000000
 41
1.052632
 51
0.000000
  7
STANDARD
  0
TEXT
  8
0
 10
5.903202
 20
161.507553
 40
1.250000
  1
A
 50
180.000000
 41
1.052632
 51
0.000000
  7
STANDARD
  0
TEXT
  8
0
 10
-7.968389
 20
104.439957
 40
1.599999
  1
DC24V
 50
-180.000000
 41
0.798239
 51
0.000000
  7
STANDARD
  0
POINT
  8
0
 10
-94.824997
 20
-48.999985
  0
POINT
  8
0
 10
-185.425003
 20
-48.999985
  0
LINE
  8
0
 10
-94.824997
 20
-84.500031
 11
-94.824997
 21
60.500015
  0
LINE
  8
0
 10
-94.825027
 20
-35.999985
 11
-124.825027
 21
-35.999985
  0
LINE
  8
0
 10
-94.825027
 20
-29.999985
 11
-124.825027
 21
-29.999985
  0
LINE
  8
0
 10
-124.824997
 20
-35.999954
 11
-124.824997
 21
-29.999954
  0
LINE
  8
0
 10
-120.824997
 20
-35.499954
 11
-120.824997
 21
-30.499954
  0
LINE
  8
0
 10
-94.824997
 20
-61.999985
 11
-149.824997
 21
-61.999985
  0
LINE
  8
0
 10
-94.825027
 20
38.000000
 11
-149.825027
 21
38.000000
  0
LINE
  8
0
 10
-94.825027
 20
18.000000
 11
-149.825027
 21
18.000000
  0
LINE
  8
0
 10
-104.824997
 20
-53.999954
 11
-104.824997
 21
18.000038
  0
LINE
  8
0
 10
-94.824997
 20
-53.999985
 11
-149.824997
 21
-53.999985
  0
LINE
  8
0
 10
-120.062485
 20
-32.999985
 11
-125.525650
 21
-32.999985
  0
LINE
  8
0
 10
-120.825027
 20
-30.499985
 11
-124.825027
 21
-30.499985
  0
LINE
  8
0
 10
-120.825027
 20
-35.499985
 11
-124.825027
 21
-35.499985
  0
LINE
  8
0
 10
-94.825027
 20
0.000000
 11
-124.825027
 21
0.000000
  0
LINE
  8
0
 10
-94.825027
 20
-6.000015
 11
-124.825027
 21
-6.000015
  0
LINE
  8
0
 10
-124.824997
 20
0.000023
 11
-124.824997
 21
-5.999985
  0
LINE
  8
0
 10
-120.824997
 20
-0.499977
 11
-120.824997
 21
-5.499985
  0
LINE
  8
0
 10
-120.062485
 20
-3.000015
 11
-125.706314
 21
-3.000015
  0
LINE
  8
0
 10
-120.825027
 20
-5.500015
 11
-124.825027
 21
-5.500015
  0
LINE
  8
0
 10
-120.825027
 20
-0.500000
 11
-124.825027
 21
-0.500000
  0
LINE
  8
0
 10
-149.824997
 20
-84.500000
 11
-149.824997
 21
60.500015
  0
LINE
  8
0
 10
-146.324997
 20
56.920151
 11
-146.324997
 21
62.745865
  0
LINE
  8
0
 10
-143.325058
 20
57.999985
 11
-149.825058
 21
57.999985
  0
LINE
  8
0
 10
-145.325058
 20
60.999985
 11
-147.325058
 21
60.999985
  0
LINE
  8
0
 10
-143.324997
 20
58.000015
 11
-143.324997
 21
62.000015
  0
LINE
  8
0
 10
-148.824997
 20
58.000015
 11
-148.824997
 21
59.500015
  0
LINE
  8
0
 10
-143.824997
 20
58.000015
 11
-143.824997
 21
59.500015
  0
LINE
  8
0
 10
-143.825058
 20
58.999985
 11
-148.825058
 21
58.999985
  0
LINE
  8
0
 10
-141.074997
 20
62.000015
 11
-141.074997
 21
62.700027
  0
LINE
  8
0
 10
-136.774979
 20
62.000015
 11
-136.774979
 21
62.700027
  0
LINE
  8
0
 10
-136.775070
 20
62.699997
 11
-141.075058
 21
62.699997
  0
LINE
  8
0
 10
-96.325058
 20
61.999985
 11
-148.325058
 21
61.999985
  0
LINE
  8
0
 10
-106.224991
 20
62.000046
 11
-106.224991
 21
38.000046
  0
LINE
  8
0
 10
-108.224991
 20
62.000015
 11
-108.224991
 21
38.000015
  0
LINE
  8
0
 10
-109.824997
 20
62.000015
 11
-109.824997
 21
38.000015
  0
LINE
  8
0
 10
-111.824997
 20
62.000015
 11
-111.824997
 21
38.000015
  0
LINE
  8
0
 10
-113.425003
 20
62.000015
 11
-113.425003
 21
38.000015
  0
LINE
  8
0
 10
-115.425003
 20
62.000015
 11
-115.425003
 21
38.000015
  0
LINE
  8
0
 10
-117.024979
 20
62.000015
 11
-117.024979
 21
38.000015
  0
LINE
  8
0
 10
-119.024979
 20
62.000015
 11
-119.024979
 21
38.000015
  0
LINE
  8
0
 10
-120.624985
 20
62.000015
 11
-120.624985
 21
38.000015
  0
LINE
  8
0
 10
-122.624985
 20
62.000015
 11
-122.624985
 21
38.000015
  0
LINE
  8
0
 10
-124.224991
 20
62.000015
 11
-124.224991
 21
38.000015
  0
LINE
  8
0
 10
-126.224991
 20
62.000015
 11
-126.224991
 21
38.000015
  0
LINE
  8
0
 10
-127.824997
 20
62.000015
 11
-127.824997
 21
38.000015
  0
LINE
  8
0
 10
-129.824997
 20
62.000015
 11
-129.824997
 21
38.000031
  0
LINE
  8
0
 10
-131.425003
 20
62.000015
 11
-131.425003
 21
38.000015
  0
LINE
  8
0
 10
-133.425003
 20
62.000015
 11
-133.425003
 21
38.000015
  0
LINE
  8
0
 10
-104.824997
 20
62.000046
 11
-104.824997
 21
38.000046
  0
LINE
  8
0
 10
-134.824997
 20
62.000015
 11
-134.824997
 21
38.000015
  0
LINE
  8
0
 10
-146.125046
 20
59.999985
 11
-146.525070
 21
59.999985
  0
LINE
  8
0
 10
-146.125015
 20
60.000015
 11
-146.125015
 21
61.000015
  0
LINE
  8
0
 10
-146.524979
 20
60.000015
 11
-146.524979
 21
61.000015
  0
LINE
  8
0
 10
-159.425003
 20
-43.999954
 11
-159.425003
 21
-53.999954
  0
LINE
  8
0
 10
-152.425003
 20
-43.999985
 11
-159.425003
 21
-43.999985
  0
LINE
  8
0
 10
-152.425003
 20
-53.999985
 11
-159.425003
 21
-53.999985
  0
LINE
  8
0
 10
-146.117996
 20
-48.999985
 11
-163.630386
 21
-48.999985
  0
LINE
  8
0
 10
-154.425003
 20
-61.999985
 11
-185.425003
 21
-61.999985
  0
LINE
  8
0
 10
-149.824997
 20
-56.999985
 11
-151.425003
 21
-56.999985
  0
LINE
  8
0
 10
-170.525009
 20
-51.066025
 11
-168.324997
 21
-51.066025
  0
LINE
  8
0
 10
-172.391037
 20
-43.800003
 11
-172.391037
 21
-49.199966
  0
LINE
  8
0
 10
-166.458969
 20
-43.800003
 11
-166.458969
 21
-49.199966
  0
LINE
  8
0
 10
-170.525009
 20
-41.934036
 11
-168.324997
 21
-41.934036
  0
LINE
  8
0
 10
-151.424942
 20
38.000000
 11
-185.424942
 21
38.000000
  0
LINE
  8
0
 10
-151.425003
 20
38.000046
 11
-151.425003
 21
-58.999954
  0
LINE
  8
0
 10
-149.824997
 20
20.500000
 11
-151.424942
 21
20.500000
  0
LINE
  8
0
 10
-172.391037
 20
13.199997
 11
-172.391037
 21
7.800003
  0
LINE
  8
0
 10
-170.525009
 20
5.933952
 11
-168.324997
 21
5.933952
  0
LINE
  8
0
 10
-166.458969
 20
13.199997
 11
-166.458969
 21
7.800003
  0
LINE
  8
0
 10
-170.525009
 20
15.065941
 11
-168.324997
 21
15.065941
  0
LINE
  8
0
 10
-185.425003
 20
38.000046
 11
-185.425003
 21
-61.999954
  0
LINE
  8
0
 10
-159.425003
 20
-30.499985
 11
-179.425003
 21
-30.499985
  0
LINE
  8
0
 10
-169.425003
 20
4.500053
 11
-169.425003
 21
-40.499924
  0
LINE
  8
0
 10
-159.425003
 20
-5.500015
 11
-179.425003
 21
-5.500015
  0
LINE
  8
0
 10
-151.574997
 20
68.999985
 11
-151.574997
 21
38.000000
  0
LINE
  8
0
 10
-184.775009
 20
68.999985
 11
-184.775009
 21
38.000000
  0
LINE
  8
0
 10
-181.775009
 20
71.999985
 11
-154.574997
 21
71.999985
  0
LINE
  8
0
 10
-138.925064
 20
65.149979
 11
-138.925064
 21
59.550003
  0
LINE
  8
0
 10
-146.324997
 20
-80.920135
 11
-146.324997
 21
-86.745850
  0
LINE
  8
0
 10
-143.325058
 20
-81.999969
 11
-149.825058
 21
-81.999969
  0
LINE
  8
0
 10
-145.325058
 20
-84.999969
 11
-147.325058
 21
-84.999969
  0
LINE
  8
0
 10
-143.324997
 20
-82.000000
 11
-143.324997
 21
-86.000000
  0
LINE
  8
0
 10
-148.824997
 20
-82.000000
 11
-148.824997
 21
-83.500000
  0
LINE
  8
0
 10
-143.824997
 20
-82.000000
 11
-143.824997
 21
-83.500000
  0
LINE
  8
0
 10
-143.825058
 20
-82.999969
 11
-148.825058
 21
-82.999969
  0
LINE
  8
0
 10
-141.074997
 20
-86.000000
 11
-141.074997
 21
-86.700012
  0
LINE
  8
0
 10
-136.774979
 20
-86.000000
 11
-136.774979
 21
-86.700012
  0
LINE
  8
0
 10
-136.775070
 20
-86.699982
 11
-141.075058
 21
-86.699982
  0
LINE
  8
0
 10
-96.325058
 20
-85.999969
 11
-148.325058
 21
-85.999969
  0
LINE
  8
0
 10
-106.224991
 20
-86.000031
 11
-106.224991
 21
-62.000031
  0
LINE
  8
0
 10
-108.224991
 20
-86.000000
 11
-108.224991
 21
-62.000000
  0
LINE
  8
0
 10
-109.824997
 20
-86.000000
 11
-109.824997
 21
-62.000000
  0
LINE
  8
0
 10
-111.824997
 20
-86.000000
 11
-111.824997
 21
-62.000000
  0
LINE
  8
0
 10
-113.425003
 20
-86.000000
 11
-113.425003
 21
-62.000000
  0
LINE
  8
0
 10
-115.425003
 20
-86.000000
 11
-115.425003
 21
-62.000000
  0
LINE
  8
0
 10
-117.024979
 20
-86.000000
 11
-117.024979
 21
-62.000000
  0
LINE
  8
0
 10
-119.024979
 20
-86.000000
 11
-119.024979
 21
-62.000000
  0
LINE
  8
0
 10
-120.624985
 20
-86.000000
 11
-120.624985
 21
-62.000000
  0
LINE
  8
0
 10
-122.624985
 20
-86.000000
 11
-122.624985
 21
-62.000000
  0
LINE
  8
0
 10
-124.224991
 20
-86.000000
 11
-124.224991
 21
-62.000000
  0
LINE
  8
0
 10
-126.224991
 20
-86.000000
 11
-126.224991
 21
-62.000000
  0
LINE
  8
0
 10
-127.824997
 20
-86.000000
 11
-127.824997
 21
-62.000000
  0
LINE
  8
0
 10
-129.824997
 20
-86.000000
 11
-129.824997
 21
-62.000015
  0
LINE
  8
0
 10
-131.425003
 20
-86.000000
 11
-131.425003
 21
-62.000000
  0
LINE
  8
0
 10
-133.425003
 20
-86.000000
 11
-133.425003
 21
-62.000000
  0
LINE
  8
0
 10
-104.824997
 20
-86.000031
 11
-104.824997
 21
-62.000031
  0
LINE
  8
0
 10
-134.824997
 20
-86.000000
 11
-134.824997
 21
-62.000000
  0
LINE
  8
0
 10
-146.125046
 20
-83.999969
 11
-146.525070
 21
-83.999969
  0
LINE
  8
0
 10
-146.125015
 20
-84.000000
 11
-146.125015
 21
-85.000000
  0
LINE
  8
0
 10
-146.524979
 20
-84.000000
 11
-146.524979
 21
-85.000000
  0
LINE
  8
0
 10
-138.925064
 20
-89.149963
 11
-138.925064
 21
-83.549988
  0
ARC
  8
0
 10
-148.325058
 20
60.500015
 40
1.500000
 50
90.000000
 51
180.000000
  0
ARC
  8
0
 10
-145.325058
 20
59.500015
 40
1.500000
 50
0.000000
 51
90.000000
  0
ARC
  8
0
 10
-147.325058
 20
59.500015
 40
1.500000
 50
90.000000
 51
180.000000
  0
ARC
  8
0
 10
-96.325058
 20
60.500046
 40
1.500000
 50
0.000000
 51
90.000000
  0
ARC
  8
0
 10
-152.425003
 20
-42.999954
 40
1.000000
 50
270.000000
 51
0.000000
  0
ARC
  8
0
 10
-152.425003
 20
-54.999954
 40
1.000000
 50
0.000000
 51
90.000000
  0
ARC
  8
0
 10
-154.425003
 20
-58.999954
 40
3.000000
 50
270.000000
 51
0.000000
  0
ARC
  8
0
 10
-168.324997
 20
-49.199966
 40
1.865997
 50
270.000000
 51
0.000000
  0
ARC
  8
0
 10
-170.525009
 20
-49.199966
 40
1.865997
 50
179.999878
 51
270.000000
  0
ARC
  8
0
 10
-170.525009
 20
-43.800003
 40
1.865997
 50
90.000000
 51
179.999878
  0
ARC
  8
0
 10
-168.324997
 20
-43.800003
 40
1.865997
 50
0.000000
 51
90.000000
  0
ARC
  8
0
 10
-170.524948
 20
7.800003
 40
1.865997
 50
179.999878
 51
270.000000
  0
ARC
  8
0
 10
-168.324966
 20
7.800003
 40
1.865997
 50
270.000000
 51
0.000000
  0
ARC
  8
0
 10
-170.524948
 20
13.199997
 40
1.865997
 50
90.000000
 51
179.999878
  0
ARC
  8
0
 10
-168.324966
 20
13.199997
 40
1.865997
 50
0.000000
 51
90.000000
  0
ARC
  8
0
 10
-181.775009
 20
68.999985
 40
3.000000
 50
90.000000
 51
180.000000
  0
ARC
  8
0
 10
-154.574997
 20
68.999985
 40
3.000000
 50
0.000000
 51
90.000000
  0
CIRCLE
  8
0
 10
-169.425003
 20
-5.500015
 40
6.578499
  0
CIRCLE
  8
0
 10
-169.425003
 20
-5.500015
 40
5.722500
  0
CIRCLE
  8
0
 10
-169.425003
 20
-30.499985
 40
6.578499
  0
CIRCLE
  8
0
 10
-169.425003
 20
-30.499985
 40
5.722500
  0
ARC
  8
0
 10
-147.325058
 20
-83.500000
 40
1.500000
 50
180.000000
 51
270.000000
  0
ARC
  8
0
 10
-96.325058
 20
-84.500031
 40
1.500000
 50
270.000000
 51
0.000000
  0
ARC
  8
0
 10
-148.325058
 20
-84.500000
 40
1.500000
 50
180.000000
 51
270.000000
  0
ARC
  8
0
 10
-145.325058
 20
-83.500000
 40
1.500000
 50
270.000000
 51
0.000000
  0
TEXT
  8
0
 10
-169.865005
 20
-45.721485
 40
1.599999
  1
B
 50
270.000000
 41
1.052632
 51
0.000000
  7
STANDARD
  0
TEXT
  8
0
 10
-169.864975
 20
11.278501
 40
1.599999
  1
A
 50
270.000000
 41
1.052632
 51
0.000000
  7
STANDARD
  0
POINT
  8
0
 10
174.574997
 20
-48.999985
  0
POINT
  8
0
 10
194.574997
 20
-48.999985
  0
LINE
  8
0
 10
83.974991
 20
-84.499969
 11
83.974991
 21
60.499985
  0
LINE
  8
0
 10
83.975021
 20
-35.999985
 11
113.975021
 21
-35.999985
  0
LINE
  8
0
 10
83.975021
 20
-29.999985
 11
113.975021
 21
-29.999985
  0
LINE
  8
0
 10
113.974991
 20
-36.000015
 11
113.974991
 21
-30.000015
  0
LINE
  8
0
 10
109.974991
 20
-35.500015
 11
109.974991
 21
-30.500015
  0
LINE
  8
0
 10
85.474991
 20
-61.999985
 11
138.974991
 21
-61.999985
  0
LINE
  8
0
 10
83.975052
 20
38.000000
 11
138.975082
 21
38.000000
  0
LINE
  8
0
 10
83.975052
 20
18.000000
 11
138.975082
 21
18.000000
  0
LINE
  8
0
 10
93.974991
 20
-53.999985
 11
93.974991
 21
17.999992
  0
LINE
  8
0
 10
83.974991
 20
-53.999985
 11
138.974991
 21
-53.999985
  0
LINE
  8
0
 10
109.212479
 20
-32.999985
 11
114.675644
 21
-32.999985
  0
LINE
  8
0
 10
109.975021
 20
-30.499985
 11
113.975021
 21
-30.499985
  0
LINE
  8
0
 10
109.975021
 20
-35.499985
 11
113.975021
 21
-35.499985
  0
LINE
  8
0
 10
83.975021
 20
0.000000
 11
113.975021
 21
0.000000
  0
LINE
  8
0
 10
83.975021
 20
-6.000015
 11
113.975021
 21
-6.000015
  0
LINE
  8
0
 10
113.974991
 20
-0.000023
 11
113.974991
 21
-6.000015
  0
LINE
  8
0
 10
109.974991
 20
-0.500023
 11
109.974991
 21
-5.500015
  0
LINE
  8
0
 10
109.212479
 20
-3.000015
 11
114.856308
 21
-3.000015
  0
LINE
  8
0
 10
109.975021
 20
-5.500015
 11
113.975021
 21
-5.500015
  0
LINE
  8
0
 10
109.975021
 20
-0.500000
 11
113.975021
 21
-0.500000
  0
LINE
  8
0
 10
138.974991
 20
-84.499939
 11
138.974991
 21
60.499954
  0
LINE
  8
0
 10
135.474991
 20
56.920090
 11
135.474991
 21
62.745804
  0
LINE
  8
0
 10
132.475082
 20
57.999985
 11
138.975082
 21
57.999985
  0
LINE
  8
0
 10
134.475082
 20
60.999985
 11
136.475082
 21
60.999985
  0
LINE
  8
0
 10
132.474991
 20
57.999954
 11
132.474991
 21
61.999954
  0
LINE
  8
0
 10
137.974991
 20
57.999954
 11
137.974991
 21
59.499954
  0
LINE
  8
0
 10
132.974991
 20
57.999954
 11
132.974991
 21
59.499954
  0
LINE
  8
0
 10
132.975082
 20
58.999985
 11
137.975082
 21
58.999985
  0
LINE
  8
0
 10
130.224991
 20
61.999954
 11
130.224991
 21
62.699966
  0
LINE
  8
0
 10
125.924973
 20
61.999954
 11
125.924973
 21
62.699966
  0
LINE
  8
0
 10
125.925095
 20
62.699997
 11
130.225082
 21
62.699997
  0
LINE
  8
0
 10
85.475082
 20
61.999985
 11
137.475082
 21
61.999985
  0
LINE
  8
0
 10
95.374985
 20
61.999985
 11
95.374985
 21
37.999985
  0
LINE
  8
0
 10
97.374985
 20
61.999985
 11
97.374985
 21
37.999985
  0
LINE
  8
0
 10
98.974991
 20
61.999985
 11
98.974991
 21
37.999985
  0
LINE
  8
0
 10
100.974991
 20
61.999985
 11
100.974991
 21
37.999985
  0
LINE
  8
0
 10
102.574997
 20
61.999985
 11
102.574997
 21
37.999985
  0
LINE
  8
0
 10
104.574997
 20
61.999985
 11
104.574997
 21
37.999985
  0
LINE
  8
0
 10
106.174973
 20
61.999985
 11
106.174973
 21
37.999985
  0
LINE
  8
0
 10
108.174973
 20
61.999985
 11
108.174973
 21
37.999985
  0
LINE
  8
0
 10
109.774979
 20
61.999985
 11
109.774979
 21
37.999985
  0
LINE
  8
0
 10
111.774979
 20
61.999985
 11
111.774979
 21
37.999985
  0
LINE
  8
0
 10
113.374985
 20
61.999985
 11
113.374985
 21
37.999985
  0
LINE
  8
0
 10
115.374985
 20
61.999985
 11
115.374985
 21
37.999985
  0
LINE
  8
0
 10
116.974991
 20
61.999985
 11
116.974991
 21
37.999985
  0
LINE
  8
0
 10
118.974991
 20
61.999954
 11
118.974991
 21
37.999969
  0
LINE
  8
0
 10
120.574997
 20
61.999954
 11
120.574997
 21
37.999954
  0
LINE
  8
0
 10
122.574997
 20
61.999954
 11
122.574997
 21
37.999954
  0
LINE
  8
0
 10
93.974991
 20
61.999985
 11
93.974991
 21
37.999985
  0
LINE
  8
0
 10
123.974991
 20
61.999985
 11
123.974991
 21
37.999954
  0
LINE
  8
0
 10
135.275070
 20
59.999985
 11
135.675095
 21
59.999985
  0
LINE
  8
0
 10
135.275009
 20
59.999954
 11
135.275009
 21
60.999954
  0
LINE
  8
0
 10
135.674973
 20
59.999954
 11
135.674973
 21
60.999954
  0
LINE
  8
0
 10
143.574997
 20
-61.999985
 11
174.574997
 21
-61.999985
  0
LINE
  8
0
 10
138.974991
 20
-56.999985
 11
140.574997
 21
-56.999985
  0
LINE
  8
0
 10
140.574997
 20
38.000000
 11
174.574997
 21
38.000000
  0
LINE
  8
0
 10
140.574997
 20
37.999985
 11
140.574997
 21
-59.000015
  0
LINE
  8
0
 10
138.974991
 20
20.500000
 11
140.574997
 21
20.500000
  0
LINE
  8
0
 10
174.574997
 20
37.999985
 11
174.574997
 21
-62.000015
  0
LINE
  8
0
 10
148.574997
 20
29.999985
 11
148.574997
 21
19.999985
  0
LINE
  8
0
 10
141.574997
 20
30.000000
 11
148.574997
 21
30.000000
  0
LINE
  8
0
 10
141.574997
 20
20.000000
 11
148.574997
 21
20.000000
  0
LINE
  8
0
 10
147.620590
 20
-18.000015
 11
170.219284
 21
-18.000015
  0
LINE
  8
0
 10
148.574997
 20
6.500000
 11
168.574997
 21
6.500000
  0
LINE
  8
0
 10
135.267990
 20
25.000000
 11
152.780380
 21
25.000000
  0
LINE
  8
0
 10
148.574997
 20
-42.499985
 11
168.574997
 21
-42.499985
  0
LINE
  8
0
 10
158.574997
 20
18.981339
 11
158.574997
 21
-52.500015
  0
LINE
  8
0
 10
165.608932
 20
-4.300034
 11
165.608932
 21
-9.700027
  0
LINE
  8
0
 10
167.474960
 20
-11.565994
 11
169.674973
 21
-11.565994
  0
LINE
  8
0
 10
171.541000
 20
-4.300034
 11
171.541000
 21
-9.700027
  0
LINE
  8
0
 10
167.474960
 20
-2.434006
 11
169.674973
 21
-2.434006
  0
LINE
  8
0
 10
165.608932
 20
-28.800003
 11
165.608932
 21
-34.199997
  0
LINE
  8
0
 10
167.474960
 20
-36.065994
 11
169.674973
 21
-36.065994
  0
LINE
  8
0
 10
171.541000
 20
-28.800003
 11
171.541000
 21
-34.199997
  0
LINE
  8
0
 10
167.474960
 20
-26.934006
 11
169.674973
 21
-26.934006
  0
LINE
  8
0
 10
170.925034
 20
71.999985
 11
143.725021
 21
71.999985
  0
LINE
  8
0
 10
140.725021
 20
68.999985
 11
140.725021
 21
38.000000
  0
LINE
  8
0
 10
173.925034
 20
68.999985
 11
173.925034
 21
38.000000
  0
LINE
  8
0
 10
165.608932
 20
20.199982
 11
165.608932
 21
14.799988
  0
LINE
  8
0
 10
167.474960
 20
12.934006
 11
169.674973
 21
12.934006
  0
LINE
  8
0
 10
171.541000
 20
20.199982
 11
171.541000
 21
14.799988
  0
LINE
  8
0
 10
167.474960
 20
22.065994
 11
169.674973
 21
22.065994
  0
LINE
  8
0
 10
128.074997
 20
65.149948
 11
128.074997
 21
59.549973
  0
LINE
  8
0
 10
135.474991
 20
-80.920074
 11
135.474991
 21
-86.745789
  0
LINE
  8
0
 10
132.475082
 20
-81.999969
 11
138.975082
 21
-81.999969
  0
LINE
  8
0
 10
134.475082
 20
-84.999969
 11
136.475082
 21
-84.999969
  0
LINE
  8
0
 10
132.474991
 20
-81.999939
 11
132.474991
 21
-85.999939
  0
LINE
  8
0
 10
137.974991
 20
-81.999939
 11
137.974991
 21
-83.499939
  0
LINE
  8
0
 10
132.974991
 20
-81.999939
 11
132.974991
 21
-83.499939
  0
LINE
  8
0
 10
132.975082
 20
-82.999969
 11
137.975082
 21
-82.999969
  0
LINE
  8
0
 10
130.224991
 20
-85.999939
 11
130.224991
 21
-86.699951
  0
LINE
  8
0
 10
125.924973
 20
-85.999939
 11
125.924973
 21
-86.699951
  0
LINE
  8
0
 10
125.925095
 20
-86.699982
 11
130.225082
 21
-86.699982
  0
LINE
  8
0
 10
85.475082
 20
-85.999969
 11
137.475082
 21
-85.999969
  0
LINE
  8
0
 10
95.374985
 20
-85.999969
 11
95.374985
 21
-61.999969
  0
LINE
  8
0
 10
97.374985
 20
-85.999969
 11
97.374985
 21
-61.999969
  0
LINE
  8
0
 10
98.974991
 20
-85.999969
 11
98.974991
 21
-61.999969
  0
LINE
  8
0
 10
100.974991
 20
-85.999969
 11
100.974991
 21
-61.999969
  0
LINE
  8
0
 10
102.574997
 20
-85.999969
 11
102.574997
 21
-61.999969
  0
LINE
  8
0
 10
104.574997
 20
-85.999969
 11
104.574997
 21
-61.999969
  0
LINE
  8
0
 10
106.174973
 20
-85.999969
 11
106.174973
 21
-61.999969
  0
LINE
  8
0
 10
108.174973
 20
-85.999969
 11
108.174973
 21
-61.999969
  0
LINE
  8
0
 10
109.774979
 20
-85.999969
 11
109.774979
 21
-61.999969
  0
LINE
  8
0
 10
111.774979
 20
-85.999969
 11
111.774979
 21
-61.999969
  0
LINE
  8
0
 10
113.374985
 20
-85.999969
 11
113.374985
 21
-61.999969
  0
LINE
  8
0
 10
115.374985
 20
-85.999969
 11
115.374985
 21
-61.999969
  0
LINE
  8
0
 10
116.974991
 20
-85.999969
 11
116.974991
 21
-61.999969
  0
LINE
  8
0
 10
118.974991
 20
-85.999939
 11
118.974991
 21
-61.999954
  0
LINE
  8
0
 10
120.574997
 20
-85.999939
 11
120.574997
 21
-61.999939
  0
LINE
  8
0
 10
122.574997
 20
-85.999939
 11
122.574997
 21
-61.999939
  0
LINE
  8
0
 10
93.974991
 20
-85.999969
 11
93.974991
 21
-61.999969
  0
LINE
  8
0
 10
123.974991
 20
-85.999969
 11
123.974991
 21
-61.999939
  0
LINE
  8
0
 10
135.275070
 20
-83.999969
 11
135.675095
 21
-83.999969
  0
LINE
  8
0
 10
135.275009
 20
-83.999939
 11
135.275009
 21
-84.999939
  0
LINE
  8
0
 10
135.674973
 20
-83.999939
 11
135.674973
 21
-84.999939
  0
LINE
  8
0
 10
128.074997
 20
-89.149933
 11
128.074997
 21
-83.549957
  0
ARC
  8
0
 10
137.475082
 20
60.499954
 40
1.500000
 50
0.000000
 51
90.000000
  0
ARC
  8
0
 10
134.475082
 20
59.499954
 40
1.500000
 50
90.000000
 51
180.000000
  0
ARC
  8
0
 10
136.475082
 20
59.499954
 40
1.500000
 50
0.000000
 51
90.000000
  0
ARC
  8
0
 10
85.475082
 20
60.499985
 40
1.500000
 50
90.000000
 51
180.000000
  0
ARC
  8
0
 10
143.574997
 20
-59.000015
 40
3.000000
 50
180.000000
 51
270.000000
  0
ARC
  8
0
 10
141.574997
 20
30.999985
 40
1.000000
 50
180.000000
 51
270.000000
  0
ARC
  8
0
 10
141.574997
 20
18.999985
 40
1.000000
 50
90.000000
 51
180.000000
  0
ARC
  8
0
 10
167.474960
 20
-9.700027
 40
1.865997
 50
180.000000
 51
270.000000
  0
ARC
  8
0
 10
169.674973
 20
-9.700027
 40
1.865997
 50
270.000000
 51
0.000000
  0
ARC
  8
0
 10
167.474960
 20
-4.300034
 40
1.865997
 50
90.000000
 51
179.999878
  0
ARC
  8
0
 10
169.674973
 20
-4.300034
 40
1.865997
 50
0.000117
 51
90.000000
  0
ARC
  8
0
 10
167.474960
 20
-34.199997
 40
1.865997
 50
180.000000
 51
270.000000
  0
ARC
  8
0
 10
169.674973
 20
-34.199997
 40
1.865997
 50
270.000000
 51
0.000000
  0
ARC
  8
0
 10
167.474960
 20
-28.800003
 40
1.865997
 50
90.000000
 51
179.999878
  0
ARC
  8
0
 10
169.674973
 20
-28.800003
 40
1.865997
 50
0.000059
 51
90.000000
  0
ARC
  8
0
 10
158.574997
 20
-30.500015
 40
5.650000
 50
103.231888
 51
105.258377
  0
ARC
  8
0
 10
143.725021
 20
68.999985
 40
3.000000
 50
90.000000
 51
180.000000
  0
ARC
  8
0
 10
170.925034
 20
68.999985
 40
3.000000
 50
0.000000
 51
90.000000
  0
CIRCLE
  8
0
 10
158.574997
 20
-42.499985
 40
5.722500
  0
CIRCLE
  8
0
 10
158.574997
 20
-42.499985
 40
6.578499
  0
CIRCLE
  8
0
 10
158.574997
 20
6.500000
 40
6.578499
  0
CIRCLE
  8
0
 10
158.574997
 20
6.500000
 40
5.722500
  0
CIRCLE
  8
0
 10
158.574997
 20
-18.000015
 40
6.578499
  0
CIRCLE
  8
0
 10
158.574997
 20
-18.000015
 40
5.722500
  0
ARC
  8
0
 10
167.474960
 20
14.799988
 40
1.865997
 50
180.000000
 51
270.000000
  0
ARC
  8
0
 10
169.674973
 20
14.799988
 40
1.865997
 50
270.000000
 51
0.000000
  0
ARC
  8
0
 10
167.474960
 20
20.199982
 40
1.865997
 50
90.000000
 51
180.000000
  0
ARC
  8
0
 10
169.674973
 20
20.199982
 40
1.865997
 50
0.000000
 51
90.000000
  0
ARC
  8
0
 10
85.475082
 20
-84.499969
 40
1.500000
 50
180.000000
 51
270.000000
  0
ARC
  8
0
 10
136.475082
 20
-83.499939
 40
1.500000
 50
270.000000
 51
0.000000
  0
ARC
  8
0
 10
137.475082
 20
-84.499939
 40
1.500000
 50
270.000000
 51
0.000000
  0
ARC
  8
0
 10
134.475082
 20
-83.499939
 40
1.500000
 50
180.000000
 51
270.000000
  0
TEXT
  8
0
 10
169.014999
 20
-7.778515
 40
1.599999
  1
P
 50
90.000000
 41
1.052632
 51
0.000000
  7
STANDARD
  0
TEXT
  8
0
 10
169.014999
 20
-33.078514
 40
1.599999
  1
R2
 50
90.000000
 41
1.052632
 51
0.000000
  7
STANDARD
  0
TEXT
  8
0
 10
169.014999
 20
15.921485
 40
1.599999
  1
R1
 50
90.000000
 41
1.052632
 51
0.000000
  7
STANDARD
  0
POINT
  8
0
 10
16.574997
 20
-184.599991
  0
POINT
  8
0
 10
-25.425003
 20
-184.599991
  0
LINE
  8
0
 10
-18.224991
 20
-171.133926
 11
-23.625015
 21
-171.133926
  0
LINE
  8
0
 10
-25.490982
 20
-172.999954
 11
-25.490982
 21
-175.199966
  0
LINE
  8
0
 10
-18.224991
 20
-177.065994
 11
-23.625015
 21
-177.065994
  0
LINE
  8
0
 10
-16.358963
 20
-172.999954
 11
-16.358963
 21
-175.199966
  0
LINE
  8
0
 10
-29.925095
 20
-184.599991
 11
21.074905
 21
-184.599991
  0
LINE
  8
0
 10
-26.925095
 20
-150.599991
 11
18.074905
 21
-150.599991
  0
LINE
  8
0
 10
-29.925003
 20
-153.599930
 11
-29.925003
 21
-184.599930
  0
LINE
  8
0
 10
21.074997
 20
-153.599960
 11
21.074997
 21
-184.599960
  0
LINE
  8
0
 10
-4.425003
 20
-188.599991
 11
-4.425003
 21
-91.128181
  0
LINE
  8
0
 10
-13.425003
 20
-159.099991
 11
-13.425003
 21
-171.099991
  0
LINE
  8
0
 10
-19.425003
 20
-165.099991
 11
-7.425003
 21
-165.099991
  0
LINE
  8
0
 10
-18.925034
 20
-94.000015
 11
10.074966
 21
-94.000015
  0
LINE
  8
0
 10
-20.424992
 20
-149.000015
 11
11.575008
 21
-149.000015
  0
LINE
  8
0
 10
-20.425007
 20
-104.000015
 11
11.574993
 21
-104.000015
  0
LINE
  8
0
 10
-20.425018
 20
-134.000015
 11
11.574982
 21
-134.000015
  0
LINE
  8
0
 10
11.574997
 20
-95.499985
 11
11.574997
 21
-150.599991
  0
LINE
  8
0
 10
-20.425003
 20
-95.500000
 11
-20.425003
 21
-150.599991
  0
LINE
  8
0
 10
-20.425018
 20
-142.500015
 11
-16.925018
 21
-142.500015
  0
LINE
  8
0
 10
-13.925003
 20
-145.500000
 11
-13.925003
 21
-149.000000
  0
LINE
  8
0
 10
-21.425022
 20
-145.500015
 11
-12.425022
 21
-145.500015
  0
LINE
  8
0
 10
-7.925018
 20
-138.099991
 11
-0.925018
 21
-138.099991
  0
LINE
  8
0
 10
8.074997
 20
-140.999985
 11
8.074997
 21
-149.999985
  0
LINE
  8
0
 10
11.574982
 20
-142.500015
 11
8.074982
 21
-142.500015
  0
LINE
  8
0
 10
5.074997
 20
-145.500015
 11
5.074997
 21
-149.000015
  0
LINE
  8
0
 10
-12.425022
 20
-145.500015
 11
-21.425022
 21
-145.500015
  0
LINE
  8
0
 10
-20.425007
 20
-105.400009
 11
11.574993
 21
-105.400009
  0
LINE
  8
0
 10
-20.425007
 20
-107.400009
 11
11.574993
 21
-107.400009
  0
LINE
  8
0
 10
-20.425011
 20
-109.000015
 11
-4.425011
 21
-109.000015
  0
LINE
  8
0
 10
-20.425011
 20
-111.000015
 11
-4.425011
 21
-111.000015
  0
LINE
  8
0
 10
-20.425011
 20
-112.599991
 11
11.574989
 21
-112.599991
  0
LINE
  8
0
 10
-20.425011
 20
-114.599991
 11
11.574989
 21
-114.599991
  0
LINE
  8
0
 10
-20.425011
 20
-116.199997
 11
11.574989
 21
-116.199997
  0
LINE
  8
0
 10
-20.425011
 20
-118.199997
 11
11.574989
 21
-118.199997
  0
LINE
  8
0
 10
-20.425011
 20
-119.800003
 11
11.574989
 21
-119.800003
  0
LINE
  8
0
 10
-20.425014
 20
-121.800003
 11
11.574986
 21
-121.800003
  0
LINE
  8
0
 10
-20.425014
 20
-123.400009
 11
11.574986
 21
-123.400009
  0
LINE
  8
0
 10
-20.425014
 20
-125.400009
 11
11.574986
 21
-125.400009
  0
LINE
  8
0
 10
-20.425014
 20
-126.999985
 11
11.574986
 21
-126.999985
  0
LINE
  8
0
 10
-20.425014
 20
-128.999985
 11
11.574986
 21
-128.999985
  0
LINE
  8
0
 10
-20.425014
 20
-130.599991
 11
11.574986
 21
-130.599991
  0
LINE
  8
0
 10
-20.425018
 20
-132.599991
 11
11.574982
 21
-132.599991
  0
LINE
  8
0
 10
8.574997
 20
-108.999985
 11
8.574997
 21
-110.999985
  0
LINE
  8
0
 10
8.574989
 20
-109.000015
 11
11.574989
 21
-109.000015
  0
LINE
  8
0
 10
8.574989
 20
-111.000015
 11
11.574989
 21
-111.000015
  0
LINE
  8
0
 10
-4.425003
 20
-109.000008
 11
-4.425003
 21
-111.000008
  0
LINE
  8
0
 10
-14.935032
 20
-145.300003
 11
-16.725010
 21
-145.300003
  0
LINE
  8
0
 10
-14.935032
 20
-145.699997
 11
-16.725010
 21
-145.699997
  0
LINE
  8
0
 10
-16.725021
 20
-143.510040
 11
-16.725021
 21
-145.300018
  0
LINE
  8
0
 10
-17.125015
 20
-143.510040
 11
-17.125015
 21
-145.300018
  0
LINE
  8
0
 10
-17.125004
 20
-145.300003
 11
-18.914982
 21
-145.300003
  0
LINE
  8
0
 10
-17.125015
 20
-145.700012
 11
-17.125015
 21
-147.489990
  0
LINE
  8
0
 10
-16.725021
 20
-145.700012
 11
-16.725021
 21
-147.489990
  0
LINE
  8
0
 10
-17.125004
 20
-145.699997
 11
-18.914982
 21
-145.699997
  0
LINE
  8
0
 10
12.574978
 20
-145.500015
 11
3.574978
 21
-145.500015
  0
LINE
  8
0
 10
10.064968
 20
-145.300003
 11
8.274990
 21
-145.300003
  0
LINE
  8
0
 10
10.064968
 20
-145.699997
 11
8.274990
 21
-145.699997
  0
LINE
  8
0
 10
8.274979
 20
-143.510025
 11
8.274979
 21
-145.300003
  0
LINE
  8
0
 10
7.874985
 20
-143.510025
 11
7.874985
 21
-145.300003
  0
LINE
  8
0
 10
7.874996
 20
-145.300003
 11
6.085018
 21
-145.300003
  0
LINE
  8
0
 10
7.874985
 20
-145.699997
 11
7.874985
 21
-147.489975
  0
LINE
  8
0
 10
8.274979
 20
-145.699997
 11
8.274979
 21
-147.489975
  0
LINE
  8
0
 10
7.874996
 20
-145.699997
 11
6.085018
 21
-145.699997
  0
ARC
  8
0
 10
-23.625015
 20
-172.999954
 40
1.865997
 50
89.999939
 51
180.000000
  0
ARC
  8
0
 10
-23.625015
 20
-175.199966
 40
1.865997
 50
180.000000
 51
270.000000
  0
ARC
  8
0
 10
-18.225021
 20
-172.999954
 40
1.865997
 50
0.000000
 51
89.999939
  0
ARC
  8
0
 10
-18.225021
 20
-175.199966
 40
1.865997
 50
270.000061
 51
0.000000
  0
ARC
  8
0
 10
-26.925125
 20
-153.599930
 40
3.000000
 50
90.000000
 51
180.000000
  0
ARC
  8
0
 10
18.074875
 20
-153.599960
 40
3.000000
 50
0.000000
 51
90.000076
  0
CIRCLE
  8
0
 10
-13.425003
 20
-165.099991
 40
4.282999
  0
CIRCLE
  8
0
 10
-13.425003
 20
-165.099991
 40
4.863998
  0
ARC
  8
0
 10
10.074966
 20
-95.499985
 40
1.500000
 50
0.000000
 51
90.000000
  0
ARC
  8
0
 10
-18.925034
 20
-95.500000
 40
1.500000
 50
90.000000
 51
180.000000
  0
CIRCLE
  8
0
 10
-16.925022
 20
-145.500000
 40
2.500000
  0
ARC
  8
0
 10
-16.925022
 20
-145.500000
 40
3.000000
 50
0.000000
 51
90.000000
  0
CIRCLE
  8
0
 10
-4.425018
 20
-138.099976
 40
2.150000
  0
CIRCLE
  8
0
 10
-4.425018
 20
-138.099976
 40
1.500000
  0
CIRCLE
  8
0
 10
8.074978
 20
-145.499985
 40
2.500000
  0
ARC
  8
0
 10
8.074978
 20
-145.499985
 40
3.000000
 50
90.000000
 51
180.000000
  0
ARC
  8
0
 10
8.074978
 20
-145.499985
 40
2.000000
 50
84.260811
 51
95.739189
  0
ARC
  8
0
 10
-16.925022
 20
-145.500000
 40
2.000000
 50
174.260910
 51
185.739517
  0
ARC
  8
0
 10
-16.925022
 20
-145.500000
 40
2.000000
 50
264.260803
 51
275.739197
  0
ARC
  8
0
 10
-16.925022
 20
-145.500000
 40
2.000001
 50
354.260468
 51
5.739083
  0
ARC
  8
0
 10
8.074978
 20
-145.499985
 40
2.000000
 50
264.260803
 51
275.739197
  0
ARC
  8
0
 10
8.074978
 20
-145.499985
 40
2.000000
 50
174.260910
 51
185.739090
  0
ARC
  8
0
 10
8.074978
 20
-145.499985
 40
2.000000
 50
354.260925
 51
5.739083
  0
TEXT
  8
0
 10
-22.503502
 20
-174.539993
 40
1.599999
  1
PR
 50
0.000000
 41
1.052632
 51
0.000000
  7
STANDARD
  0
TEXT
  8
0
 10
-0.881582
 20
-110.440010
 40
1.599999
  1
DC24V
 50
0.000000
 41
0.798236
 51
0.000000
  7
STANDARD
  0
ENDSEC
  0
EOF
