  0
SECTION
  2
HEADER
  0
ENDSEC
  0
SECTION
  2
TABLES
  0
TABLE
  2
LTYPE
 70
     4
  0
LTYPE
  2
CONTINUOUS
 70
    64
  3
Solid line
 72
    65
 73
     0
 40
0.000000
  0
LTYPE
  2
DASHED
 70
    64
  3
__ __ __ __ __ __ __ __ __ __ __ __ __ __ __
 72
    65
 73
     2
 40
3.500000
 49
2.000000
 49
-1.500000
  0
LTYPE
  2
CENTER
 70
    64
  3
____ _ ____ _ ____ _ ____ _ ____ _ ____ _ ____
 72
    65
 73
     4
 40
17.500000
 49
13.000000
 49
-1.500000
 49
1.500000
 49
-1.500000
  0
LTYPE
  2
PHANTOM
 70
    64
  3
_____ _ _ _____ _ _ _____ _ _ _____ _ _ ____  
 72
    65
 73
     6
 40
15.500000
 49
8.000000
 49
-1.500000
 49
1.500000
 49
-1.500000
 49
1.500000
 49
-1.500000
  0
LTYPE
  2
DASHED1
 70
    64
  3
__ __ __ __ __ __ __ __ __ __ __ __ __ __ __
 72
    65
 73
     2
 40
1.500000
 49
1.000000
 49
-0.500000
  0
LTYPE
  2
DASHED2
 70
    64
  3
__ __ __ __ __ __ __ __ __ __ __ __ __ __ __
 72
    65
 73
     2
 40
3.500000
 49
2.500000
 49
-1.000000
  0
LTYPE
  2
DASHED3
 70
    64
  3
__ __ __ __ __ __ __ __ __ __ __ __ __ __ __
 72
    65
 73
     2
 40
6.000000
 49
4.000000
 49
-2.000000
  0
LTYPE
  2
DASHED4
 70
    64
  3
__ __ __ __ __ __ __ __ __ __ __ __ __ __ __
 72
    65
 73
     2
 40
12.000000
 49
10.000000
 49
-2.000000
  0
LTYPE
  2
DASHED5
 70
    64
  3
__ __ __ __ __ __ __ __ __ __ __ __ __ __ __
 72
    65
 73
     2
 40
17.000000
 49
15.000000
 49
-2.000000
  0
LTYPE
  2
DASHED6
 70
    64
  3
__ __ __ __ __ __ __ __ __ __ __ __ __ __ __
 72
    65
 73
     2
 40
29.000000
 49
27.000000
 49
-2.000000
  0
LTYPE
  2
PHANTOM1
 70
    64
  3
_____ _ _ _____ _ _ _____ _ _ _____ _ _ ____  
 72
    65
 73
     6
 40
31.000000
 49
25.000000
 49
-1.500000
 49
1.000000
 49
-1.000000
 49
1.000000
 49
-1.500000
  0
LTYPE
  2
PHANTOM2
 70
    64
  3
_____ _ _ _____ _ _ _____ _ _ _____ _ _ ____  
 72
    65
 73
     6
 40
36.000000
 49
27.000000
 49
-1.500000
 49
2.500000
 49
-1.000000
 49
2.500000
 49
-1.500000
  0
LTYPE
  2
PHANTOM3
 70
    64
  3
_____ _ _ _____ _ _ _____ _ _ _____ _ _ ____  
 72
    65
 73
     6
 40
78.000000
 49
64.000000
 49
-2.000000
 49
4.000000
 49
-2.000000
 49
4.000000
 49
-2.000000
  0
LTYPE
  2
CENTER1
 70
    64
  3
____ _ ____ _ ____ _ ____ _ ____ _ ____ _ ____
 72
    65
 73
     4
 40
19.000000
 49
14.000000
 49
-1.000000
 49
3.000000
 49
-1.000000
  0
LTYPE
  2
CENTER2
 70
    64
  3
____ _ ____ _ ____ _ ____ _ ____ _ ____ _ ____
 72
    65
 73
     4
 40
28.500000
 49
25.000000
 49
-1.000000
 49
1.500000
 49
-1.000000
  0
LTYPE
  2
CENTER3
 70
    64
  3
____ _ ____ _ ____ _ ____ _ ____ _ ____ _ ____
 72
    65
 73
     4
 40
31.500000
 49
27.000000
 49
-1.000000
 49
2.500000
 49
-1.000000
  0
LTYPE
  2
CENTER4
 70
    64
  3
____ _ ____ _ ____ _ ____ _ ____ _ ____ _ ____
 72
    65
 73
     4
 40
50.000000
 49
45.000000
 49
-1.000000
 49
3.000000
 49
-1.000000
  0
LTYPE
  2
CENTER5
 70
    64
  3
____ _ ____ _ ____ _ ____ _ ____ _ ____ _ ____
 72
    65
 73
     4
 40
100.000000
 49
92.000000
 49
-2.000000
 49
4.000000
 49
-2.000000
  0
LTYPE
  2
SBK1
 70
    64
  3
______ _ _ _ ______ _ _ _ ______ _ _ _ _____  
 72
    65
 73
     8
 40
60.500000
 49
45.000000
 49
-2.000000
 49
2.500000
 49
-2.000000
 49
2.500000
 49
-2.000000
 49
2.500000
 49
-2.000000
  0
LTYPE
  2
SBK2
 70
    64
  3
______ _ _ _ ______ _ _ _ ______ _ _ _ _____  
 72
    65
 73
     8
 40
84.000000
 49
64.000000
 49
-2.000000
 49
4.000000
 49
-2.000000
 49
4.000000
 49
-2.000000
 49
4.000000
 49
-2.000000
  0
LTYPE
  2
STCH
 70
    64
  3
__ __ __ __ __ __ __ __ __ __ __ __ __ __ __
 72
    65
 73
     2
 40
3.000000
 49
1.000000
 49
-2.000000
  0
LTYPE
  2
MTCH
 70
    64
  3
_____ _ _ _____ _ _ _____ _ _ _____ _ _ ____  
 72
    65
 73
     6
 40
80.000000
 49
66.000000
 49
-2.000000
 49
4.000000
 49
-2.000000
 49
4.000000
 49
-2.000000
  0
ENDTAB
  0
TABLE
  2
LAYER
 70
     1
  0
LAYER
  2
0
 70
     0
 62
     7
  6
CONTINUOUS
  0
ENDTAB
  0
TABLE
  2
STYLE
 70
     1
  0
STYLE
  2
STANDARD
 70
     0
 40
0.000000
 41
1.000000
 50
0.000000
 71
     0
 42
0.200000
  3
txt
  4
BIGFONT
  0
ENDTAB
  0
TABLE
  2
VIEW
 70
     0
  0
ENDTAB
  0
ENDSEC
  0
SECTION
  2
BLOCKS
  0
ENDSEC
  0
SECTION
  2
ENTITIES
  0
POINT
  8
0
 10
420.500000
 20
-297.000000
  0
POINT
  8
0
 10
-19.999996
 20
-69.999992
  0
POINT
  8
0
 10
174.000000
 20
-69.999992
  0
POINT
  8
0
 10
-19.999996
 20
239.999954
  0
POINT
  8
0
 10
174.000183
 20
239.999954
  0
POINT
  8
0
 10
-229.999939
 20
-69.999992
  0
POINT
  8
0
 10
-111.399933
 20
-69.999992
  0
POINT
  8
0
 10
-19.999996
 20
-239.999954
  0
POINT
  8
0
 10
174.000183
 20
-239.999954
  0
LINE
  8
0
 10
-299.250000
 20
276.250000
 11
-299.250000
 21
261.250000
  0
LINE
  8
0
 10
299.799988
 20
276.250000
 11
299.799988
 21
261.250000
  0
LINE
  8
0
 10
-399.250000
 20
261.250000
 11
-299.250000
 21
261.250000
  0
LINE
  8
0
 10
299.799988
 20
-256.750000
 11
299.799988
 21
-276.750000
  0
LINE
  8
0
 10
299.799988
 20
261.250000
 11
399.799988
 21
261.250000
  0
LINE
  8
0
 10
299.799988
 20
-256.750000
 11
399.799988
 21
-256.750000
  0
LINE
  8
0
 10
-420.500000
 20
297.000000
 11
420.500000
 21
297.000000
  0
LINE
  8
0
 10
-420.500000
 20
-297.000000
 11
420.500000
 21
-297.000000
  0
LINE
  8
0
 10
420.500000
 20
297.000000
 11
420.500000
 21
-297.000000
  0
LINE
  8
0
 10
-420.500000
 20
297.000000
 11
-420.500000
 21
-297.000000
  0
LINE
  8
0
 10
399.799988
 20
276.250000
 11
399.799988
 21
-276.750000
  0
LINE
  8
0
 10
-399.250000
 20
276.250000
 11
-399.250000
 21
-276.750000
  0
LINE
  8
0
 10
-399.250000
 20
276.250000
 11
399.799988
 21
276.250000
  0
LINE
  8
0
 10
-399.250000
 20
-276.750000
 11
399.799988
 21
-276.750000
  0
TEXT
  8
0
 10
-390.142517
 20
262.549988
 40
8.000000
  1
430M*AT-39
 50
0.000000
 41
1.052632
 51
0.000000
  7
STANDARD
  0
TEXT
  8
0
 10
305.721680
 20
264.529999
 40
5.800000
  1
DATE: MAY ,1992
 50
0.000000
 41
1.052632
 51
0.000000
  7
STANDARD
  0
TEXT
  8
0
 10
295.700867
 20
-272.049988
 40
7.000000
  1
ＫＯＧＡＮＥＩ，ＣＯＲＰ．
 50
0.000000
 41
0.902367
 51
15.000000
  7
STANDARD
  0
TEXT
  8
0
 10
-388.142487
 20
232.550003
 40
8.000000
  1
MODEL: 430M*AT-39
 50
0.000000
 41
1.052632
 51
0.000000
  7
STANDARD
  0
POINT
  8
0
 10
-19.999996
 20
-69.999992
  0
POINT
  8
0
 10
174.000000
 20
-69.999992
  0
LINE
  8
0
 10
160.328918
 20
27.000015
 11
186.933411
 21
27.000015
  0
LINE
  8
0
 10
174.000000
 20
31.500015
 11
179.000000
 21
31.500015
  0
LINE
  8
0
 10
174.000000
 20
22.500015
 11
179.000000
 21
22.500015
  0
LINE
  8
0
 10
167.000000
 20
18.000015
 11
178.000000
 21
18.000015
  0
LINE
  8
0
 10
109.000000
 20
36.000015
 11
110.149994
 21
36.000015
  0
LINE
  8
0
 10
180.000000
 20
34.000015
 11
180.000000
 21
32.500015
  0
LINE
  8
0
 10
180.000000
 20
21.500015
 11
180.000000
 21
20.000015
  0
LINE
  8
0
 10
174.000000
 20
33.101639
 11
174.000000
 21
20.983414
  0
LINE
  8
0
 10
143.000000
 20
36.000015
 11
143.000000
 21
-78.999992
  0
LINE
  8
0
 10
166.000000
 20
33.000015
 11
166.000000
 21
-75.999992
  0
LINE
  8
0
 10
160.726013
 20
-69.999992
 11
184.550934
 21
-69.999992
  0
LINE
  8
0
 10
174.000000
 20
-65.499992
 11
179.000000
 21
-65.499992
  0
LINE
  8
0
 10
174.000000
 20
-74.499992
 11
179.000000
 21
-74.499992
  0
LINE
  8
0
 10
167.000000
 20
-60.999992
 11
178.000000
 21
-60.999992
  0
LINE
  8
0
 10
180.000000
 20
-62.999992
 11
180.000000
 21
-64.875542
  0
LINE
  8
0
 10
180.000000
 20
-75.499992
 11
180.000000
 21
-76.999992
  0
LINE
  8
0
 10
174.000000
 20
-64.617729
 11
174.000000
 21
-75.999992
  0
LINE
  8
0
 10
-16.107754
 20
-24.000023
 11
170.107758
 21
-24.000023
  0
LINE
  8
0
 10
-6.328915
 20
27.000015
 11
-27.769161
 21
27.000015
  0
LINE
  8
0
 10
-19.999996
 20
31.500015
 11
-24.999996
 21
31.500015
  0
LINE
  8
0
 10
-19.999996
 20
22.500015
 11
-24.999996
 21
22.500015
  0
LINE
  8
0
 10
-12.999996
 20
18.000015
 11
-23.999996
 21
18.000015
  0
LINE
  8
0
 10
11.000004
 20
36.000015
 11
-23.999966
 21
36.000015
  0
LINE
  8
0
 10
-25.999996
 20
34.000046
 11
-25.999996
 21
32.500046
  0
LINE
  8
0
 10
-25.999996
 20
21.500046
 11
-25.999996
 21
20.000015
  0
LINE
  8
0
 10
-19.999996
 20
33.101639
 11
-19.999996
 21
20.983414
  0
LINE
  8
0
 10
-11.999996
 20
33.000015
 11
-11.999996
 21
-75.999992
  0
LINE
  8
0
 10
-6.726040
 20
-69.999992
 11
-27.850826
 21
-69.999992
  0
LINE
  8
0
 10
-20.000027
 20
-65.499992
 11
-25.000027
 21
-65.499992
  0
LINE
  8
0
 10
-20.000027
 20
-74.499992
 11
-25.000027
 21
-74.499992
  0
LINE
  8
0
 10
-13.000027
 20
-60.999992
 11
-24.000027
 21
-60.999992
  0
LINE
  8
0
 10
-25.999996
 20
-62.999992
 11
-25.999996
 21
-64.875542
  0
LINE
  8
0
 10
-25.999996
 20
-75.499992
 11
-25.999996
 21
-76.999992
  0
LINE
  8
0
 10
-19.999996
 20
-64.617729
 11
-19.999996
 21
-75.999992
  0
LINE
  8
0
 10
109.000000
 20
-78.999992
 11
178.000000
 21
-78.999992
  0
LINE
  8
0
 10
44.000004
 20
-78.999992
 11
-24.000027
 21
-78.999992
  0
LINE
  8
0
 10
27.000004
 20
-84.182304
 11
27.000004
 21
63.123970
  0
LINE
  8
0
 10
22.000004
 20
-53.000023
 11
22.000004
 21
4.999977
  0
LINE
  8
0
 10
32.000004
 20
-53.000023
 11
32.000004
 21
4.999977
  0
LINE
  8
0
 10
21.000004
 20
-53.000023
 11
21.000004
 21
4.999977
  0
LINE
  8
0
 10
33.000004
 20
-53.000023
 11
33.000004
 21
4.999977
  0
LINE
  8
0
 10
14.500004
 20
-13.500023
 11
14.500004
 21
-4.500023
  0
LINE
  8
0
 10
39.500004
 20
-43.500023
 11
39.500004
 21
-34.500023
  0
LINE
  8
0
 10
43.000004
 20
-65.000023
 11
43.000004
 21
52.999985
  0
LINE
  8
0
 10
10.000004
 20
-9.000023
 11
19.000004
 21
-9.000023
  0
LINE
  8
0
 10
35.000004
 20
-39.000023
 11
44.000004
 21
-39.000023
  0
LINE
  8
0
 10
22.000004
 20
-4.000023
 11
32.000004
 21
-4.000023
  0
LINE
  8
0
 10
22.000004
 20
-44.000023
 11
32.000004
 21
-44.000023
  0
LINE
  8
0
 10
22.999973
 20
5.999977
 11
30.999973
 21
5.999977
  0
LINE
  8
0
 10
23.000004
 20
-54.000023
 11
31.000004
 21
-54.000023
  0
LINE
  8
0
 10
22.999973
 20
6.999977
 11
30.999973
 21
6.999977
  0
LINE
  8
0
 10
23.000004
 20
-55.000023
 11
31.000004
 21
-55.000023
  0
LINE
  8
0
 10
10.999973
 20
11.999977
 11
42.999973
 21
11.999977
  0
LINE
  8
0
 10
11.000004
 20
-60.000023
 11
43.000004
 21
-60.000023
  0
LINE
  8
0
 10
14.000004
 20
-68.000023
 11
40.000004
 21
-68.000023
  0
LINE
  8
0
 10
10.999973
 20
31.999985
 11
42.999973
 21
31.999985
  0
LINE
  8
0
 10
13.999973
 20
55.999985
 11
39.999973
 21
55.999985
  0
LINE
  8
0
 10
39.500004
 20
-36.000023
 11
43.000004
 21
-36.000023
  0
LINE
  8
0
 10
39.500004
 20
-42.000023
 11
43.000004
 21
-42.000023
  0
LINE
  8
0
 10
14.500004
 20
-42.000023
 11
11.000004
 21
-42.000023
  0
LINE
  8
0
 10
14.500004
 20
-36.000023
 11
11.000004
 21
-36.000023
  0
LINE
  8
0
 10
39.500004
 20
-6.000023
 11
43.000004
 21
-6.000023
  0
LINE
  8
0
 10
39.500004
 20
-12.000023
 11
43.000004
 21
-12.000023
  0
LINE
  8
0
 10
14.500004
 20
-6.000023
 11
11.000004
 21
-6.000023
  0
LINE
  8
0
 10
14.500004
 20
-12.000023
 11
11.000004
 21
-12.000023
  0
LINE
  8
0
 10
35.000004
 20
-9.000023
 11
44.000004
 21
-9.000023
  0
LINE
  8
0
 10
39.500004
 20
-4.500023
 11
39.500004
 21
-13.500023
  0
LINE
  8
0
 10
14.500004
 20
-34.500023
 11
14.500004
 21
-43.500023
  0
LINE
  8
0
 10
10.000004
 20
-39.000023
 11
19.000004
 21
-39.000023
  0
LINE
  8
0
 10
41.500004
 20
3.499977
 11
41.500004
 21
10.499977
  0
LINE
  8
0
 10
35.699986
 20
10.499977
 11
41.499973
 21
10.499977
  0
LINE
  8
0
 10
35.699986
 20
3.499977
 11
35.699986
 21
10.499977
  0
LINE
  8
0
 10
35.699986
 20
3.499977
 11
41.499973
 21
3.499977
  0
LINE
  8
0
 10
18.300022
 20
-51.500023
 11
12.500004
 21
-51.500023
  0
LINE
  8
0
 10
18.299992
 20
-51.500023
 11
18.299992
 21
-58.500023
  0
LINE
  8
0
 10
18.300022
 20
-58.500023
 11
12.500004
 21
-58.500023
  0
LINE
  8
0
 10
12.500004
 20
-51.500023
 11
12.500004
 21
-58.500023
  0
LINE
  8
0
 10
38.778324
 20
-37.750023
 11
40.221684
 21
-37.750023
  0
LINE
  8
0
 10
38.778324
 20
-40.250023
 11
40.221684
 21
-40.250023
  0
LINE
  8
0
 10
38.778297
 20
-40.250004
 11
38.056618
 21
-39.000019
  0
LINE
  8
0
 10
40.943375
 20
-39.000011
 11
40.221695
 21
-37.750027
  0
LINE
  8
0
 10
40.221844
 20
-40.250111
 11
40.943539
 21
-39.000099
  0
LINE
  8
0
 10
38.056789
 20
-39.000114
 11
38.778484
 21
-37.750103
  0
LINE
  8
0
 10
13.778324
 20
-40.250023
 11
15.221684
 21
-40.250023
  0
LINE
  8
0
 10
13.778316
 20
-40.250008
 11
13.056637
 21
-39.000023
  0
LINE
  8
0
 10
15.943367
 20
-39.000004
 11
15.221668
 21
-37.749992
  0
LINE
  8
0
 10
15.221886
 20
-40.250145
 11
15.943581
 21
-39.000130
  0
LINE
  8
0
 10
13.056774
 20
-39.000141
 11
13.778465
 21
-37.750130
  0
LINE
  8
0
 10
13.778324
 20
-37.750023
 11
15.221684
 21
-37.750023
  0
LINE
  8
0
 10
13.778324
 20
-10.250023
 11
15.221684
 21
-10.250023
  0
LINE
  8
0
 10
13.778309
 20
-10.250027
 11
13.056614
 21
-9.000015
  0
LINE
  8
0
 10
15.943382
 20
-9.000019
 11
15.221684
 21
-7.750008
  0
LINE
  8
0
 10
15.221832
 20
-10.250061
 11
15.943512
 21
-9.000076
  0
LINE
  8
0
 10
13.056755
 20
-9.000046
 11
13.778450
 21
-7.750031
  0
LINE
  8
0
 10
13.778324
 20
-7.750023
 11
15.221684
 21
-7.750023
  0
LINE
  8
0
 10
38.778324
 20
-10.250023
 11
40.221684
 21
-10.250023
  0
LINE
  8
0
 10
38.778332
 20
-10.250019
 11
38.056637
 21
-9.000008
  0
LINE
  8
0
 10
40.943371
 20
-9.000019
 11
40.221676
 21
-7.750008
  0
LINE
  8
0
 10
40.221882
 20
-10.250080
 11
40.943577
 21
-9.000069
  0
LINE
  8
0
 10
38.056805
 20
-9.000076
 11
38.778484
 21
-7.750088
  0
LINE
  8
0
 10
38.778324
 20
-7.750023
 11
40.221684
 21
-7.750023
  0
LINE
  8
0
 10
11.000004
 20
-78.999992
 11
11.000004
 21
52.999985
  0
LINE
  8
0
 10
93.000000
 20
-98.465813
 11
93.000000
 21
63.123970
  0
LINE
  8
0
 10
88.000000
 20
-53.000023
 11
88.000000
 21
4.999977
  0
LINE
  8
0
 10
98.000000
 20
-53.000023
 11
98.000000
 21
4.999977
  0
LINE
  8
0
 10
87.000000
 20
-53.000023
 11
87.000000
 21
4.999977
  0
LINE
  8
0
 10
99.000000
 20
-53.000023
 11
99.000000
 21
4.999977
  0
LINE
  8
0
 10
80.500000
 20
-13.500023
 11
80.500000
 21
-4.500023
  0
LINE
  8
0
 10
138.500000
 20
-13.500023
 11
138.500000
 21
-4.500023
  0
LINE
  8
0
 10
109.000000
 20
-89.000023
 11
109.000000
 21
72.000008
  0
LINE
  8
0
 10
76.000000
 20
-9.000023
 11
85.000000
 21
-9.000023
  0
LINE
  8
0
 10
134.000000
 20
-9.000023
 11
144.805115
 21
-9.000023
  0
LINE
  8
0
 10
88.000000
 20
-4.000023
 11
98.000000
 21
-4.000023
  0
LINE
  8
0
 10
88.000000
 20
-44.000023
 11
98.000000
 21
-44.000023
  0
LINE
  8
0
 10
88.999969
 20
5.999977
 11
96.999969
 21
5.999977
  0
LINE
  8
0
 10
89.000000
 20
-54.000023
 11
97.000000
 21
-54.000023
  0
LINE
  8
0
 10
88.999969
 20
6.999977
 11
96.999969
 21
6.999977
  0
LINE
  8
0
 10
89.000000
 20
-55.000023
 11
97.000000
 21
-55.000023
  0
LINE
  8
0
 10
76.999969
 20
30.999985
 11
108.999969
 21
30.999985
  0
LINE
  8
0
 10
77.000000
 20
-60.000023
 11
109.000000
 21
-60.000023
  0
LINE
  8
0
 10
77.000000
 20
-68.000023
 11
109.000000
 21
-68.000023
  0
LINE
  8
0
 10
80.000000
 20
-92.000023
 11
106.000000
 21
-92.000023
  0
LINE
  8
0
 10
76.999969
 20
50.999985
 11
108.999969
 21
50.999985
  0
LINE
  8
0
 10
79.999969
 20
74.999977
 11
105.999969
 21
74.999977
  0
LINE
  8
0
 10
105.500000
 20
-36.000023
 11
109.000000
 21
-36.000023
  0
LINE
  8
0
 10
105.500000
 20
-42.000023
 11
109.000000
 21
-42.000023
  0
LINE
  8
0
 10
80.500000
 20
-42.000023
 11
77.000000
 21
-42.000023
  0
LINE
  8
0
 10
80.500000
 20
-36.000023
 11
77.000000
 21
-36.000023
  0
LINE
  8
0
 10
105.500000
 20
-6.000023
 11
109.000000
 21
-6.000023
  0
LINE
  8
0
 10
105.500000
 20
-12.000023
 11
109.000000
 21
-12.000023
  0
LINE
  8
0
 10
80.500000
 20
-6.000023
 11
77.000000
 21
-6.000023
  0
LINE
  8
0
 10
80.500000
 20
-12.000023
 11
77.000000
 21
-12.000023
  0
LINE
  8
0
 10
101.000000
 20
-9.000023
 11
110.138428
 21
-9.000023
  0
LINE
  8
0
 10
105.500000
 20
-4.500023
 11
105.500000
 21
-13.500023
  0
LINE
  8
0
 10
80.500000
 20
-34.500023
 11
80.500000
 21
-43.500023
  0
LINE
  8
0
 10
76.000000
 20
-39.000023
 11
85.000000
 21
-39.000023
  0
LINE
  8
0
 10
107.500000
 20
3.499977
 11
107.500000
 21
10.499977
  0
LINE
  8
0
 10
101.699982
 20
10.499977
 11
107.499969
 21
10.499977
  0
LINE
  8
0
 10
101.699982
 20
3.499977
 11
101.699982
 21
10.499977
  0
LINE
  8
0
 10
101.699982
 20
3.499977
 11
107.499969
 21
3.499977
  0
LINE
  8
0
 10
84.300018
 20
-51.500023
 11
78.500000
 21
-51.500023
  0
LINE
  8
0
 10
84.299988
 20
-51.500023
 11
84.299988
 21
-58.500023
  0
LINE
  8
0
 10
84.300018
 20
-58.500023
 11
78.500000
 21
-58.500023
  0
LINE
  8
0
 10
78.500000
 20
-51.500023
 11
78.500000
 21
-58.500023
  0
LINE
  8
0
 10
137.778320
 20
-7.750023
 11
139.221680
 21
-7.750023
  0
LINE
  8
0
 10
137.778320
 20
-10.250023
 11
139.221680
 21
-10.250023
  0
LINE
  8
0
 10
137.778290
 20
-10.250031
 11
137.056625
 21
-9.000072
  0
LINE
  8
0
 10
139.943344
 20
-9.000038
 11
139.221680
 21
-7.750072
  0
LINE
  8
0
 10
139.222031
 20
-10.250107
 11
139.943695
 21
-9.000118
  0
LINE
  8
0
 10
137.057022
 20
-9.000141
 11
137.778702
 21
-7.750153
  0
LINE
  8
0
 10
79.778320
 20
-40.250023
 11
81.221680
 21
-40.250023
  0
LINE
  8
0
 10
79.778336
 20
-40.250038
 11
79.056656
 21
-39.000053
  0
LINE
  8
0
 10
81.943405
 20
-39.000038
 11
81.221710
 21
-37.750027
  0
LINE
  8
0
 10
81.221985
 20
-40.250114
 11
81.943665
 21
-39.000130
  0
LINE
  8
0
 10
79.056870
 20
-39.000137
 11
79.778549
 21
-37.750149
  0
LINE
  8
0
 10
79.778320
 20
-37.750023
 11
81.221680
 21
-37.750023
  0
LINE
  8
0
 10
79.778320
 20
-10.250023
 11
81.221680
 21
-10.250023
  0
LINE
  8
0
 10
79.778336
 20
-10.250046
 11
79.056641
 21
-9.000034
  0
LINE
  8
0
 10
81.943420
 20
-9.000031
 11
81.221725
 21
-7.750015
  0
LINE
  8
0
 10
81.221924
 20
-10.250111
 11
81.943619
 21
-9.000099
  0
LINE
  8
0
 10
79.056839
 20
-9.000080
 11
79.778534
 21
-7.750065
  0
LINE
  8
0
 10
79.778320
 20
-7.750023
 11
81.221680
 21
-7.750023
  0
LINE
  8
0
 10
104.778320
 20
-10.250023
 11
106.221680
 21
-10.250023
  0
LINE
  8
0
 10
104.778320
 20
-10.249996
 11
104.056641
 21
-9.000011
  0
LINE
  8
0
 10
106.943390
 20
-9.000000
 11
106.221710
 21
-7.750011
  0
LINE
  8
0
 10
106.221924
 20
-10.250118
 11
106.943619
 21
-9.000107
  0
LINE
  8
0
 10
104.056870
 20
-9.000080
 11
104.778549
 21
-7.750092
  0
LINE
  8
0
 10
104.778320
 20
-7.750023
 11
106.221680
 21
-7.750023
  0
LINE
  8
0
 10
77.000000
 20
-89.000023
 11
77.000000
 21
71.999977
  0
LINE
  8
0
 10
60.000004
 20
-98.465813
 11
60.000004
 21
63.123970
  0
LINE
  8
0
 10
55.000004
 20
-53.000023
 11
55.000004
 21
4.999977
  0
LINE
  8
0
 10
65.000000
 20
-53.000023
 11
65.000000
 21
4.999977
  0
LINE
  8
0
 10
54.000004
 20
-53.000023
 11
54.000004
 21
4.999977
  0
LINE
  8
0
 10
66.000000
 20
-53.000023
 11
66.000000
 21
4.999977
  0
LINE
  8
0
 10
47.500004
 20
-13.500023
 11
47.500004
 21
-4.500023
  0
LINE
  8
0
 10
72.500000
 20
-43.500023
 11
72.500000
 21
-34.500023
  0
LINE
  8
0
 10
76.000000
 20
-89.000023
 11
76.000000
 21
52.999985
  0
LINE
  8
0
 10
43.000004
 20
-9.000023
 11
52.000004
 21
-9.000023
  0
LINE
  8
0
 10
68.000000
 20
-39.000023
 11
77.000000
 21
-39.000023
  0
LINE
  8
0
 10
55.000004
 20
-4.000023
 11
65.000000
 21
-4.000023
  0
LINE
  8
0
 10
55.000004
 20
-44.000023
 11
65.000000
 21
-44.000023
  0
LINE
  8
0
 10
55.999973
 20
5.999977
 11
63.999973
 21
5.999977
  0
LINE
  8
0
 10
56.000004
 20
-54.000023
 11
64.000000
 21
-54.000023
  0
LINE
  8
0
 10
55.999973
 20
6.999977
 11
63.999973
 21
6.999977
  0
LINE
  8
0
 10
56.000004
 20
-55.000023
 11
64.000000
 21
-55.000023
  0
LINE
  8
0
 10
43.999973
 20
11.999977
 11
75.999969
 21
11.999977
  0
LINE
  8
0
 10
44.000004
 20
-60.000023
 11
76.000000
 21
-60.000023
  0
LINE
  8
0
 10
44.000004
 20
-68.000023
 11
76.000000
 21
-68.000023
  0
LINE
  8
0
 10
47.000004
 20
-92.000023
 11
73.000000
 21
-92.000023
  0
LINE
  8
0
 10
43.999973
 20
31.999985
 11
75.999969
 21
31.999985
  0
LINE
  8
0
 10
46.999973
 20
55.999985
 11
72.999969
 21
55.999985
  0
LINE
  8
0
 10
72.500000
 20
-36.000023
 11
76.000000
 21
-36.000023
  0
LINE
  8
0
 10
72.500000
 20
-42.000023
 11
76.000000
 21
-42.000023
  0
LINE
  8
0
 10
47.500004
 20
-42.000023
 11
44.000004
 21
-42.000023
  0
LINE
  8
0
 10
47.500004
 20
-36.000023
 11
44.000004
 21
-36.000023
  0
LINE
  8
0
 10
72.500000
 20
-6.000023
 11
76.000000
 21
-6.000023
  0
LINE
  8
0
 10
72.500000
 20
-12.000023
 11
76.000000
 21
-12.000023
  0
LINE
  8
0
 10
47.500004
 20
-6.000023
 11
44.000004
 21
-6.000023
  0
LINE
  8
0
 10
47.500004
 20
-12.000023
 11
44.000004
 21
-12.000023
  0
LINE
  8
0
 10
68.000000
 20
-9.000023
 11
77.000000
 21
-9.000023
  0
LINE
  8
0
 10
72.500000
 20
-4.500023
 11
72.500000
 21
-13.500023
  0
LINE
  8
0
 10
47.500004
 20
-34.500023
 11
47.500004
 21
-43.500023
  0
LINE
  8
0
 10
43.000004
 20
-39.000023
 11
52.000004
 21
-39.000023
  0
LINE
  8
0
 10
74.500000
 20
3.499977
 11
74.500000
 21
10.499977
  0
LINE
  8
0
 10
68.699982
 20
10.499977
 11
74.499969
 21
10.499977
  0
LINE
  8
0
 10
68.699982
 20
3.499977
 11
68.699982
 21
10.499977
  0
LINE
  8
0
 10
68.699982
 20
3.499977
 11
74.499969
 21
3.499977
  0
LINE
  8
0
 10
51.300022
 20
-51.500023
 11
45.500004
 21
-51.500023
  0
LINE
  8
0
 10
51.299992
 20
-51.500023
 11
51.299992
 21
-58.500023
  0
LINE
  8
0
 10
51.300022
 20
-58.500023
 11
45.500004
 21
-58.500023
  0
LINE
  8
0
 10
45.500004
 20
-51.500023
 11
45.500004
 21
-58.500023
  0
LINE
  8
0
 10
71.778320
 20
-37.750023
 11
73.221680
 21
-37.750023
  0
LINE
  8
0
 10
71.778320
 20
-40.250023
 11
73.221680
 21
-40.250023
  0
LINE
  8
0
 10
71.778305
 20
-40.250042
 11
71.056610
 21
-39.000031
  0
LINE
  8
0
 10
73.943390
 20
-39.000046
 11
73.221695
 21
-37.750034
  0
LINE
  8
0
 10
73.221954
 20
-40.250156
 11
73.943649
 21
-39.000145
  0
LINE
  8
0
 10
71.056870
 20
-39.000134
 11
71.778549
 21
-37.750149
  0
LINE
  8
0
 10
46.778324
 20
-40.250023
 11
48.221684
 21
-40.250023
  0
LINE
  8
0
 10
46.778301
 20
-40.249989
 11
46.056622
 21
-39.000004
  0
LINE
  8
0
 10
48.943356
 20
-38.999996
 11
48.221676
 21
-37.750011
  0
LINE
  8
0
 10
48.221859
 20
-40.250099
 11
48.943554
 21
-39.000088
  0
LINE
  8
0
 10
46.056828
 20
-39.000107
 11
46.778522
 21
-37.750095
  0
LINE
  8
0
 10
46.778324
 20
-37.750023
 11
48.221684
 21
-37.750023
  0
LINE
  8
0
 10
46.778324
 20
-10.250023
 11
48.221684
 21
-10.250023
  0
LINE
  8
0
 10
46.778294
 20
-10.250019
 11
46.056614
 21
-9.000034
  0
LINE
  8
0
 10
48.943371
 20
-9.000027
 11
48.221676
 21
-7.750015
  0
LINE
  8
0
 10
48.221889
 20
-10.250065
 11
48.943584
 21
-9.000053
  0
LINE
  8
0
 10
46.056751
 20
-9.000076
 11
46.778446
 21
-7.750061
  0
LINE
  8
0
 10
46.778324
 20
-7.750023
 11
48.221684
 21
-7.750023
  0
LINE
  8
0
 10
71.778320
 20
-10.250023
 11
73.221680
 21
-10.250023
  0
LINE
  8
0
 10
71.778320
 20
-10.250053
 11
71.056625
 21
-9.000038
  0
LINE
  8
0
 10
73.943359
 20
-9.000019
 11
73.221664
 21
-7.750008
  0
LINE
  8
0
 10
73.221893
 20
-10.250061
 11
73.943573
 21
-9.000076
  0
LINE
  8
0
 10
71.056793
 20
-9.000088
 11
71.778488
 21
-7.750072
  0
LINE
  8
0
 10
71.778320
 20
-7.750023
 11
73.221680
 21
-7.750023
  0
LINE
  8
0
 10
44.000004
 20
-89.000023
 11
44.000004
 21
52.999985
  0
LINE
  8
0
 10
57.850010
 20
-92.700035
 11
62.149998
 21
-92.700035
  0
LINE
  8
0
 10
57.850010
 20
-92.000023
 11
57.850010
 21
-92.700005
  0
LINE
  8
0
 10
62.149998
 20
-92.000023
 11
62.149998
 21
-92.700005
  0
LINE
  8
0
 10
29.149998
 20
56.699997
 11
24.850010
 21
56.699997
  0
LINE
  8
0
 10
29.149998
 20
55.999985
 11
29.149998
 21
56.699997
  0
LINE
  8
0
 10
24.850010
 20
55.999985
 11
24.850010
 21
56.699997
  0
LINE
  8
0
 10
95.149994
 20
-92.000023
 11
95.149994
 21
-92.700005
  0
LINE
  8
0
 10
90.850006
 20
-92.700035
 11
95.149994
 21
-92.700035
  0
LINE
  8
0
 10
90.850006
 20
-92.000023
 11
90.850006
 21
-92.700005
  0
LINE
  8
0
 10
95.149994
 20
75.699989
 11
90.850006
 21
75.699989
  0
LINE
  8
0
 10
95.149994
 20
74.999977
 11
95.149994
 21
75.699989
  0
LINE
  8
0
 10
90.850006
 20
74.999977
 11
90.850006
 21
75.699989
  0
LINE
  8
0
 10
62.149998
 20
56.699997
 11
57.850010
 21
56.699997
  0
LINE
  8
0
 10
62.149998
 20
55.999985
 11
62.149998
 21
56.699997
  0
LINE
  8
0
 10
57.850010
 20
55.999985
 11
57.850010
 21
56.699997
  0
LINE
  8
0
 10
76.999969
 20
11.999977
 11
108.999969
 21
11.999977
  0
LINE
  8
0
 10
110.000000
 20
-66.500023
 11
143.000000
 21
-66.500023
  0
LINE
  8
0
 10
126.000000
 20
-84.216637
 11
126.000000
 21
63.123970
  0
LINE
  8
0
 10
142.000000
 20
-66.500023
 11
142.000000
 21
18.499985
  0
LINE
  8
0
 10
110.000000
 20
-78.999992
 11
110.000000
 21
36.000015
  0
LINE
  8
0
 10
110.000000
 20
18.499985
 11
142.000000
 21
18.499985
  0
LINE
  8
0
 10
105.500000
 20
-43.500023
 11
105.500000
 21
-34.500023
  0
LINE
  8
0
 10
101.000000
 20
-39.000023
 11
111.805084
 21
-39.000023
  0
LINE
  8
0
 10
104.778320
 20
-37.750023
 11
106.221680
 21
-37.750023
  0
LINE
  8
0
 10
104.778320
 20
-40.250023
 11
106.221680
 21
-40.250023
  0
LINE
  8
0
 10
104.778320
 20
-40.249992
 11
104.056641
 21
-39.000008
  0
LINE
  8
0
 10
106.943390
 20
-38.999985
 11
106.221710
 21
-37.750000
  0
LINE
  8
0
 10
106.221970
 20
-40.250122
 11
106.943665
 21
-39.000114
  0
LINE
  8
0
 10
104.056931
 20
-39.000141
 11
104.778625
 21
-37.750130
  0
LINE
  8
0
 10
138.500000
 20
-43.500023
 11
138.500000
 21
-34.500023
  0
LINE
  8
0
 10
134.000000
 20
-39.000023
 11
144.805115
 21
-39.000023
  0
LINE
  8
0
 10
137.778320
 20
-37.750023
 11
139.221680
 21
-37.750023
  0
LINE
  8
0
 10
137.778320
 20
-40.250023
 11
139.221680
 21
-40.250023
  0
LINE
  8
0
 10
137.778320
 20
-40.250011
 11
137.056641
 21
-39.000027
  0
LINE
  8
0
 10
139.943390
 20
-39.000061
 11
139.221710
 21
-37.750076
  0
LINE
  8
0
 10
139.221985
 20
-40.250088
 11
139.943665
 21
-39.000103
  0
LINE
  8
0
 10
137.056976
 20
-39.000137
 11
137.778656
 21
-37.750153
  0
LINE
  8
0
 10
113.500000
 20
-43.500023
 11
113.500000
 21
-34.500023
  0
LINE
  8
0
 10
109.000000
 20
-39.000023
 11
119.805115
 21
-39.000023
  0
LINE
  8
0
 10
112.778320
 20
-37.750023
 11
114.221680
 21
-37.750023
  0
LINE
  8
0
 10
112.778320
 20
-40.250023
 11
114.221680
 21
-40.250023
  0
LINE
  8
0
 10
112.778351
 20
-40.250000
 11
112.056671
 21
-39.000015
  0
LINE
  8
0
 10
114.943390
 20
-38.999985
 11
114.221710
 21
-37.749996
  0
LINE
  8
0
 10
114.222015
 20
-40.250107
 11
114.943695
 21
-39.000122
  0
LINE
  8
0
 10
112.056946
 20
-39.000107
 11
112.778641
 21
-37.750095
  0
LINE
  8
0
 10
113.500000
 20
-13.500023
 11
113.500000
 21
-4.500023
  0
LINE
  8
0
 10
109.000000
 20
-9.000023
 11
119.805115
 21
-9.000023
  0
LINE
  8
0
 10
112.778320
 20
-7.750023
 11
114.221680
 21
-7.750023
  0
LINE
  8
0
 10
112.778320
 20
-10.250023
 11
114.221680
 21
-10.250023
  0
LINE
  8
0
 10
112.778351
 20
-10.250042
 11
112.056656
 21
-9.000031
  0
LINE
  8
0
 10
114.943390
 20
-9.000053
 11
114.221695
 21
-7.750042
  0
LINE
  8
0
 10
114.222000
 20
-10.250107
 11
114.943680
 21
-9.000118
  0
LINE
  8
0
 10
112.056976
 20
-9.000141
 11
112.778656
 21
-7.750153
  0
LINE
  8
0
 10
110.000000
 20
26.500015
 11
143.000000
 21
26.500015
  0
LINE
  8
0
 10
109.000000
 20
27.300003
 11
110.000000
 21
27.300003
  0
LINE
  8
0
 10
142.850006
 20
36.000015
 11
178.000000
 21
36.000015
  0
LINE
  8
0
 10
11.149998
 20
53.936813
 11
11.149998
 21
68.000008
  0
LINE
  8
0
 10
43.850010
 20
27.300003
 11
43.850010
 21
68.000008
  0
LINE
  8
0
 10
110.149994
 20
27.300003
 11
142.850006
 21
27.300003
  0
LINE
  8
0
 10
76.000000
 20
27.300003
 11
76.850006
 21
27.300003
  0
LINE
  8
0
 10
43.000004
 20
27.300003
 11
43.850010
 21
27.300003
  0
LINE
  8
0
 10
44.149998
 20
53.936813
 11
44.149998
 21
67.996284
  0
LINE
  8
0
 10
76.850006
 20
27.300003
 11
76.850006
 21
67.999992
  0
LINE
  8
0
 10
110.149994
 20
27.300003
 11
110.149994
 21
67.996269
  0
LINE
  8
0
 10
142.850006
 20
27.300003
 11
142.850006
 21
67.999977
  0
LINE
  8
0
 10
93.500000
 20
89.447945
 11
93.500000
 21
72.275337
  0
LINE
  8
0
 10
110.000000
 20
-10.750023
 11
111.714630
 21
-10.750023
  0
LINE
  8
0
 10
110.000000
 20
-7.250023
 11
111.714630
 21
-7.250023
  0
LINE
  8
0
 10
140.285370
 20
-10.750023
 11
142.000000
 21
-10.750023
  0
LINE
  8
0
 10
140.285370
 20
-7.250023
 11
142.000000
 21
-7.250023
  0
LINE
  8
0
 10
110.000000
 20
-37.250023
 11
111.714630
 21
-37.250023
  0
LINE
  8
0
 10
110.000000
 20
-40.750023
 11
111.714630
 21
-40.750023
  0
LINE
  8
0
 10
140.285370
 20
-37.250023
 11
142.000000
 21
-37.250023
  0
LINE
  8
0
 10
140.285370
 20
-40.750023
 11
142.000000
 21
-40.750023
  0
LINE
  8
0
 10
93.500000
 20
77.714027
 11
93.500000
 21
104.475105
  0
LINE
  8
0
 10
82.750000
 20
102.400032
 11
104.250000
 21
102.400032
  0
LINE
  8
0
 10
107.250000
 20
99.400032
 11
107.250000
 21
74.727180
  0
LINE
  8
0
 10
79.750000
 20
99.400032
 11
79.750000
 21
74.999977
  0
LINE
  8
0
 10
79.750000
 20
96.400032
 11
83.833710
 21
96.400032
  0
LINE
  8
0
 10
79.750000
 20
93.400032
 11
82.732574
 21
93.400032
  0
LINE
  8
0
 10
79.750000
 20
91.900032
 11
82.525604
 21
91.900032
  0
LINE
  8
0
 10
79.750000
 20
90.400032
 11
82.525604
 21
90.400032
  0
LINE
  8
0
 10
79.750000
 20
88.900032
 11
82.732574
 21
88.900032
  0
LINE
  8
0
 10
79.750000
 20
85.900032
 11
83.833710
 21
85.900032
  0
LINE
  8
0
 10
79.750000
 20
84.400032
 11
84.814545
 21
84.400032
  0
LINE
  8
0
 10
79.750000
 20
82.900032
 11
86.224182
 21
82.900032
  0
LINE
  8
0
 10
79.750000
 20
81.400032
 11
88.407135
 21
81.400032
  0
LINE
  8
0
 10
79.750000
 20
97.900032
 11
84.814545
 21
97.900032
  0
LINE
  8
0
 10
93.500015
 20
102.150002
 11
95.600006
 21
100.937569
  0
LINE
  8
0
 10
91.400040
 20
100.937614
 11
93.500031
 21
102.150047
  0
LINE
  8
0
 10
95.849716
 20
100.251595
 11
95.600037
 21
100.937584
  0
LINE
  8
0
 10
91.284943
 20
100.285301
 11
91.399948
 21
100.937553
  0
LINE
  8
0
 10
103.026276
 20
96.650032
 11
103.026276
 21
94.225166
  0
LINE
  8
0
 10
100.926300
 20
97.862434
 11
103.026291
 21
96.650002
  0
LINE
  8
0
 10
102.557098
 20
93.665932
 11
103.026337
 21
94.225151
  0
LINE
  8
0
 10
100.303909
 20
97.635902
 11
100.926285
 21
97.862434
  0
LINE
  8
0
 10
103.026306
 20
85.650047
 11
100.926315
 21
84.437614
  0
LINE
  8
0
 10
103.026276
 20
88.074898
 11
103.026276
 21
85.650032
  0
LINE
  8
0
 10
100.207291
 20
84.564278
 11
100.926208
 21
84.437523
  0
LINE
  8
0
 10
102.518936
 20
88.500648
 11
103.026306
 21
88.074913
  0
LINE
  8
0
 10
93.500031
 20
80.150017
 11
91.400040
 21
81.362450
  0
LINE
  8
0
 10
95.600021
 20
81.362480
 11
93.500031
 21
80.150047
  0
LINE
  8
0
 10
91.150299
 20
82.048424
 11
91.399979
 21
81.362434
  0
LINE
  8
0
 10
95.714935
 20
82.014717
 11
95.599915
 21
81.362450
  0
LINE
  8
0
 10
83.973724
 20
85.650032
 11
83.973724
 21
88.074898
  0
LINE
  8
0
 10
86.073746
 20
84.437584
 11
83.973755
 21
85.650017
  0
LINE
  8
0
 10
84.442978
 20
88.634193
 11
83.973740
 21
88.074974
  0
LINE
  8
0
 10
86.696106
 20
84.664101
 11
86.073730
 21
84.437569
  0
LINE
  8
0
 10
83.973755
 20
96.650047
 11
86.073746
 21
97.862480
  0
LINE
  8
0
 10
83.973724
 20
94.225166
 11
83.973724
 21
96.650032
  0
LINE
  8
0
 10
86.792603
 20
97.735664
 11
86.073685
 21
97.862434
  0
LINE
  8
0
 10
84.481110
 20
93.799446
 11
83.973755
 21
94.225182
  0
LINE
  8
0
 10
102.185486
 20
97.900032
 11
107.250000
 21
97.900032
  0
LINE
  8
0
 10
103.166321
 20
96.400032
 11
107.250000
 21
96.400032
  0
LINE
  8
0
 10
104.267426
 20
93.400032
 11
107.250000
 21
93.400032
  0
LINE
  8
0
 10
104.474396
 20
91.900032
 11
107.250000
 21
91.900032
  0
LINE
  8
0
 10
104.474396
 20
90.400032
 11
107.250000
 21
90.400032
  0
LINE
  8
0
 10
104.267426
 20
88.900032
 11
107.250000
 21
88.900032
  0
LINE
  8
0
 10
103.166321
 20
85.900032
 11
107.250000
 21
85.900032
  0
LINE
  8
0
 10
102.185486
 20
84.400032
 11
107.250000
 21
84.400032
  0
LINE
  8
0
 10
100.775818
 20
82.900032
 11
107.250000
 21
82.900032
  0
LINE
  8
0
 10
98.592896
 20
81.400032
 11
107.250000
 21
81.400032
  0
LINE
  8
0
 10
80.641479
 20
91.150032
 11
105.951080
 21
91.150032
  0
LINE
  8
0
 10
95.149994
 20
74.999977
 11
95.149994
 21
75.699989
  0
LINE
  8
0
 10
95.149994
 20
75.699989
 11
90.850006
 21
75.699989
  0
LINE
  8
0
 10
90.850006
 20
74.999977
 11
90.850006
 21
75.699989
  0
LINE
  8
0
 10
47.149578
 20
70.996284
 11
73.849594
 21
70.999992
  0
LINE
  8
0
 10
113.149597
 20
70.996269
 11
139.849609
 21
70.999992
  0
LINE
  8
0
 10
40.850010
 20
71.000008
 11
14.149998
 21
71.000008
  0
ARC
  8
0
 10
178.000000
 20
34.000015
 40
2.000000
 50
0.000000
 51
90.000000
  0
ARC
  8
0
 10
178.000000
 20
20.000015
 40
2.000000
 50
270.000000
 51
0.000000
  0
ARC
  8
0
 10
179.000000
 20
32.500015
 40
1.000000
 50
270.000000
 51
0.000000
  0
ARC
  8
0
 10
179.000000
 20
21.500015
 40
1.000000
 50
0.000000
 51
90.000000
  0
ARC
  8
0
 10
174.000000
 20
27.000015
 40
4.500000
 50
90.000000
 51
270.000000
  0
ARC
  8
0
 10
167.000000
 20
17.000015
 40
1.000000
 50
90.000000
 51
180.000000
  0
ARC
  8
0
 10
167.000000
 20
-59.999992
 40
1.000000
 50
180.000000
 51
270.000000
  0
ARC
  8
0
 10
174.000000
 20
-69.999992
 40
4.500000
 50
90.000000
 51
270.000000
  0
ARC
  8
0
 10
163.000000
 20
-75.999992
 40
3.000000
 50
270.000000
 51
0.000000
  0
ARC
  8
0
 10
178.000000
 20
-76.999992
 40
2.000000
 50
270.000000
 51
0.000000
  0
ARC
  8
0
 10
178.000000
 20
-62.999992
 40
2.000000
 50
0.000000
 51
90.000000
  0
ARC
  8
0
 10
179.000000
 20
-64.499992
 40
1.000000
 50
270.000000
 51
0.000000
  0
ARC
  8
0
 10
179.000000
 20
-75.499992
 40
1.000000
 50
0.000000
 51
90.000000
  0
ARC
  8
0
 10
-23.999966
 20
34.000015
 40
2.000000
 50
90.000000
 51
180.000000
  0
ARC
  8
0
 10
-23.999966
 20
20.000015
 40
2.000000
 50
180.000000
 51
270.000000
  0
ARC
  8
0
 10
-24.999966
 20
32.500015
 40
1.000000
 50
180.000000
 51
270.000000
  0
ARC
  8
0
 10
-24.999966
 20
21.500015
 40
1.000000
 50
90.000000
 51
180.000000
  0
ARC
  8
0
 10
-19.999966
 20
27.000015
 40
4.500000
 50
269.999939
 51
89.999924
  0
ARC
  8
0
 10
-12.999966
 20
17.000015
 40
1.000000
 50
0.000000
 51
89.999893
  0
ARC
  8
0
 10
-13.000027
 20
-59.999992
 40
1.000000
 50
270.000000
 51
0.000000
  0
ARC
  8
0
 10
-20.000027
 20
-69.999992
 40
4.500000
 50
269.999939
 51
89.999924
  0
ARC
  8
0
 10
-9.000027
 20
-75.999992
 40
3.000000
 50
180.000000
 51
270.000000
  0
ARC
  8
0
 10
-24.000027
 20
-76.999992
 40
2.000000
 50
180.000000
 51
270.000000
  0
ARC
  8
0
 10
-24.000027
 20
-62.999992
 40
2.000000
 50
90.000000
 51
180.000000
  0
ARC
  8
0
 10
-25.000027
 20
-64.499992
 40
1.000000
 50
180.000000
 51
270.000000
  0
ARC
  8
0
 10
-25.000027
 20
-75.499992
 40
1.000000
 50
90.000000
 51
180.000000
  0
ARC
  8
0
 10
39.999973
 20
53.000015
 40
3.000000
 50
0.000000
 51
90.000076
  0
ARC
  8
0
 10
13.999973
 20
52.999985
 40
3.000000
 50
90.000076
 51
180.000000
  0
ARC
  8
0
 10
30.999973
 20
4.999977
 40
2.000000
 50
0.000000
 51
90.000000
  0
ARC
  8
0
 10
22.999973
 20
4.999977
 40
2.000000
 50
90.000000
 51
180.000000
  0
ARC
  8
0
 10
23.000004
 20
-53.000023
 40
2.000000
 50
180.000000
 51
270.000000
  0
ARC
  8
0
 10
31.000004
 20
-53.000023
 40
2.000000
 50
270.000000
 51
0.000000
  0
ARC
  8
0
 10
30.999973
 20
4.999977
 40
1.000000
 50
0.000000
 51
90.000000
  0
ARC
  8
0
 10
22.999973
 20
4.999977
 40
1.000000
 50
90.000000
 51
180.000000
  0
ARC
  8
0
 10
23.000004
 20
-53.000023
 40
1.000000
 50
180.000000
 51
270.000000
  0
ARC
  8
0
 10
31.000004
 20
-53.000023
 40
1.000000
 50
270.000000
 51
0.000000
  0
CIRCLE
  8
0
 10
39.500004
 20
-39.000023
 40
2.500000
  0
ARC
  8
0
 10
39.500004
 20
-39.000023
 40
3.000000
 50
90.000076
 51
270.000000
  0
ARC
  8
0
 10
14.500004
 20
-39.000023
 40
3.000000
 50
269.999939
 51
89.999924
  0
CIRCLE
  8
0
 10
39.500004
 20
-39.000023
 40
2.500000
  0
ARC
  8
0
 10
39.500004
 20
-9.000023
 40
3.000000
 50
90.000076
 51
270.000000
  0
CIRCLE
  8
0
 10
39.500004
 20
-9.000023
 40
2.500000
  0
ARC
  8
0
 10
14.500004
 20
-9.000023
 40
3.000000
 50
270.000000
 51
90.000000
  0
CIRCLE
  8
0
 10
14.500004
 20
-9.000023
 40
2.500000
  0
CIRCLE
  8
0
 10
14.500004
 20
-39.000023
 40
2.500000
  0
CIRCLE
  8
0
 10
14.500004
 20
-9.000023
 40
2.500000
  0
CIRCLE
  8
0
 10
39.500004
 20
-9.000023
 40
2.500000
  0
ARC
  8
0
 10
105.999969
 20
72.000008
 40
3.000000
 50
0.000000
 51
90.000000
  0
ARC
  8
0
 10
79.999969
 20
71.999977
 40
3.000000
 50
90.000000
 51
180.000000
  0
ARC
  8
0
 10
80.000000
 20
-89.000023
 40
3.000000
 50
180.000000
 51
270.000000
  0
ARC
  8
0
 10
106.000000
 20
-89.000023
 40
3.000000
 50
270.000000
 51
0.000000
  0
ARC
  8
0
 10
96.999969
 20
4.999977
 40
2.000000
 50
0.000000
 51
90.000000
  0
ARC
  8
0
 10
88.999969
 20
4.999977
 40
2.000000
 50
90.000000
 51
180.000000
  0
ARC
  8
0
 10
89.000000
 20
-53.000023
 40
2.000000
 50
180.000000
 51
270.000000
  0
ARC
  8
0
 10
97.000000
 20
-53.000023
 40
2.000000
 50
270.000000
 51
0.000000
  0
ARC
  8
0
 10
96.999969
 20
4.999977
 40
1.000000
 50
0.000000
 51
90.000000
  0
ARC
  8
0
 10
88.999969
 20
4.999977
 40
1.000000
 50
90.000000
 51
180.000000
  0
ARC
  8
0
 10
89.000000
 20
-53.000023
 40
1.000000
 50
180.000000
 51
270.000000
  0
ARC
  8
0
 10
97.000000
 20
-53.000023
 40
1.000000
 50
270.000000
 51
0.000000
  0
CIRCLE
  8
0
 10
138.500000
 20
-9.000023
 40
2.500000
  0
ARC
  8
0
 10
105.500000
 20
-39.000023
 40
3.000000
 50
90.000000
 51
270.000000
  0
ARC
  8
0
 10
80.500000
 20
-39.000023
 40
3.000000
 50
270.000000
 51
90.000000
  0
ARC
  8
0
 10
105.500000
 20
-9.000023
 40
3.000000
 50
90.000000
 51
270.000000
  0
CIRCLE
  8
0
 10
105.500000
 20
-9.000023
 40
2.500000
  0
ARC
  8
0
 10
80.500000
 20
-9.000023
 40
3.000000
 50
270.000000
 51
90.000000
  0
CIRCLE
  8
0
 10
80.500000
 20
-9.000023
 40
2.500000
  0
CIRCLE
  8
0
 10
80.500000
 20
-39.000023
 40
2.500000
  0
CIRCLE
  8
0
 10
80.500000
 20
-9.000023
 40
2.500000
  0
CIRCLE
  8
0
 10
105.500000
 20
-9.000023
 40
2.500000
  0
ARC
  8
0
 10
72.999969
 20
53.000015
 40
3.000000
 50
0.000000
 51
90.000000
  0
ARC
  8
0
 10
46.999973
 20
52.999985
 40
3.000000
 50
90.000000
 51
180.000000
  0
ARC
  8
0
 10
47.000004
 20
-89.000023
 40
3.000000
 50
180.000000
 51
270.000000
  0
ARC
  8
0
 10
73.000000
 20
-89.000023
 40
3.000000
 50
270.000000
 51
0.000000
  0
ARC
  8
0
 10
63.999973
 20
4.999977
 40
1.999996
 50
0.000000
 51
90.000000
  0
ARC
  8
0
 10
55.999973
 20
4.999977
 40
2.000000
 50
90.000000
 51
180.000000
  0
ARC
  8
0
 10
56.000004
 20
-53.000023
 40
2.000000
 50
180.000000
 51
270.000000
  0
ARC
  8
0
 10
64.000000
 20
-53.000023
 40
2.000000
 50
270.000000
 51
0.000000
  0
ARC
  8
0
 10
63.999973
 20
4.999977
 40
0.999996
 50
0.000000
 51
90.000000
  0
ARC
  8
0
 10
55.999973
 20
4.999977
 40
1.000000
 50
90.000000
 51
180.000000
  0
ARC
  8
0
 10
56.000004
 20
-53.000023
 40
1.000000
 50
180.000000
 51
270.000000
  0
ARC
  8
0
 10
64.000000
 20
-53.000023
 40
1.000000
 50
270.000000
 51
0.000000
  0
CIRCLE
  8
0
 10
72.500000
 20
-39.000023
 40
2.500000
  0
ARC
  8
0
 10
72.500000
 20
-39.000023
 40
3.000000
 50
90.000000
 51
270.000000
  0
ARC
  8
0
 10
47.500004
 20
-39.000023
 40
3.000000
 50
270.000000
 51
90.000000
  0
CIRCLE
  8
0
 10
72.500000
 20
-39.000023
 40
2.500000
  0
ARC
  8
0
 10
72.500000
 20
-9.000023
 40
3.000000
 50
90.000000
 51
270.000000
  0
CIRCLE
  8
0
 10
72.500000
 20
-9.000023
 40
2.500000
  0
ARC
  8
0
 10
47.500004
 20
-9.000023
 40
3.000000
 50
270.000000
 51
90.000000
  0
CIRCLE
  8
0
 10
47.500004
 20
-9.000023
 40
2.500000
  0
CIRCLE
  8
0
 10
47.500004
 20
-39.000023
 40
2.500000
  0
CIRCLE
  8
0
 10
47.500004
 20
-9.000023
 40
2.500000
  0
CIRCLE
  8
0
 10
72.500000
 20
-9.000023
 40
2.500000
  0
ARC
  8
0
 10
40.000004
 20
-65.000023
 40
3.000000
 50
269.999939
 51
0.000000
  0
ARC
  8
0
 10
14.000004
 20
-65.000023
 40
3.000000
 50
180.000000
 51
270.000000
  0
CIRCLE
  8
0
 10
105.500000
 20
-39.000023
 40
2.500000
  0
CIRCLE
  8
0
 10
105.500000
 20
-39.000023
 40
2.500000
  0
CIRCLE
  8
0
 10
138.500000
 20
-39.000023
 40
2.500000
  0
CIRCLE
  8
0
 10
138.500000
 20
-39.000023
 40
2.500000
  0
CIRCLE
  8
0
 10
113.500000
 20
-39.000023
 40
2.500000
  0
CIRCLE
  8
0
 10
113.500000
 20
-39.000023
 40
2.500000
  0
CIRCLE
  8
0
 10
113.500000
 20
-9.000023
 40
2.500000
  0
ARC
  8
0
 10
-8.999996
 20
33.000015
 40
3.000000
 50
89.999985
 51
180.000000
  0
ARC
  8
0
 10
163.000000
 20
33.000015
 40
3.000000
 50
0.000000
 51
90.000000
  0
ARC
  8
0
 10
82.750000
 20
99.400032
 40
3.000000
 50
90.000000
 51
180.000000
  0
ARC
  8
0
 10
104.250000
 20
99.400032
 40
3.000000
 50
0.000000
 51
90.000000
  0
CIRCLE
  8
0
 10
93.500000
 20
91.150032
 40
11.000000
  0
CIRCLE
  8
0
 10
93.500000
 20
91.150032
 40
6.500000
  0
CIRCLE
  8
0
 10
93.500000
 20
91.150032
 40
3.799999
  0
ARC
  8
0
 10
93.500000
 20
91.150032
 40
9.399994
 50
43.629177
 51
75.524376
  0
ARC
  8
0
 10
93.500000
 20
91.150032
 40
9.399995
 50
103.629234
 51
135.524490
  0
ARC
  8
0
 10
93.500000
 20
91.150032
 40
9.400002
 50
163.629196
 51
196.370331
  0
ARC
  8
0
 10
93.500000
 20
91.150032
 40
9.400000
 50
223.303650
 51
255.524261
  0
ARC
  8
0
 10
93.500000
 20
91.150032
 40
9.399995
 50
283.629242
 51
315.524292
  0
ARC
  8
0
 10
93.500000
 20
91.150032
 40
9.400002
 50
343.629211
 51
15.524415
  0
ARC
  8
0
 10
14.149998
 20
68.000008
 40
3.000000
 50
90.000000
 51
180.000000
  0
ARC
  8
0
 10
40.850010
 20
68.000008
 40
3.000000
 50
0.000000
 51
90.000000
  0
ARC
  8
0
 10
47.149998
 20
67.996284
 40
3.000000
 50
90.008011
 51
180.000000
  0
ARC
  8
0
 10
73.850006
 20
67.999992
 40
3.000000
 50
0.000000
 51
90.007866
  0
ARC
  8
0
 10
113.149994
 20
67.996269
 40
3.000000
 50
90.007866
 51
180.000000
  0
ARC
  8
0
 10
139.850006
 20
67.999977
 40
3.000000
 50
0.000000
 51
90.007866
  0
TEXT
  8
0
 10
17.206999
 20
-53.120026
 40
3.200000
  1
B
 50
180.000000
 41
1.052632
 51
0.000000
  7
STANDARD
  0
TEXT
  8
0
 10
36.792980
 20
5.119977
 40
3.200000
  1
A
 50
0.000000
 41
1.052632
 51
0.000000
  7
STANDARD
  0
TEXT
  8
0
 10
83.206993
 20
-53.120026
 40
3.200000
  1
B
 50
180.000000
 41
1.052632
 51
0.000000
  7
STANDARD
  0
TEXT
  8
0
 10
102.792976
 20
5.119977
 40
3.200000
  1
A
 50
0.000000
 41
1.052632
 51
0.000000
  7
STANDARD
  0
TEXT
  8
0
 10
50.207001
 20
-53.120026
 40
3.200000
  1
B
 50
180.000000
 41
1.052632
 51
0.000000
  7
STANDARD
  0
TEXT
  8
0
 10
69.792976
 20
5.119977
 40
3.200000
  1
A
 50
0.000000
 41
1.052632
 51
0.000000
  7
STANDARD
  0
POINT
  8
0
 10
27.000004
 20
-24.000023
  0
LINE
  8
0
 10
27.500004
 20
89.447945
 11
27.500004
 21
72.275337
  0
LINE
  8
0
 10
27.500004
 20
77.908577
 11
27.500004
 21
104.130836
  0
LINE
  8
0
 10
16.750004
 20
102.400032
 11
38.250004
 21
102.400032
  0
LINE
  8
0
 10
13.750004
 20
96.400032
 11
17.833714
 21
96.400032
  0
LINE
  8
0
 10
13.750004
 20
93.400032
 11
16.732578
 21
93.400032
  0
LINE
  8
0
 10
13.750004
 20
91.900032
 11
16.525608
 21
91.900032
  0
LINE
  8
0
 10
13.750004
 20
90.400032
 11
16.525608
 21
90.400032
  0
LINE
  8
0
 10
13.750004
 20
88.900032
 11
16.732578
 21
88.900032
  0
LINE
  8
0
 10
13.750004
 20
85.900032
 11
17.833714
 21
85.900032
  0
LINE
  8
0
 10
13.750004
 20
84.400032
 11
18.814548
 21
84.400032
  0
LINE
  8
0
 10
13.750004
 20
82.900032
 11
20.224186
 21
82.900032
  0
LINE
  8
0
 10
13.750004
 20
81.400032
 11
22.407139
 21
81.400032
  0
LINE
  8
0
 10
13.750004
 20
71.900032
 11
41.250004
 21
71.900032
  0
LINE
  8
0
 10
14.000004
 20
71.900032
 11
14.000004
 21
70.996254
  0
LINE
  8
0
 10
41.000004
 20
71.900032
 11
41.000004
 21
71.000008
  0
LINE
  8
0
 10
13.750004
 20
99.400032
 11
13.750004
 21
71.900032
  0
LINE
  8
0
 10
41.250004
 20
99.400032
 11
41.250004
 21
71.900032
  0
LINE
  8
0
 10
13.750004
 20
97.900032
 11
18.814548
 21
97.900032
  0
LINE
  8
0
 10
36.185490
 20
97.900032
 11
41.250004
 21
97.900032
  0
LINE
  8
0
 10
37.166325
 20
96.400032
 11
41.250004
 21
96.400032
  0
LINE
  8
0
 10
38.267429
 20
93.400032
 11
41.250004
 21
93.400032
  0
LINE
  8
0
 10
38.474400
 20
91.900032
 11
41.250004
 21
91.900032
  0
LINE
  8
0
 10
38.474400
 20
90.400032
 11
41.250004
 21
90.400032
  0
LINE
  8
0
 10
38.267429
 20
88.900032
 11
41.250004
 21
88.900032
  0
LINE
  8
0
 10
37.166325
 20
85.900032
 11
41.250004
 21
85.900032
  0
LINE
  8
0
 10
36.185490
 20
84.400032
 11
41.250004
 21
84.400032
  0
LINE
  8
0
 10
34.775822
 20
82.900032
 11
41.250004
 21
82.900032
  0
LINE
  8
0
 10
32.592899
 20
81.400032
 11
41.250004
 21
81.400032
  0
LINE
  8
0
 10
14.641483
 20
91.150032
 11
39.951084
 21
91.150032
  0
LINE
  8
0
 10
27.500019
 20
102.149956
 11
29.600014
 21
100.937523
  0
LINE
  8
0
 10
25.400043
 20
100.937614
 11
27.500042
 21
102.150047
  0
LINE
  8
0
 10
29.849697
 20
100.251595
 11
29.600018
 21
100.937569
  0
LINE
  8
0
 10
25.284935
 20
100.285316
 11
25.399948
 21
100.937569
  0
LINE
  8
0
 10
37.026279
 20
96.650032
 11
37.026279
 21
94.225166
  0
LINE
  8
0
 10
34.926304
 20
97.862389
 11
37.026299
 21
96.649956
  0
LINE
  8
0
 10
36.557095
 20
93.665962
 11
37.026333
 21
94.225197
  0
LINE
  8
0
 10
34.303905
 20
97.635887
 11
34.926285
 21
97.862404
  0
LINE
  8
0
 10
37.026325
 20
85.650047
 11
34.926331
 21
84.437614
  0
LINE
  8
0
 10
37.026279
 20
88.074898
 11
37.026279
 21
85.650032
  0
LINE
  8
0
 10
34.207294
 20
84.564278
 11
34.926216
 21
84.437508
  0
LINE
  8
0
 10
36.518902
 20
88.500679
 11
37.026272
 21
88.074944
  0
LINE
  8
0
 10
27.500027
 20
80.150002
 11
25.400028
 21
81.362434
  0
LINE
  8
0
 10
29.600040
 20
81.362480
 11
27.500046
 21
80.150047
  0
LINE
  8
0
 10
25.150299
 20
82.048409
 11
25.399979
 21
81.362419
  0
LINE
  8
0
 10
29.714931
 20
82.014732
 11
29.599918
 21
81.362465
  0
LINE
  8
0
 10
17.973728
 20
85.650032
 11
17.973728
 21
88.074898
  0
LINE
  8
0
 10
20.073742
 20
84.437569
 11
17.973751
 21
85.650002
  0
LINE
  8
0
 10
20.696110
 20
84.664070
 11
20.073730
 21
84.437553
  0
LINE
  8
0
 10
17.973759
 20
96.650047
 11
20.073757
 21
97.862480
  0
LINE
  8
0
 10
17.973728
 20
94.225166
 11
17.973728
 21
96.650032
  0
LINE
  8
0
 10
20.792603
 20
97.735664
 11
20.073681
 21
97.862434
  0
LINE
  8
0
 10
18.481094
 20
93.799477
 11
17.973724
 21
94.225197
  0
LINE
  8
0
 10
18.481079
 20
88.500679
 11
17.973709
 21
88.074928
  0
ARC
  8
0
 10
27.500004
 20
91.150032
 40
9.400009
 50
283.629181
 51
315.524353
  0
ARC
  8
0
 10
27.500004
 20
91.150032
 40
9.400002
 50
343.629211
 51
15.524415
  0
ARC
  8
0
 10
16.750004
 20
99.400032
 40
3.000000
 50
90.000000
 51
180.000000
  0
ARC
  8
0
 10
38.250004
 20
99.400032
 40
3.000000
 50
0.000000
 51
90.000000
  0
CIRCLE
  8
0
 10
27.500004
 20
91.150032
 40
11.000000
  0
CIRCLE
  8
0
 10
27.500004
 20
91.150032
 40
6.500000
  0
CIRCLE
  8
0
 10
27.500004
 20
91.150032
 40
3.799999
  0
ARC
  8
0
 10
27.500004
 20
91.150032
 40
9.400007
 50
43.629230
 51
75.524353
  0
ARC
  8
0
 10
27.500004
 20
91.150032
 40
9.400009
 50
103.629189
 51
135.524429
  0
ARC
  8
0
 10
27.500004
 20
91.150032
 40
9.400000
 50
163.629196
 51
196.370224
  0
ARC
  8
0
 10
27.500004
 20
91.150032
 40
9.399995
 50
223.303558
 51
255.524292
  0
POINT
  8
0
 10
60.000004
 20
-24.000023
  0
LINE
  8
0
 10
60.500004
 20
89.447945
 11
60.500004
 21
72.275337
  0
LINE
  8
0
 10
60.500004
 20
77.908577
 11
60.500004
 21
104.130836
  0
LINE
  8
0
 10
49.750004
 20
102.400032
 11
71.250000
 21
102.400032
  0
LINE
  8
0
 10
46.750004
 20
96.400032
 11
50.833714
 21
96.400032
  0
LINE
  8
0
 10
46.750004
 20
93.400032
 11
49.732578
 21
93.400032
  0
LINE
  8
0
 10
46.750004
 20
91.900032
 11
49.525608
 21
91.900032
  0
LINE
  8
0
 10
46.750004
 20
90.400032
 11
49.525608
 21
90.400032
  0
LINE
  8
0
 10
46.750004
 20
88.900032
 11
49.732578
 21
88.900032
  0
LINE
  8
0
 10
46.750004
 20
85.900032
 11
50.833714
 21
85.900032
  0
LINE
  8
0
 10
46.750004
 20
84.400032
 11
51.814548
 21
84.400032
  0
LINE
  8
0
 10
46.750004
 20
82.900032
 11
53.224186
 21
82.900032
  0
LINE
  8
0
 10
46.750004
 20
81.400032
 11
55.407139
 21
81.400032
  0
LINE
  8
0
 10
46.750004
 20
71.900032
 11
74.250000
 21
71.900032
  0
LINE
  8
0
 10
47.000004
 20
71.900032
 11
47.000004
 21
70.996254
  0
LINE
  8
0
 10
74.000000
 20
71.900032
 11
74.000000
 21
71.000008
  0
LINE
  8
0
 10
46.750004
 20
99.400032
 11
46.750004
 21
71.900032
  0
LINE
  8
0
 10
74.250000
 20
99.400032
 11
74.250000
 21
71.900032
  0
LINE
  8
0
 10
46.750004
 20
97.900032
 11
51.814548
 21
97.900032
  0
LINE
  8
0
 10
69.185486
 20
97.900032
 11
74.250000
 21
97.900032
  0
LINE
  8
0
 10
70.166321
 20
96.400032
 11
74.250000
 21
96.400032
  0
LINE
  8
0
 10
71.267426
 20
93.400032
 11
74.250000
 21
93.400032
  0
LINE
  8
0
 10
71.474396
 20
91.900032
 11
74.250000
 21
91.900032
  0
LINE
  8
0
 10
71.474396
 20
90.400032
 11
74.250000
 21
90.400032
  0
LINE
  8
0
 10
71.267426
 20
88.900032
 11
74.250000
 21
88.900032
  0
LINE
  8
0
 10
70.166321
 20
85.900032
 11
74.250000
 21
85.900032
  0
LINE
  8
0
 10
69.185486
 20
84.400032
 11
74.250000
 21
84.400032
  0
LINE
  8
0
 10
67.775818
 20
82.900032
 11
74.250000
 21
82.900032
  0
LINE
  8
0
 10
65.592896
 20
81.400032
 11
74.250000
 21
81.400032
  0
LINE
  8
0
 10
47.641483
 20
91.150032
 11
72.951080
 21
91.150032
  0
LINE
  8
0
 10
60.500019
 20
102.149956
 11
62.600018
 21
100.937523
  0
LINE
  8
0
 10
58.400043
 20
100.937614
 11
60.500042
 21
102.150047
  0
LINE
  8
0
 10
62.849697
 20
100.251595
 11
62.600018
 21
100.937569
  0
LINE
  8
0
 10
58.284939
 20
100.285316
 11
58.399944
 21
100.937569
  0
LINE
  8
0
 10
70.026276
 20
96.650032
 11
70.026276
 21
94.225166
  0
LINE
  8
0
 10
67.926300
 20
97.862389
 11
70.026291
 21
96.649956
  0
LINE
  8
0
 10
69.557098
 20
93.665962
 11
70.026337
 21
94.225197
  0
LINE
  8
0
 10
67.303909
 20
97.635887
 11
67.926285
 21
97.862404
  0
LINE
  8
0
 10
70.026321
 20
85.650047
 11
67.926331
 21
84.437614
  0
LINE
  8
0
 10
70.026276
 20
88.074898
 11
70.026276
 21
85.650032
  0
LINE
  8
0
 10
67.207291
 20
84.564278
 11
67.926208
 21
84.437508
  0
LINE
  8
0
 10
69.518906
 20
88.500679
 11
70.026276
 21
88.074944
  0
LINE
  8
0
 10
60.500027
 20
80.150002
 11
58.400028
 21
81.362434
  0
LINE
  8
0
 10
62.600040
 20
81.362480
 11
60.500050
 21
80.150047
  0
LINE
  8
0
 10
58.150303
 20
82.048409
 11
58.399982
 21
81.362419
  0
LINE
  8
0
 10
62.714931
 20
82.014732
 11
62.599918
 21
81.362465
  0
LINE
  8
0
 10
50.973728
 20
85.650032
 11
50.973728
 21
88.074898
  0
LINE
  8
0
 10
53.073742
 20
84.437569
 11
50.973751
 21
85.650002
  0
LINE
  8
0
 10
53.696110
 20
84.664070
 11
53.073734
 21
84.437553
  0
LINE
  8
0
 10
50.973759
 20
96.650047
 11
53.073757
 21
97.862480
  0
LINE
  8
0
 10
50.973728
 20
94.225166
 11
50.973728
 21
96.650032
  0
LINE
  8
0
 10
53.792599
 20
97.735664
 11
53.073681
 21
97.862434
  0
LINE
  8
0
 10
51.481098
 20
93.799477
 11
50.973728
 21
94.225197
  0
LINE
  8
0
 10
51.481083
 20
88.500679
 11
50.973713
 21
88.074928
  0
ARC
  8
0
 10
60.500004
 20
91.150032
 40
9.400008
 50
283.629181
 51
315.524353
  0
ARC
  8
0
 10
60.500004
 20
91.150032
 40
9.400000
 50
343.629181
 51
15.524421
  0
ARC
  8
0
 10
49.750004
 20
99.400032
 40
3.000000
 50
90.000000
 51
180.000000
  0
ARC
  8
0
 10
71.250000
 20
99.400032
 40
3.000000
 50
0.000000
 51
90.000000
  0
CIRCLE
  8
0
 10
60.500004
 20
91.150032
 40
11.000000
  0
CIRCLE
  8
0
 10
60.500004
 20
91.150032
 40
6.500000
  0
CIRCLE
  8
0
 10
60.500004
 20
91.150032
 40
3.799999
  0
ARC
  8
0
 10
60.500004
 20
91.150032
 40
9.400002
 50
43.629261
 51
75.524376
  0
ARC
  8
0
 10
60.500004
 20
91.150032
 40
9.400010
 50
103.629211
 51
135.524429
  0
ARC
  8
0
 10
60.500004
 20
91.150032
 40
9.400002
 50
163.629196
 51
196.370224
  0
ARC
  8
0
 10
60.500004
 20
91.150032
 40
9.399995
 50
223.303558
 51
255.524292
  0
POINT
  8
0
 10
126.000000
 20
-24.000023
  0
LINE
  8
0
 10
126.500000
 20
89.447945
 11
126.500000
 21
72.275337
  0
LINE
  8
0
 10
126.500000
 20
77.908577
 11
126.500000
 21
104.130836
  0
LINE
  8
0
 10
115.750000
 20
102.400032
 11
137.250000
 21
102.400032
  0
LINE
  8
0
 10
112.750000
 20
96.400032
 11
116.833710
 21
96.400032
  0
LINE
  8
0
 10
112.750000
 20
93.400032
 11
115.732574
 21
93.400032
  0
LINE
  8
0
 10
112.750000
 20
91.900032
 11
115.525604
 21
91.900032
  0
LINE
  8
0
 10
112.750000
 20
90.400032
 11
115.525604
 21
90.400032
  0
LINE
  8
0
 10
112.750000
 20
88.900032
 11
115.732574
 21
88.900032
  0
LINE
  8
0
 10
112.750000
 20
85.900032
 11
116.833710
 21
85.900032
  0
LINE
  8
0
 10
112.750000
 20
84.400032
 11
117.814545
 21
84.400032
  0
LINE
  8
0
 10
112.750000
 20
82.900032
 11
119.224182
 21
82.900032
  0
LINE
  8
0
 10
112.750000
 20
81.400032
 11
121.407135
 21
81.400032
  0
LINE
  8
0
 10
112.750000
 20
71.900032
 11
140.250000
 21
71.900032
  0
LINE
  8
0
 10
113.000000
 20
71.900032
 11
113.000000
 21
70.996254
  0
LINE
  8
0
 10
140.000000
 20
71.900032
 11
140.000000
 21
71.000008
  0
LINE
  8
0
 10
112.750000
 20
99.400032
 11
112.750000
 21
71.900032
  0
LINE
  8
0
 10
140.250000
 20
99.400032
 11
140.250000
 21
71.900032
  0
LINE
  8
0
 10
112.750000
 20
97.900032
 11
117.814545
 21
97.900032
  0
LINE
  8
0
 10
135.185486
 20
97.900032
 11
140.250000
 21
97.900032
  0
LINE
  8
0
 10
136.166321
 20
96.400032
 11
140.250000
 21
96.400032
  0
LINE
  8
0
 10
137.267426
 20
93.400032
 11
140.250000
 21
93.400032
  0
LINE
  8
0
 10
137.474396
 20
91.900032
 11
140.250000
 21
91.900032
  0
LINE
  8
0
 10
137.474396
 20
90.400032
 11
140.250000
 21
90.400032
  0
LINE
  8
0
 10
137.267426
 20
88.900032
 11
140.250000
 21
88.900032
  0
LINE
  8
0
 10
136.166321
 20
85.900032
 11
140.250000
 21
85.900032
  0
LINE
  8
0
 10
135.185486
 20
84.400032
 11
140.250000
 21
84.400032
  0
LINE
  8
0
 10
133.775818
 20
82.900032
 11
140.250000
 21
82.900032
  0
LINE
  8
0
 10
131.592896
 20
81.400032
 11
140.250000
 21
81.400032
  0
LINE
  8
0
 10
113.641479
 20
91.150032
 11
138.951080
 21
91.150032
  0
LINE
  8
0
 10
126.500015
 20
102.149956
 11
128.600006
 21
100.937523
  0
LINE
  8
0
 10
124.400040
 20
100.937614
 11
126.500031
 21
102.150047
  0
LINE
  8
0
 10
128.849686
 20
100.251595
 11
128.600006
 21
100.937569
  0
LINE
  8
0
 10
124.284927
 20
100.285316
 11
124.399948
 21
100.937569
  0
LINE
  8
0
 10
136.026276
 20
96.650032
 11
136.026276
 21
94.225166
  0
LINE
  8
0
 10
133.926300
 20
97.862389
 11
136.026291
 21
96.649956
  0
LINE
  8
0
 10
135.557083
 20
93.665962
 11
136.026337
 21
94.225197
  0
LINE
  8
0
 10
133.303894
 20
97.635887
 11
133.926285
 21
97.862404
  0
LINE
  8
0
 10
136.026321
 20
85.650047
 11
133.926331
 21
84.437614
  0
LINE
  8
0
 10
136.026276
 20
88.074898
 11
136.026276
 21
85.650032
  0
LINE
  8
0
 10
133.207291
 20
84.564278
 11
133.926208
 21
84.437508
  0
LINE
  8
0
 10
135.518906
 20
88.500679
 11
136.026276
 21
88.074944
  0
LINE
  8
0
 10
126.500015
 20
80.150002
 11
124.400024
 21
81.362434
  0
LINE
  8
0
 10
128.600037
 20
81.362480
 11
126.500046
 21
80.150047
  0
LINE
  8
0
 10
124.150299
 20
82.048409
 11
124.399979
 21
81.362419
  0
LINE
  8
0
 10
128.714920
 20
82.014732
 11
128.599915
 21
81.362465
  0
LINE
  8
0
 10
116.973724
 20
85.650032
 11
116.973724
 21
88.074898
  0
LINE
  8
0
 10
119.073730
 20
84.437569
 11
116.973740
 21
85.650002
  0
LINE
  8
0
 10
119.696106
 20
84.664070
 11
119.073730
 21
84.437553
  0
LINE
  8
0
 10
116.973755
 20
96.650047
 11
119.073746
 21
97.862480
  0
LINE
  8
0
 10
116.973724
 20
94.225166
 11
116.973724
 21
96.650032
  0
LINE
  8
0
 10
119.792603
 20
97.735664
 11
119.073669
 21
97.862434
  0
LINE
  8
0
 10
117.481094
 20
93.799477
 11
116.973724
 21
94.225197
  0
LINE
  8
0
 10
117.481079
 20
88.500679
 11
116.973709
 21
88.074928
  0
ARC
  8
0
 10
126.500000
 20
91.150032
 40
9.400010
 50
283.629211
 51
315.524353
  0
ARC
  8
0
 10
126.500000
 20
91.150032
 40
9.400002
 50
343.629211
 51
15.524415
  0
ARC
  8
0
 10
115.750000
 20
99.400032
 40
3.000000
 50
90.000000
 51
180.000000
  0
ARC
  8
0
 10
137.250000
 20
99.400032
 40
3.000000
 50
0.000000
 51
90.000000
  0
CIRCLE
  8
0
 10
126.500000
 20
91.150032
 40
11.000000
  0
CIRCLE
  8
0
 10
126.500000
 20
91.150032
 40
6.500000
  0
CIRCLE
  8
0
 10
126.500000
 20
91.150032
 40
3.799999
  0
ARC
  8
0
 10
126.500000
 20
91.150032
 40
9.400005
 50
43.629246
 51
75.524376
  0
ARC
  8
0
 10
126.500000
 20
91.150032
 40
9.400010
 50
103.629211
 51
135.524429
  0
ARC
  8
0
 10
126.500000
 20
91.150032
 40
9.400002
 50
163.629196
 51
196.370239
  0
ARC
  8
0
 10
126.500000
 20
91.150032
 40
9.399989
 50
223.303589
 51
255.524292
  0
POINT
  8
0
 10
-19.999996
 20
239.999954
  0
POINT
  8
0
 10
174.000183
 20
239.999954
  0
LINE
  8
0
 10
143.000183
 20
177.999954
 11
143.000183
 21
199.749954
  0
LINE
  8
0
 10
143.000183
 20
214.249954
 11
143.000183
 21
239.999954
  0
LINE
  8
0
 10
143.000183
 20
202.938858
 11
143.000183
 21
210.962357
  0
LINE
  8
0
 10
163.000183
 20
177.999954
 11
143.000183
 21
177.999954
  0
LINE
  8
0
 10
166.000183
 20
180.999954
 11
166.000183
 21
226.999954
  0
LINE
  8
0
 10
180.000183
 20
239.999954
 11
143.000183
 21
239.999954
  0
LINE
  8
0
 10
179.000183
 20
227.999954
 11
163.000183
 21
227.999954
  0
LINE
  8
0
 10
180.000183
 20
228.999954
 11
180.000183
 21
239.999954
  0
LINE
  8
0
 10
-8.999996
 20
177.999954
 11
11.000004
 21
177.999954
  0
LINE
  8
0
 10
-11.999996
 20
180.999954
 11
-11.999996
 21
226.999985
  0
LINE
  8
0
 10
-11.999996
 20
239.999954
 11
11.000004
 21
239.999954
  0
LINE
  8
0
 10
-24.999996
 20
227.999954
 11
-8.999996
 21
227.999954
  0
LINE
  8
0
 10
-25.999996
 20
228.999985
 11
-25.999996
 21
239.999985
  0
LINE
  8
0
 10
-25.999996
 20
239.999954
 11
-11.999996
 21
239.999954
  0
LINE
  8
0
 10
143.000229
 20
205.267746
 11
144.500122
 21
206.133713
  0
LINE
  8
0
 10
143.000198
 20
208.732117
 11
144.500107
 21
207.866150
  0
LINE
  8
0
 10
144.500183
 20
206.133926
 11
144.500183
 21
207.865982
  0
LINE
  8
0
 10
136.150360
 20
168.399948
 11
141.150360
 21
168.399948
  0
LINE
  8
0
 10
138.650360
 20
167.637405
 11
138.650360
 21
173.281235
  0
LINE
  8
0
 10
141.150360
 20
168.399948
 11
141.150360
 21
172.399948
  0
LINE
  8
0
 10
136.150360
 20
168.399948
 11
136.150360
 21
172.399948
  0
LINE
  8
0
 10
142.150360
 20
172.399948
 11
142.150360
 21
177.999954
  0
LINE
  8
0
 10
110.150269
 20
172.399948
 11
110.150269
 21
177.999954
  0
LINE
  8
0
 10
9.500088
 20
206.133972
 11
11.000067
 21
205.267960
  0
LINE
  8
0
 10
9.500034
 20
207.865814
 11
11.000038
 21
208.731857
  0
LINE
  8
0
 10
9.500004
 20
206.133926
 11
9.500004
 21
207.865982
  0
LINE
  8
0
 10
143.000183
 20
211.499954
 11
151.000183
 21
211.499954
  0
LINE
  8
0
 10
143.000183
 20
202.499954
 11
151.000183
 21
202.499954
  0
LINE
  8
0
 10
3.000004
 20
202.499954
 11
11.000004
 21
202.499954
  0
LINE
  8
0
 10
3.000004
 20
211.499954
 11
11.000004
 21
211.499954
  0
LINE
  8
0
 10
151.000183
 20
199.499954
 11
151.000183
 21
214.499954
  0
LINE
  8
0
 10
143.000183
 20
199.499954
 11
151.000183
 21
199.499954
  0
LINE
  8
0
 10
143.000183
 20
214.499954
 11
151.000183
 21
214.499954
  0
LINE
  8
0
 10
3.000004
 20
199.499954
 11
11.000004
 21
199.499954
  0
LINE
  8
0
 10
3.000004
 20
199.499954
 11
3.000004
 21
214.499954
  0
LINE
  8
0
 10
3.000004
 20
214.499954
 11
11.000004
 21
214.499954
  0
LINE
  8
0
 10
-19.999996
 20
225.895889
 11
-19.999996
 21
242.424942
  0
LINE
  8
0
 10
174.000183
 20
225.652817
 11
174.000183
 21
242.668015
  0
LINE
  8
0
 10
110.150269
 20
172.399948
 11
116.973724
 21
172.399948
  0
LINE
  8
0
 10
111.150269
 20
168.399948
 11
116.150269
 21
168.399948
  0
LINE
  8
0
 10
113.650269
 20
167.637405
 11
113.650269
 21
173.281235
  0
LINE
  8
0
 10
116.150269
 20
168.399948
 11
116.150269
 21
172.399948
  0
LINE
  8
0
 10
111.150269
 20
168.399948
 11
111.150269
 21
172.399948
  0
LINE
  8
0
 10
11.000004
 20
239.999954
 11
11.000004
 21
237.999496
  0
LINE
  8
0
 10
110.150269
 20
176.399948
 11
118.149994
 21
176.399948
  0
LINE
  8
0
 10
11.000034
 20
237.999954
 11
44.000217
 21
237.999954
  0
LINE
  8
0
 10
42.500004
 20
206.133835
 11
42.500004
 21
207.865891
  0
LINE
  8
0
 10
44.000202
 20
205.267639
 11
42.500202
 21
206.133667
  0
LINE
  8
0
 10
44.000080
 20
208.732056
 11
42.500072
 21
207.866028
  0
LINE
  8
0
 10
110.149994
 20
177.999924
 11
110.149994
 21
199.499924
  0
LINE
  8
0
 10
12.500004
 20
206.133926
 11
12.500004
 21
207.865982
  0
LINE
  8
0
 10
11.000076
 20
205.267792
 11
12.500080
 21
206.133820
  0
LINE
  8
0
 10
11.000126
 20
208.731949
 11
12.500130
 21
207.865921
  0
LINE
  8
0
 10
11.000126
 20
211.499954
 11
11.150120
 21
211.499954
  0
LINE
  8
0
 10
11.000095
 20
202.499954
 11
11.150089
 21
202.499954
  0
LINE
  8
0
 10
2.380913
 20
206.999954
 11
15.809162
 21
206.999954
  0
LINE
  8
0
 10
11.000080
 20
199.499954
 11
11.150074
 21
199.499954
  0
LINE
  8
0
 10
11.000004
 20
202.938858
 11
11.000004
 21
210.962357
  0
LINE
  8
0
 10
10.999821
 20
214.499954
 11
10.999821
 21
237.999954
  0
LINE
  8
0
 10
49.499989
 20
206.999924
 11
39.191059
 21
206.999924
  0
LINE
  8
0
 10
44.000034
 20
237.999954
 11
77.000214
 21
237.999954
  0
LINE
  8
0
 10
75.500000
 20
206.133835
 11
75.500000
 21
207.865891
  0
LINE
  8
0
 10
77.000198
 20
205.267670
 11
75.500183
 21
206.133698
  0
LINE
  8
0
 10
77.000137
 20
208.732071
 11
75.500122
 21
207.866043
  0
LINE
  8
0
 10
45.500004
 20
206.133926
 11
45.500004
 21
207.865982
  0
LINE
  8
0
 10
44.000072
 20
205.267776
 11
45.500072
 21
206.133804
  0
LINE
  8
0
 10
44.000111
 20
208.731934
 11
45.500111
 21
207.865906
  0
LINE
  8
0
 10
43.999821
 20
214.499954
 11
43.999821
 21
237.999954
  0
LINE
  8
0
 10
80.833313
 20
206.999924
 11
72.191040
 21
206.999924
  0
LINE
  8
0
 10
77.000031
 20
237.999954
 11
110.000214
 21
237.999954
  0
LINE
  8
0
 10
108.500000
 20
206.133835
 11
108.500000
 21
207.865891
  0
LINE
  8
0
 10
110.000183
 20
205.267685
 11
108.500183
 21
206.133713
  0
LINE
  8
0
 10
110.000107
 20
208.732071
 11
108.500107
 21
207.866043
  0
LINE
  8
0
 10
78.500000
 20
206.133926
 11
78.500000
 21
207.865982
  0
LINE
  8
0
 10
77.000046
 20
205.267792
 11
78.500046
 21
206.133820
  0
LINE
  8
0
 10
77.000122
 20
208.732025
 11
78.500122
 21
207.865997
  0
LINE
  8
0
 10
110.000000
 20
214.499954
 11
110.000000
 21
237.999954
  0
LINE
  8
0
 10
114.636841
 20
206.999924
 11
105.191040
 21
206.999924
  0
LINE
  8
0
 10
110.000031
 20
237.999954
 11
143.000214
 21
237.999954
  0
LINE
  8
0
 10
141.500000
 20
206.133835
 11
141.500000
 21
207.865891
  0
LINE
  8
0
 10
143.000168
 20
205.267670
 11
141.500153
 21
206.133698
  0
LINE
  8
0
 10
143.000122
 20
208.732086
 11
141.500122
 21
207.866058
  0
LINE
  8
0
 10
143.000122
 20
214.249954
 11
142.850128
 21
214.249954
  0
LINE
  8
0
 10
143.000122
 20
211.499954
 11
142.850128
 21
211.499954
  0
LINE
  8
0
 10
143.000122
 20
214.499954
 11
142.850128
 21
214.499954
  0
LINE
  8
0
 10
143.000092
 20
202.499954
 11
142.850098
 21
202.499954
  0
LINE
  8
0
 10
143.000061
 20
199.749954
 11
142.850098
 21
199.749954
  0
LINE
  8
0
 10
143.000061
 20
199.499954
 11
142.850067
 21
199.499954
  0
LINE
  8
0
 10
111.500000
 20
206.133926
 11
111.500000
 21
207.865982
  0
LINE
  8
0
 10
110.000076
 20
205.267776
 11
111.500076
 21
206.133804
  0
LINE
  8
0
 10
110.000061
 20
208.731979
 11
111.500076
 21
207.865952
  0
LINE
  8
0
 10
143.000122
 20
211.499954
 11
143.150116
 21
211.499954
  0
LINE
  8
0
 10
143.000122
 20
214.499954
 11
143.150116
 21
214.499954
  0
LINE
  8
0
 10
143.000092
 20
202.499954
 11
143.150085
 21
202.499954
  0
LINE
  8
0
 10
143.000061
 20
199.499954
 11
143.150055
 21
199.499954
  0
LINE
  8
0
 10
148.324783
 20
206.999924
 11
138.191040
 21
206.999924
  0
LINE
  8
0
 10
76.999817
 20
214.499954
 11
76.999817
 21
237.999954
  0
LINE
  8
0
 10
11.149998
 20
177.999954
 11
11.149998
 21
199.499954
  0
LINE
  8
0
 10
44.149998
 20
177.999924
 11
44.149998
 21
199.499924
  0
LINE
  8
0
 10
77.149811
 20
177.999924
 11
77.149811
 21
199.499924
  0
LINE
  8
0
 10
135.149994
 20
176.399948
 11
142.150360
 21
176.399948
  0
LINE
  8
0
 10
136.026276
 20
172.399948
 11
142.150360
 21
172.399948
  0
ARC
  8
0
 10
163.000183
 20
180.999954
 40
3.000000
 50
270.000000
 51
0.000000
  0
ARC
  8
0
 10
179.000183
 20
228.999954
 40
1.000000
 50
270.000000
 51
0.000000
  0
ARC
  8
0
 10
167.000183
 20
226.999954
 40
1.000000
 50
90.000000
 51
180.000000
  0
ARC
  8
0
 10
-8.999996
 20
180.999954
 40
3.000000
 50
180.000000
 51
270.000031
  0
ARC
  8
0
 10
-24.999996
 20
228.999985
 40
1.000000
 50
180.000000
 51
270.000000
  0
ARC
  8
0
 10
-12.999996
 20
226.999954
 40
1.000000
 50
0.000000
 51
90.000000
  0
ARC
  8
0
 10
143.000183
 20
206.999954
 40
3.500000
 50
270.000000
 51
0.000000
  0
ARC
  8
0
 10
11.000004
 20
206.999954
 40
3.500000
 50
89.999969
 51
270.000000
  0
ARC
  8
0
 10
143.000183
 20
206.999954
 40
3.500000
 50
0.000000
 51
90.000000
  0
ARC
  8
0
 10
143.000092
 20
206.999832
 40
3.500000
 50
90.000000
 51
92.456192
  0
ARC
  8
0
 10
143.000092
 20
206.999832
 40
3.499996
 50
267.543823
 51
270.000000
  0
POINT
  8
0
 10
11.149998
 20
177.999954
  0
LINE
  8
0
 10
27.149998
 20
112.293930
 11
27.149998
 21
182.059036
  0
LINE
  8
0
 10
39.649998
 20
168.399948
 11
39.649998
 21
177.399948
  0
LINE
  8
0
 10
41.650013
 20
121.399948
 11
12.650013
 21
121.399948
  0
LINE
  8
0
 10
43.149998
 20
176.399948
 11
36.149998
 21
176.399948
  0
LINE
  8
0
 10
43.150013
 20
131.399948
 11
11.150013
 21
131.399948
  0
LINE
  8
0
 10
43.149998
 20
161.399948
 11
11.149998
 21
161.399948
  0
LINE
  8
0
 10
11.149998
 20
122.899948
 11
11.149998
 21
177.999954
  0
LINE
  8
0
 10
43.149998
 20
122.899948
 11
43.149998
 21
177.999954
  0
LINE
  8
0
 10
43.149998
 20
169.899948
 11
39.649998
 21
169.899948
  0
LINE
  8
0
 10
36.649998
 20
173.949875
 11
36.649998
 21
176.399948
  0
LINE
  8
0
 10
44.149998
 20
172.899948
 11
35.149998
 21
172.899948
  0
LINE
  8
0
 10
30.649998
 20
165.499954
 11
23.649998
 21
165.499954
  0
LINE
  8
0
 10
14.649998
 20
168.399948
 11
14.649998
 21
177.399948
  0
LINE
  8
0
 10
11.149998
 20
169.899948
 11
14.649998
 21
169.899948
  0
LINE
  8
0
 10
17.649998
 20
172.899948
 11
17.649998
 21
176.399948
  0
LINE
  8
0
 10
36.470627
 20
172.899948
 11
44.149998
 21
172.899948
  0
LINE
  8
0
 10
43.150013
 20
132.799942
 11
11.150013
 21
132.799942
  0
LINE
  8
0
 10
43.150013
 20
134.799942
 11
11.150013
 21
134.799942
  0
LINE
  8
0
 10
43.150013
 20
136.399948
 11
27.150013
 21
136.399948
  0
LINE
  8
0
 10
43.150013
 20
138.399948
 11
27.150013
 21
138.399948
  0
LINE
  8
0
 10
43.150013
 20
139.999954
 11
11.150013
 21
139.999954
  0
LINE
  8
0
 10
43.150013
 20
141.999954
 11
11.150013
 21
141.999954
  0
LINE
  8
0
 10
43.150013
 20
143.599960
 11
11.150013
 21
143.599960
  0
LINE
  8
0
 10
43.150013
 20
145.599960
 11
11.150013
 21
145.599960
  0
LINE
  8
0
 10
43.150013
 20
147.199936
 11
11.150013
 21
147.199936
  0
LINE
  8
0
 10
43.150013
 20
149.199936
 11
11.150013
 21
149.199936
  0
LINE
  8
0
 10
43.150013
 20
150.799942
 11
11.150013
 21
150.799942
  0
LINE
  8
0
 10
43.150013
 20
152.799942
 11
11.150013
 21
152.799942
  0
LINE
  8
0
 10
43.150013
 20
154.399948
 11
11.150013
 21
154.399948
  0
LINE
  8
0
 10
43.149998
 20
156.399948
 11
11.149998
 21
156.399948
  0
LINE
  8
0
 10
43.149998
 20
157.999954
 11
11.149998
 21
157.999954
  0
LINE
  8
0
 10
43.149998
 20
159.999954
 11
11.149998
 21
159.999954
  0
LINE
  8
0
 10
14.149998
 20
136.399948
 11
14.149998
 21
138.399948
  0
LINE
  8
0
 10
14.150013
 20
136.399948
 11
11.150013
 21
136.399948
  0
LINE
  8
0
 10
14.150013
 20
138.399948
 11
11.150013
 21
138.399948
  0
LINE
  8
0
 10
27.149998
 20
136.399948
 11
27.149998
 21
138.399948
  0
LINE
  8
0
 10
37.660038
 20
172.699966
 11
39.450016
 21
172.699966
  0
LINE
  8
0
 10
37.660038
 20
173.099960
 11
39.450016
 21
173.099960
  0
LINE
  8
0
 10
39.450016
 20
170.910019
 11
39.450016
 21
172.699997
  0
LINE
  8
0
 10
39.850010
 20
170.910019
 11
39.850010
 21
172.699997
  0
LINE
  8
0
 10
39.850010
 20
172.699966
 11
41.639988
 21
172.699966
  0
LINE
  8
0
 10
39.850010
 20
173.099960
 11
39.850010
 21
174.889938
  0
LINE
  8
0
 10
39.450016
 20
173.099960
 11
39.450016
 21
174.889938
  0
LINE
  8
0
 10
39.850010
 20
173.099960
 11
41.639988
 21
173.099960
  0
LINE
  8
0
 10
10.149998
 20
172.899948
 11
19.149998
 21
172.899948
  0
LINE
  8
0
 10
12.660007
 20
172.699966
 11
14.449986
 21
172.699966
  0
LINE
  8
0
 10
12.660007
 20
173.099960
 11
14.449986
 21
173.099960
  0
LINE
  8
0
 10
14.449986
 20
170.909988
 11
14.449986
 21
172.699966
  0
LINE
  8
0
 10
14.850010
 20
170.909988
 11
14.850010
 21
172.699966
  0
LINE
  8
0
 10
14.850010
 20
172.699966
 11
16.639988
 21
172.699966
  0
LINE
  8
0
 10
14.850010
 20
173.099960
 11
14.850010
 21
174.889938
  0
LINE
  8
0
 10
14.449986
 20
173.099960
 11
14.449986
 21
174.889938
  0
LINE
  8
0
 10
14.850010
 20
173.099960
 11
16.639988
 21
173.099960
  0
LINE
  8
0
 10
19.149998
 20
176.399948
 11
11.149998
 21
176.399948
  0
ARC
  8
0
 10
14.649998
 20
172.899948
 40
2.000000
 50
354.260925
 51
5.739083
  0
ARC
  8
0
 10
14.649998
 20
172.899948
 40
2.000000
 50
174.260910
 51
185.739090
  0
ARC
  8
0
 10
12.650013
 20
122.899948
 40
1.500000
 50
180.000000
 51
270.000000
  0
ARC
  8
0
 10
41.650013
 20
122.899948
 40
1.500000
 50
270.000000
 51
0.000000
  0
CIRCLE
  8
0
 10
39.649998
 20
172.899948
 40
2.500000
  0
ARC
  8
0
 10
39.649998
 20
172.899948
 40
2.999999
 50
209.005524
 51
270.000000
  0
CIRCLE
  8
0
 10
27.149998
 20
165.499954
 40
2.150000
  0
CIRCLE
  8
0
 10
27.149998
 20
165.499954
 40
1.500000
  0
CIRCLE
  8
0
 10
14.649998
 20
172.899948
 40
2.500000
  0
ARC
  8
0
 10
14.649998
 20
172.899948
 40
3.000000
 50
270.000000
 51
0.000000
  0
ARC
  8
0
 10
14.649998
 20
172.899948
 40
2.000000
 50
264.260803
 51
275.739075
  0
ARC
  8
0
 10
39.649998
 20
172.899948
 40
2.000000
 50
354.260925
 51
5.739083
  0
ARC
  8
0
 10
39.649998
 20
172.899948
 40
2.000000
 50
84.260918
 51
95.739189
  0
ARC
  8
0
 10
39.649998
 20
172.899948
 40
2.000000
 50
174.260910
 51
185.739090
  0
ARC
  8
0
 10
14.649998
 20
172.899948
 40
2.000000
 50
84.260918
 51
95.739189
  0
TEXT
  8
0
 10
23.699913
 20
137.839951
 40
1.599999
  1
AC100V
 50
180.000000
 41
0.690779
 51
0.000000
  7
STANDARD
  0
POINT
  8
0
 10
44.000004
 20
177.999954
  0
LINE
  8
0
 10
60.000004
 20
112.293930
 11
60.000004
 21
182.059036
  0
LINE
  8
0
 10
72.500000
 20
168.399948
 11
72.500000
 21
177.399948
  0
LINE
  8
0
 10
74.500015
 20
121.399948
 11
45.500019
 21
121.399948
  0
LINE
  8
0
 10
76.000000
 20
176.399948
 11
69.000000
 21
176.399948
  0
LINE
  8
0
 10
76.000015
 20
131.399948
 11
44.000019
 21
131.399948
  0
LINE
  8
0
 10
76.000000
 20
161.399948
 11
44.000004
 21
161.399948
  0
LINE
  8
0
 10
44.000004
 20
122.899948
 11
44.000004
 21
177.999954
  0
LINE
  8
0
 10
76.000000
 20
122.899948
 11
76.000000
 21
177.999954
  0
LINE
  8
0
 10
76.000000
 20
169.899948
 11
72.500000
 21
169.899948
  0
LINE
  8
0
 10
69.500000
 20
173.949875
 11
69.500000
 21
176.399948
  0
LINE
  8
0
 10
77.000000
 20
172.899948
 11
68.000000
 21
172.899948
  0
LINE
  8
0
 10
63.500004
 20
165.499954
 11
56.500004
 21
165.499954
  0
LINE
  8
0
 10
47.500004
 20
168.399948
 11
47.500004
 21
177.399948
  0
LINE
  8
0
 10
44.000004
 20
169.899948
 11
47.500004
 21
169.899948
  0
LINE
  8
0
 10
50.500004
 20
172.899948
 11
50.500004
 21
176.399948
  0
LINE
  8
0
 10
69.320633
 20
172.899948
 11
77.000000
 21
172.899948
  0
LINE
  8
0
 10
76.000015
 20
132.799942
 11
44.000019
 21
132.799942
  0
LINE
  8
0
 10
76.000015
 20
134.799942
 11
44.000019
 21
134.799942
  0
LINE
  8
0
 10
76.000015
 20
136.399948
 11
60.000019
 21
136.399948
  0
LINE
  8
0
 10
76.000015
 20
138.399948
 11
60.000019
 21
138.399948
  0
LINE
  8
0
 10
76.000015
 20
139.999954
 11
44.000019
 21
139.999954
  0
LINE
  8
0
 10
76.000015
 20
141.999954
 11
44.000019
 21
141.999954
  0
LINE
  8
0
 10
76.000015
 20
143.599960
 11
44.000019
 21
143.599960
  0
LINE
  8
0
 10
76.000015
 20
145.599960
 11
44.000019
 21
145.599960
  0
LINE
  8
0
 10
76.000015
 20
147.199936
 11
44.000019
 21
147.199936
  0
LINE
  8
0
 10
76.000015
 20
149.199936
 11
44.000019
 21
149.199936
  0
LINE
  8
0
 10
76.000015
 20
150.799942
 11
44.000019
 21
150.799942
  0
LINE
  8
0
 10
76.000015
 20
152.799942
 11
44.000019
 21
152.799942
  0
LINE
  8
0
 10
76.000015
 20
154.399948
 11
44.000019
 21
154.399948
  0
LINE
  8
0
 10
76.000000
 20
156.399948
 11
44.000004
 21
156.399948
  0
LINE
  8
0
 10
76.000000
 20
157.999954
 11
44.000004
 21
157.999954
  0
LINE
  8
0
 10
76.000000
 20
159.999954
 11
44.000004
 21
159.999954
  0
LINE
  8
0
 10
47.000004
 20
136.399948
 11
47.000004
 21
138.399948
  0
LINE
  8
0
 10
47.000019
 20
136.399948
 11
44.000019
 21
136.399948
  0
LINE
  8
0
 10
47.000019
 20
138.399948
 11
44.000019
 21
138.399948
  0
LINE
  8
0
 10
60.000004
 20
136.399948
 11
60.000004
 21
138.399948
  0
LINE
  8
0
 10
70.510040
 20
172.699966
 11
72.300018
 21
172.699966
  0
LINE
  8
0
 10
70.510040
 20
173.099960
 11
72.300018
 21
173.099960
  0
LINE
  8
0
 10
72.300018
 20
170.910019
 11
72.300018
 21
172.699997
  0
LINE
  8
0
 10
72.700012
 20
170.910019
 11
72.700012
 21
172.699997
  0
LINE
  8
0
 10
72.700012
 20
172.699966
 11
74.489990
 21
172.699966
  0
LINE
  8
0
 10
72.700012
 20
173.099960
 11
72.700012
 21
174.889938
  0
LINE
  8
0
 10
72.300018
 20
173.099960
 11
72.300018
 21
174.889938
  0
LINE
  8
0
 10
72.700012
 20
173.099960
 11
74.489990
 21
173.099960
  0
LINE
  8
0
 10
43.000004
 20
172.899948
 11
52.000004
 21
172.899948
  0
LINE
  8
0
 10
45.510014
 20
172.699966
 11
47.299992
 21
172.699966
  0
LINE
  8
0
 10
45.510014
 20
173.099960
 11
47.299992
 21
173.099960
  0
LINE
  8
0
 10
47.299992
 20
170.909988
 11
47.299992
 21
172.699966
  0
LINE
  8
0
 10
47.700016
 20
170.909988
 11
47.700016
 21
172.699966
  0
LINE
  8
0
 10
47.700016
 20
172.699966
 11
49.489994
 21
172.699966
  0
LINE
  8
0
 10
47.700016
 20
173.099960
 11
47.700016
 21
174.889938
  0
LINE
  8
0
 10
47.299992
 20
173.099960
 11
47.299992
 21
174.889938
  0
LINE
  8
0
 10
47.700016
 20
173.099960
 11
49.489994
 21
173.099960
  0
LINE
  8
0
 10
52.000004
 20
176.399948
 11
44.000004
 21
176.399948
  0
ARC
  8
0
 10
47.500004
 20
172.899948
 40
2.000000
 50
354.260925
 51
5.739083
  0
ARC
  8
0
 10
47.500004
 20
172.899948
 40
2.000000
 50
174.260910
 51
185.739090
  0
ARC
  8
0
 10
45.500019
 20
122.899948
 40
1.500000
 50
180.000000
 51
270.000000
  0
ARC
  8
0
 10
74.500015
 20
122.899948
 40
1.500000
 50
270.000000
 51
0.000000
  0
CIRCLE
  8
0
 10
72.500000
 20
172.899948
 40
2.500000
  0
ARC
  8
0
 10
72.500000
 20
172.899948
 40
2.999999
 50
209.005524
 51
270.000000
  0
CIRCLE
  8
0
 10
60.000004
 20
165.499954
 40
2.150000
  0
CIRCLE
  8
0
 10
60.000004
 20
165.499954
 40
1.500000
  0
CIRCLE
  8
0
 10
47.500004
 20
172.899948
 40
2.500000
  0
ARC
  8
0
 10
47.500004
 20
172.899948
 40
3.000000
 50
270.000000
 51
0.000000
  0
ARC
  8
0
 10
47.500004
 20
172.899948
 40
2.000000
 50
264.260712
 51
275.739075
  0
ARC
  8
0
 10
72.500000
 20
172.899948
 40
2.000000
 50
354.260925
 51
5.739083
  0
ARC
  8
0
 10
72.500000
 20
172.899948
 40
2.000000
 50
84.260918
 51
95.739082
  0
ARC
  8
0
 10
72.500000
 20
172.899948
 40
2.000000
 50
174.260910
 51
185.739090
  0
ARC
  8
0
 10
47.500004
 20
172.899948
 40
2.000000
 50
84.260918
 51
95.739304
  0
TEXT
  8
0
 10
56.549919
 20
137.839951
 40
1.599999
  1
AC100V
 50
180.000000
 41
0.690779
 51
0.000000
  7
STANDARD
  0
POINT
  8
0
 10
77.000000
 20
177.999954
  0
LINE
  8
0
 10
93.000000
 20
112.293930
 11
93.000000
 21
182.059036
  0
LINE
  8
0
 10
105.500000
 20
168.399948
 11
105.500000
 21
177.399948
  0
LINE
  8
0
 10
107.500015
 20
121.399948
 11
78.500015
 21
121.399948
  0
LINE
  8
0
 10
109.000000
 20
176.399948
 11
102.000000
 21
176.399948
  0
LINE
  8
0
 10
109.000015
 20
131.399948
 11
77.000015
 21
131.399948
  0
LINE
  8
0
 10
109.000000
 20
161.399948
 11
77.000000
 21
161.399948
  0
LINE
  8
0
 10
77.000000
 20
122.899948
 11
77.000000
 21
177.999954
  0
LINE
  8
0
 10
109.000000
 20
122.899948
 11
109.000000
 21
177.999954
  0
LINE
  8
0
 10
109.000000
 20
169.899948
 11
105.500000
 21
169.899948
  0
LINE
  8
0
 10
102.500000
 20
173.949875
 11
102.500000
 21
176.399948
  0
LINE
  8
0
 10
110.000000
 20
172.899948
 11
101.000000
 21
172.899948
  0
LINE
  8
0
 10
96.500000
 20
165.499954
 11
89.500000
 21
165.499954
  0
LINE
  8
0
 10
80.500000
 20
168.399948
 11
80.500000
 21
177.399948
  0
LINE
  8
0
 10
77.000000
 20
169.899948
 11
80.500000
 21
169.899948
  0
LINE
  8
0
 10
83.500000
 20
172.899948
 11
83.500000
 21
176.399948
  0
LINE
  8
0
 10
102.320633
 20
172.899948
 11
110.000000
 21
172.899948
  0
LINE
  8
0
 10
109.000015
 20
132.799942
 11
77.000015
 21
132.799942
  0
LINE
  8
0
 10
109.000015
 20
134.799942
 11
77.000015
 21
134.799942
  0
LINE
  8
0
 10
109.000015
 20
136.399948
 11
93.000015
 21
136.399948
  0
LINE
  8
0
 10
109.000015
 20
138.399948
 11
93.000015
 21
138.399948
  0
LINE
  8
0
 10
109.000015
 20
139.999954
 11
77.000015
 21
139.999954
  0
LINE
  8
0
 10
109.000015
 20
141.999954
 11
77.000015
 21
141.999954
  0
LINE
  8
0
 10
109.000015
 20
143.599960
 11
77.000015
 21
143.599960
  0
LINE
  8
0
 10
109.000015
 20
145.599960
 11
77.000015
 21
145.599960
  0
LINE
  8
0
 10
109.000015
 20
147.199936
 11
77.000015
 21
147.199936
  0
LINE
  8
0
 10
109.000015
 20
149.199936
 11
77.000015
 21
149.199936
  0
LINE
  8
0
 10
109.000015
 20
150.799942
 11
77.000015
 21
150.799942
  0
LINE
  8
0
 10
109.000015
 20
152.799942
 11
77.000015
 21
152.799942
  0
LINE
  8
0
 10
109.000015
 20
154.399948
 11
77.000015
 21
154.399948
  0
LINE
  8
0
 10
109.000000
 20
156.399948
 11
77.000000
 21
156.399948
  0
LINE
  8
0
 10
109.000000
 20
157.999954
 11
77.000000
 21
157.999954
  0
LINE
  8
0
 10
109.000000
 20
159.999954
 11
77.000000
 21
159.999954
  0
LINE
  8
0
 10
80.000000
 20
136.399948
 11
80.000000
 21
138.399948
  0
LINE
  8
0
 10
80.000015
 20
136.399948
 11
77.000015
 21
136.399948
  0
LINE
  8
0
 10
80.000015
 20
138.399948
 11
77.000015
 21
138.399948
  0
LINE
  8
0
 10
93.000000
 20
136.399948
 11
93.000000
 21
138.399948
  0
LINE
  8
0
 10
103.510040
 20
172.699966
 11
105.300018
 21
172.699966
  0
LINE
  8
0
 10
103.510040
 20
173.099960
 11
105.300018
 21
173.099960
  0
LINE
  8
0
 10
105.300018
 20
170.910019
 11
105.300018
 21
172.699997
  0
LINE
  8
0
 10
105.700012
 20
170.910019
 11
105.700012
 21
172.699997
  0
LINE
  8
0
 10
105.700012
 20
172.699966
 11
107.489990
 21
172.699966
  0
LINE
  8
0
 10
105.700012
 20
173.099960
 11
105.700012
 21
174.889938
  0
LINE
  8
0
 10
105.300018
 20
173.099960
 11
105.300018
 21
174.889938
  0
LINE
  8
0
 10
105.700012
 20
173.099960
 11
107.489990
 21
173.099960
  0
LINE
  8
0
 10
76.000000
 20
172.899948
 11
85.000000
 21
172.899948
  0
LINE
  8
0
 10
78.510010
 20
172.699966
 11
80.299988
 21
172.699966
  0
LINE
  8
0
 10
78.510010
 20
173.099960
 11
80.299988
 21
173.099960
  0
LINE
  8
0
 10
80.299988
 20
170.909988
 11
80.299988
 21
172.699966
  0
LINE
  8
0
 10
80.700012
 20
170.909988
 11
80.700012
 21
172.699966
  0
LINE
  8
0
 10
80.700012
 20
172.699966
 11
82.489990
 21
172.699966
  0
LINE
  8
0
 10
80.700012
 20
173.099960
 11
80.700012
 21
174.889938
  0
LINE
  8
0
 10
80.299988
 20
173.099960
 11
80.299988
 21
174.889938
  0
LINE
  8
0
 10
80.700012
 20
173.099960
 11
82.489990
 21
173.099960
  0
LINE
  8
0
 10
85.000000
 20
176.399948
 11
77.000000
 21
176.399948
  0
ARC
  8
0
 10
80.500000
 20
172.899948
 40
2.000000
 50
354.260925
 51
5.739083
  0
ARC
  8
0
 10
80.500000
 20
172.899948
 40
2.000000
 50
174.260910
 51
185.739090
  0
ARC
  8
0
 10
78.500015
 20
122.899948
 40
1.500000
 50
180.000000
 51
270.000000
  0
ARC
  8
0
 10
107.500015
 20
122.899948
 40
1.500000
 50
270.000000
 51
0.000000
  0
CIRCLE
  8
0
 10
105.500000
 20
172.899948
 40
2.500000
  0
ARC
  8
0
 10
105.500000
 20
172.899948
 40
2.999999
 50
209.005524
 51
270.000000
  0
CIRCLE
  8
0
 10
93.000000
 20
165.499954
 40
2.150000
  0
CIRCLE
  8
0
 10
93.000000
 20
165.499954
 40
1.500000
  0
CIRCLE
  8
0
 10
80.500000
 20
172.899948
 40
2.500000
  0
ARC
  8
0
 10
80.500000
 20
172.899948
 40
3.000000
 50
270.000000
 51
0.000000
  0
ARC
  8
0
 10
80.500000
 20
172.899948
 40
2.000000
 50
264.260925
 51
275.739075
  0
ARC
  8
0
 10
105.500000
 20
172.899948
 40
2.000000
 50
354.260925
 51
5.739083
  0
ARC
  8
0
 10
105.500000
 20
172.899948
 40
2.000000
 50
84.260918
 51
95.739082
  0
ARC
  8
0
 10
105.500000
 20
172.899948
 40
2.000000
 50
174.260910
 51
185.739090
  0
ARC
  8
0
 10
80.500000
 20
172.899948
 40
2.000000
 50
84.260918
 51
95.739082
  0
TEXT
  8
0
 10
89.549919
 20
137.839951
 40
1.599999
  1
AC100V
 50
180.000000
 41
0.690779
 51
0.000000
  7
STANDARD
  0
POINT
  8
0
 10
11.000004
 20
206.999954
  0
LINE
  8
0
 10
43.450016
 20
224.199844
 11
43.450016
 21
222.199844
  0
LINE
  8
0
 10
14.149998
 20
178.199966
 11
16.588566
 21
178.199966
  0
LINE
  8
0
 10
14.150196
 20
237.199966
 11
40.850208
 21
237.199966
  0
LINE
  8
0
 10
27.500004
 20
167.053421
 11
27.500004
 21
241.028854
  0
LINE
  8
0
 10
11.149998
 20
181.199966
 11
11.149998
 21
204.171494
  0
LINE
  8
0
 10
11.149998
 20
209.828384
 11
11.149998
 21
234.199966
  0
LINE
  8
0
 10
11.150043
 20
190.199966
 11
16.250050
 21
190.199966
  0
LINE
  8
0
 10
11.150043
 20
192.199966
 11
16.250050
 21
192.199966
  0
LINE
  8
0
 10
11.150059
 20
195.199966
 11
12.500065
 21
195.199966
  0
LINE
  8
0
 10
11.150059
 20
197.199966
 11
12.500065
 21
197.199966
  0
LINE
  8
0
 10
11.150074
 20
200.199966
 11
12.500080
 21
200.199966
  0
LINE
  8
0
 10
11.150074
 20
202.199966
 11
12.500080
 21
202.199966
  0
LINE
  8
0
 10
11.549992
 20
190.199966
 11
11.549992
 21
192.199966
  0
LINE
  8
0
 10
11.549992
 20
195.199966
 11
11.549992
 21
197.199966
  0
LINE
  8
0
 10
11.549992
 20
200.199966
 11
11.549992
 21
202.199966
  0
LINE
  8
0
 10
11.912388
 20
185.499954
 11
16.250034
 21
185.499954
  0
LINE
  8
0
 10
11.982609
 20
231.499954
 11
19.584599
 21
231.499954
  0
LINE
  8
0
 10
15.500004
 20
181.490768
 11
15.500004
 21
189.163315
  0
LINE
  8
0
 10
39.500004
 20
181.220230
 11
39.500004
 21
189.347305
  0
LINE
  8
0
 10
40.772648
 20
184.651337
 11
40.348377
 21
184.227051
  0
LINE
  8
0
 10
40.772671
 20
186.348419
 11
40.348404
 21
185.924149
  0
LINE
  8
0
 10
40.348389
 20
186.772659
 11
39.924122
 21
186.348389
  0
LINE
  8
0
 10
40.772823
 20
186.348358
 11
40.348560
 21
186.772614
  0
LINE
  8
0
 10
40.772808
 20
184.651306
 11
40.348545
 21
185.075562
  0
LINE
  8
0
 10
40.348515
 20
184.227020
 11
39.924252
 21
184.651276
  0
LINE
  8
0
 10
39.075596
 20
184.651337
 11
38.749947
 21
184.325684
  0
LINE
  8
0
 10
39.075741
 20
186.348373
 11
38.750099
 21
186.674011
  0
LINE
  8
0
 10
14.651451
 20
186.772629
 11
14.227184
 21
186.348358
  0
LINE
  8
0
 10
16.249996
 20
186.674133
 11
15.924240
 21
186.348373
  0
LINE
  8
0
 10
14.651501
 20
184.227020
 11
14.227234
 21
184.651276
  0
LINE
  8
0
 10
16.250057
 20
184.325531
 11
15.924278
 21
184.651306
  0
LINE
  8
0
 10
15.075726
 20
184.651321
 11
14.651455
 21
184.227051
  0
LINE
  8
0
 10
14.651455
 20
185.075592
 11
14.227188
 21
184.651321
  0
LINE
  8
0
 10
15.075741
 20
186.348343
 11
14.651474
 21
186.772614
  0
LINE
  8
0
 10
14.651516
 20
185.924072
 11
14.227249
 21
186.348343
  0
LINE
  8
0
 10
40.772816
 20
230.651428
 11
40.348530
 21
230.227127
  0
LINE
  8
0
 10
38.651482
 20
232.772720
 11
38.227215
 21
232.348450
  0
LINE
  8
0
 10
40.772831
 20
232.348450
 11
40.348583
 21
231.924194
  0
LINE
  8
0
 10
40.348515
 20
232.772675
 11
39.924267
 21
232.348419
  0
LINE
  8
0
 10
40.772953
 20
232.348236
 11
40.348682
 21
232.772507
  0
LINE
  8
0
 10
38.651646
 20
230.226929
 11
38.227375
 21
230.651199
  0
LINE
  8
0
 10
40.772987
 20
230.651245
 11
40.348721
 21
231.075516
  0
LINE
  8
0
 10
40.348633
 20
230.226990
 11
39.924366
 21
230.651260
  0
LINE
  8
0
 10
39.075779
 20
230.651398
 11
38.651508
 21
230.227127
  0
LINE
  8
0
 10
38.651485
 20
231.075638
 11
38.227196
 21
230.651352
  0
LINE
  8
0
 10
39.075935
 20
232.348297
 11
38.651669
 21
232.772568
  0
LINE
  8
0
 10
38.651581
 20
231.924042
 11
38.227314
 21
232.348312
  0
LINE
  8
0
 10
16.772861
 20
230.651443
 11
16.348618
 21
230.227188
  0
LINE
  8
0
 10
14.651546
 20
232.772751
 11
14.227303
 21
232.348511
  0
LINE
  8
0
 10
16.772842
 20
232.348495
 11
16.348576
 21
231.924225
  0
LINE
  8
0
 10
16.348587
 20
232.772797
 11
15.924320
 21
232.348526
  0
LINE
  8
0
 10
16.772907
 20
232.348312
 11
16.348637
 21
232.772583
  0
LINE
  8
0
 10
14.651596
 20
230.227020
 11
14.227329
 21
230.651291
  0
LINE
  8
0
 10
16.772896
 20
230.651291
 11
16.348625
 21
231.075562
  0
LINE
  8
0
 10
16.348621
 20
230.227020
 11
15.924355
 21
230.651276
  0
LINE
  8
0
 10
15.075790
 20
230.651443
 11
14.651524
 21
230.227173
  0
LINE
  8
0
 10
14.651535
 20
231.075745
 11
14.227268
 21
230.651474
  0
LINE
  8
0
 10
15.075844
 20
232.348343
 11
14.651573
 21
232.772614
  0
LINE
  8
0
 10
14.651569
 20
231.924072
 11
14.227303
 21
232.348328
  0
LINE
  8
0
 10
39.500004
 20
226.790207
 11
39.500004
 21
235.930527
  0
LINE
  8
0
 10
15.500004
 20
227.505112
 11
15.500004
 21
235.631332
  0
LINE
  8
0
 10
35.419926
 20
231.499954
 11
43.379978
 21
231.499954
  0
LINE
  8
0
 10
38.750034
 20
185.499954
 11
43.244968
 21
185.499954
  0
LINE
  8
0
 10
11.000126
 20
214.249954
 11
11.150120
 21
214.249954
  0
LINE
  8
0
 10
38.250156
 20
220.949966
 11
16.750156
 21
220.949966
  0
LINE
  8
0
 10
38.250065
 20
193.449966
 11
16.750065
 21
193.449966
  0
LINE
  8
0
 10
13.750004
 20
217.949966
 11
13.750004
 21
196.449966
  0
LINE
  8
0
 10
41.250004
 20
217.949875
 11
41.250004
 21
196.449875
  0
LINE
  8
0
 10
26.651581
 20
208.472733
 11
27.075825
 21
208.048477
  0
LINE
  8
0
 10
26.227337
 20
208.048462
 11
26.651581
 21
207.624222
  0
LINE
  8
0
 10
26.651493
 20
208.472809
 11
26.227222
 21
208.048538
  0
LINE
  8
0
 10
28.772800
 20
206.351501
 11
28.348511
 21
205.927200
  0
LINE
  8
0
 10
29.042858
 20
209.167130
 11
27.924282
 21
208.048553
  0
LINE
  8
0
 10
29.467144
 20
208.742844
 11
28.348568
 21
207.624268
  0
LINE
  8
0
 10
28.348629
 20
206.775681
 11
28.772900
 21
206.351410
  0
LINE
  8
0
 10
27.924389
 20
206.351410
 11
28.348656
 21
205.927139
  0
LINE
  8
0
 10
26.651497
 20
206.775772
 11
25.532875
 21
205.657150
  0
LINE
  8
0
 10
27.075783
 20
206.351486
 11
25.957161
 21
205.232864
  0
LINE
  8
0
 10
38.750004
 20
193.449875
 11
38.750004
 21
178.949875
  0
LINE
  8
0
 10
16.250004
 20
193.449936
 11
16.250004
 21
178.949936
  0
LINE
  8
0
 10
37.750004
 20
177.949966
 11
17.250004
 21
177.949966
  0
LINE
  8
0
 10
12.960438
 20
207.199966
 11
42.073078
 21
207.199966
  0
LINE
  8
0
 10
42.500004
 20
195.199875
 11
42.500004
 21
197.199875
  0
LINE
  8
0
 10
12.500004
 20
195.199966
 11
12.500004
 21
197.199966
  0
LINE
  8
0
 10
42.500080
 20
202.199966
 11
43.850086
 21
202.199966
  0
LINE
  8
0
 10
42.500080
 20
200.199966
 11
43.850086
 21
200.199966
  0
LINE
  8
0
 10
42.500065
 20
197.199966
 11
43.850071
 21
197.199966
  0
LINE
  8
0
 10
42.500065
 20
195.199966
 11
43.850071
 21
195.199966
  0
LINE
  8
0
 10
38.750050
 20
192.199966
 11
43.850056
 21
192.199966
  0
LINE
  8
0
 10
38.750050
 20
190.199966
 11
43.850056
 21
190.199966
  0
LINE
  8
0
 10
12.500004
 20
200.199966
 11
12.500004
 21
202.199966
  0
LINE
  8
0
 10
42.500004
 20
200.199875
 11
42.500004
 21
202.199875
  0
LINE
  8
0
 10
38.411442
 20
178.199966
 11
40.850010
 21
178.199966
  0
LINE
  8
0
 10
11.150135
 20
219.199966
 11
12.500141
 21
219.199966
  0
LINE
  8
0
 10
11.150135
 20
217.199966
 11
12.500141
 21
217.199966
  0
LINE
  8
0
 10
11.150120
 20
214.199966
 11
12.500126
 21
214.199966
  0
LINE
  8
0
 10
11.150120
 20
212.199966
 11
12.500126
 21
212.199966
  0
LINE
  8
0
 10
11.549992
 20
224.199966
 11
11.549992
 21
222.199966
  0
LINE
  8
0
 10
11.549992
 20
219.199966
 11
11.549992
 21
217.199966
  0
LINE
  8
0
 10
11.549992
 20
214.199966
 11
11.549992
 21
212.199966
  0
LINE
  8
0
 10
42.500004
 20
219.199875
 11
42.500004
 21
217.199875
  0
LINE
  8
0
 10
12.500004
 20
219.199966
 11
12.500004
 21
217.199966
  0
LINE
  8
0
 10
42.500126
 20
212.199966
 11
43.850132
 21
212.199966
  0
LINE
  8
0
 10
42.500126
 20
214.199966
 11
43.850132
 21
214.199966
  0
LINE
  8
0
 10
42.500141
 20
217.199966
 11
43.850147
 21
217.199966
  0
LINE
  8
0
 10
42.500141
 20
219.199966
 11
43.850147
 21
219.199966
  0
LINE
  8
0
 10
11.150150
 20
222.199966
 11
43.850163
 21
222.199966
  0
LINE
  8
0
 10
11.150150
 20
224.199966
 11
43.850163
 21
224.199966
  0
LINE
  8
0
 10
12.500004
 20
214.199966
 11
12.500004
 21
212.199966
  0
LINE
  8
0
 10
42.500004
 20
214.199875
 11
42.500004
 21
212.199875
  0
LINE
  8
0
 10
43.850010
 20
209.828262
 11
43.850010
 21
234.199844
  0
LINE
  8
0
 10
43.850010
 20
181.199844
 11
43.850010
 21
204.171402
  0
LINE
  8
0
 10
43.450016
 20
190.199844
 11
43.450016
 21
192.199844
  0
LINE
  8
0
 10
43.450016
 20
195.199844
 11
43.450016
 21
197.199844
  0
LINE
  8
0
 10
43.450016
 20
200.199844
 11
43.450016
 21
202.199844
  0
LINE
  8
0
 10
43.450016
 20
214.199844
 11
43.450016
 21
212.199844
  0
LINE
  8
0
 10
43.450016
 20
219.199844
 11
43.450016
 21
217.199844
  0
LINE
  8
0
 10
11.000004
 20
177.999954
 11
16.937698
 21
177.999954
  0
LINE
  8
0
 10
38.062496
 20
177.999954
 11
44.000004
 21
177.999954
  0
LINE
  8
0
 10
20.200001
 20
177.949936
 11
20.200001
 21
173.949936
  0
LINE
  8
0
 10
20.073704
 20
173.949936
 11
20.073704
 21
167.949936
  0
LINE
  8
0
 10
27.500004
 20
173.949905
 11
27.500004
 21
167.949905
  0
LINE
  8
0
 10
34.800007
 20
177.949875
 11
34.800007
 21
173.949875
  0
LINE
  8
0
 10
37.026249
 20
167.949966
 11
17.973698
 21
167.949966
  0
LINE
  8
0
 10
37.026264
 20
173.949966
 11
17.973713
 21
173.949966
  0
LINE
  8
0
 10
19.000004
 20
177.949936
 11
19.000004
 21
173.949936
  0
LINE
  8
0
 10
36.000004
 20
177.949875
 11
36.000004
 21
173.949875
  0
LINE
  8
0
 10
29.600010
 20
173.949905
 11
29.600010
 21
167.949905
  0
LINE
  8
0
 10
29.849705
 20
173.949905
 11
29.849705
 21
167.949905
  0
LINE
  8
0
 10
34.303928
 20
173.949875
 11
34.303928
 21
167.949875
  0
LINE
  8
0
 10
34.926304
 20
173.949875
 11
34.926304
 21
167.949875
  0
LINE
  8
0
 10
17.973728
 20
173.949936
 11
17.973728
 21
167.949936
  0
LINE
  8
0
 10
25.399998
 20
173.949905
 11
25.399998
 21
167.949905
  0
LINE
  8
0
 10
25.150303
 20
173.949936
 11
25.150303
 21
167.949936
  0
LINE
  8
0
 10
20.696079
 20
173.949936
 11
20.696079
 21
167.949936
  0
LINE
  8
0
 10
37.026279
 20
173.949875
 11
37.026279
 21
167.949875
  0
CIRCLE
  8
0
 10
27.500111
 20
207.199905
 40
3.500000
  0
ARC
  8
0
 10
27.500095
 20
205.927109
 40
0.600004
 50
45.000515
 51
134.999481
  0
ARC
  8
0
 10
27.500111
 20
208.472702
 40
0.600004
 50
225.000519
 51
314.999481
  0
ARC
  8
0
 10
38.250065
 20
196.449875
 40
3.000000
 50
270.000000
 51
0.000000
  0
ARC
  8
0
 10
37.750004
 20
178.949875
 40
1.000000
 50
270.000000
 51
0.000000
  0
ARC
  8
0
 10
27.500111
 20
207.199905
 40
2.500004
 50
218.107864
 51
231.891968
  0
CIRCLE
  8
0
 10
15.500187
 20
231.499924
 40
2.850000
  0
ARC
  8
0
 10
17.250004
 20
178.949936
 40
1.000000
 50
180.000000
 51
270.000000
  0
CIRCLE
  8
0
 10
39.500187
 20
231.499863
 40
2.850000
  0
ARC
  8
0
 10
15.500034
 20
185.499924
 40
2.849997
 50
74.742462
 51
285.257538
  0
ARC
  8
0
 10
16.750065
 20
196.449936
 40
3.000000
 50
180.000000
 51
270.000000
  0
ARC
  8
0
 10
38.250141
 20
217.949875
 40
3.000000
 50
0.000000
 51
90.000000
  0
ARC
  8
0
 10
28.772907
 20
207.199905
 40
0.600004
 50
134.999481
 51
225.000519
  0
CIRCLE
  8
0
 10
27.500111
 20
207.199905
 40
2.799999
  0
ARC
  8
0
 10
27.500111
 20
207.199905
 40
2.500001
 50
38.107918
 51
51.892330
  0
ARC
  8
0
 10
39.500034
 20
185.499863
 40
2.849997
 50
254.742462
 51
0.000000
  0
ARC
  8
0
 10
39.500034
 20
185.499863
 40
2.849998
 50
0.000000
 51
105.257538
  0
ARC
  8
0
 10
26.227314
 20
207.199905
 40
0.600004
 50
314.999481
 51
45.000515
  0
ARC
  8
0
 10
14.150013
 20
181.199966
 40
3.000000
 50
180.000000
 51
270.000000
  0
ARC
  8
0
 10
14.150196
 20
234.199936
 40
3.000000
 50
90.000000
 51
180.000000
  0
ARC
  8
0
 10
40.850208
 20
234.199875
 40
3.000000
 50
0.000000
 51
90.000000
  0
ARC
  8
0
 10
40.850025
 20
181.199875
 40
3.000000
 50
270.000000
 51
0.000000
  0
ARC
  8
0
 10
44.850101
 20
206.999832
 40
3.000000
 50
180.000000
 51
250.528870
  0
ARC
  8
0
 10
44.850101
 20
206.999832
 40
3.000003
 50
109.471199
 51
180.000000
  0
ARC
  8
0
 10
16.750141
 20
217.949936
 40
3.000000
 50
90.000000
 51
180.000000
  0
ARC
  8
0
 10
10.150105
 20
206.999954
 40
2.999997
 50
289.469116
 51
70.528831
  0
ARC
  8
0
 10
39.500034
 20
185.499863
 40
2.799994
 50
254.463165
 51
105.536827
  0
ARC
  8
0
 10
39.500034
 20
184.227066
 40
0.600004
 50
45.000515
 51
134.999481
  0
ARC
  8
0
 10
40.772831
 20
185.499863
 40
0.600004
 50
134.999481
 51
225.000519
  0
ARC
  8
0
 10
38.227238
 20
185.499863
 40
0.599999
 50
330.613525
 51
29.386486
  0
ARC
  8
0
 10
39.500034
 20
186.772659
 40
0.600004
 50
225.000519
 51
314.999481
  0
ARC
  8
0
 10
15.500034
 20
185.499924
 40
2.799994
 50
74.463173
 51
285.536835
  0
ARC
  8
0
 10
15.500019
 20
184.227158
 40
0.600004
 50
45.000515
 51
134.999481
  0
ARC
  8
0
 10
16.772831
 20
185.499924
 40
0.599999
 50
150.613510
 51
209.386490
  0
ARC
  8
0
 10
14.227238
 20
185.499954
 40
0.600004
 50
314.999481
 51
45.000515
  0
ARC
  8
0
 10
15.500034
 20
186.772751
 40
0.600004
 50
225.000519
 51
314.999481
  0
CIRCLE
  8
0
 10
39.500187
 20
231.499863
 40
2.799999
  0
ARC
  8
0
 10
39.500187
 20
230.227066
 40
0.600004
 50
45.000515
 51
134.999481
  0
ARC
  8
0
 10
40.772984
 20
231.499863
 40
0.600004
 50
134.999481
 51
225.000519
  0
ARC
  8
0
 10
38.227390
 20
231.499863
 40
0.600004
 50
314.999481
 51
45.000515
  0
ARC
  8
0
 10
39.500187
 20
232.772659
 40
0.600004
 50
225.000519
 51
314.999481
  0
CIRCLE
  8
0
 10
15.500187
 20
231.499924
 40
2.799999
  0
ARC
  8
0
 10
15.500187
 20
230.227158
 40
0.600004
 50
45.000515
 51
134.999481
  0
ARC
  8
0
 10
16.772984
 20
231.499924
 40
0.600004
 50
134.999481
 51
225.000519
  0
ARC
  8
0
 10
14.227390
 20
231.499924
 40
0.600004
 50
314.999481
 51
45.000515
  0
ARC
  8
0
 10
15.500187
 20
232.772751
 40
0.600004
 50
225.000519
 51
314.999481
  0
POINT
  8
0
 10
44.000004
 20
206.999924
  0
LINE
  8
0
 10
76.450012
 20
224.199814
 11
76.450012
 21
222.199814
  0
LINE
  8
0
 10
47.149998
 20
178.199936
 11
49.588566
 21
178.199936
  0
LINE
  8
0
 10
47.150196
 20
237.199936
 11
73.850204
 21
237.199936
  0
LINE
  8
0
 10
60.500004
 20
167.053391
 11
60.500004
 21
241.028824
  0
LINE
  8
0
 10
44.149998
 20
181.199936
 11
44.149998
 21
204.171463
  0
LINE
  8
0
 10
44.149998
 20
209.828354
 11
44.149998
 21
234.199936
  0
LINE
  8
0
 10
44.150043
 20
190.199936
 11
49.250050
 21
190.199936
  0
LINE
  8
0
 10
44.150043
 20
192.199936
 11
49.250050
 21
192.199936
  0
LINE
  8
0
 10
44.150059
 20
195.199936
 11
45.500065
 21
195.199936
  0
LINE
  8
0
 10
44.150059
 20
197.199936
 11
45.500065
 21
197.199936
  0
LINE
  8
0
 10
44.150074
 20
200.199936
 11
45.500080
 21
200.199936
  0
LINE
  8
0
 10
44.150074
 20
202.199936
 11
45.500080
 21
202.199936
  0
LINE
  8
0
 10
44.549992
 20
190.199936
 11
44.549992
 21
192.199936
  0
LINE
  8
0
 10
44.549992
 20
195.199936
 11
44.549992
 21
197.199936
  0
LINE
  8
0
 10
44.549992
 20
200.199936
 11
44.549992
 21
202.199936
  0
LINE
  8
0
 10
44.912388
 20
185.499924
 11
49.250034
 21
185.499924
  0
LINE
  8
0
 10
44.982609
 20
231.499924
 11
52.584599
 21
231.499924
  0
LINE
  8
0
 10
48.500004
 20
181.490738
 11
48.500004
 21
189.163284
  0
LINE
  8
0
 10
72.500000
 20
181.220200
 11
72.500000
 21
189.347275
  0
LINE
  8
0
 10
73.772644
 20
184.651306
 11
73.348373
 21
184.227020
  0
LINE
  8
0
 10
73.772675
 20
186.348389
 11
73.348404
 21
185.924118
  0
LINE
  8
0
 10
73.348389
 20
186.772629
 11
72.924118
 21
186.348358
  0
LINE
  8
0
 10
73.772827
 20
186.348328
 11
73.348557
 21
186.772583
  0
LINE
  8
0
 10
73.772812
 20
184.651276
 11
73.348541
 21
185.075531
  0
LINE
  8
0
 10
73.348511
 20
184.226990
 11
72.924255
 21
184.651245
  0
LINE
  8
0
 10
72.075592
 20
184.651306
 11
71.749939
 21
184.325653
  0
LINE
  8
0
 10
72.075745
 20
186.348343
 11
71.750092
 21
186.673981
  0
LINE
  8
0
 10
47.651447
 20
186.772598
 11
47.227184
 21
186.348328
  0
LINE
  8
0
 10
49.249996
 20
186.674103
 11
48.924236
 21
186.348343
  0
LINE
  8
0
 10
47.651501
 20
184.226990
 11
47.227230
 21
184.651245
  0
LINE
  8
0
 10
49.250057
 20
184.325500
 11
48.924274
 21
184.651276
  0
LINE
  8
0
 10
48.075726
 20
184.651291
 11
47.651455
 21
184.227020
  0
LINE
  8
0
 10
47.651455
 20
185.075562
 11
47.227184
 21
184.651291
  0
LINE
  8
0
 10
48.075741
 20
186.348312
 11
47.651470
 21
186.772583
  0
LINE
  8
0
 10
47.651516
 20
185.924042
 11
47.227245
 21
186.348312
  0
LINE
  8
0
 10
73.772812
 20
230.651398
 11
73.348526
 21
230.227097
  0
LINE
  8
0
 10
71.651474
 20
232.772690
 11
71.227219
 21
232.348419
  0
LINE
  8
0
 10
73.772827
 20
232.348419
 11
73.348587
 21
231.924164
  0
LINE
  8
0
 10
73.348511
 20
232.772644
 11
72.924271
 21
232.348389
  0
LINE
  8
0
 10
73.772949
 20
232.348206
 11
73.348679
 21
232.772476
  0
LINE
  8
0
 10
71.651642
 20
230.226898
 11
71.227371
 21
230.651169
  0
LINE
  8
0
 10
73.772980
 20
230.651215
 11
73.348724
 21
231.075485
  0
LINE
  8
0
 10
73.348633
 20
230.226959
 11
72.924362
 21
230.651230
  0
LINE
  8
0
 10
72.075775
 20
230.651367
 11
71.651505
 21
230.227097
  0
LINE
  8
0
 10
71.651489
 20
231.075607
 11
71.227188
 21
230.651321
  0
LINE
  8
0
 10
72.075928
 20
232.348267
 11
71.651672
 21
232.772537
  0
LINE
  8
0
 10
71.651581
 20
231.924011
 11
71.227310
 21
232.348282
  0
LINE
  8
0
 10
49.772861
 20
230.651413
 11
49.348614
 21
230.227158
  0
LINE
  8
0
 10
47.651546
 20
232.772720
 11
47.227299
 21
232.348480
  0
LINE
  8
0
 10
49.772846
 20
232.348465
 11
49.348576
 21
231.924194
  0
LINE
  8
0
 10
49.348591
 20
232.772766
 11
48.924320
 21
232.348495
  0
LINE
  8
0
 10
49.772907
 20
232.348282
 11
49.348637
 21
232.772552
  0
LINE
  8
0
 10
47.651600
 20
230.226990
 11
47.227329
 21
230.651260
  0
LINE
  8
0
 10
49.772892
 20
230.651260
 11
49.348629
 21
231.075531
  0
LINE
  8
0
 10
49.348621
 20
230.226990
 11
48.924351
 21
230.651245
  0
LINE
  8
0
 10
48.075794
 20
230.651413
 11
47.651524
 21
230.227142
  0
LINE
  8
0
 10
47.651539
 20
231.075714
 11
47.227268
 21
230.651443
  0
LINE
  8
0
 10
48.075840
 20
232.348312
 11
47.651577
 21
232.772583
  0
LINE
  8
0
 10
47.651569
 20
231.924042
 11
47.227299
 21
232.348297
  0
LINE
  8
0
 10
72.500000
 20
226.790176
 11
72.500000
 21
235.930496
  0
LINE
  8
0
 10
48.500004
 20
227.505081
 11
48.500004
 21
235.631302
  0
LINE
  8
0
 10
68.419922
 20
231.499924
 11
76.379974
 21
231.499924
  0
LINE
  8
0
 10
71.750031
 20
185.499924
 11
76.244965
 21
185.499924
  0
LINE
  8
0
 10
44.000126
 20
214.249924
 11
44.150120
 21
214.249924
  0
LINE
  8
0
 10
71.250153
 20
220.949936
 11
49.750156
 21
220.949936
  0
LINE
  8
0
 10
71.250061
 20
193.449936
 11
49.750065
 21
193.449936
  0
LINE
  8
0
 10
46.750004
 20
217.949936
 11
46.750004
 21
196.449936
  0
LINE
  8
0
 10
74.250000
 20
217.949844
 11
74.250000
 21
196.449844
  0
LINE
  8
0
 10
59.651577
 20
208.472702
 11
60.075825
 21
208.048447
  0
LINE
  8
0
 10
59.227337
 20
208.048431
 11
59.651585
 21
207.624191
  0
LINE
  8
0
 10
59.651493
 20
208.472778
 11
59.227222
 21
208.048508
  0
LINE
  8
0
 10
61.772800
 20
206.351471
 11
61.348515
 21
205.927170
  0
LINE
  8
0
 10
62.042858
 20
209.167099
 11
60.924282
 21
208.048523
  0
LINE
  8
0
 10
62.467144
 20
208.742813
 11
61.348568
 21
207.624237
  0
LINE
  8
0
 10
61.348629
 20
206.775650
 11
61.772900
 21
206.351379
  0
LINE
  8
0
 10
60.924389
 20
206.351379
 11
61.348652
 21
205.927109
  0
LINE
  8
0
 10
59.651493
 20
206.775742
 11
58.532871
 21
205.657120
  0
LINE
  8
0
 10
60.075779
 20
206.351456
 11
58.957157
 21
205.232834
  0
LINE
  8
0
 10
71.750000
 20
193.449844
 11
71.750000
 21
178.949844
  0
LINE
  8
0
 10
49.250004
 20
193.449905
 11
49.250004
 21
178.949905
  0
LINE
  8
0
 10
70.750000
 20
177.949936
 11
50.250004
 21
177.949936
  0
LINE
  8
0
 10
45.960438
 20
207.199936
 11
75.073074
 21
207.199936
  0
LINE
  8
0
 10
75.500000
 20
195.199844
 11
75.500000
 21
197.199844
  0
LINE
  8
0
 10
45.500004
 20
195.199936
 11
45.500004
 21
197.199936
  0
LINE
  8
0
 10
75.500076
 20
202.199936
 11
76.850082
 21
202.199936
  0
LINE
  8
0
 10
75.500076
 20
200.199936
 11
76.850082
 21
200.199936
  0
LINE
  8
0
 10
75.500061
 20
197.199936
 11
76.850067
 21
197.199936
  0
LINE
  8
0
 10
75.500061
 20
195.199936
 11
76.850067
 21
195.199936
  0
LINE
  8
0
 10
71.750046
 20
192.199936
 11
76.850052
 21
192.199936
  0
LINE
  8
0
 10
71.750046
 20
190.199936
 11
76.850052
 21
190.199936
  0
LINE
  8
0
 10
45.500004
 20
200.199936
 11
45.500004
 21
202.199936
  0
LINE
  8
0
 10
75.500000
 20
200.199844
 11
75.500000
 21
202.199844
  0
LINE
  8
0
 10
71.411438
 20
178.199936
 11
73.850006
 21
178.199936
  0
LINE
  8
0
 10
44.150135
 20
219.199936
 11
45.500141
 21
219.199936
  0
LINE
  8
0
 10
44.150135
 20
217.199936
 11
45.500141
 21
217.199936
  0
LINE
  8
0
 10
44.150120
 20
214.199936
 11
45.500126
 21
214.199936
  0
LINE
  8
0
 10
44.150120
 20
212.199936
 11
45.500126
 21
212.199936
  0
LINE
  8
0
 10
44.549992
 20
224.199936
 11
44.549992
 21
222.199936
  0
LINE
  8
0
 10
44.549992
 20
219.199936
 11
44.549992
 21
217.199936
  0
LINE
  8
0
 10
44.549992
 20
214.199936
 11
44.549992
 21
212.199936
  0
LINE
  8
0
 10
75.500000
 20
219.199844
 11
75.500000
 21
217.199844
  0
LINE
  8
0
 10
45.500004
 20
219.199936
 11
45.500004
 21
217.199936
  0
LINE
  8
0
 10
75.500122
 20
212.199936
 11
76.850128
 21
212.199936
  0
LINE
  8
0
 10
75.500122
 20
214.199936
 11
76.850128
 21
214.199936
  0
LINE
  8
0
 10
75.500137
 20
217.199936
 11
76.850143
 21
217.199936
  0
LINE
  8
0
 10
75.500137
 20
219.199936
 11
76.850143
 21
219.199936
  0
LINE
  8
0
 10
44.150150
 20
222.199936
 11
76.850159
 21
222.199936
  0
LINE
  8
0
 10
44.150150
 20
224.199936
 11
76.850159
 21
224.199936
  0
LINE
  8
0
 10
45.500004
 20
214.199936
 11
45.500004
 21
212.199936
  0
LINE
  8
0
 10
75.500000
 20
214.199844
 11
75.500000
 21
212.199844
  0
LINE
  8
0
 10
76.850006
 20
209.828232
 11
76.850006
 21
234.199814
  0
LINE
  8
0
 10
76.850006
 20
181.199814
 11
76.850006
 21
204.171371
  0
LINE
  8
0
 10
76.450012
 20
190.199814
 11
76.450012
 21
192.199814
  0
LINE
  8
0
 10
76.450012
 20
195.199814
 11
76.450012
 21
197.199814
  0
LINE
  8
0
 10
76.450012
 20
200.199814
 11
76.450012
 21
202.199814
  0
LINE
  8
0
 10
76.450012
 20
214.199814
 11
76.450012
 21
212.199814
  0
LINE
  8
0
 10
76.450012
 20
219.199814
 11
76.450012
 21
217.199814
  0
LINE
  8
0
 10
44.000004
 20
177.999924
 11
49.937702
 21
177.999924
  0
LINE
  8
0
 10
71.062500
 20
177.999924
 11
77.000000
 21
177.999924
  0
LINE
  8
0
 10
53.200001
 20
177.949905
 11
53.200001
 21
173.949905
  0
LINE
  8
0
 10
53.073704
 20
173.949905
 11
53.073704
 21
167.949905
  0
LINE
  8
0
 10
60.500004
 20
173.949875
 11
60.500004
 21
167.949875
  0
LINE
  8
0
 10
67.800003
 20
177.949844
 11
67.800003
 21
173.949844
  0
LINE
  8
0
 10
70.026245
 20
167.949936
 11
50.973698
 21
167.949936
  0
LINE
  8
0
 10
70.026260
 20
173.949936
 11
50.973713
 21
173.949936
  0
LINE
  8
0
 10
52.000004
 20
177.949905
 11
52.000004
 21
173.949905
  0
LINE
  8
0
 10
69.000000
 20
177.949844
 11
69.000000
 21
173.949844
  0
LINE
  8
0
 10
62.600010
 20
173.949875
 11
62.600010
 21
167.949875
  0
LINE
  8
0
 10
62.849705
 20
173.949875
 11
62.849705
 21
167.949875
  0
LINE
  8
0
 10
67.303925
 20
173.949844
 11
67.303925
 21
167.949844
  0
LINE
  8
0
 10
67.926300
 20
173.949844
 11
67.926300
 21
167.949844
  0
LINE
  8
0
 10
50.973728
 20
173.949905
 11
50.973728
 21
167.949905
  0
LINE
  8
0
 10
58.399998
 20
173.949875
 11
58.399998
 21
167.949875
  0
LINE
  8
0
 10
58.150303
 20
173.949905
 11
58.150303
 21
167.949905
  0
LINE
  8
0
 10
53.696079
 20
173.949905
 11
53.696079
 21
167.949905
  0
LINE
  8
0
 10
70.026276
 20
173.949844
 11
70.026276
 21
167.949844
  0
CIRCLE
  8
0
 10
60.500111
 20
207.199875
 40
3.500000
  0
ARC
  8
0
 10
60.500095
 20
205.927078
 40
0.600004
 50
45.000515
 51
134.999481
  0
ARC
  8
0
 10
60.500111
 20
208.472672
 40
0.600004
 50
225.000519
 51
314.999481
  0
ARC
  8
0
 10
71.250061
 20
196.449844
 40
3.000000
 50
270.000000
 51
0.000000
  0
ARC
  8
0
 10
70.750000
 20
178.949844
 40
1.000000
 50
270.000000
 51
0.000000
  0
ARC
  8
0
 10
60.500111
 20
207.199875
 40
2.500007
 50
218.107803
 51
231.891968
  0
CIRCLE
  8
0
 10
48.500187
 20
231.499893
 40
2.850000
  0
ARC
  8
0
 10
50.250004
 20
178.949905
 40
1.000000
 50
180.000000
 51
270.000000
  0
CIRCLE
  8
0
 10
72.500183
 20
231.499832
 40
2.850000
  0
ARC
  8
0
 10
48.500034
 20
185.499893
 40
2.849997
 50
74.742462
 51
285.257538
  0
ARC
  8
0
 10
49.750065
 20
196.449905
 40
3.000000
 50
180.000000
 51
270.000000
  0
ARC
  8
0
 10
71.250137
 20
217.949844
 40
3.000000
 50
0.000000
 51
90.000000
  0
ARC
  8
0
 10
61.772907
 20
207.199875
 40
0.600004
 50
134.999481
 51
225.000519
  0
CIRCLE
  8
0
 10
60.500111
 20
207.199875
 40
2.799999
  0
ARC
  8
0
 10
60.500111
 20
207.199875
 40
2.500001
 50
38.107918
 51
51.892330
  0
ARC
  8
0
 10
72.500031
 20
185.499832
 40
2.849997
 50
254.742462
 51
0.000000
  0
ARC
  8
0
 10
72.500031
 20
185.499832
 40
2.850006
 50
0.000000
 51
105.257538
  0
ARC
  8
0
 10
59.227314
 20
207.199875
 40
0.600004
 50
314.999481
 51
45.000515
  0
ARC
  8
0
 10
47.150013
 20
181.199936
 40
3.000000
 50
180.000000
 51
270.000000
  0
ARC
  8
0
 10
47.150196
 20
234.199905
 40
3.000000
 50
90.000000
 51
180.000000
  0
ARC
  8
0
 10
73.850204
 20
234.199844
 40
3.000000
 50
0.000000
 51
90.000000
  0
ARC
  8
0
 10
73.850021
 20
181.199844
 40
3.000000
 50
270.000000
 51
0.000000
  0
ARC
  8
0
 10
77.850098
 20
206.999802
 40
3.000000
 50
180.000000
 51
250.528793
  0
ARC
  8
0
 10
77.850098
 20
206.999802
 40
3.000003
 50
109.471199
 51
180.000000
  0
ARC
  8
0
 10
49.750141
 20
217.949905
 40
3.000000
 50
90.000000
 51
180.000000
  0
ARC
  8
0
 10
43.150105
 20
206.999924
 40
2.999996
 50
289.469086
 51
70.528801
  0
ARC
  8
0
 10
72.500031
 20
185.499832
 40
2.799994
 50
254.463165
 51
105.536827
  0
ARC
  8
0
 10
72.500031
 20
184.227036
 40
0.600009
 50
45.000000
 51
134.998962
  0
ARC
  8
0
 10
73.772827
 20
185.499832
 40
0.599998
 50
134.998962
 51
225.001038
  0
ARC
  8
0
 10
71.227234
 20
185.499832
 40
0.599999
 50
330.613525
 51
29.386486
  0
ARC
  8
0
 10
72.500031
 20
186.772629
 40
0.599998
 50
225.001038
 51
315.000000
  0
ARC
  8
0
 10
48.500034
 20
185.499893
 40
2.799994
 50
74.463173
 51
285.536835
  0
ARC
  8
0
 10
48.500019
 20
184.227127
 40
0.600004
 50
45.000515
 51
134.999481
  0
ARC
  8
0
 10
49.772831
 20
185.499893
 40
0.599999
 50
150.613510
 51
209.386490
  0
ARC
  8
0
 10
47.227238
 20
185.499924
 40
0.600004
 50
314.999481
 51
45.000515
  0
ARC
  8
0
 10
48.500034
 20
186.772720
 40
0.600004
 50
225.000519
 51
314.999481
  0
CIRCLE
  8
0
 10
72.500183
 20
231.499832
 40
2.799999
  0
ARC
  8
0
 10
72.500183
 20
230.227036
 40
0.600009
 50
45.000000
 51
134.998962
  0
ARC
  8
0
 10
73.772980
 20
231.499832
 40
0.599998
 50
134.998962
 51
225.001038
  0
ARC
  8
0
 10
71.227386
 20
231.499832
 40
0.600009
 50
315.000000
 51
45.000000
  0
ARC
  8
0
 10
72.500183
 20
232.772629
 40
0.599998
 50
225.001038
 51
315.000000
  0
CIRCLE
  8
0
 10
48.500187
 20
231.499893
 40
2.799999
  0
ARC
  8
0
 10
48.500187
 20
230.227127
 40
0.600004
 50
45.000515
 51
134.999481
  0
ARC
  8
0
 10
49.772984
 20
231.499893
 40
0.600004
 50
134.999481
 51
225.000519
  0
ARC
  8
0
 10
47.227390
 20
231.499893
 40
0.600004
 50
314.999481
 51
45.000515
  0
ARC
  8
0
 10
48.500187
 20
232.772720
 40
0.600004
 50
225.000519
 51
314.999481
  0
POINT
  8
0
 10
76.999817
 20
206.999924
  0
LINE
  8
0
 10
109.449829
 20
224.199814
 11
109.449829
 21
222.199814
  0
LINE
  8
0
 10
80.149811
 20
178.199936
 11
82.588379
 21
178.199936
  0
LINE
  8
0
 10
80.150009
 20
237.199936
 11
106.850021
 21
237.199936
  0
LINE
  8
0
 10
93.499817
 20
167.053391
 11
93.499817
 21
241.028824
  0
LINE
  8
0
 10
77.149811
 20
181.199936
 11
77.149811
 21
204.171463
  0
LINE
  8
0
 10
77.149811
 20
209.828354
 11
77.149811
 21
234.199936
  0
LINE
  8
0
 10
77.149857
 20
190.199936
 11
82.249863
 21
190.199936
  0
LINE
  8
0
 10
77.149857
 20
192.199936
 11
82.249863
 21
192.199936
  0
LINE
  8
0
 10
77.149872
 20
195.199936
 11
78.499878
 21
195.199936
  0
LINE
  8
0
 10
77.149872
 20
197.199936
 11
78.499878
 21
197.199936
  0
LINE
  8
0
 10
77.149887
 20
200.199936
 11
78.499893
 21
200.199936
  0
LINE
  8
0
 10
77.149887
 20
202.199936
 11
78.499893
 21
202.199936
  0
LINE
  8
0
 10
77.549805
 20
190.199936
 11
77.549805
 21
192.199936
  0
LINE
  8
0
 10
77.549805
 20
195.199936
 11
77.549805
 21
197.199936
  0
LINE
  8
0
 10
77.549805
 20
200.199936
 11
77.549805
 21
202.199936
  0
LINE
  8
0
 10
77.912201
 20
185.499924
 11
82.249847
 21
185.499924
  0
LINE
  8
0
 10
77.982422
 20
231.499924
 11
85.584412
 21
231.499924
  0
LINE
  8
0
 10
81.499817
 20
181.490738
 11
81.499817
 21
189.163284
  0
LINE
  8
0
 10
105.499817
 20
181.220200
 11
105.499817
 21
189.347275
  0
LINE
  8
0
 10
106.772461
 20
184.651306
 11
106.348190
 21
184.227020
  0
LINE
  8
0
 10
106.772491
 20
186.348389
 11
106.348221
 21
185.924118
  0
LINE
  8
0
 10
106.348206
 20
186.772629
 11
105.923935
 21
186.348358
  0
LINE
  8
0
 10
106.772644
 20
186.348328
 11
106.348373
 21
186.772583
  0
LINE
  8
0
 10
106.772629
 20
184.651276
 11
106.348358
 21
185.075531
  0
LINE
  8
0
 10
106.348328
 20
184.226990
 11
105.924072
 21
184.651245
  0
LINE
  8
0
 10
105.075409
 20
184.651306
 11
104.749756
 21
184.325653
  0
LINE
  8
0
 10
105.075562
 20
186.348343
 11
104.749908
 21
186.673981
  0
LINE
  8
0
 10
80.651260
 20
186.772598
 11
80.227005
 21
186.348328
  0
LINE
  8
0
 10
82.249817
 20
186.674103
 11
81.924057
 21
186.348343
  0
LINE
  8
0
 10
80.651321
 20
184.226990
 11
80.227051
 21
184.651245
  0
LINE
  8
0
 10
82.249878
 20
184.325500
 11
81.924088
 21
184.651276
  0
LINE
  8
0
 10
81.075546
 20
184.651291
 11
80.651276
 21
184.227020
  0
LINE
  8
0
 10
80.651276
 20
185.075562
 11
80.227005
 21
184.651291
  0
LINE
  8
0
 10
81.075562
 20
186.348312
 11
80.651291
 21
186.772583
  0
LINE
  8
0
 10
80.651337
 20
185.924042
 11
80.227066
 21
186.348312
  0
LINE
  8
0
 10
106.772629
 20
230.651398
 11
106.348343
 21
230.227097
  0
LINE
  8
0
 10
104.651291
 20
232.772690
 11
104.227036
 21
232.348419
  0
LINE
  8
0
 10
106.772644
 20
232.348419
 11
106.348404
 21
231.924164
  0
LINE
  8
0
 10
106.348328
 20
232.772644
 11
105.924088
 21
232.348389
  0
LINE
  8
0
 10
106.772766
 20
232.348206
 11
106.348495
 21
232.772476
  0
LINE
  8
0
 10
104.651459
 20
230.226898
 11
104.227188
 21
230.651169
  0
LINE
  8
0
 10
106.772797
 20
230.651215
 11
106.348541
 21
231.075485
  0
LINE
  8
0
 10
106.348450
 20
230.226959
 11
105.924179
 21
230.651230
  0
LINE
  8
0
 10
105.075592
 20
230.651367
 11
104.651321
 21
230.227097
  0
LINE
  8
0
 10
104.651306
 20
231.075607
 11
104.227005
 21
230.651321
  0
LINE
  8
0
 10
105.075745
 20
232.348267
 11
104.651489
 21
232.772537
  0
LINE
  8
0
 10
104.651398
 20
231.924011
 11
104.227127
 21
232.348282
  0
LINE
  8
0
 10
82.772675
 20
230.651413
 11
82.348434
 21
230.227158
  0
LINE
  8
0
 10
80.651367
 20
232.772720
 11
80.227112
 21
232.348480
  0
LINE
  8
0
 10
82.772659
 20
232.348465
 11
82.348389
 21
231.924194
  0
LINE
  8
0
 10
82.348404
 20
232.772766
 11
81.924133
 21
232.348495
  0
LINE
  8
0
 10
82.772720
 20
232.348282
 11
82.348450
 21
232.772552
  0
LINE
  8
0
 10
80.651413
 20
230.226990
 11
80.227142
 21
230.651260
  0
LINE
  8
0
 10
82.772705
 20
230.651260
 11
82.348450
 21
231.075531
  0
LINE
  8
0
 10
82.348434
 20
230.226990
 11
81.924164
 21
230.651245
  0
LINE
  8
0
 10
81.075607
 20
230.651413
 11
80.651337
 21
230.227142
  0
LINE
  8
0
 10
80.651352
 20
231.075714
 11
80.227081
 21
230.651443
  0
LINE
  8
0
 10
81.075653
 20
232.348312
 11
80.651398
 21
232.772583
  0
LINE
  8
0
 10
80.651382
 20
231.924042
 11
80.227112
 21
232.348297
  0
LINE
  8
0
 10
105.499817
 20
226.790176
 11
105.499817
 21
235.930496
  0
LINE
  8
0
 10
81.499817
 20
227.505081
 11
81.499817
 21
235.631302
  0
LINE
  8
0
 10
101.419739
 20
231.499924
 11
109.379791
 21
231.499924
  0
LINE
  8
0
 10
104.749847
 20
185.499924
 11
109.244781
 21
185.499924
  0
LINE
  8
0
 10
76.999939
 20
214.249924
 11
77.149933
 21
214.249924
  0
LINE
  8
0
 10
104.249969
 20
220.949936
 11
82.749969
 21
220.949936
  0
LINE
  8
0
 10
104.249878
 20
193.449936
 11
82.749878
 21
193.449936
  0
LINE
  8
0
 10
79.749817
 20
217.949936
 11
79.749817
 21
196.449936
  0
LINE
  8
0
 10
107.249817
 20
217.949844
 11
107.249817
 21
196.449844
  0
LINE
  8
0
 10
92.651398
 20
208.472702
 11
93.075638
 21
208.048447
  0
LINE
  8
0
 10
92.227158
 20
208.048431
 11
92.651398
 21
207.624191
  0
LINE
  8
0
 10
92.651306
 20
208.472778
 11
92.227036
 21
208.048508
  0
LINE
  8
0
 10
94.772614
 20
206.351471
 11
94.348328
 21
205.927170
  0
LINE
  8
0
 10
95.042679
 20
209.167099
 11
93.924103
 21
208.048523
  0
LINE
  8
0
 10
95.466965
 20
208.742813
 11
94.348389
 21
207.624237
  0
LINE
  8
0
 10
94.348450
 20
206.775650
 11
94.772720
 21
206.351379
  0
LINE
  8
0
 10
93.924210
 20
206.351379
 11
94.348465
 21
205.927109
  0
LINE
  8
0
 10
92.651306
 20
206.775742
 11
91.532684
 21
205.657120
  0
LINE
  8
0
 10
93.075592
 20
206.351456
 11
91.956970
 21
205.232834
  0
LINE
  8
0
 10
104.749817
 20
193.449844
 11
104.749817
 21
178.949844
  0
LINE
  8
0
 10
82.249817
 20
193.449905
 11
82.249817
 21
178.949905
  0
LINE
  8
0
 10
103.749817
 20
177.949936
 11
83.249817
 21
177.949936
  0
LINE
  8
0
 10
78.960251
 20
207.199936
 11
108.072891
 21
207.199936
  0
LINE
  8
0
 10
108.499817
 20
195.199844
 11
108.499817
 21
197.199844
  0
LINE
  8
0
 10
78.499817
 20
195.199936
 11
78.499817
 21
197.199936
  0
LINE
  8
0
 10
108.499893
 20
202.199936
 11
109.849899
 21
202.199936
  0
LINE
  8
0
 10
108.499893
 20
200.199936
 11
109.849899
 21
200.199936
  0
LINE
  8
0
 10
108.499878
 20
197.199936
 11
109.849884
 21
197.199936
  0
LINE
  8
0
 10
108.499878
 20
195.199936
 11
109.849884
 21
195.199936
  0
LINE
  8
0
 10
104.749863
 20
192.199936
 11
109.849869
 21
192.199936
  0
LINE
  8
0
 10
104.749863
 20
190.199936
 11
109.849869
 21
190.199936
  0
LINE
  8
0
 10
78.499817
 20
200.199936
 11
78.499817
 21
202.199936
  0
LINE
  8
0
 10
108.499817
 20
200.199844
 11
108.499817
 21
202.199844
  0
LINE
  8
0
 10
104.411255
 20
178.199936
 11
106.849823
 21
178.199936
  0
LINE
  8
0
 10
77.149948
 20
219.199936
 11
78.499954
 21
219.199936
  0
LINE
  8
0
 10
77.149948
 20
217.199936
 11
78.499954
 21
217.199936
  0
LINE
  8
0
 10
77.149933
 20
214.199936
 11
78.499939
 21
214.199936
  0
LINE
  8
0
 10
77.149933
 20
212.199936
 11
78.499939
 21
212.199936
  0
LINE
  8
0
 10
77.549805
 20
224.199936
 11
77.549805
 21
222.199936
  0
LINE
  8
0
 10
77.549805
 20
219.199936
 11
77.549805
 21
217.199936
  0
LINE
  8
0
 10
77.549805
 20
214.199936
 11
77.549805
 21
212.199936
  0
LINE
  8
0
 10
108.499817
 20
219.199844
 11
108.499817
 21
217.199844
  0
LINE
  8
0
 10
78.499817
 20
219.199936
 11
78.499817
 21
217.199936
  0
LINE
  8
0
 10
108.499939
 20
212.199936
 11
109.849945
 21
212.199936
  0
LINE
  8
0
 10
108.499939
 20
214.199936
 11
109.849945
 21
214.199936
  0
LINE
  8
0
 10
108.499954
 20
217.199936
 11
109.849960
 21
217.199936
  0
LINE
  8
0
 10
108.499954
 20
219.199936
 11
109.849960
 21
219.199936
  0
LINE
  8
0
 10
77.149963
 20
222.199936
 11
109.849976
 21
222.199936
  0
LINE
  8
0
 10
77.149963
 20
224.199936
 11
109.849976
 21
224.199936
  0
LINE
  8
0
 10
78.499817
 20
214.199936
 11
78.499817
 21
212.199936
  0
LINE
  8
0
 10
108.499817
 20
214.199844
 11
108.499817
 21
212.199844
  0
LINE
  8
0
 10
109.849823
 20
209.828232
 11
109.849823
 21
234.199814
  0
LINE
  8
0
 10
109.849823
 20
181.199814
 11
109.849823
 21
204.171371
  0
LINE
  8
0
 10
109.449829
 20
190.199814
 11
109.449829
 21
192.199814
  0
LINE
  8
0
 10
109.449829
 20
195.199814
 11
109.449829
 21
197.199814
  0
LINE
  8
0
 10
109.449829
 20
200.199814
 11
109.449829
 21
202.199814
  0
LINE
  8
0
 10
109.449829
 20
214.199814
 11
109.449829
 21
212.199814
  0
LINE
  8
0
 10
109.449829
 20
219.199814
 11
109.449829
 21
217.199814
  0
LINE
  8
0
 10
76.999817
 20
177.999924
 11
82.937515
 21
177.999924
  0
LINE
  8
0
 10
104.062317
 20
177.999924
 11
109.999817
 21
177.999924
  0
LINE
  8
0
 10
86.199814
 20
177.949905
 11
86.199814
 21
173.949905
  0
LINE
  8
0
 10
86.073517
 20
173.949905
 11
86.073517
 21
167.949905
  0
LINE
  8
0
 10
93.499817
 20
173.949875
 11
93.499817
 21
167.949875
  0
LINE
  8
0
 10
100.799820
 20
177.949844
 11
100.799820
 21
173.949844
  0
LINE
  8
0
 10
103.026062
 20
167.949936
 11
83.973511
 21
167.949936
  0
LINE
  8
0
 10
103.026077
 20
173.949936
 11
83.973526
 21
173.949936
  0
LINE
  8
0
 10
84.999817
 20
177.949905
 11
84.999817
 21
173.949905
  0
LINE
  8
0
 10
101.999817
 20
177.949844
 11
101.999817
 21
173.949844
  0
LINE
  8
0
 10
95.599823
 20
173.949875
 11
95.599823
 21
167.949875
  0
LINE
  8
0
 10
95.849518
 20
173.949875
 11
95.849518
 21
167.949875
  0
LINE
  8
0
 10
100.303741
 20
173.949844
 11
100.303741
 21
167.949844
  0
LINE
  8
0
 10
100.926117
 20
173.949844
 11
100.926117
 21
167.949844
  0
LINE
  8
0
 10
83.973541
 20
173.949905
 11
83.973541
 21
167.949905
  0
LINE
  8
0
 10
91.399811
 20
173.949875
 11
91.399811
 21
167.949875
  0
LINE
  8
0
 10
91.150116
 20
173.949905
 11
91.150116
 21
167.949905
  0
LINE
  8
0
 10
86.695892
 20
173.949905
 11
86.695892
 21
167.949905
  0
LINE
  8
0
 10
103.026093
 20
173.949844
 11
103.026093
 21
167.949844
  0
CIRCLE
  8
0
 10
93.499924
 20
207.199875
 40
3.500000
  0
ARC
  8
0
 10
93.499908
 20
205.927078
 40
0.600009
 50
45.000000
 51
134.998962
  0
ARC
  8
0
 10
93.499924
 20
208.472672
 40
0.599998
 50
225.001038
 51
315.000000
  0
ARC
  8
0
 10
104.249878
 20
196.449844
 40
3.000000
 50
270.000000
 51
0.000000
  0
ARC
  8
0
 10
103.749817
 20
178.949844
 40
1.000000
 50
270.000000
 51
0.000000
  0
ARC
  8
0
 10
93.499924
 20
207.199875
 40
2.500007
 50
218.107803
 51
231.891968
  0
CIRCLE
  8
0
 10
81.500000
 20
231.499893
 40
2.850000
  0
ARC
  8
0
 10
83.249817
 20
178.949905
 40
1.000000
 50
180.000000
 51
270.000000
  0
CIRCLE
  8
0
 10
105.500000
 20
231.499832
 40
2.850000
  0
ARC
  8
0
 10
81.499847
 20
185.499893
 40
2.849997
 50
74.742462
 51
285.257538
  0
ARC
  8
0
 10
82.749878
 20
196.449905
 40
3.000000
 50
180.000000
 51
270.000000
  0
ARC
  8
0
 10
104.249954
 20
217.949844
 40
3.000000
 50
0.000000
 51
90.000000
  0
ARC
  8
0
 10
94.772720
 20
207.199875
 40
0.599998
 50
134.998962
 51
225.001038
  0
CIRCLE
  8
0
 10
93.499924
 20
207.199875
 40
2.799999
  0
ARC
  8
0
 10
93.499924
 20
207.199875
 40
2.500007
 50
38.107807
 51
51.892193
  0
ARC
  8
0
 10
105.499847
 20
185.499832
 40
2.849997
 50
254.742462
 51
0.000000
  0
ARC
  8
0
 10
105.499847
 20
185.499832
 40
2.850006
 50
0.000000
 51
105.257538
  0
ARC
  8
0
 10
92.227127
 20
207.199875
 40
0.600009
 50
315.000000
 51
45.000000
  0
ARC
  8
0
 10
80.149826
 20
181.199936
 40
3.000000
 50
180.000000
 51
270.000000
  0
ARC
  8
0
 10
80.150009
 20
234.199905
 40
3.000000
 50
90.000000
 51
180.000000
  0
ARC
  8
0
 10
106.850021
 20
234.199844
 40
3.000000
 50
0.000000
 51
90.000000
  0
ARC
  8
0
 10
106.849838
 20
181.199844
 40
3.000000
 50
270.000000
 51
0.000000
  0
ARC
  8
0
 10
110.849915
 20
206.999802
 40
3.000000
 50
180.000000
 51
250.528793
  0
ARC
  8
0
 10
110.849915
 20
206.999802
 40
3.000003
 50
109.471199
 51
180.000000
  0
ARC
  8
0
 10
82.749954
 20
217.949905
 40
3.000000
 50
90.000000
 51
180.000000
  0
ARC
  8
0
 10
76.149918
 20
206.999924
 40
2.999996
 50
289.469086
 51
70.528801
  0
ARC
  8
0
 10
105.499847
 20
185.499832
 40
2.799994
 50
254.463165
 51
105.536827
  0
ARC
  8
0
 10
105.499847
 20
184.227036
 40
0.600009
 50
45.000000
 51
134.998962
  0
ARC
  8
0
 10
106.772644
 20
185.499832
 40
0.599998
 50
134.998962
 51
225.001038
  0
ARC
  8
0
 10
104.227051
 20
185.499832
 40
0.599999
 50
330.613525
 51
29.386486
  0
ARC
  8
0
 10
105.499847
 20
186.772629
 40
0.599998
 50
225.001038
 51
315.000000
  0
ARC
  8
0
 10
81.499847
 20
185.499893
 40
2.799994
 50
74.463173
 51
285.536835
  0
ARC
  8
0
 10
81.499832
 20
184.227127
 40
0.600009
 50
45.000000
 51
134.998962
  0
ARC
  8
0
 10
82.772644
 20
185.499893
 40
0.599999
 50
150.613510
 51
209.386490
  0
ARC
  8
0
 10
80.227051
 20
185.499924
 40
0.600009
 50
315.000000
 51
45.000000
  0
ARC
  8
0
 10
81.499847
 20
186.772720
 40
0.599998
 50
225.001038
 51
315.000000
  0
CIRCLE
  8
0
 10
105.500000
 20
231.499832
 40
2.799999
  0
ARC
  8
0
 10
105.500000
 20
230.227036
 40
0.600009
 50
45.000000
 51
134.998962
  0
ARC
  8
0
 10
106.772797
 20
231.499832
 40
0.599998
 50
134.998962
 51
225.001038
  0
ARC
  8
0
 10
104.227203
 20
231.499832
 40
0.600009
 50
315.000000
 51
45.000000
  0
ARC
  8
0
 10
105.500000
 20
232.772629
 40
0.599998
 50
225.001038
 51
315.000000
  0
CIRCLE
  8
0
 10
81.500000
 20
231.499893
 40
2.799999
  0
ARC
  8
0
 10
81.500000
 20
230.227127
 40
0.600009
 50
45.000000
 51
134.998962
  0
ARC
  8
0
 10
82.772797
 20
231.499893
 40
0.599998
 50
134.998962
 51
225.001038
  0
ARC
  8
0
 10
80.227203
 20
231.499893
 40
0.600009
 50
315.000000
 51
45.000000
  0
ARC
  8
0
 10
81.500000
 20
232.772720
 40
0.599998
 50
225.001038
 51
315.000000
  0
POINT
  8
0
 10
110.000000
 20
206.999924
  0
LINE
  8
0
 10
142.450012
 20
224.199814
 11
142.450012
 21
222.199814
  0
LINE
  8
0
 10
113.149994
 20
178.199936
 11
115.588562
 21
178.199936
  0
LINE
  8
0
 10
113.150192
 20
237.199936
 11
139.850204
 21
237.199936
  0
LINE
  8
0
 10
126.500000
 20
167.053391
 11
126.500000
 21
241.028824
  0
LINE
  8
0
 10
110.149994
 20
181.199936
 11
110.149994
 21
204.171463
  0
LINE
  8
0
 10
110.149994
 20
209.828354
 11
110.149994
 21
234.199936
  0
LINE
  8
0
 10
110.150040
 20
190.199936
 11
115.250046
 21
190.199936
  0
LINE
  8
0
 10
110.150040
 20
192.199936
 11
115.250046
 21
192.199936
  0
LINE
  8
0
 10
110.150055
 20
195.199936
 11
111.500061
 21
195.199936
  0
LINE
  8
0
 10
110.150055
 20
197.199936
 11
111.500061
 21
197.199936
  0
LINE
  8
0
 10
110.150070
 20
200.199936
 11
111.500076
 21
200.199936
  0
LINE
  8
0
 10
110.150070
 20
202.199936
 11
111.500076
 21
202.199936
  0
LINE
  8
0
 10
110.549988
 20
190.199936
 11
110.549988
 21
192.199936
  0
LINE
  8
0
 10
110.549988
 20
195.199936
 11
110.549988
 21
197.199936
  0
LINE
  8
0
 10
110.549988
 20
200.199936
 11
110.549988
 21
202.199936
  0
LINE
  8
0
 10
110.912384
 20
185.499924
 11
115.250031
 21
185.499924
  0
LINE
  8
0
 10
110.982605
 20
231.499924
 11
118.584595
 21
231.499924
  0
LINE
  8
0
 10
114.500000
 20
181.490738
 11
114.500000
 21
189.163284
  0
LINE
  8
0
 10
138.500000
 20
181.220200
 11
138.500000
 21
189.347275
  0
LINE
  8
0
 10
139.772644
 20
184.651306
 11
139.348373
 21
184.227020
  0
LINE
  8
0
 10
139.772675
 20
186.348389
 11
139.348404
 21
185.924118
  0
LINE
  8
0
 10
139.348389
 20
186.772629
 11
138.924118
 21
186.348358
  0
LINE
  8
0
 10
139.772827
 20
186.348328
 11
139.348557
 21
186.772583
  0
LINE
  8
0
 10
139.772797
 20
184.651276
 11
139.348541
 21
185.075531
  0
LINE
  8
0
 10
139.348511
 20
184.226990
 11
138.924255
 21
184.651245
  0
LINE
  8
0
 10
138.075592
 20
184.651306
 11
137.749939
 21
184.325653
  0
LINE
  8
0
 10
138.075729
 20
186.348343
 11
137.750092
 21
186.673981
  0
LINE
  8
0
 10
113.651443
 20
186.772598
 11
113.227173
 21
186.348328
  0
LINE
  8
0
 10
115.250000
 20
186.674103
 11
114.924240
 21
186.348343
  0
LINE
  8
0
 10
113.651505
 20
184.226990
 11
113.227234
 21
184.651245
  0
LINE
  8
0
 10
115.250061
 20
184.325500
 11
114.924271
 21
184.651276
  0
LINE
  8
0
 10
114.075714
 20
184.651291
 11
113.651459
 21
184.227020
  0
LINE
  8
0
 10
113.651459
 20
185.075562
 11
113.227188
 21
184.651291
  0
LINE
  8
0
 10
114.075745
 20
186.348312
 11
113.651474
 21
186.772583
  0
LINE
  8
0
 10
113.651520
 20
185.924042
 11
113.227249
 21
186.348312
  0
LINE
  8
0
 10
139.772812
 20
230.651398
 11
139.348526
 21
230.227097
  0
LINE
  8
0
 10
137.651474
 20
232.772690
 11
137.227203
 21
232.348419
  0
LINE
  8
0
 10
139.772827
 20
232.348419
 11
139.348572
 21
231.924164
  0
LINE
  8
0
 10
139.348511
 20
232.772644
 11
138.924271
 21
232.348389
  0
LINE
  8
0
 10
139.772949
 20
232.348206
 11
139.348679
 21
232.772476
  0
LINE
  8
0
 10
137.651642
 20
230.226898
 11
137.227371
 21
230.651169
  0
LINE
  8
0
 10
139.772980
 20
230.651215
 11
139.348709
 21
231.075485
  0
LINE
  8
0
 10
139.348633
 20
230.226959
 11
138.924362
 21
230.651230
  0
LINE
  8
0
 10
138.075775
 20
230.651367
 11
137.651505
 21
230.227097
  0
LINE
  8
0
 10
137.651489
 20
231.075607
 11
137.227188
 21
230.651321
  0
LINE
  8
0
 10
138.075928
 20
232.348267
 11
137.651657
 21
232.772537
  0
LINE
  8
0
 10
137.651581
 20
231.924011
 11
137.227310
 21
232.348282
  0
LINE
  8
0
 10
115.772858
 20
230.651413
 11
115.348618
 21
230.227158
  0
LINE
  8
0
 10
113.651550
 20
232.772720
 11
113.227295
 21
232.348480
  0
LINE
  8
0
 10
115.772842
 20
232.348465
 11
115.348572
 21
231.924194
  0
LINE
  8
0
 10
115.348587
 20
232.772766
 11
114.924316
 21
232.348495
  0
LINE
  8
0
 10
115.772903
 20
232.348282
 11
115.348633
 21
232.772552
  0
LINE
  8
0
 10
113.651596
 20
230.226990
 11
113.227325
 21
230.651260
  0
LINE
  8
0
 10
115.772888
 20
230.651260
 11
115.348618
 21
231.075531
  0
LINE
  8
0
 10
115.348618
 20
230.226990
 11
114.924347
 21
230.651245
  0
LINE
  8
0
 10
114.075790
 20
230.651413
 11
113.651520
 21
230.227142
  0
LINE
  8
0
 10
113.651535
 20
231.075714
 11
113.227264
 21
230.651443
  0
LINE
  8
0
 10
114.075836
 20
232.348312
 11
113.651566
 21
232.772583
  0
LINE
  8
0
 10
113.651566
 20
231.924042
 11
113.227295
 21
232.348297
  0
LINE
  8
0
 10
138.500000
 20
226.790176
 11
138.500000
 21
235.930496
  0
LINE
  8
0
 10
114.500000
 20
227.505081
 11
114.500000
 21
235.631302
  0
LINE
  8
0
 10
134.419922
 20
231.499924
 11
142.379974
 21
231.499924
  0
LINE
  8
0
 10
137.750031
 20
185.499924
 11
142.244965
 21
185.499924
  0
LINE
  8
0
 10
110.000122
 20
214.249924
 11
110.150116
 21
214.249924
  0
LINE
  8
0
 10
137.250153
 20
220.949936
 11
115.750153
 21
220.949936
  0
LINE
  8
0
 10
137.250061
 20
193.449936
 11
115.750061
 21
193.449936
  0
LINE
  8
0
 10
112.750000
 20
217.949936
 11
112.750000
 21
196.449936
  0
LINE
  8
0
 10
140.250000
 20
217.949844
 11
140.250000
 21
196.449844
  0
LINE
  8
0
 10
125.651581
 20
208.472702
 11
126.075821
 21
208.048447
  0
LINE
  8
0
 10
125.227325
 20
208.048431
 11
125.651581
 21
207.624191
  0
LINE
  8
0
 10
125.651489
 20
208.472778
 11
125.227219
 21
208.048508
  0
LINE
  8
0
 10
127.772797
 20
206.351471
 11
127.348511
 21
205.927170
  0
LINE
  8
0
 10
128.042847
 20
209.167099
 11
126.924271
 21
208.048523
  0
LINE
  8
0
 10
128.467148
 20
208.742813
 11
127.348557
 21
207.624237
  0
LINE
  8
0
 10
127.348633
 20
206.775650
 11
127.772888
 21
206.351379
  0
LINE
  8
0
 10
126.924377
 20
206.351379
 11
127.348648
 21
205.927109
  0
LINE
  8
0
 10
125.651489
 20
206.775742
 11
124.532867
 21
205.657120
  0
LINE
  8
0
 10
126.075775
 20
206.351456
 11
124.957153
 21
205.232834
  0
LINE
  8
0
 10
137.750000
 20
193.449844
 11
137.750000
 21
178.949844
  0
LINE
  8
0
 10
115.250000
 20
193.449905
 11
115.250000
 21
178.949905
  0
LINE
  8
0
 10
136.750000
 20
177.949936
 11
116.250000
 21
177.949936
  0
LINE
  8
0
 10
111.960434
 20
207.199936
 11
141.073074
 21
207.199936
  0
LINE
  8
0
 10
141.500000
 20
195.199844
 11
141.500000
 21
197.199844
  0
LINE
  8
0
 10
111.500000
 20
195.199936
 11
111.500000
 21
197.199936
  0
LINE
  8
0
 10
141.500076
 20
202.199936
 11
142.850082
 21
202.199936
  0
LINE
  8
0
 10
141.500076
 20
200.199936
 11
142.850082
 21
200.199936
  0
LINE
  8
0
 10
141.500061
 20
197.199936
 11
142.850067
 21
197.199936
  0
LINE
  8
0
 10
141.500061
 20
195.199936
 11
142.850067
 21
195.199936
  0
LINE
  8
0
 10
137.750046
 20
192.199936
 11
142.850052
 21
192.199936
  0
LINE
  8
0
 10
137.750046
 20
190.199936
 11
142.850052
 21
190.199936
  0
LINE
  8
0
 10
111.500000
 20
200.199936
 11
111.500000
 21
202.199936
  0
LINE
  8
0
 10
141.500000
 20
200.199844
 11
141.500000
 21
202.199844
  0
LINE
  8
0
 10
137.411438
 20
178.199936
 11
139.850006
 21
178.199936
  0
LINE
  8
0
 10
110.150131
 20
219.199936
 11
111.500137
 21
219.199936
  0
LINE
  8
0
 10
110.150131
 20
217.199936
 11
111.500137
 21
217.199936
  0
LINE
  8
0
 10
110.150116
 20
214.199936
 11
111.500122
 21
214.199936
  0
LINE
  8
0
 10
110.150116
 20
212.199936
 11
111.500122
 21
212.199936
  0
LINE
  8
0
 10
110.549988
 20
224.199936
 11
110.549988
 21
222.199936
  0
LINE
  8
0
 10
110.549988
 20
219.199936
 11
110.549988
 21
217.199936
  0
LINE
  8
0
 10
110.549988
 20
214.199936
 11
110.549988
 21
212.199936
  0
LINE
  8
0
 10
141.500000
 20
219.199844
 11
141.500000
 21
217.199844
  0
LINE
  8
0
 10
111.500000
 20
219.199936
 11
111.500000
 21
217.199936
  0
LINE
  8
0
 10
141.500122
 20
212.199936
 11
142.850128
 21
212.199936
  0
LINE
  8
0
 10
141.500122
 20
214.199936
 11
142.850128
 21
214.199936
  0
LINE
  8
0
 10
141.500137
 20
217.199936
 11
142.850143
 21
217.199936
  0
LINE
  8
0
 10
141.500137
 20
219.199936
 11
142.850143
 21
219.199936
  0
LINE
  8
0
 10
110.150146
 20
222.199936
 11
142.850159
 21
222.199936
  0
LINE
  8
0
 10
110.150146
 20
224.199936
 11
142.850159
 21
224.199936
  0
LINE
  8
0
 10
111.500000
 20
214.199936
 11
111.500000
 21
212.199936
  0
LINE
  8
0
 10
141.500000
 20
214.199844
 11
141.500000
 21
212.199844
  0
LINE
  8
0
 10
142.850006
 20
209.828232
 11
142.850006
 21
234.199814
  0
LINE
  8
0
 10
142.850006
 20
181.199814
 11
142.850006
 21
204.171371
  0
LINE
  8
0
 10
142.450012
 20
190.199814
 11
142.450012
 21
192.199814
  0
LINE
  8
0
 10
142.450012
 20
195.199814
 11
142.450012
 21
197.199814
  0
LINE
  8
0
 10
142.450012
 20
200.199814
 11
142.450012
 21
202.199814
  0
LINE
  8
0
 10
142.450012
 20
214.199814
 11
142.450012
 21
212.199814
  0
LINE
  8
0
 10
142.450012
 20
219.199814
 11
142.450012
 21
217.199814
  0
LINE
  8
0
 10
110.000000
 20
177.999924
 11
115.937698
 21
177.999924
  0
LINE
  8
0
 10
137.062485
 20
177.999924
 11
143.000000
 21
177.999924
  0
LINE
  8
0
 10
119.199997
 20
177.949905
 11
119.199997
 21
173.949905
  0
LINE
  8
0
 10
119.073700
 20
173.949905
 11
119.073700
 21
167.949905
  0
LINE
  8
0
 10
126.500000
 20
173.949875
 11
126.500000
 21
167.949875
  0
LINE
  8
0
 10
133.800003
 20
177.949844
 11
133.800003
 21
173.949844
  0
LINE
  8
0
 10
136.026245
 20
167.949936
 11
116.973694
 21
167.949936
  0
LINE
  8
0
 10
136.026260
 20
173.949936
 11
116.973709
 21
173.949936
  0
LINE
  8
0
 10
118.000000
 20
177.949905
 11
118.000000
 21
173.949905
  0
LINE
  8
0
 10
135.000000
 20
177.949844
 11
135.000000
 21
173.949844
  0
LINE
  8
0
 10
128.600006
 20
173.949875
 11
128.600006
 21
167.949875
  0
LINE
  8
0
 10
128.849701
 20
173.949875
 11
128.849701
 21
167.949875
  0
LINE
  8
0
 10
133.303925
 20
173.949844
 11
133.303925
 21
167.949844
  0
LINE
  8
0
 10
133.926300
 20
173.949844
 11
133.926300
 21
167.949844
  0
LINE
  8
0
 10
116.973724
 20
173.949905
 11
116.973724
 21
167.949905
  0
LINE
  8
0
 10
124.399994
 20
173.949875
 11
124.399994
 21
167.949875
  0
LINE
  8
0
 10
124.150299
 20
173.949905
 11
124.150299
 21
167.949905
  0
LINE
  8
0
 10
119.696075
 20
173.949905
 11
119.696075
 21
167.949905
  0
LINE
  8
0
 10
136.026276
 20
173.949844
 11
136.026276
 21
167.949844
  0
CIRCLE
  8
0
 10
126.500107
 20
207.199875
 40
3.500000
  0
ARC
  8
0
 10
126.500092
 20
205.927078
 40
0.600009
 50
45.000000
 51
134.998962
  0
ARC
  8
0
 10
126.500107
 20
208.472672
 40
0.600009
 50
225.000000
 51
315.000000
  0
ARC
  8
0
 10
137.250061
 20
196.449844
 40
3.000000
 50
270.000000
 51
0.000000
  0
ARC
  8
0
 10
136.750000
 20
178.949844
 40
1.000000
 50
270.000000
 51
0.000000
  0
ARC
  8
0
 10
126.500107
 20
207.199875
 40
2.500007
 50
218.107803
 51
231.891968
  0
CIRCLE
  8
0
 10
114.500183
 20
231.499893
 40
2.850000
  0
ARC
  8
0
 10
116.250000
 20
178.949905
 40
1.000000
 50
180.000000
 51
270.000000
  0
CIRCLE
  8
0
 10
138.500183
 20
231.499832
 40
2.850000
  0
ARC
  8
0
 10
114.500031
 20
185.499893
 40
2.849997
 50
74.742462
 51
285.257538
  0
ARC
  8
0
 10
115.750061
 20
196.449905
 40
3.000000
 50
180.000000
 51
270.000000
  0
ARC
  8
0
 10
137.250137
 20
217.949844
 40
3.000000
 50
0.000000
 51
90.000000
  0
ARC
  8
0
 10
127.772903
 20
207.199875
 40
0.600009
 50
135.000000
 51
225.000000
  0
CIRCLE
  8
0
 10
126.500107
 20
207.199875
 40
2.799999
  0
ARC
  8
0
 10
126.500107
 20
207.199875
 40
2.499995
 50
38.108025
 51
51.892193
  0
ARC
  8
0
 10
138.500031
 20
185.499832
 40
2.849997
 50
254.742462
 51
0.000000
  0
ARC
  8
0
 10
138.500031
 20
185.499832
 40
2.850006
 50
0.000000
 51
105.257538
  0
ARC
  8
0
 10
125.227310
 20
207.199875
 40
0.600009
 50
315.000000
 51
45.000000
  0
ARC
  8
0
 10
113.150009
 20
181.199936
 40
3.000000
 50
180.000000
 51
270.000000
  0
ARC
  8
0
 10
113.150192
 20
234.199905
 40
3.000000
 50
90.000000
 51
180.000000
  0
ARC
  8
0
 10
139.850204
 20
234.199844
 40
3.000000
 50
0.000000
 51
90.000000
  0
ARC
  8
0
 10
139.850021
 20
181.199844
 40
3.000000
 50
270.000000
 51
0.000000
  0
ARC
  8
0
 10
143.850098
 20
206.999802
 40
3.000000
 50
180.000000
 51
250.528793
  0
ARC
  8
0
 10
143.850098
 20
206.999802
 40
3.000003
 50
109.471199
 51
180.000000
  0
ARC
  8
0
 10
115.750137
 20
217.949905
 40
3.000000
 50
90.000000
 51
180.000000
  0
ARC
  8
0
 10
109.150101
 20
206.999924
 40
2.999996
 50
289.469086
 51
70.528801
  0
ARC
  8
0
 10
138.500031
 20
185.499832
 40
2.799994
 50
254.463165
 51
105.536827
  0
ARC
  8
0
 10
138.500031
 20
184.227036
 40
0.600009
 50
45.000000
 51
135.000000
  0
ARC
  8
0
 10
139.772827
 20
185.499832
 40
0.600009
 50
135.000000
 51
225.000000
  0
ARC
  8
0
 10
137.227234
 20
185.499832
 40
0.599999
 50
330.613525
 51
29.386486
  0
ARC
  8
0
 10
138.500031
 20
186.772629
 40
0.600009
 50
225.000000
 51
314.998962
  0
ARC
  8
0
 10
114.500031
 20
185.499893
 40
2.799994
 50
74.463173
 51
285.536835
  0
ARC
  8
0
 10
114.500015
 20
184.227127
 40
0.600009
 50
45.000000
 51
135.000000
  0
ARC
  8
0
 10
115.772827
 20
185.499893
 40
0.599999
 50
150.613510
 51
209.386490
  0
ARC
  8
0
 10
113.227234
 20
185.499924
 40
0.600009
 50
315.000000
 51
45.000000
  0
ARC
  8
0
 10
114.500031
 20
186.772720
 40
0.600009
 50
225.000000
 51
315.000000
  0
CIRCLE
  8
0
 10
138.500183
 20
231.499832
 40
2.799999
  0
ARC
  8
0
 10
138.500183
 20
230.227036
 40
0.600009
 50
45.000000
 51
135.000000
  0
ARC
  8
0
 10
139.772980
 20
231.499832
 40
0.600009
 50
135.000000
 51
225.000000
  0
ARC
  8
0
 10
137.227386
 20
231.499832
 40
0.599998
 50
314.998962
 51
45.000000
  0
ARC
  8
0
 10
138.500183
 20
232.772629
 40
0.600009
 50
225.000000
 51
314.998962
  0
CIRCLE
  8
0
 10
114.500183
 20
231.499893
 40
2.799999
  0
ARC
  8
0
 10
114.500183
 20
230.227127
 40
0.600009
 50
45.000000
 51
135.000000
  0
ARC
  8
0
 10
115.772980
 20
231.499893
 40
0.600009
 50
135.000000
 51
225.000000
  0
ARC
  8
0
 10
113.227386
 20
231.499893
 40
0.600009
 50
315.000000
 51
45.000000
  0
ARC
  8
0
 10
114.500183
 20
232.772720
 40
0.600009
 50
225.000000
 51
315.000000
  0
POINT
  8
0
 10
-19.999996
 20
-239.999954
  0
POINT
  8
0
 10
174.000183
 20
-239.999954
  0
LINE
  8
0
 10
77.000092
 20
-177.999954
 11
44.000004
 21
-177.999954
  0
LINE
  8
0
 10
143.000183
 20
-177.999954
 11
77.000000
 21
-177.999954
  0
LINE
  8
0
 10
34.414097
 20
-224.000015
 11
12.992710
 21
-224.000015
  0
LINE
  8
0
 10
23.999912
 20
-213.166641
 11
23.999912
 21
-234.166641
  0
LINE
  8
0
 10
40.929539
 20
-190.000015
 11
20.666599
 21
-190.000015
  0
LINE
  8
0
 10
40.068699
 20
-190.000015
 11
28.171543
 21
-190.000015
  0
LINE
  8
0
 10
163.000183
 20
-177.999954
 11
143.000183
 21
-177.999954
  0
LINE
  8
0
 10
166.000183
 20
-180.999954
 11
166.000183
 21
-226.999954
  0
LINE
  8
0
 10
180.000183
 20
-239.999954
 11
143.000183
 21
-239.999954
  0
LINE
  8
0
 10
179.000183
 20
-227.999954
 11
163.000183
 21
-227.999954
  0
LINE
  8
0
 10
180.000183
 20
-228.999954
 11
180.000183
 21
-239.999954
  0
LINE
  8
0
 10
-8.999996
 20
-177.999954
 11
11.000004
 21
-177.999954
  0
LINE
  8
0
 10
11.000004
 20
-176.999954
 11
11.000004
 21
-199.499954
  0
LINE
  8
0
 10
-11.999996
 20
-180.999954
 11
-11.999996
 21
-226.999985
  0
LINE
  8
0
 10
1.409336
 20
-206.999954
 11
21.571293
 21
-206.999954
  0
LINE
  8
0
 10
-11.999996
 20
-239.999954
 11
11.000004
 21
-239.999954
  0
LINE
  8
0
 10
-24.999996
 20
-227.999954
 11
-8.999996
 21
-227.999954
  0
LINE
  8
0
 10
-25.999996
 20
-228.999985
 11
-25.999996
 21
-239.999985
  0
LINE
  8
0
 10
-25.999996
 20
-239.999954
 11
-11.999996
 21
-239.999954
  0
LINE
  8
0
 10
-5.999996
 20
-192.699966
 11
8.000004
 21
-192.699966
  0
LINE
  8
0
 10
-5.999996
 20
-187.299973
 11
8.000004
 21
-187.299973
  0
LINE
  8
0
 10
-5.999996
 20
-221.299973
 11
8.000004
 21
-221.299973
  0
LINE
  8
0
 10
-5.999996
 20
-226.699966
 11
8.000004
 21
-226.699966
  0
LINE
  8
0
 10
9.000004
 20
-188.299973
 11
9.000004
 21
-191.699966
  0
LINE
  8
0
 10
-6.999996
 20
-188.299973
 11
-6.999996
 21
-191.699966
  0
LINE
  8
0
 10
-6.999996
 20
-222.299973
 11
-6.999996
 21
-225.699966
  0
LINE
  8
0
 10
9.000004
 20
-222.299973
 11
9.000004
 21
-225.699966
  0
LINE
  8
0
 10
-0.999922
 20
-221.999695
 11
7.000082
 21
-223.999695
  0
LINE
  8
0
 10
7.000032
 20
-223.999878
 11
-0.999973
 21
-225.999878
  0
LINE
  8
0
 10
-0.999996
 20
-225.999954
 11
-0.999996
 21
-221.999954
  0
LINE
  8
0
 10
7.000019
 20
-189.999802
 11
-0.999985
 21
-191.999802
  0
LINE
  8
0
 10
-0.999996
 20
-191.999954
 11
-0.999996
 21
-187.999954
  0
LINE
  8
0
 10
-0.999924
 20
-187.999680
 11
7.000082
 21
-189.999680
  0
LINE
  8
0
 10
38.499912
 20
-137.533920
 11
38.499912
 21
-139.265976
  0
LINE
  8
0
 10
36.999882
 20
-136.667664
 11
38.499886
 21
-137.533691
  0
LINE
  8
0
 10
35.499878
 20
-139.265808
 11
36.999882
 21
-140.131836
  0
LINE
  8
0
 10
36.999855
 20
-140.132019
 11
38.499863
 21
-139.265991
  0
LINE
  8
0
 10
35.499851
 20
-137.533936
 11
36.999859
 21
-136.667908
  0
LINE
  8
0
 10
35.499912
 20
-137.533920
 11
35.499912
 21
-139.265976
  0
LINE
  8
0
 10
12.499912
 20
-121.399948
 11
41.499912
 21
-121.399948
  0
LINE
  8
0
 10
10.999912
 20
-176.399948
 11
42.999912
 21
-176.399948
  0
LINE
  8
0
 10
42.999912
 20
-122.899948
 11
42.999912
 21
-177.999954
  0
LINE
  8
0
 10
10.999912
 20
-122.899948
 11
10.999912
 21
-177.999954
  0
LINE
  8
0
 10
136.000092
 20
-168.399948
 11
141.000092
 21
-168.399948
  0
LINE
  8
0
 10
138.500092
 20
-167.637405
 11
138.500092
 21
-173.281235
  0
LINE
  8
0
 10
141.000092
 20
-168.399948
 11
141.000092
 21
-172.399948
  0
LINE
  8
0
 10
110.000092
 20
-176.399948
 11
142.000092
 21
-176.399948
  0
LINE
  8
0
 10
142.000092
 20
-172.399948
 11
142.000092
 21
-177.999954
  0
LINE
  8
0
 10
110.000092
 20
-172.399948
 11
110.000092
 21
-177.999954
  0
LINE
  8
0
 10
11.000004
 20
-214.499954
 11
11.000004
 21
-239.999954
  0
LINE
  8
0
 10
10.999990
 20
-205.267761
 11
12.499992
 21
-206.133789
  0
LINE
  8
0
 10
9.500013
 20
-206.133942
 11
10.999992
 21
-205.267929
  0
LINE
  8
0
 10
9.500010
 20
-207.865814
 11
11.000013
 21
-208.731827
  0
LINE
  8
0
 10
11.000015
 20
-208.732040
 11
12.499992
 21
-207.866028
  0
LINE
  8
0
 10
12.500004
 20
-206.133926
 11
12.500004
 21
-207.865982
  0
LINE
  8
0
 10
9.500004
 20
-206.133926
 11
9.500004
 21
-207.865982
  0
LINE
  8
0
 10
15.999840
 20
-163.667755
 11
17.499844
 21
-164.533783
  0
LINE
  8
0
 10
14.499844
 20
-164.533951
 11
15.999847
 21
-163.667923
  0
LINE
  8
0
 10
14.499870
 20
-166.265778
 11
15.999874
 21
-167.131805
  0
LINE
  8
0
 10
15.999840
 20
-167.132050
 11
17.499844
 21
-166.266022
  0
LINE
  8
0
 10
17.499912
 20
-164.533920
 11
17.499912
 21
-166.265976
  0
LINE
  8
0
 10
14.499912
 20
-164.533920
 11
14.499912
 21
-166.265976
  0
LINE
  8
0
 10
3.000004
 20
-202.499954
 11
19.000004
 21
-202.499954
  0
LINE
  8
0
 10
3.000004
 20
-211.499954
 11
19.000004
 21
-211.499954
  0
LINE
  8
0
 10
151.000183
 20
-199.499954
 11
151.000183
 21
-214.499954
  0
LINE
  8
0
 10
3.000004
 20
-199.499954
 11
3.000004
 21
-214.499954
  0
LINE
  8
0
 10
3.000004
 20
-214.499954
 11
19.000004
 21
-214.499954
  0
LINE
  8
0
 10
27.000004
 20
-115.756241
 11
27.000004
 21
-242.842636
  0
LINE
  8
0
 10
10.999912
 20
-165.399948
 11
20.999912
 21
-165.399948
  0
LINE
  8
0
 10
31.999912
 20
-138.399948
 11
41.999912
 21
-138.399948
  0
LINE
  8
0
 10
15.999912
 20
-160.399948
 11
15.999912
 21
-170.399948
  0
LINE
  8
0
 10
36.999912
 20
-133.399948
 11
36.999912
 21
-143.399948
  0
LINE
  8
0
 10
11.000004
 20
-202.999954
 11
11.000004
 21
-210.999954
  0
LINE
  8
0
 10
-19.999996
 20
-225.895889
 11
-19.999996
 21
-242.424942
  0
LINE
  8
0
 10
174.000183
 20
-225.652817
 11
174.000183
 21
-242.668015
  0
LINE
  8
0
 10
110.000092
 20
-172.399948
 11
142.000092
 21
-172.399948
  0
LINE
  8
0
 10
111.000092
 20
-168.399948
 11
116.000092
 21
-168.399948
  0
LINE
  8
0
 10
113.500092
 20
-167.637405
 11
113.500092
 21
-173.281235
  0
LINE
  8
0
 10
116.000092
 20
-168.399948
 11
116.000092
 21
-172.399948
  0
LINE
  8
0
 10
111.000092
 20
-168.399948
 11
111.000092
 21
-172.399948
  0
LINE
  8
0
 10
3.000004
 20
-199.499954
 11
19.000004
 21
-199.499954
  0
LINE
  8
0
 10
143.000183
 20
-237.999954
 11
143.000183
 21
-239.999954
  0
LINE
  8
0
 10
126.000092
 20
-159.657761
 11
126.000092
 21
-177.949951
  0
LINE
  8
0
 10
116.973907
 20
-167.949966
 11
136.000092
 21
-167.949966
  0
LINE
  8
0
 10
124.400177
 20
-172.399948
 11
124.400177
 21
-167.949966
  0
LINE
  8
0
 10
124.150482
 20
-172.399948
 11
124.150482
 21
-167.949966
  0
LINE
  8
0
 10
119.696259
 20
-172.399948
 11
119.696259
 21
-167.949966
  0
LINE
  8
0
 10
119.073883
 20
-172.399948
 11
119.073883
 21
-167.949966
  0
LINE
  8
0
 10
116.973907
 20
-172.399948
 11
116.973907
 21
-167.949966
  0
LINE
  8
0
 10
128.600189
 20
-172.399948
 11
128.600189
 21
-167.949966
  0
LINE
  8
0
 10
128.849884
 20
-172.399948
 11
128.849884
 21
-167.949966
  0
LINE
  8
0
 10
133.304108
 20
-172.399948
 11
133.304108
 21
-167.949966
  0
LINE
  8
0
 10
133.926483
 20
-172.399948
 11
133.926483
 21
-167.949966
  0
LINE
  8
0
 10
126.500183
 20
-172.399948
 11
126.500183
 21
-167.949966
  0
LINE
  8
0
 10
136.000092
 20
-167.949966
 11
136.000092
 21
-172.399948
  0
CIRCLE
  8
0
 10
30.999912
 20
-190.000015
 40
8.330999
  0
CIRCLE
  8
0
 10
23.999912
 20
-224.000015
 40
8.330999
  0
CIRCLE
  8
0
 10
23.999912
 20
-224.000015
 40
7.474998
  0
CIRCLE
  8
0
 10
30.999912
 20
-190.000015
 40
7.474998
  0
ARC
  8
0
 10
163.000183
 20
-180.999954
 40
3.000000
 50
0.000000
 51
90.000000
  0
ARC
  8
0
 10
179.000183
 20
-228.999954
 40
1.000000
 50
0.000000
 51
90.000000
  0
ARC
  8
0
 10
167.000183
 20
-226.999954
 40
1.000000
 50
180.000000
 51
270.000000
  0
ARC
  8
0
 10
-8.999996
 20
-180.999954
 40
3.000000
 50
89.999985
 51
180.000000
  0
ARC
  8
0
 10
-24.999996
 20
-228.999985
 40
1.000000
 50
90.000000
 51
180.000000
  0
ARC
  8
0
 10
-12.999996
 20
-226.999954
 40
1.000000
 50
270.000000
 51
0.000000
  0
ARC
  8
0
 10
-5.999996
 20
-188.299973
 40
1.000000
 50
90.000000
 51
180.000000
  0
ARC
  8
0
 10
-5.999996
 20
-191.699966
 40
1.000000
 50
180.000000
 51
270.000000
  0
ARC
  8
0
 10
8.000004
 20
-191.699966
 40
1.000000
 50
270.000000
 51
0.000000
  0
ARC
  8
0
 10
8.000004
 20
-188.299973
 40
1.000000
 50
0.000000
 51
90.000000
  0
ARC
  8
0
 10
-5.999996
 20
-222.299973
 40
1.000000
 50
90.000000
 51
180.000000
  0
ARC
  8
0
 10
-5.999996
 20
-225.699966
 40
1.000000
 50
180.000000
 51
270.000000
  0
ARC
  8
0
 10
8.000004
 20
-225.699966
 40
1.000000
 50
270.000000
 51
0.000000
  0
ARC
  8
0
 10
8.000004
 20
-222.299973
 40
1.000000
 50
0.000000
 51
90.000000
  0
CIRCLE
  8
0
 10
36.999912
 20
-138.399948
 40
3.500000
  0
ARC
  8
0
 10
41.499912
 20
-122.899948
 40
1.500000
 50
0.000000
 51
90.000000
  0
ARC
  8
0
 10
12.499912
 20
-122.899948
 40
1.500000
 50
90.000000
 51
180.000000
  0
CIRCLE
  8
0
 10
11.000004
 20
-206.999954
 40
3.500000
  0
CIRCLE
  8
0
 10
15.999912
 20
-165.399948
 40
3.500000
  0
CIRCLE
  8
0
 10
15.999912
 20
-165.399948
 40
4.000000
  0
CIRCLE
  8
0
 10
36.999912
 20
-138.399948
 40
4.000000
  0
TEXT
  8
0
 10
-4.778496
 20
-190.439957
 40
1.599999
  1
A
 50
0.000000
 41
1.052632
 51
0.000000
  7
STANDARD
  0
TEXT
  8
0
 10
-4.778496
 20
-224.439957
 40
1.599999
  1
B
 50
0.000000
 41
1.052632
 51
0.000000
  7
STANDARD
  0
POINT
  8
0
 10
44.000004
 20
-177.999954
  0
LINE
  8
0
 10
47.500004
 20
-168.399963
 11
47.500004
 21
-177.399963
  0
LINE
  8
0
 10
45.499989
 20
-121.399948
 11
74.499985
 21
-121.399948
  0
LINE
  8
0
 10
44.000004
 20
-176.399963
 11
76.000000
 21
-176.399963
  0
LINE
  8
0
 10
43.999989
 20
-131.399948
 11
75.999985
 21
-131.399948
  0
LINE
  8
0
 10
44.000004
 20
-161.399963
 11
76.000000
 21
-161.399963
  0
LINE
  8
0
 10
76.000000
 20
-122.899940
 11
76.000000
 21
-177.999954
  0
LINE
  8
0
 10
44.000004
 20
-122.899956
 11
44.000004
 21
-177.999954
  0
LINE
  8
0
 10
44.000004
 20
-169.899963
 11
47.500004
 21
-169.899963
  0
LINE
  8
0
 10
50.500004
 20
-172.899963
 11
50.500004
 21
-176.399963
  0
LINE
  8
0
 10
43.000004
 20
-172.899963
 11
52.000004
 21
-172.899963
  0
LINE
  8
0
 10
56.500004
 20
-165.499969
 11
63.500004
 21
-165.499969
  0
LINE
  8
0
 10
72.500000
 20
-168.399948
 11
72.500000
 21
-177.399948
  0
LINE
  8
0
 10
76.000000
 20
-169.899963
 11
72.500000
 21
-169.899963
  0
LINE
  8
0
 10
69.500000
 20
-172.899963
 11
69.500000
 21
-176.399963
  0
LINE
  8
0
 10
52.000004
 20
-172.899963
 11
43.000004
 21
-172.899963
  0
LINE
  8
0
 10
43.999989
 20
-132.799942
 11
75.999985
 21
-132.799942
  0
LINE
  8
0
 10
43.999989
 20
-134.799942
 11
75.999985
 21
-134.799942
  0
LINE
  8
0
 10
43.999989
 20
-136.399948
 11
59.999989
 21
-136.399948
  0
LINE
  8
0
 10
43.999989
 20
-138.399948
 11
59.999989
 21
-138.399948
  0
LINE
  8
0
 10
43.999989
 20
-139.999954
 11
75.999985
 21
-139.999954
  0
LINE
  8
0
 10
43.999989
 20
-141.999954
 11
75.999985
 21
-141.999954
  0
LINE
  8
0
 10
43.999989
 20
-143.599960
 11
75.999985
 21
-143.599960
  0
LINE
  8
0
 10
43.999989
 20
-145.599960
 11
75.999985
 21
-145.599960
  0
LINE
  8
0
 10
43.999989
 20
-147.199936
 11
75.999985
 21
-147.199936
  0
LINE
  8
0
 10
43.999989
 20
-149.199936
 11
75.999985
 21
-149.199936
  0
LINE
  8
0
 10
43.999989
 20
-150.799942
 11
75.999985
 21
-150.799942
  0
LINE
  8
0
 10
43.999989
 20
-152.799942
 11
75.999985
 21
-152.799942
  0
LINE
  8
0
 10
44.000004
 20
-154.399948
 11
76.000000
 21
-154.399948
  0
LINE
  8
0
 10
44.000004
 20
-156.399948
 11
76.000000
 21
-156.399948
  0
LINE
  8
0
 10
44.000004
 20
-157.999954
 11
76.000000
 21
-157.999954
  0
LINE
  8
0
 10
44.000004
 20
-159.999954
 11
76.000000
 21
-159.999954
  0
LINE
  8
0
 10
73.000000
 20
-136.399933
 11
73.000000
 21
-138.399933
  0
LINE
  8
0
 10
72.999985
 20
-136.399948
 11
75.999985
 21
-136.399948
  0
LINE
  8
0
 10
72.999985
 20
-138.399948
 11
75.999985
 21
-138.399948
  0
LINE
  8
0
 10
60.000004
 20
-136.399948
 11
60.000004
 21
-138.399948
  0
LINE
  8
0
 10
49.489964
 20
-172.699982
 11
47.699986
 21
-172.699982
  0
LINE
  8
0
 10
49.489964
 20
-173.099976
 11
47.699986
 21
-173.099976
  0
LINE
  8
0
 10
47.699986
 20
-170.910004
 11
47.699986
 21
-172.699982
  0
LINE
  8
0
 10
47.299992
 20
-170.910004
 11
47.299992
 21
-172.699982
  0
LINE
  8
0
 10
47.299992
 20
-172.699982
 11
45.510014
 21
-172.699982
  0
LINE
  8
0
 10
47.299992
 20
-173.099976
 11
47.299992
 21
-174.889954
  0
LINE
  8
0
 10
47.699986
 20
-173.099976
 11
47.699986
 21
-174.889954
  0
LINE
  8
0
 10
47.299992
 20
-173.099976
 11
45.510014
 21
-173.099976
  0
LINE
  8
0
 10
77.000000
 20
-172.899963
 11
68.000000
 21
-172.899963
  0
LINE
  8
0
 10
74.489990
 20
-172.699982
 11
72.700012
 21
-172.699982
  0
LINE
  8
0
 10
74.489990
 20
-173.099976
 11
72.700012
 21
-173.099976
  0
LINE
  8
0
 10
72.700012
 20
-170.909988
 11
72.700012
 21
-172.699966
  0
LINE
  8
0
 10
72.299988
 20
-170.909988
 11
72.299988
 21
-172.699966
  0
LINE
  8
0
 10
72.299988
 20
-172.699982
 11
70.510010
 21
-172.699982
  0
LINE
  8
0
 10
72.299988
 20
-173.099960
 11
72.299988
 21
-174.889938
  0
LINE
  8
0
 10
72.700012
 20
-173.099960
 11
72.700012
 21
-174.889938
  0
LINE
  8
0
 10
72.299988
 20
-173.099976
 11
70.510010
 21
-173.099976
  0
LINE
  8
0
 10
60.000004
 20
-112.293930
 11
60.000004
 21
-182.059052
  0
ARC
  8
0
 10
72.500000
 20
-172.899948
 40
2.000000
 50
174.260910
 51
185.739090
  0
ARC
  8
0
 10
72.500000
 20
-172.899948
 40
2.000000
 50
354.260925
 51
5.739083
  0
ARC
  8
0
 10
74.499985
 20
-122.899948
 40
1.500000
 50
0.000000
 51
90.000000
  0
ARC
  8
0
 10
45.499989
 20
-122.899948
 40
1.500000
 50
90.000000
 51
180.000000
  0
CIRCLE
  8
0
 10
47.500004
 20
-172.899963
 40
2.500000
  0
ARC
  8
0
 10
47.500004
 20
-172.899963
 40
3.000000
 50
0.000000
 51
90.000000
  0
CIRCLE
  8
0
 10
60.000004
 20
-165.499969
 40
2.150000
  0
CIRCLE
  8
0
 10
60.000004
 20
-165.499969
 40
1.500000
  0
CIRCLE
  8
0
 10
72.500000
 20
-172.899948
 40
2.500000
  0
ARC
  8
0
 10
72.500000
 20
-172.899948
 40
3.000000
 50
90.000000
 51
180.000000
  0
ARC
  8
0
 10
72.500000
 20
-172.899948
 40
2.000000
 50
84.260918
 51
95.739082
  0
ARC
  8
0
 10
47.500004
 20
-172.899963
 40
2.000001
 50
174.260483
 51
185.738647
  0
ARC
  8
0
 10
47.500004
 20
-172.899963
 40
1.999985
 50
264.260864
 51
275.739136
  0
ARC
  8
0
 10
47.500004
 20
-172.899963
 40
1.999998
 50
354.261353
 51
5.739518
  0
ARC
  8
0
 10
72.500000
 20
-172.899948
 40
2.000000
 50
264.260925
 51
275.739075
  0
TEXT
  8
0
 10
63.450085
 20
-137.839951
 40
1.599999
  1
AC100V
 50
0.000000
 41
0.690779
 51
0.000000
  7
STANDARD
  0
POINT
  8
0
 10
77.000092
 20
-177.999954
  0
LINE
  8
0
 10
80.500092
 20
-168.399963
 11
80.500092
 21
-177.399963
  0
LINE
  8
0
 10
78.500076
 20
-121.399948
 11
107.500076
 21
-121.399948
  0
LINE
  8
0
 10
77.000092
 20
-176.399963
 11
109.000092
 21
-176.399963
  0
LINE
  8
0
 10
77.000076
 20
-131.399948
 11
109.000076
 21
-131.399948
  0
LINE
  8
0
 10
77.000092
 20
-161.399963
 11
109.000092
 21
-161.399963
  0
LINE
  8
0
 10
109.000092
 20
-122.899940
 11
109.000092
 21
-177.999954
  0
LINE
  8
0
 10
77.000092
 20
-122.899956
 11
77.000092
 21
-177.999954
  0
LINE
  8
0
 10
77.000092
 20
-169.899963
 11
80.500092
 21
-169.899963
  0
LINE
  8
0
 10
83.500092
 20
-172.899963
 11
83.500092
 21
-176.399963
  0
LINE
  8
0
 10
76.000092
 20
-172.899963
 11
85.000092
 21
-172.899963
  0
LINE
  8
0
 10
89.500092
 20
-165.499969
 11
96.500092
 21
-165.499969
  0
LINE
  8
0
 10
105.500092
 20
-168.399948
 11
105.500092
 21
-177.399948
  0
LINE
  8
0
 10
109.000092
 20
-169.899963
 11
105.500092
 21
-169.899963
  0
LINE
  8
0
 10
102.500092
 20
-172.899963
 11
102.500092
 21
-176.399963
  0
LINE
  8
0
 10
85.000092
 20
-172.899963
 11
76.000092
 21
-172.899963
  0
LINE
  8
0
 10
77.000076
 20
-132.799942
 11
109.000076
 21
-132.799942
  0
LINE
  8
0
 10
77.000076
 20
-134.799942
 11
109.000076
 21
-134.799942
  0
LINE
  8
0
 10
77.000076
 20
-136.399948
 11
93.000076
 21
-136.399948
  0
LINE
  8
0
 10
77.000076
 20
-138.399948
 11
93.000076
 21
-138.399948
  0
LINE
  8
0
 10
77.000076
 20
-139.999954
 11
109.000076
 21
-139.999954
  0
LINE
  8
0
 10
77.000076
 20
-141.999954
 11
109.000076
 21
-141.999954
  0
LINE
  8
0
 10
77.000076
 20
-143.599960
 11
109.000076
 21
-143.599960
  0
LINE
  8
0
 10
77.000076
 20
-145.599960
 11
109.000076
 21
-145.599960
  0
LINE
  8
0
 10
77.000076
 20
-147.199936
 11
109.000076
 21
-147.199936
  0
LINE
  8
0
 10
77.000076
 20
-149.199936
 11
109.000076
 21
-149.199936
  0
LINE
  8
0
 10
77.000076
 20
-150.799942
 11
109.000076
 21
-150.799942
  0
LINE
  8
0
 10
77.000076
 20
-152.799942
 11
109.000076
 21
-152.799942
  0
LINE
  8
0
 10
77.000092
 20
-154.399948
 11
109.000092
 21
-154.399948
  0
LINE
  8
0
 10
77.000092
 20
-156.399948
 11
109.000092
 21
-156.399948
  0
LINE
  8
0
 10
77.000092
 20
-157.999954
 11
109.000092
 21
-157.999954
  0
LINE
  8
0
 10
77.000092
 20
-159.999954
 11
109.000092
 21
-159.999954
  0
LINE
  8
0
 10
106.000092
 20
-136.399933
 11
106.000092
 21
-138.399933
  0
LINE
  8
0
 10
106.000076
 20
-136.399948
 11
109.000076
 21
-136.399948
  0
LINE
  8
0
 10
106.000076
 20
-138.399948
 11
109.000076
 21
-138.399948
  0
LINE
  8
0
 10
93.000092
 20
-136.399948
 11
93.000092
 21
-138.399948
  0
LINE
  8
0
 10
82.490051
 20
-172.699982
 11
80.700073
 21
-172.699982
  0
LINE
  8
0
 10
82.490051
 20
-173.099976
 11
80.700073
 21
-173.099976
  0
LINE
  8
0
 10
80.700073
 20
-170.910004
 11
80.700073
 21
-172.699982
  0
LINE
  8
0
 10
80.300079
 20
-170.910004
 11
80.300079
 21
-172.699982
  0
LINE
  8
0
 10
80.300079
 20
-172.699982
 11
78.510101
 21
-172.699982
  0
LINE
  8
0
 10
80.300079
 20
-173.099976
 11
80.300079
 21
-174.889954
  0
LINE
  8
0
 10
80.700073
 20
-173.099976
 11
80.700073
 21
-174.889954
  0
LINE
  8
0
 10
80.300079
 20
-173.099976
 11
78.510101
 21
-173.099976
  0
LINE
  8
0
 10
110.000092
 20
-172.899963
 11
101.000092
 21
-172.899963
  0
LINE
  8
0
 10
107.490082
 20
-172.699982
 11
105.700104
 21
-172.699982
  0
LINE
  8
0
 10
107.490082
 20
-173.099976
 11
105.700104
 21
-173.099976
  0
LINE
  8
0
 10
105.700104
 20
-170.909988
 11
105.700104
 21
-172.699966
  0
LINE
  8
0
 10
105.300079
 20
-170.909988
 11
105.300079
 21
-172.699966
  0
LINE
  8
0
 10
105.300079
 20
-172.699982
 11
103.510101
 21
-172.699982
  0
LINE
  8
0
 10
105.300079
 20
-173.099960
 11
105.300079
 21
-174.889938
  0
LINE
  8
0
 10
105.700104
 20
-173.099960
 11
105.700104
 21
-174.889938
  0
LINE
  8
0
 10
105.300079
 20
-173.099976
 11
103.510101
 21
-173.099976
  0
LINE
  8
0
 10
93.000092
 20
-112.293930
 11
93.000092
 21
-182.059052
  0
ARC
  8
0
 10
105.500092
 20
-172.899948
 40
2.000000
 50
174.260910
 51
185.739090
  0
ARC
  8
0
 10
105.500092
 20
-172.899948
 40
2.000000
 50
354.260925
 51
5.739083
  0
ARC
  8
0
 10
107.500076
 20
-122.899948
 40
1.500000
 50
0.000000
 51
90.000000
  0
ARC
  8
0
 10
78.500076
 20
-122.899948
 40
1.500000
 50
90.000000
 51
180.000000
  0
CIRCLE
  8
0
 10
80.500092
 20
-172.899963
 40
2.500000
  0
ARC
  8
0
 10
80.500092
 20
-172.899963
 40
3.000000
 50
0.000000
 51
90.000000
  0
CIRCLE
  8
0
 10
93.000092
 20
-165.499969
 40
2.150000
  0
CIRCLE
  8
0
 10
93.000092
 20
-165.499969
 40
1.500000
  0
CIRCLE
  8
0
 10
105.500092
 20
-172.899948
 40
2.500000
  0
ARC
  8
0
 10
105.500092
 20
-172.899948
 40
3.000000
 50
90.000000
 51
180.000000
  0
ARC
  8
0
 10
105.500092
 20
-172.899948
 40
2.000000
 50
84.260918
 51
95.739082
  0
ARC
  8
0
 10
80.500092
 20
-172.899963
 40
2.000001
 50
174.260483
 51
185.738647
  0
ARC
  8
0
 10
80.500092
 20
-172.899963
 40
1.999985
 50
264.260864
 51
275.739136
  0
ARC
  8
0
 10
80.500092
 20
-172.899963
 40
1.999998
 50
354.261353
 51
5.739518
  0
ARC
  8
0
 10
105.500092
 20
-172.899948
 40
2.000000
 50
264.260925
 51
275.739075
  0
TEXT
  8
0
 10
96.450180
 20
-137.839951
 40
1.599999
  1
AC100V
 50
0.000000
 41
0.690779
 51
0.000000
  7
STANDARD
  0
POINT
  8
0
 10
11.000004
 20
-206.999954
  0
LINE
  8
0
 10
43.999912
 20
-177.999954
 11
10.999912
 21
-177.999954
  0
LINE
  8
0
 10
44.000004
 20
-177.999954
 11
44.000004
 21
-199.499954
  0
LINE
  8
0
 10
44.000004
 20
-214.499954
 11
44.000004
 21
-238.000015
  0
LINE
  8
0
 10
43.999912
 20
-237.999954
 11
10.999912
 21
-237.999954
  0
LINE
  8
0
 10
36.000004
 20
-199.499954
 11
52.000004
 21
-199.499954
  0
LINE
  8
0
 10
36.000004
 20
-199.499954
 11
36.000004
 21
-214.499954
  0
LINE
  8
0
 10
36.000004
 20
-202.499954
 11
52.000004
 21
-202.499954
  0
LINE
  8
0
 10
34.454197
 20
-206.999954
 11
54.386265
 21
-206.999954
  0
LINE
  8
0
 10
36.000004
 20
-211.499954
 11
52.000004
 21
-211.499954
  0
LINE
  8
0
 10
36.000004
 20
-214.499954
 11
52.000004
 21
-214.499954
  0
LINE
  8
0
 10
44.000004
 20
-202.999954
 11
44.000004
 21
-210.999954
  0
LINE
  8
0
 10
43.999966
 20
-208.732040
 11
45.499973
 21
-207.866013
  0
LINE
  8
0
 10
45.500004
 20
-206.133926
 11
45.500004
 21
-207.865982
  0
LINE
  8
0
 10
44.000000
 20
-205.267715
 11
45.500004
 21
-206.133743
  0
LINE
  8
0
 10
42.499958
 20
-206.133987
 11
43.999962
 21
-205.267960
  0
LINE
  8
0
 10
42.500004
 20
-206.133926
 11
42.500004
 21
-207.865982
  0
LINE
  8
0
 10
42.500042
 20
-207.865784
 11
44.000019
 21
-208.731796
  0
LINE
  8
0
 10
19.000004
 20
-199.499954
 11
19.000004
 21
-214.499954
  0
CIRCLE
  8
0
 10
44.000004
 20
-206.999954
 40
3.500000
  0
POINT
  8
0
 10
44.000004
 20
-206.999954
  0
LINE
  8
0
 10
76.999908
 20
-177.999954
 11
43.999912
 21
-177.999954
  0
LINE
  8
0
 10
77.000000
 20
-177.999954
 11
77.000000
 21
-199.499954
  0
LINE
  8
0
 10
77.000000
 20
-214.499954
 11
77.000000
 21
-238.000015
  0
LINE
  8
0
 10
76.999908
 20
-237.999954
 11
43.999912
 21
-237.999954
  0
LINE
  8
0
 10
69.000000
 20
-199.499954
 11
85.000000
 21
-199.499954
  0
LINE
  8
0
 10
69.000000
 20
-199.499954
 11
69.000000
 21
-214.499954
  0
LINE
  8
0
 10
69.000000
 20
-202.499954
 11
85.000000
 21
-202.499954
  0
LINE
  8
0
 10
67.454193
 20
-206.999954
 11
87.386261
 21
-206.999954
  0
LINE
  8
0
 10
69.000000
 20
-211.499954
 11
85.000000
 21
-211.499954
  0
LINE
  8
0
 10
69.000000
 20
-214.499954
 11
85.000000
 21
-214.499954
  0
LINE
  8
0
 10
77.000000
 20
-202.999954
 11
77.000000
 21
-210.999954
  0
LINE
  8
0
 10
76.999969
 20
-208.732040
 11
78.499969
 21
-207.866013
  0
LINE
  8
0
 10
78.500000
 20
-206.133926
 11
78.500000
 21
-207.865982
  0
LINE
  8
0
 10
77.000000
 20
-205.267715
 11
78.500000
 21
-206.133743
  0
LINE
  8
0
 10
75.499954
 20
-206.133987
 11
76.999954
 21
-205.267960
  0
LINE
  8
0
 10
75.500000
 20
-206.133926
 11
75.500000
 21
-207.865982
  0
LINE
  8
0
 10
75.500046
 20
-207.865784
 11
77.000015
 21
-208.731796
  0
LINE
  8
0
 10
52.000004
 20
-199.499954
 11
52.000004
 21
-214.499954
  0
CIRCLE
  8
0
 10
77.000000
 20
-206.999954
 40
3.500000
  0
POINT
  8
0
 10
77.000092
 20
-206.999954
  0
LINE
  8
0
 10
110.000000
 20
-177.999954
 11
77.000000
 21
-177.999954
  0
LINE
  8
0
 10
110.000092
 20
-177.999954
 11
110.000092
 21
-199.499954
  0
LINE
  8
0
 10
110.000092
 20
-214.499954
 11
110.000092
 21
-238.000015
  0
LINE
  8
0
 10
110.000000
 20
-237.999954
 11
77.000000
 21
-237.999954
  0
LINE
  8
0
 10
102.000092
 20
-199.499954
 11
118.000092
 21
-199.499954
  0
LINE
  8
0
 10
102.000092
 20
-199.499954
 11
102.000092
 21
-214.499954
  0
LINE
  8
0
 10
102.000092
 20
-202.499954
 11
118.000092
 21
-202.499954
  0
LINE
  8
0
 10
100.454285
 20
-206.999954
 11
120.386353
 21
-206.999954
  0
LINE
  8
0
 10
102.000092
 20
-211.499954
 11
118.000092
 21
-211.499954
  0
LINE
  8
0
 10
102.000092
 20
-214.499954
 11
118.000092
 21
-214.499954
  0
LINE
  8
0
 10
110.000092
 20
-202.999954
 11
110.000092
 21
-210.999954
  0
LINE
  8
0
 10
110.000061
 20
-208.732040
 11
111.500061
 21
-207.866013
  0
LINE
  8
0
 10
111.500092
 20
-206.133926
 11
111.500092
 21
-207.865982
  0
LINE
  8
0
 10
110.000092
 20
-205.267715
 11
111.500092
 21
-206.133743
  0
LINE
  8
0
 10
108.500046
 20
-206.133987
 11
110.000046
 21
-205.267960
  0
LINE
  8
0
 10
108.500092
 20
-206.133926
 11
108.500092
 21
-207.865982
  0
LINE
  8
0
 10
108.500122
 20
-207.865784
 11
110.000107
 21
-208.731796
  0
LINE
  8
0
 10
85.000092
 20
-199.499954
 11
85.000092
 21
-214.499954
  0
CIRCLE
  8
0
 10
110.000092
 20
-206.999954
 40
3.500000
  0
POINT
  8
0
 10
110.000183
 20
-206.999954
  0
LINE
  8
0
 10
143.000092
 20
-177.999954
 11
110.000092
 21
-177.999954
  0
LINE
  8
0
 10
143.000183
 20
-177.999954
 11
143.000183
 21
-199.499954
  0
LINE
  8
0
 10
143.000183
 20
-214.499954
 11
143.000183
 21
-238.000015
  0
LINE
  8
0
 10
143.000092
 20
-237.999954
 11
110.000092
 21
-237.999954
  0
LINE
  8
0
 10
135.000183
 20
-199.499954
 11
151.000183
 21
-199.499954
  0
LINE
  8
0
 10
135.000183
 20
-199.499954
 11
135.000183
 21
-214.499954
  0
LINE
  8
0
 10
135.000183
 20
-202.499954
 11
151.000183
 21
-202.499954
  0
LINE
  8
0
 10
133.454376
 20
-206.999954
 11
153.386444
 21
-206.999954
  0
LINE
  8
0
 10
135.000183
 20
-211.499954
 11
151.000183
 21
-211.499954
  0
LINE
  8
0
 10
135.000183
 20
-214.499954
 11
151.000183
 21
-214.499954
  0
LINE
  8
0
 10
143.000183
 20
-202.999954
 11
143.000183
 21
-210.999954
  0
LINE
  8
0
 10
143.000153
 20
-208.732040
 11
144.500153
 21
-207.866013
  0
LINE
  8
0
 10
144.500183
 20
-206.133926
 11
144.500183
 21
-207.865982
  0
LINE
  8
0
 10
143.000183
 20
-205.267715
 11
144.500183
 21
-206.133743
  0
LINE
  8
0
 10
141.500137
 20
-206.133987
 11
143.000137
 21
-205.267960
  0
LINE
  8
0
 10
141.500183
 20
-206.133926
 11
141.500183
 21
-207.865982
  0
LINE
  8
0
 10
141.500214
 20
-207.865784
 11
143.000198
 21
-208.731796
  0
LINE
  8
0
 10
118.000183
 20
-199.499954
 11
118.000183
 21
-214.499954
  0
CIRCLE
  8
0
 10
143.000183
 20
-206.999954
 40
3.500000
  0
POINT
  8
0
 10
-229.999939
 20
-69.999992
  0
POINT
  8
0
 10
-111.399933
 20
-69.999992
  0
LINE
  8
0
 10
-111.399933
 20
-90.499992
 11
-111.399933
 21
73.500008
  0
LINE
  8
0
 10
-111.399933
 20
-41.999992
 11
-141.399933
 21
-41.999992
  0
LINE
  8
0
 10
-111.399933
 20
-35.999992
 11
-141.399933
 21
-35.999992
  0
LINE
  8
0
 10
-141.399933
 20
-41.999992
 11
-141.399933
 21
-35.999992
  0
LINE
  8
0
 10
-137.399933
 20
-41.499992
 11
-137.399933
 21
-36.499992
  0
LINE
  8
0
 10
-111.399933
 20
-67.999992
 11
-166.399933
 21
-67.999992
  0
LINE
  8
0
 10
-111.399933
 20
32.000008
 11
-166.399933
 21
32.000008
  0
LINE
  8
0
 10
-111.399933
 20
12.000008
 11
-166.399933
 21
12.000008
  0
LINE
  8
0
 10
-121.399933
 20
-59.999992
 11
-121.399933
 21
12.000008
  0
LINE
  8
0
 10
-111.399933
 20
-59.999992
 11
-166.399933
 21
-59.999992
  0
LINE
  8
0
 10
-136.637238
 20
-38.999992
 11
-142.100616
 21
-38.999992
  0
LINE
  8
0
 10
-137.399933
 20
-36.499992
 11
-141.399933
 21
-36.499992
  0
LINE
  8
0
 10
-137.399933
 20
-41.499992
 11
-141.399933
 21
-41.499992
  0
LINE
  8
0
 10
-111.399933
 20
-5.999992
 11
-141.399933
 21
-5.999992
  0
LINE
  8
0
 10
-111.399933
 20
-11.999992
 11
-141.399933
 21
-11.999992
  0
LINE
  8
0
 10
-141.399933
 20
-5.999992
 11
-141.399933
 21
-11.999992
  0
LINE
  8
0
 10
-162.899933
 20
69.920143
 11
-162.899933
 21
75.745857
  0
LINE
  8
0
 10
-159.899933
 20
71.000008
 11
-166.399933
 21
71.000008
  0
LINE
  8
0
 10
-161.899933
 20
74.000008
 11
-163.899933
 21
74.000008
  0
LINE
  8
0
 10
-159.899933
 20
71.000008
 11
-159.899933
 21
75.000008
  0
LINE
  8
0
 10
-165.399933
 20
71.000008
 11
-165.399933
 21
72.500008
  0
LINE
  8
0
 10
-160.399933
 20
71.000008
 11
-160.399933
 21
72.500008
  0
LINE
  8
0
 10
-160.399933
 20
72.000008
 11
-165.399933
 21
72.000008
  0
LINE
  8
0
 10
-157.649933
 20
75.000008
 11
-157.649933
 21
75.700020
  0
LINE
  8
0
 10
-153.350128
 20
75.000008
 11
-153.350128
 21
75.700020
  0
LINE
  8
0
 10
-153.350128
 20
75.700020
 11
-157.649933
 21
75.700020
  0
LINE
  8
0
 10
-162.899933
 20
-86.920128
 11
-162.899933
 21
-92.745842
  0
LINE
  8
0
 10
-159.899933
 20
-87.999992
 11
-166.399933
 21
-87.999992
  0
LINE
  8
0
 10
-161.899933
 20
-90.999992
 11
-163.899933
 21
-90.999992
  0
LINE
  8
0
 10
-159.899933
 20
-87.999992
 11
-159.899933
 21
-91.999992
  0
LINE
  8
0
 10
-165.399933
 20
-87.999992
 11
-165.399933
 21
-89.499992
  0
LINE
  8
0
 10
-160.399933
 20
-87.999992
 11
-160.399933
 21
-89.499992
  0
LINE
  8
0
 10
-160.399933
 20
-88.999992
 11
-165.399933
 21
-88.999992
  0
LINE
  8
0
 10
-112.899933
 20
75.000008
 11
-164.899933
 21
75.000008
  0
LINE
  8
0
 10
-122.799835
 20
75.000008
 11
-122.799835
 21
56.000008
  0
LINE
  8
0
 10
-124.799835
 20
75.000008
 11
-124.799835
 21
56.000008
  0
LINE
  8
0
 10
-126.399933
 20
75.000008
 11
-126.399933
 21
56.000008
  0
LINE
  8
0
 10
-128.399933
 20
75.000008
 11
-128.399933
 21
56.000008
  0
LINE
  8
0
 10
-130.000031
 20
75.000008
 11
-130.000031
 21
56.000008
  0
LINE
  8
0
 10
-132.000031
 20
75.000008
 11
-132.000031
 21
56.000008
  0
LINE
  8
0
 10
-133.600128
 20
75.000008
 11
-133.600128
 21
56.000008
  0
LINE
  8
0
 10
-135.600128
 20
75.000008
 11
-135.600128
 21
56.000008
  0
LINE
  8
0
 10
-137.199738
 20
75.000008
 11
-137.199738
 21
56.000008
  0
LINE
  8
0
 10
-139.199738
 20
75.000008
 11
-139.199738
 21
56.000008
  0
LINE
  8
0
 10
-140.799835
 20
75.000008
 11
-140.799835
 21
56.000008
  0
LINE
  8
0
 10
-142.799835
 20
75.000008
 11
-142.799835
 21
56.000008
  0
LINE
  8
0
 10
-144.399933
 20
75.000008
 11
-144.399933
 21
56.000008
  0
LINE
  8
0
 10
-146.399933
 20
75.000008
 11
-146.399933
 21
56.000008
  0
LINE
  8
0
 10
-148.000031
 20
75.000008
 11
-148.000031
 21
56.000008
  0
LINE
  8
0
 10
-150.000031
 20
75.000008
 11
-150.000031
 21
56.000008
  0
LINE
  8
0
 10
-151.399933
 20
75.000008
 11
-151.399933
 21
56.000008
  0
LINE
  8
0
 10
-112.899933
 20
-91.999992
 11
-164.899933
 21
-91.999992
  0
LINE
  8
0
 10
-122.799835
 20
-91.999992
 11
-122.799835
 21
-67.999992
  0
LINE
  8
0
 10
-124.799835
 20
-91.999992
 11
-124.799835
 21
-67.999992
  0
LINE
  8
0
 10
-126.399933
 20
-91.999992
 11
-126.399933
 21
-67.999992
  0
LINE
  8
0
 10
-128.399933
 20
-91.999992
 11
-128.399933
 21
-67.999992
  0
LINE
  8
0
 10
-130.000031
 20
-91.999992
 11
-130.000031
 21
-67.999992
  0
LINE
  8
0
 10
-132.000031
 20
-91.999992
 11
-132.000031
 21
-67.999992
  0
LINE
  8
0
 10
-133.600128
 20
-91.999992
 11
-133.600128
 21
-67.999992
  0
LINE
  8
0
 10
-135.600128
 20
-91.999992
 11
-135.600128
 21
-67.999992
  0
LINE
  8
0
 10
-137.199738
 20
-91.999992
 11
-137.199738
 21
-67.999992
  0
LINE
  8
0
 10
-139.199738
 20
-91.999992
 11
-139.199738
 21
-67.999992
  0
LINE
  8
0
 10
-140.799835
 20
-91.999992
 11
-140.799835
 21
-67.999992
  0
LINE
  8
0
 10
-142.799835
 20
-91.999992
 11
-142.799835
 21
-67.999992
  0
LINE
  8
0
 10
-144.399933
 20
-91.999992
 11
-144.399933
 21
-67.999992
  0
LINE
  8
0
 10
-146.399933
 20
-91.999992
 11
-146.399933
 21
-67.999992
  0
LINE
  8
0
 10
-148.000031
 20
-91.999992
 11
-148.000031
 21
-67.999992
  0
LINE
  8
0
 10
-150.000031
 20
-91.999992
 11
-150.000031
 21
-67.999992
  0
LINE
  8
0
 10
-121.399933
 20
-91.999992
 11
-121.399933
 21
-67.999992
  0
LINE
  8
0
 10
-151.399933
 20
-91.999992
 11
-151.399933
 21
-67.999992
  0
LINE
  8
0
 10
-163.100128
 20
-89.999992
 11
-163.100128
 21
-90.999992
  0
LINE
  8
0
 10
-162.699738
 20
-89.999992
 11
-162.699738
 21
-90.999992
  0
LINE
  8
0
 10
-162.699738
 20
-89.999992
 11
-163.100128
 21
-89.999992
  0
LINE
  8
0
 10
-162.699738
 20
73.000008
 11
-163.100128
 21
73.000008
  0
LINE
  8
0
 10
-162.699738
 20
73.000008
 11
-162.699738
 21
74.000008
  0
LINE
  8
0
 10
-163.100128
 20
73.000008
 11
-163.100128
 21
74.000008
  0
LINE
  8
0
 10
-153.350128
 20
-92.700005
 11
-157.649933
 21
-92.700005
  0
LINE
  8
0
 10
-153.350128
 20
-91.999992
 11
-153.350128
 21
-92.700005
  0
LINE
  8
0
 10
-157.649933
 20
-91.999992
 11
-157.649933
 21
-92.700005
  0
LINE
  8
0
 10
-166.399933
 20
-90.499992
 11
-166.399933
 21
32.000008
  0
LINE
  8
0
 10
-166.399933
 20
32.000008
 11
-166.399933
 21
73.500008
  0
LINE
  8
0
 10
-162.899933
 20
50.920143
 11
-162.899933
 21
56.745857
  0
LINE
  8
0
 10
-159.899933
 20
52.000008
 11
-166.399933
 21
52.000008
  0
LINE
  8
0
 10
-161.899933
 20
55.000008
 11
-163.899933
 21
55.000008
  0
LINE
  8
0
 10
-159.899933
 20
52.000008
 11
-159.899933
 21
56.000008
  0
LINE
  8
0
 10
-165.399933
 20
52.000008
 11
-165.399933
 21
53.500008
  0
LINE
  8
0
 10
-160.399933
 20
52.000008
 11
-160.399933
 21
53.500008
  0
LINE
  8
0
 10
-160.399933
 20
53.000008
 11
-165.399933
 21
53.000008
  0
LINE
  8
0
 10
-157.649933
 20
56.000008
 11
-157.649933
 21
56.700020
  0
LINE
  8
0
 10
-153.350128
 20
56.000008
 11
-153.350128
 21
56.700020
  0
LINE
  8
0
 10
-153.350128
 20
56.700020
 11
-157.649933
 21
56.700020
  0
LINE
  8
0
 10
-112.899933
 20
56.000008
 11
-164.899933
 21
56.000008
  0
LINE
  8
0
 10
-122.799835
 20
56.000008
 11
-122.799835
 21
32.000008
  0
LINE
  8
0
 10
-124.799835
 20
56.000008
 11
-124.799835
 21
32.000008
  0
LINE
  8
0
 10
-126.399933
 20
56.000008
 11
-126.399933
 21
32.000008
  0
LINE
  8
0
 10
-128.399933
 20
56.000008
 11
-128.399933
 21
32.000008
  0
LINE
  8
0
 10
-130.000031
 20
56.000008
 11
-130.000031
 21
32.000008
  0
LINE
  8
0
 10
-132.000031
 20
56.000008
 11
-132.000031
 21
32.000008
  0
LINE
  8
0
 10
-133.600128
 20
56.000008
 11
-133.600128
 21
32.000008
  0
LINE
  8
0
 10
-135.600128
 20
56.000008
 11
-135.600128
 21
32.000008
  0
LINE
  8
0
 10
-137.199738
 20
56.000008
 11
-137.199738
 21
32.000008
  0
LINE
  8
0
 10
-139.199738
 20
56.000008
 11
-139.199738
 21
32.000008
  0
LINE
  8
0
 10
-140.799835
 20
56.000008
 11
-140.799835
 21
32.000008
  0
LINE
  8
0
 10
-142.799835
 20
56.000008
 11
-142.799835
 21
32.000008
  0
LINE
  8
0
 10
-144.399933
 20
56.000008
 11
-144.399933
 21
32.000008
  0
LINE
  8
0
 10
-146.399933
 20
56.000008
 11
-146.399933
 21
32.000008
  0
LINE
  8
0
 10
-148.000031
 20
56.000008
 11
-148.000031
 21
32.000008
  0
LINE
  8
0
 10
-150.000031
 20
56.000008
 11
-150.000031
 21
32.000008
  0
LINE
  8
0
 10
-121.399933
 20
75.000008
 11
-121.399933
 21
32.000008
  0
LINE
  8
0
 10
-151.399933
 20
56.000008
 11
-151.399933
 21
32.000008
  0
LINE
  8
0
 10
-162.699738
 20
54.000008
 11
-163.100128
 21
54.000008
  0
LINE
  8
0
 10
-162.699738
 20
54.000008
 11
-162.699738
 21
55.000008
  0
LINE
  8
0
 10
-163.100128
 20
54.000008
 11
-163.100128
 21
55.000008
  0
LINE
  8
0
 10
-137.399933
 20
-6.499992
 11
-137.399933
 21
-11.499992
  0
LINE
  8
0
 10
-136.637238
 20
-8.999992
 11
-142.281281
 21
-8.999992
  0
LINE
  8
0
 10
-137.399933
 20
-11.499992
 11
-141.399933
 21
-11.499992
  0
LINE
  8
0
 10
-137.399933
 20
-6.499992
 11
-141.399933
 21
-6.499992
  0
LINE
  8
0
 10
-166.399933
 20
14.500008
 11
-167.000031
 21
14.500008
  0
LINE
  8
0
 10
-166.399933
 20
-66.499992
 11
-167.000031
 21
-66.499992
  0
LINE
  8
0
 10
-105.695831
 20
-23.999992
 11
-235.657104
 21
-23.999992
  0
LINE
  8
0
 10
-171.000031
 20
-78.999992
 11
-229.999939
 21
-78.999992
  0
LINE
  8
0
 10
-168.000031
 20
33.000008
 11
-168.000031
 21
-75.999992
  0
LINE
  8
0
 10
-229.999939
 20
36.000008
 11
-229.999939
 21
18.000008
  0
LINE
  8
0
 10
-217.999939
 20
35.000008
 11
-217.999939
 21
19.000008
  0
LINE
  8
0
 10
-214.721039
 20
-69.999992
 11
-232.441071
 21
-69.999992
  0
LINE
  8
0
 10
-214.407410
 20
27.000008
 11
-231.186554
 21
27.000008
  0
LINE
  8
0
 10
-218.999939
 20
18.000008
 11
-229.999939
 21
18.000008
  0
LINE
  8
0
 10
-171.000031
 20
36.000008
 11
-229.999939
 21
36.000008
  0
LINE
  8
0
 10
-218.999939
 20
-60.999992
 11
-229.999939
 21
-60.999992
  0
LINE
  8
0
 10
-217.999939
 20
-61.999992
 11
-217.999939
 21
-77.999992
  0
LINE
  8
0
 10
-218.999939
 20
22.500008
 11
-229.999939
 21
22.500008
  0
LINE
  8
0
 10
-218.999939
 20
31.500008
 11
-229.999939
 21
31.500008
  0
LINE
  8
0
 10
-218.999939
 20
-74.499992
 11
-229.999939
 21
-74.499992
  0
LINE
  8
0
 10
-218.999939
 20
-65.499992
 11
-229.999939
 21
-65.499992
  0
LINE
  8
0
 10
-228.999939
 20
17.000008
 11
-228.999939
 21
-59.999992
  0
LINE
  8
0
 10
-229.999939
 20
-60.999992
 11
-229.999939
 21
-78.999992
  0
LINE
  8
0
 10
-181.000031
 20
1.000008
 11
-206.999939
 21
1.000008
  0
LINE
  8
0
 10
-181.000031
 20
-48.999992
 11
-206.999939
 21
-48.999992
  0
LINE
  8
0
 10
-210.999939
 20
-10.999992
 11
-210.999939
 21
-36.999992
  0
LINE
  8
0
 10
-194.000031
 20
15.510231
 11
-194.000031
 21
-61.999992
  0
LINE
  8
0
 10
-216.999939
 20
15.500008
 11
-216.999939
 21
-0.499992
  0
LINE
  8
0
 10
-208.999939
 20
7.500008
 11
-224.999939
 21
7.500008
  0
LINE
  8
0
 10
-167.000031
 20
14.500008
 11
-168.000031
 21
14.500008
  0
LINE
  8
0
 10
-167.000031
 20
-66.499992
 11
-168.000031
 21
-66.499992
  0
LINE
  8
0
 10
-155.500031
 20
-89.787148
 11
-155.500031
 21
-95.612862
  0
LINE
  8
0
 10
-155.500031
 20
53.787148
 11
-155.500031
 21
59.612862
  0
LINE
  8
0
 10
-155.500031
 20
72.787148
 11
-155.500031
 21
78.612862
  0
LINE
  8
0
 10
-197.200043
 20
63.983894
 11
-197.200043
 21
106.287727
  0
LINE
  8
0
 10
-207.950043
 20
102.400032
 11
-168.950043
 21
102.400032
  0
LINE
  8
0
 10
-183.450043
 20
99.400032
 11
-183.450043
 21
71.900032
  0
LINE
  8
0
 10
-210.950043
 20
99.400032
 11
-210.950043
 21
71.900032
  0
LINE
  8
0
 10
-210.950043
 20
96.400032
 11
-183.450043
 21
96.400032
  0
LINE
  8
0
 10
-210.950043
 20
93.400032
 11
-183.450043
 21
93.400032
  0
LINE
  8
0
 10
-210.950043
 20
91.900032
 11
-183.450043
 21
91.900032
  0
LINE
  8
0
 10
-210.950043
 20
90.400032
 11
-183.450043
 21
90.400032
  0
LINE
  8
0
 10
-210.950043
 20
88.900032
 11
-183.450043
 21
88.900032
  0
LINE
  8
0
 10
-210.950043
 20
85.900032
 11
-183.450043
 21
85.900032
  0
LINE
  8
0
 10
-210.950043
 20
84.400032
 11
-183.450043
 21
84.400032
  0
LINE
  8
0
 10
-210.950043
 20
82.900032
 11
-183.450043
 21
82.900032
  0
LINE
  8
0
 10
-210.950043
 20
81.400032
 11
-183.450043
 21
81.400032
  0
LINE
  8
0
 10
-210.950043
 20
97.900032
 11
-183.450043
 21
97.900032
  0
LINE
  8
0
 10
-178.344574
 20
91.150032
 11
-154.478485
 21
91.150032
  0
LINE
  8
0
 10
-183.450043
 20
79.900032
 11
-168.950043
 21
79.900032
  0
LINE
  8
0
 10
-157.950043
 20
102.150032
 11
-157.950043
 21
80.150032
  0
LINE
  8
0
 10
-167.950043
 20
101.400032
 11
-167.950043
 21
80.900032
  0
LINE
  8
0
 10
-163.950043
 20
102.150032
 11
-163.950043
 21
80.150032
  0
LINE
  8
0
 10
-163.950043
 20
80.150032
 11
-157.950043
 21
80.150032
  0
LINE
  8
0
 10
-163.950043
 20
102.150032
 11
-157.950043
 21
102.150032
  0
LINE
  8
0
 10
-167.950043
 20
82.650032
 11
-163.950043
 21
82.650032
  0
LINE
  8
0
 10
-167.950043
 20
99.650032
 11
-163.950043
 21
99.650032
  0
LINE
  8
0
 10
-163.950043
 20
85.650032
 11
-157.950043
 21
85.650032
  0
LINE
  8
0
 10
-163.950043
 20
96.650032
 11
-157.950043
 21
96.650032
  0
LINE
  8
0
 10
-163.950043
 20
100.285347
 11
-157.950043
 21
100.285347
  0
LINE
  8
0
 10
-163.950043
 20
100.937599
 11
-157.950043
 21
100.937599
  0
LINE
  8
0
 10
-163.950043
 20
97.862465
 11
-157.950043
 21
97.862465
  0
LINE
  8
0
 10
-163.950043
 20
94.225166
 11
-157.950043
 21
94.225166
  0
LINE
  8
0
 10
-163.950043
 20
93.799446
 11
-157.950043
 21
93.799446
  0
LINE
  8
0
 10
-163.950043
 20
82.014717
 11
-157.950043
 21
82.014717
  0
LINE
  8
0
 10
-163.950043
 20
81.362465
 11
-157.950043
 21
81.362465
  0
LINE
  8
0
 10
-163.950043
 20
84.437599
 11
-157.950043
 21
84.437599
  0
LINE
  8
0
 10
-163.950043
 20
88.074898
 11
-157.950043
 21
88.074898
  0
LINE
  8
0
 10
-163.950043
 20
88.500618
 11
-157.950043
 21
88.500618
  0
LINE
  8
0
 10
-167.950043
 20
83.850044
 11
-163.950043
 21
83.850044
  0
LINE
  8
0
 10
-167.950043
 20
98.450050
 11
-163.950043
 21
98.450050
  0
LINE
  8
0
 10
-183.700043
 20
71.900032
 11
-183.700043
 21
71.000008
  0
LINE
  8
0
 10
-210.950043
 20
71.900032
 11
-183.450043
 21
71.900032
  0
LINE
  8
0
 10
-212.200043
 20
71.000008
 11
-182.200043
 21
71.000008
  0
LINE
  8
0
 10
-210.700043
 20
71.900032
 11
-210.700043
 21
71.000008
  0
LINE
  8
0
 10
-224.200043
 20
71.000008
 11
-214.200043
 21
71.000008
  0
LINE
  8
0
 10
-168.200043
 20
68.000008
 11
-168.200043
 21
34.077065
  0
LINE
  8
0
 10
-227.200043
 20
68.000008
 11
-227.200043
 21
36.000008
  0
LINE
  8
0
 10
-180.200043
 20
71.000008
 11
-180.200043
 21
39.000008
  0
LINE
  8
0
 10
-182.200043
 20
71.000008
 11
-182.200043
 21
39.000008
  0
LINE
  8
0
 10
-185.200043
 20
70.505501
 11
-185.200043
 21
39.000008
  0
LINE
  8
0
 10
-187.200043
 20
70.505501
 11
-187.200043
 21
39.000008
  0
LINE
  8
0
 10
-190.200043
 20
70.505501
 11
-190.200043
 21
39.000008
  0
LINE
  8
0
 10
-192.200043
 20
70.505501
 11
-192.200043
 21
39.000008
  0
LINE
  8
0
 10
-202.200043
 20
70.505501
 11
-202.200043
 21
39.000008
  0
LINE
  8
0
 10
-194.371613
 20
68.000008
 11
-194.371613
 21
36.000008
  0
LINE
  8
0
 10
-200.028473
 20
68.000008
 11
-200.028473
 21
36.000008
  0
LINE
  8
0
 10
-204.200043
 20
70.505501
 11
-204.200043
 21
39.000008
  0
LINE
  8
0
 10
-207.200043
 20
70.505501
 11
-207.200043
 21
39.000008
  0
LINE
  8
0
 10
-209.200043
 20
70.503151
 11
-209.200043
 21
39.000008
  0
LINE
  8
0
 10
-212.200043
 20
71.000008
 11
-212.200043
 21
39.000008
  0
LINE
  8
0
 10
-214.200043
 20
71.000008
 11
-214.200043
 21
39.000008
  0
LINE
  8
0
 10
-214.200043
 20
39.000008
 11
-212.200043
 21
39.000008
  0
LINE
  8
0
 10
-187.200043
 20
39.000008
 11
-185.200043
 21
39.000008
  0
LINE
  8
0
 10
-182.200043
 20
39.000008
 11
-180.200043
 21
39.000008
  0
LINE
  8
0
 10
-204.200043
 20
39.000008
 11
-202.200043
 21
39.000008
  0
LINE
  8
0
 10
-192.200043
 20
39.000008
 11
-190.200043
 21
39.000008
  0
LINE
  8
0
 10
-209.200043
 20
39.000008
 11
-207.200043
 21
39.000008
  0
LINE
  8
0
 10
-214.200043
 20
70.600014
 11
-212.200043
 21
70.600014
  0
LINE
  8
0
 10
-182.200043
 20
70.600014
 11
-180.200043
 21
70.600014
  0
LINE
  8
0
 10
-180.200043
 20
71.000008
 11
-171.200043
 21
71.000008
  0
LINE
  8
0
 10
-212.200043
 20
71.000008
 11
-182.200043
 21
71.000008
  0
LINE
  8
0
 10
-190.200043
 20
70.505501
 11
-192.200043
 21
70.505501
  0
LINE
  8
0
 10
-185.200043
 20
70.505501
 11
-187.200043
 21
70.505501
  0
LINE
  8
0
 10
-185.200043
 20
70.105507
 11
-187.200043
 21
70.105507
  0
LINE
  8
0
 10
-207.200043
 20
70.505501
 11
-209.200043
 21
70.505501
  0
LINE
  8
0
 10
-190.200043
 20
70.105507
 11
-192.200043
 21
70.105507
  0
LINE
  8
0
 10
-202.200043
 20
70.505501
 11
-204.200043
 21
70.505501
  0
LINE
  8
0
 10
-202.200043
 20
70.105507
 11
-204.200043
 21
70.105507
  0
LINE
  8
0
 10
-207.200043
 20
70.105507
 11
-209.200043
 21
70.105507
  0
ARC
  8
0
 10
-112.899933
 20
73.500008
 40
1.500000
 50
0.000000
 51
90.000000
  0
ARC
  8
0
 10
-112.899933
 20
-90.499992
 40
1.500000
 50
270.000000
 51
0.000000
  0
ARC
  8
0
 10
-164.899933
 20
73.500008
 40
1.500000
 50
90.000000
 51
180.000000
  0
ARC
  8
0
 10
-164.899933
 20
-90.499992
 40
1.500000
 50
180.000000
 51
270.000000
  0
ARC
  8
0
 10
-161.899933
 20
72.500008
 40
1.500000
 50
0.000000
 51
90.000000
  0
ARC
  8
0
 10
-163.899933
 20
72.500008
 40
1.500000
 50
90.000000
 51
180.000000
  0
ARC
  8
0
 10
-163.899933
 20
-89.499992
 40
1.500000
 50
180.000000
 51
270.000000
  0
ARC
  8
0
 10
-161.899933
 20
-89.499992
 40
1.500000
 50
270.000000
 51
0.000000
  0
ARC
  8
0
 10
-164.899933
 20
54.500008
 40
1.500000
 50
90.000000
 51
180.000000
  0
ARC
  8
0
 10
-161.899933
 20
53.500008
 40
1.500000
 50
0.000000
 51
90.000000
  0
ARC
  8
0
 10
-163.899933
 20
53.500008
 40
1.500000
 50
90.000000
 51
180.000000
  0
ARC
  8
0
 10
-112.899933
 20
54.500008
 40
1.500000
 50
0.000000
 51
90.000000
  0
ARC
  8
0
 10
-112.899933
 20
-66.499992
 40
1.500000
 50
270.000000
 51
0.000000
  0
CIRCLE
  8
0
 10
-194.000031
 20
1.000008
 40
10.477499
  0
CIRCLE
  8
0
 10
-194.000031
 20
1.000008
 40
9.315500
  0
CIRCLE
  8
0
 10
-210.999939
 20
-23.999992
 40
10.477499
  0
CIRCLE
  8
0
 10
-210.999939
 20
-23.999992
 40
9.315500
  0
CIRCLE
  8
0
 10
-194.000031
 20
-48.999992
 40
10.477499
  0
CIRCLE
  8
0
 10
-194.000031
 20
-48.999992
 40
9.315500
  0
ARC
  8
0
 10
-171.000031
 20
-75.999992
 40
3.000000
 50
270.000000
 51
0.000000
  0
ARC
  8
0
 10
-218.999939
 20
35.000008
 40
1.000000
 50
0.000000
 51
90.000000
  0
ARC
  8
0
 10
-218.999939
 20
19.000008
 40
1.000000
 50
270.000000
 51
0.000000
  0
ARC
  8
0
 10
-218.999939
 20
-61.999992
 40
1.000000
 50
0.000000
 51
90.000000
  0
ARC
  8
0
 10
-218.999939
 20
-77.999992
 40
1.000000
 50
270.000000
 51
0.000000
  0
ARC
  8
0
 10
-218.999939
 20
32.500008
 40
1.000000
 50
270.000000
 51
0.000000
  0
ARC
  8
0
 10
-218.999939
 20
21.500008
 40
1.000000
 50
0.000000
 51
90.000000
  0
ARC
  8
0
 10
-218.999939
 20
-64.499992
 40
1.000000
 50
270.000000
 51
0.000000
  0
ARC
  8
0
 10
-218.999939
 20
-75.499992
 40
1.000000
 50
0.000000
 51
90.000000
  0
ARC
  8
0
 10
-229.999939
 20
17.000008
 40
1.000000
 50
0.000000
 51
90.000000
  0
ARC
  8
0
 10
-229.999939
 20
-59.999992
 40
1.000000
 50
270.000000
 51
0.000000
  0
CIRCLE
  8
0
 10
-216.999939
 20
7.500008
 40
4.278000
  0
CIRCLE
  8
0
 10
-216.999939
 20
7.500008
 40
4.863998
  0
ARC
  8
0
 10
-171.000031
 20
33.000008
 40
3.000000
 50
0.000000
 51
90.000000
  0
ARC
  8
0
 10
-207.950043
 20
99.400032
 40
3.000000
 50
90.000000
 51
180.000000
  0
ARC
  8
0
 10
-186.450043
 20
99.400032
 40
3.000000
 50
0.000000
 51
90.000000
  0
ARC
  8
0
 10
-168.950043
 20
101.400032
 40
1.000000
 50
0.000000
 51
90.000000
  0
ARC
  8
0
 10
-168.950043
 20
80.900032
 40
1.000000
 50
270.000000
 51
0.000000
  0
ARC
  8
0
 10
-197.200043
 20
68.000008
 40
2.812500
 50
0.000000
 51
180.000000
  0
ARC
  8
0
 10
-171.200043
 20
68.000008
 40
3.000000
 50
0.000000
 51
90.000000
  0
ARC
  8
0
 10
-224.200043
 20
68.000008
 40
3.000000
 50
90.000000
 51
180.000000
  0
TEXT
  8
0
 10
-179.883179
 20
-22.196276
 40
3.200000
  1
P
 50
270.100006
 41
1.052631
 51
0.000000
  7
STANDARD
  0
TEXT
  8
0
 10
-179.885971
 20
-45.596275
 40
3.200000
  1
R2
 50
270.100006
 41
1.052631
 51
0.000000
  7
STANDARD
  0
TEXT
  8
0
 10
-179.885971
 20
4.403723
 40
3.200000
  1
R1
 50
270.100006
 41
1.052631
 51
0.000000
  7
STANDARD
  0
TEXT
  8
0
 10
-209.885880
 20
10.903753
 40
3.200000
  1
PR
 50
270.100006
 41
1.052631
 51
0.000000
  7
STANDARD
  0
ENDSEC
  0
EOF
