  0
SECTION
  2
HEADER
  0
ENDSEC
  0
SECTION
  2
TABLES
  0
TABLE
  2
LTYPE
 70
     4
  0
LTYPE
  2
CONTINUOUS
 70
    64
  3
Solid line
 72
    65
 73
     0
 40
0.000000
  0
LTYPE
  2
DASHED
 70
    64
  3
__ __ __ __ __ __ __ __ __ __ __ __ __ __ __
 72
    65
 73
     2
 40
3.500000
 49
2.000000
 49
-1.500000
  0
LTYPE
  2
CENTER
 70
    64
  3
____ _ ____ _ ____ _ ____ _ ____ _ ____ _ ____
 72
    65
 73
     4
 40
17.500000
 49
13.000000
 49
-1.500000
 49
1.500000
 49
-1.500000
  0
LTYPE
  2
PHANTOM
 70
    64
  3
_____ _ _ _____ _ _ _____ _ _ _____ _ _ ____  
 72
    65
 73
     6
 40
15.500000
 49
8.000000
 49
-1.500000
 49
1.500000
 49
-1.500000
 49
1.500000
 49
-1.500000
  0
LTYPE
  2
DASHED1
 70
    64
  3
__ __ __ __ __ __ __ __ __ __ __ __ __ __ __
 72
    65
 73
     2
 40
1.500000
 49
1.000000
 49
-0.500000
  0
LTYPE
  2
DASHED2
 70
    64
  3
__ __ __ __ __ __ __ __ __ __ __ __ __ __ __
 72
    65
 73
     2
 40
3.500000
 49
2.500000
 49
-1.000000
  0
LTYPE
  2
DASHED3
 70
    64
  3
__ __ __ __ __ __ __ __ __ __ __ __ __ __ __
 72
    65
 73
     2
 40
6.000000
 49
4.000000
 49
-2.000000
  0
LTYPE
  2
DASHED4
 70
    64
  3
__ __ __ __ __ __ __ __ __ __ __ __ __ __ __
 72
    65
 73
     2
 40
12.000000
 49
10.000000
 49
-2.000000
  0
LTYPE
  2
DASHED5
 70
    64
  3
__ __ __ __ __ __ __ __ __ __ __ __ __ __ __
 72
    65
 73
     2
 40
17.000000
 49
15.000000
 49
-2.000000
  0
LTYPE
  2
DASHED6
 70
    64
  3
__ __ __ __ __ __ __ __ __ __ __ __ __ __ __
 72
    65
 73
     2
 40
29.000000
 49
27.000000
 49
-2.000000
  0
LTYPE
  2
PHANTOM1
 70
    64
  3
_____ _ _ _____ _ _ _____ _ _ _____ _ _ ____  
 72
    65
 73
     6
 40
31.000000
 49
25.000000
 49
-1.500000
 49
1.000000
 49
-1.000000
 49
1.000000
 49
-1.500000
  0
LTYPE
  2
PHANTOM2
 70
    64
  3
_____ _ _ _____ _ _ _____ _ _ _____ _ _ ____  
 72
    65
 73
     6
 40
36.000000
 49
27.000000
 49
-1.500000
 49
2.500000
 49
-1.000000
 49
2.500000
 49
-1.500000
  0
LTYPE
  2
PHANTOM3
 70
    64
  3
_____ _ _ _____ _ _ _____ _ _ _____ _ _ ____  
 72
    65
 73
     6
 40
78.000000
 49
64.000000
 49
-2.000000
 49
4.000000
 49
-2.000000
 49
4.000000
 49
-2.000000
  0
LTYPE
  2
CENTER1
 70
    64
  3
____ _ ____ _ ____ _ ____ _ ____ _ ____ _ ____
 72
    65
 73
     4
 40
19.000000
 49
14.000000
 49
-1.000000
 49
3.000000
 49
-1.000000
  0
LTYPE
  2
CENTER2
 70
    64
  3
____ _ ____ _ ____ _ ____ _ ____ _ ____ _ ____
 72
    65
 73
     4
 40
28.500000
 49
25.000000
 49
-1.000000
 49
1.500000
 49
-1.000000
  0
LTYPE
  2
CENTER3
 70
    64
  3
____ _ ____ _ ____ _ ____ _ ____ _ ____ _ ____
 72
    65
 73
     4
 40
31.500000
 49
27.000000
 49
-1.000000
 49
2.500000
 49
-1.000000
  0
LTYPE
  2
CENTER4
 70
    64
  3
____ _ ____ _ ____ _ ____ _ ____ _ ____ _ ____
 72
    65
 73
     4
 40
50.000000
 49
45.000000
 49
-1.000000
 49
3.000000
 49
-1.000000
  0
LTYPE
  2
CENTER5
 70
    64
  3
____ _ ____ _ ____ _ ____ _ ____ _ ____ _ ____
 72
    65
 73
     4
 40
100.000000
 49
92.000000
 49
-2.000000
 49
4.000000
 49
-2.000000
  0
LTYPE
  2
SBK1
 70
    64
  3
______ _ _ _ ______ _ _ _ ______ _ _ _ _____  
 72
    65
 73
     8
 40
60.500000
 49
45.000000
 49
-2.000000
 49
2.500000
 49
-2.000000
 49
2.500000
 49
-2.000000
 49
2.500000
 49
-2.000000
  0
LTYPE
  2
SBK2
 70
    64
  3
______ _ _ _ ______ _ _ _ ______ _ _ _ _____  
 72
    65
 73
     8
 40
84.000000
 49
64.000000
 49
-2.000000
 49
4.000000
 49
-2.000000
 49
4.000000
 49
-2.000000
 49
4.000000
 49
-2.000000
  0
LTYPE
  2
STCH
 70
    64
  3
__ __ __ __ __ __ __ __ __ __ __ __ __ __ __
 72
    65
 73
     2
 40
3.000000
 49
1.000000
 49
-2.000000
  0
LTYPE
  2
MTCH
 70
    64
  3
_____ _ _ _____ _ _ _____ _ _ _____ _ _ ____  
 72
    65
 73
     6
 40
80.000000
 49
66.000000
 49
-2.000000
 49
4.000000
 49
-2.000000
 49
4.000000
 49
-2.000000
  0
ENDTAB
  0
TABLE
  2
LAYER
 70
     1
  0
LAYER
  2
0
 70
     0
 62
     7
  6
CONTINUOUS
  0
ENDTAB
  0
TABLE
  2
STYLE
 70
     1
  0
STYLE
  2
STANDARD
 70
     0
 40
0.000000
 41
1.000000
 50
0.000000
 71
     0
 42
0.200000
  3
txt
  4
BIGFONT
  0
ENDTAB
  0
TABLE
  2
VIEW
 70
     0
  0
ENDTAB
  0
ENDSEC
  0
SECTION
  2
BLOCKS
  0
ENDSEC
  0
SECTION
  2
ENTITIES
  0
LINE
  8
0
 10
182.099976
 20
-175.000000
 11
282.099976
 21
-175.000000
  0
LINE
  8
0
 10
182.099976
 20
-175.000000
 11
182.099976
 21
-195.000000
  0
LINE
  8
0
 10
182.099976
 20
180.500000
 11
282.099976
 21
180.500000
  0
LINE
  8
0
 10
-281.250000
 20
180.500000
 11
-181.250000
 21
180.500000
  0
LINE
  8
0
 10
-181.250000
 20
195.500000
 11
-181.250000
 21
180.500000
  0
LINE
  8
0
 10
182.099976
 20
180.500000
 11
182.099976
 21
195.500000
  0
LINE
  8
0
 10
-297.000000
 20
210.000000
 11
297.000000
 21
210.000000
  0
LINE
  8
0
 10
-297.000000
 20
210.000000
 11
-297.000000
 21
-210.000000
  0
LINE
  8
0
 10
-297.000000
 20
-210.000000
 11
297.000000
 21
-210.000000
  0
LINE
  8
0
 10
-281.250000
 20
-195.000000
 11
282.099976
 21
-195.000000
  0
LINE
  8
0
 10
-281.250000
 20
195.500000
 11
282.099976
 21
195.500000
  0
LINE
  8
0
 10
-281.250000
 20
195.500000
 11
-281.250000
 21
-195.000000
  0
LINE
  8
0
 10
297.000000
 20
210.000015
 11
297.000000
 21
-210.000000
  0
LINE
  8
0
 10
282.099976
 20
195.500000
 11
282.099976
 21
-195.000000
  0
TEXT
  8
0
 10
178.000870
 20
-190.300003
 40
7.000000
  1
ＫＯＧＡＮＥＩ，ＣＯＲＰ．
 50
0.000000
 41
0.902367
 51
15.000000
  7
STANDARD
  0
TEXT
  8
0
 10
188.021667
 20
183.779999
 40
5.800000
  1
DATE: MAY ,1992
 50
0.000000
 41
1.052632
 51
0.000000
  7
STANDARD
  0
TEXT
  8
0
 10
-260.828308
 20
183.779999
 40
5.800000
  1
430-4E1-39
 50
0.000000
 41
1.052632
 51
0.000000
  7
STANDARD
  0
TEXT
  8
0
 10
-272.728302
 20
163.779999
 40
5.800000
  1
MODEL: 430-4E1-262-39
 50
0.000000
 41
1.052632
 51
0.000000
  7
STANDARD
  0
POINT
  8
0
 10
-25.425003
 20
-60.999985
  0
POINT
  8
0
 10
21.074997
 20
-60.999985
  0
POINT
  8
0
 10
16.574997
 20
12.999985
  0
LINE
  8
0
 10
-4.425003
 20
-80.675552
 11
-4.425003
 21
79.039474
  0
LINE
  8
0
 10
-9.425003
 20
-58.999985
 11
-9.425003
 21
-0.999985
  0
LINE
  8
0
 10
0.574997
 20
-58.999985
 11
0.574997
 21
-0.999985
  0
LINE
  8
0
 10
-10.425003
 20
-58.999985
 11
-10.425003
 21
-0.999985
  0
LINE
  8
0
 10
1.574997
 20
-58.999985
 11
1.574997
 21
-0.999985
  0
LINE
  8
0
 10
-16.925003
 20
-19.499985
 11
-16.925003
 21
-10.499985
  0
LINE
  8
0
 10
8.074997
 20
-49.499985
 11
8.074997
 21
-40.499985
  0
LINE
  8
0
 10
11.574997
 20
-70.999985
 11
11.574997
 21
47.000015
  0
LINE
  8
0
 10
-21.425003
 20
-15.000015
 11
-12.425003
 21
-15.000015
  0
LINE
  8
0
 10
3.574997
 20
-44.999985
 11
12.574997
 21
-44.999985
  0
LINE
  8
0
 10
-9.425003
 20
-10.000015
 11
0.574997
 21
-10.000015
  0
LINE
  8
0
 10
-9.425003
 20
-49.999985
 11
0.574997
 21
-49.999985
  0
LINE
  8
0
 10
-8.425003
 20
-0.000015
 11
-0.425003
 21
-0.000015
  0
LINE
  8
0
 10
-8.424973
 20
-59.999985
 11
-0.424973
 21
-59.999985
  0
LINE
  8
0
 10
-8.425003
 20
0.999985
 11
-0.425003
 21
0.999985
  0
LINE
  8
0
 10
-8.424973
 20
-60.999985
 11
-0.424973
 21
-60.999985
  0
LINE
  8
0
 10
-20.425003
 20
5.999985
 11
11.574997
 21
5.999985
  0
LINE
  8
0
 10
-20.424973
 20
-65.999985
 11
11.575027
 21
-65.999985
  0
LINE
  8
0
 10
8.074997
 20
-41.999985
 11
11.574997
 21
-41.999985
  0
LINE
  8
0
 10
8.074997
 20
-47.999985
 11
11.574997
 21
-47.999985
  0
LINE
  8
0
 10
-16.925003
 20
-47.999985
 11
-20.425003
 21
-47.999985
  0
LINE
  8
0
 10
-16.925003
 20
-41.999985
 11
-20.425003
 21
-41.999985
  0
LINE
  8
0
 10
8.074997
 20
-12.000015
 11
11.574997
 21
-12.000015
  0
LINE
  8
0
 10
8.074997
 20
-18.000015
 11
11.574997
 21
-18.000015
  0
LINE
  8
0
 10
-16.925003
 20
-12.000015
 11
-20.425003
 21
-12.000015
  0
LINE
  8
0
 10
-16.925003
 20
-18.000015
 11
-20.425003
 21
-18.000015
  0
LINE
  8
0
 10
3.574997
 20
-15.000015
 11
12.574997
 21
-15.000015
  0
LINE
  8
0
 10
8.074997
 20
-10.499985
 11
8.074997
 21
-19.499985
  0
LINE
  8
0
 10
-16.925003
 20
-40.499985
 11
-16.925003
 21
-49.499985
  0
LINE
  8
0
 10
-21.425003
 20
-44.999985
 11
-12.425003
 21
-44.999985
  0
LINE
  8
0
 10
10.074997
 20
-2.499985
 11
10.074997
 21
4.500015
  0
LINE
  8
0
 10
4.275009
 20
4.499985
 11
10.074997
 21
4.499985
  0
LINE
  8
0
 10
4.275009
 20
-2.499985
 11
4.275009
 21
4.500015
  0
LINE
  8
0
 10
4.274979
 20
-2.500015
 11
10.074997
 21
-2.500015
  0
LINE
  8
0
 10
-13.124985
 20
-57.499985
 11
-18.924973
 21
-57.499985
  0
LINE
  8
0
 10
-13.124985
 20
-57.499985
 11
-13.124985
 21
-64.499985
  0
LINE
  8
0
 10
-13.124985
 20
-64.499985
 11
-18.924973
 21
-64.499985
  0
LINE
  8
0
 10
-18.925003
 20
-57.499985
 11
-18.925003
 21
-64.499985
  0
LINE
  8
0
 10
7.353317
 20
-43.749985
 11
8.796707
 21
-43.749985
  0
LINE
  8
0
 10
7.353317
 20
-46.249985
 11
8.796707
 21
-46.249985
  0
LINE
  8
0
 10
7.353268
 20
-46.249905
 11
6.631588
 21
-44.999916
  0
LINE
  8
0
 10
9.518333
 20
-44.999901
 11
8.796654
 21
-43.749916
  0
LINE
  8
0
 10
8.796955
 20
-46.250164
 11
9.518642
 21
-45.000168
  0
LINE
  8
0
 10
6.631920
 20
-45.000122
 11
7.353607
 21
-43.750122
  0
LINE
  8
0
 10
-17.646683
 20
-46.249985
 11
-16.203293
 21
-46.249985
  0
LINE
  8
0
 10
-17.646698
 20
-46.249958
 11
-18.368378
 21
-44.999973
  0
LINE
  8
0
 10
-15.481635
 20
-44.999958
 11
-16.203316
 21
-43.749973
  0
LINE
  8
0
 10
-16.203239
 20
-46.250023
 11
-15.481561
 21
-45.000038
  0
LINE
  8
0
 10
-18.368315
 20
-45.000046
 11
-17.646620
 21
-43.750031
  0
LINE
  8
0
 10
-17.646683
 20
-43.749985
 11
-16.203293
 21
-43.749985
  0
LINE
  8
0
 10
-17.646683
 20
-16.250015
 11
-16.203293
 21
-16.250015
  0
LINE
  8
0
 10
-17.646694
 20
-16.249977
 11
-18.368376
 21
-14.999992
  0
LINE
  8
0
 10
-15.481606
 20
-14.999962
 11
-16.203300
 21
-13.749950
  0
LINE
  8
0
 10
-16.203245
 20
-16.250023
 11
-15.481550
 21
-15.000011
  0
LINE
  8
0
 10
-18.368313
 20
-15.000034
 11
-17.646626
 21
-13.750034
  0
LINE
  8
0
 10
-17.646683
 20
-13.750015
 11
-16.203293
 21
-13.750015
  0
LINE
  8
0
 10
7.353317
 20
-16.250015
 11
8.796707
 21
-16.250015
  0
LINE
  8
0
 10
7.353302
 20
-16.249966
 11
6.631622
 21
-14.999981
  0
LINE
  8
0
 10
9.518364
 20
-14.999966
 11
8.796669
 21
-13.749954
  0
LINE
  8
0
 10
8.796944
 20
-16.250179
 11
9.518639
 21
-15.000168
  0
LINE
  8
0
 10
6.631905
 20
-15.000141
 11
7.353600
 21
-13.750130
  0
LINE
  8
0
 10
7.353317
 20
-13.750015
 11
8.796707
 21
-13.750015
  0
LINE
  8
0
 10
-20.425003
 20
-70.999985
 11
-20.425003
 21
47.000015
  0
LINE
  8
0
 10
-2.274979
 20
50.699997
 11
-6.574966
 21
50.699997
  0
LINE
  8
0
 10
-2.274979
 20
50.000015
 11
-2.274979
 21
50.699997
  0
LINE
  8
0
 10
-6.574997
 20
50.000015
 11
-6.574997
 21
50.699997
  0
LINE
  8
0
 10
-29.925003
 20
26.000015
 11
-29.925003
 21
-70.999985
  0
LINE
  8
0
 10
21.075027
 20
25.999985
 11
11.574997
 21
25.999985
  0
LINE
  8
0
 10
18.074997
 20
-73.999985
 11
8.574997
 21
-73.999985
  0
LINE
  8
0
 10
21.074997
 20
26.000015
 11
21.074997
 21
-70.999985
  0
LINE
  8
0
 10
-25.425003
 20
-55.999985
 11
-28.925003
 21
-55.999985
  0
LINE
  8
0
 10
-25.425003
 20
-65.999985
 11
-28.925003
 21
-65.999985
  0
LINE
  8
0
 10
16.575027
 20
17.999985
 11
20.075027
 21
17.999985
  0
LINE
  8
0
 10
16.575027
 20
7.999985
 11
20.075027
 21
7.999985
  0
LINE
  8
0
 10
-19.425003
 20
-60.999985
 11
-31.425003
 21
-60.999985
  0
LINE
  8
0
 10
-25.425003
 20
-54.999985
 11
-25.425003
 21
-66.999985
  0
LINE
  8
0
 10
16.574997
 20
19.000015
 11
16.574997
 21
7.000015
  0
LINE
  8
0
 10
22.575027
 20
12.999985
 11
10.575027
 21
12.999985
  0
LINE
  8
0
 10
-26.591019
 20
-14.800003
 11
-26.591019
 21
-20.199997
  0
LINE
  8
0
 10
-24.724991
 20
-22.065994
 11
-22.524979
 21
-22.065994
  0
LINE
  8
0
 10
-20.658951
 20
-14.800003
 11
-20.658951
 21
-20.199997
  0
LINE
  8
0
 10
-24.724991
 20
-12.934006
 11
-22.524979
 21
-12.934006
  0
LINE
  8
0
 10
-26.591019
 20
-39.799973
 11
-26.591019
 21
-45.199966
  0
LINE
  8
0
 10
-24.724991
 20
-47.065994
 11
-22.524979
 21
-47.065994
  0
LINE
  8
0
 10
-20.658951
 20
-39.799973
 11
-20.658951
 21
-45.199966
  0
LINE
  8
0
 10
-24.724991
 20
-37.934006
 11
-22.524979
 21
-37.934006
  0
LINE
  8
0
 10
11.808975
 20
-2.800003
 11
11.808975
 21
-8.199997
  0
LINE
  8
0
 10
13.675003
 20
-10.065994
 11
15.875015
 21
-10.065994
  0
LINE
  8
0
 10
17.741043
 20
-2.800003
 11
17.741043
 21
-8.199997
  0
LINE
  8
0
 10
13.675003
 20
-0.934006
 11
15.875015
 21
-0.934006
  0
LINE
  8
0
 10
11.808975
 20
-27.300003
 11
11.808975
 21
-32.699966
  0
LINE
  8
0
 10
13.675003
 20
-34.565994
 11
15.875015
 21
-34.565994
  0
LINE
  8
0
 10
17.741043
 20
-27.300003
 11
17.741043
 21
-32.699966
  0
LINE
  8
0
 10
13.675003
 20
-25.434006
 11
15.875015
 21
-25.434006
  0
LINE
  8
0
 10
11.808975
 20
-51.799973
 11
11.808975
 21
-57.199966
  0
LINE
  8
0
 10
13.675003
 20
-59.065994
 11
15.875015
 21
-59.065994
  0
LINE
  8
0
 10
17.741043
 20
-51.799973
 11
17.741043
 21
-57.199966
  0
LINE
  8
0
 10
13.675003
 20
-49.934006
 11
15.875015
 21
-49.934006
  0
LINE
  8
0
 10
20.925003
 20
37.000015
 11
20.925003
 21
25.999985
  0
LINE
  8
0
 10
-29.774979
 20
37.000015
 11
-29.774979
 21
25.999985
  0
LINE
  8
0
 10
-17.425003
 20
-73.999985
 11
-26.925003
 21
-73.999985
  0
LINE
  8
0
 10
8.574997
 20
-73.999985
 11
-17.425003
 21
-73.999985
  0
LINE
  8
0
 10
-20.425003
 20
25.999985
 11
-29.924973
 21
25.999985
  0
LINE
  8
0
 10
11.574997
 20
25.999985
 11
-20.425003
 21
25.999985
  0
LINE
  8
0
 10
-26.774979
 20
40.000015
 11
-20.425003
 21
40.000015
  0
LINE
  8
0
 10
11.574997
 20
40.000015
 11
17.925003
 21
40.000015
  0
LINE
  8
0
 10
-15.175003
 20
71.400040
 11
23.824997
 21
71.400040
  0
LINE
  8
0
 10
-18.175003
 20
65.400040
 11
9.324997
 21
65.400040
  0
LINE
  8
0
 10
-18.175003
 20
62.400040
 11
9.324997
 21
62.400040
  0
LINE
  8
0
 10
-18.175003
 20
60.900040
 11
9.324997
 21
60.900040
  0
LINE
  8
0
 10
-18.175003
 20
59.400040
 11
9.324997
 21
59.400040
  0
LINE
  8
0
 10
-18.175003
 20
57.900040
 11
9.324997
 21
57.900040
  0
LINE
  8
0
 10
-18.175003
 20
54.900040
 11
9.324997
 21
54.900040
  0
LINE
  8
0
 10
-18.175003
 20
53.400040
 11
9.324997
 21
53.400040
  0
LINE
  8
0
 10
-18.175003
 20
51.900040
 11
9.324997
 21
51.900040
  0
LINE
  8
0
 10
-18.175003
 20
50.400040
 11
-6.574997
 21
50.400040
  0
LINE
  8
0
 10
-18.175003
 20
68.400040
 11
-18.175003
 21
49.904739
  0
LINE
  8
0
 10
9.324997
 20
68.400040
 11
9.324997
 21
49.904739
  0
LINE
  8
0
 10
-18.175003
 20
66.900040
 11
9.324997
 21
66.900040
  0
LINE
  8
0
 10
13.712418
 20
60.150040
 11
39.994553
 21
60.150040
  0
LINE
  8
0
 10
10.896622
 20
48.900040
 11
23.824997
 21
48.900040
  0
LINE
  8
0
 10
24.824997
 20
70.400040
 11
24.824997
 21
49.900040
  0
LINE
  8
0
 10
-2.223526
 20
50.400040
 11
9.324997
 21
50.400040
  0
LINE
  8
0
 10
-17.425003
 20
50.000015
 11
8.574997
 21
50.000015
  0
LINE
  8
0
 10
34.825119
 20
50.623795
 11
34.825119
 21
69.676346
  0
LINE
  8
0
 10
28.825119
 20
50.623795
 11
28.825119
 21
69.676346
  0
LINE
  8
0
 10
24.824997
 20
68.650070
 11
28.825119
 21
68.650070
  0
LINE
  8
0
 10
24.824997
 20
51.650070
 11
28.825119
 21
51.650070
  0
LINE
  8
0
 10
28.825119
 20
58.050064
 11
34.825119
 21
58.050064
  0
LINE
  8
0
 10
28.825119
 20
57.800369
 11
34.825119
 21
57.800369
  0
LINE
  8
0
 10
28.825119
 20
53.346146
 11
34.825119
 21
53.346146
  0
LINE
  8
0
 10
28.825119
 20
52.723770
 11
34.825119
 21
52.723770
  0
LINE
  8
0
 10
28.825119
 20
50.623795
 11
34.825119
 21
50.623795
  0
LINE
  8
0
 10
28.825119
 20
62.250076
 11
34.825119
 21
62.250076
  0
LINE
  8
0
 10
28.825119
 20
62.499771
 11
34.825119
 21
62.499771
  0
LINE
  8
0
 10
28.825119
 20
66.953995
 11
34.825119
 21
66.953995
  0
LINE
  8
0
 10
28.825119
 20
67.576370
 11
34.825119
 21
67.576370
  0
LINE
  8
0
 10
28.825119
 20
69.676346
 11
34.825119
 21
69.676346
  0
LINE
  8
0
 10
28.825119
 20
60.150070
 11
34.825119
 21
60.150070
  0
LINE
  8
0
 10
24.824997
 20
67.150070
 11
28.825119
 21
67.150070
  0
LINE
  8
0
 10
24.824997
 20
53.150070
 11
28.825119
 21
53.150070
  0
ARC
  8
0
 10
8.574997
 20
47.000015
 40
3.000000
 50
0.000000
 51
90.000000
  0
ARC
  8
0
 10
-17.425003
 20
47.000015
 40
3.000000
 50
90.000000
 51
180.000000
  0
ARC
  8
0
 10
-0.425003
 20
-0.999985
 40
2.000000
 50
0.000000
 51
90.000000
  0
ARC
  8
0
 10
-8.425003
 20
-0.999985
 40
2.000000
 50
90.000000
 51
180.000000
  0
ARC
  8
0
 10
-8.424973
 20
-58.999985
 40
2.000000
 50
180.000000
 51
270.000000
  0
ARC
  8
0
 10
-0.424973
 20
-58.999985
 40
2.000000
 50
270.000000
 51
0.000000
  0
ARC
  8
0
 10
-0.425003
 20
-0.999985
 40
1.000000
 50
0.000000
 51
90.000000
  0
ARC
  8
0
 10
-8.425003
 20
-0.999985
 40
1.000000
 50
90.000000
 51
180.000000
  0
ARC
  8
0
 10
-8.424973
 20
-58.999985
 40
1.000000
 50
180.000000
 51
270.000000
  0
ARC
  8
0
 10
-0.424973
 20
-58.999985
 40
1.000000
 50
270.000000
 51
0.000000
  0
CIRCLE
  8
0
 10
8.074997
 20
-44.999985
 40
2.500000
  0
ARC
  8
0
 10
8.074997
 20
-44.999985
 40
3.000000
 50
90.000000
 51
270.000000
  0
ARC
  8
0
 10
-16.925003
 20
-44.999985
 40
3.000000
 50
270.000000
 51
90.000000
  0
CIRCLE
  8
0
 10
8.074997
 20
-44.999985
 40
2.500000
  0
ARC
  8
0
 10
8.074997
 20
-14.999985
 40
3.000000
 50
90.000000
 51
270.000000
  0
CIRCLE
  8
0
 10
8.074997
 20
-14.999985
 40
2.500000
  0
ARC
  8
0
 10
-16.925003
 20
-14.999985
 40
3.000000
 50
270.000061
 51
90.000038
  0
CIRCLE
  8
0
 10
-16.925003
 20
-14.999985
 40
2.500000
  0
CIRCLE
  8
0
 10
-16.925003
 20
-44.999985
 40
2.500000
  0
CIRCLE
  8
0
 10
-16.925003
 20
-14.999985
 40
2.500000
  0
CIRCLE
  8
0
 10
8.074997
 20
-14.999985
 40
2.500000
  0
ARC
  8
0
 10
8.574997
 20
-70.999985
 40
3.000000
 50
270.000000
 51
0.000000
  0
ARC
  8
0
 10
-17.425003
 20
-70.999985
 40
3.000000
 50
180.000000
 51
270.000000
  0
ARC
  8
0
 10
-24.724991
 20
-14.800003
 40
1.865997
 50
89.999939
 51
179.999878
  0
ARC
  8
0
 10
15.875015
 20
-57.199966
 40
1.865997
 50
270.000000
 51
0.000000
  0
ARC
  8
0
 10
15.875015
 20
-51.799973
 40
1.865997
 50
0.000000
 51
90.000000
  0
ARC
  8
0
 10
-24.724991
 20
-39.799973
 40
1.865997
 50
89.999939
 51
179.999878
  0
ARC
  8
0
 10
-22.524979
 20
-39.799973
 40
1.865997
 50
0.000000
 51
90.000061
  0
ARC
  8
0
 10
-22.524979
 20
-45.199966
 40
1.865997
 50
270.000000
 51
0.000000
  0
ARC
  8
0
 10
13.675003
 20
-8.199997
 40
1.865997
 50
180.000000
 51
270.000000
  0
ARC
  8
0
 10
15.875015
 20
-8.199997
 40
1.865997
 50
270.000000
 51
0.000000
  0
ARC
  8
0
 10
13.675034
 20
-2.800003
 40
1.865997
 50
89.999886
 51
179.999878
  0
ARC
  8
0
 10
13.675003
 20
-51.799973
 40
1.865997
 50
89.999886
 51
179.999878
  0
ARC
  8
0
 10
13.675003
 20
-57.199966
 40
1.865997
 50
180.000000
 51
270.000000
  0
ARC
  8
0
 10
13.675003
 20
-27.300003
 40
1.865997
 50
89.999886
 51
179.999878
  0
ARC
  8
0
 10
15.875015
 20
-27.300003
 40
1.865997
 50
0.000117
 51
90.000000
  0
ARC
  8
0
 10
-22.524979
 20
-20.199997
 40
1.865997
 50
270.000000
 51
0.000000
  0
ARC
  8
0
 10
-24.724991
 20
-20.199997
 40
1.865997
 50
180.000000
 51
269.999939
  0
ARC
  8
0
 10
15.875015
 20
-2.800003
 40
1.865997
 50
0.000117
 51
90.000000
  0
ARC
  8
0
 10
13.675003
 20
-32.699966
 40
1.865997
 50
180.000000
 51
270.000000
  0
ARC
  8
0
 10
-22.524979
 20
-14.800003
 40
1.865997
 50
0.000117
 51
90.000061
  0
ARC
  8
0
 10
15.875015
 20
-32.699966
 40
1.865997
 50
270.000000
 51
0.000000
  0
ARC
  8
0
 10
-24.724991
 20
-45.199966
 40
1.865997
 50
180.000000
 51
269.999939
  0
ARC
  8
0
 10
18.074997
 20
-70.999985
 40
3.000000
 50
270.000000
 51
0.000000
  0
ARC
  8
0
 10
-26.925003
 20
-70.999985
 40
3.000000
 50
180.000000
 51
270.000000
  0
ARC
  8
0
 10
16.575027
 20
13.000015
 40
5.000000
 50
90.000000
 51
270.000000
  0
CIRCLE
  8
0
 10
16.575027
 20
13.000015
 40
2.750000
  0
CIRCLE
  8
0
 10
-25.425003
 20
-60.999985
 40
2.750000
  0
ARC
  8
0
 10
-25.425003
 20
-60.999985
 40
5.000000
 50
270.000031
 51
89.999977
  0
ARC
  8
0
 10
20.075027
 20
7.000015
 40
1.000000
 50
0.000000
 51
90.000000
  0
ARC
  8
0
 10
20.075027
 20
19.000015
 40
1.000000
 50
270.000000
 51
0.000000
  0
ARC
  8
0
 10
-28.925003
 20
-54.999985
 40
1.000000
 50
180.000000
 51
270.000000
  0
ARC
  8
0
 10
-28.925003
 20
-66.999985
 40
1.000000
 50
90.000000
 51
180.000000
  0
ARC
  8
0
 10
17.925003
 20
37.000015
 40
3.000000
 50
0.000000
 51
90.000000
  0
ARC
  8
0
 10
-26.774979
 20
37.000015
 40
3.000000
 50
90.000000
 51
180.000000
  0
ARC
  8
0
 10
-15.175003
 20
68.400040
 40
3.000000
 50
89.999985
 51
180.000000
  0
ARC
  8
0
 10
6.324997
 20
68.400040
 40
3.000000
 50
0.000000
 51
90.000000
  0
ARC
  8
0
 10
23.824997
 20
70.400040
 40
1.000000
 50
0.000000
 51
90.000000
  0
ARC
  8
0
 10
23.824997
 20
49.900040
 40
1.000000
 50
270.000000
 51
0.000000
  0
TEXT
  8
0
 10
-14.217977
 20
-59.119987
 40
3.200000
  1
B
 50
180.000000
 41
1.052632
 51
0.000000
  7
STANDARD
  0
TEXT
  8
0
 10
5.368003
 20
-0.879985
 40
3.200000
  1
A
 50
0.000000
 41
1.052632
 51
0.000000
  7
STANDARD
  0
TEXT
  8
0
 10
15.215008
 20
-7.078484
 40
1.599999
  1
R1
 50
90.000000
 41
1.052632
 51
0.000000
  7
STANDARD
  0
TEXT
  8
0
 10
15.215008
 20
-56.078484
 40
1.599999
  1
R2
 50
90.000000
 41
1.052632
 51
0.000000
  7
STANDARD
  0
TEXT
  8
0
 10
-24.064983
 20
-41.721485
 40
1.599999
  1
B
 50
270.000000
 41
1.052632
 51
0.000000
  7
STANDARD
  0
TEXT
  8
0
 10
15.215008
 20
-30.778484
 40
1.599999
  1
P
 50
90.000000
 41
1.052632
 51
0.000000
  7
STANDARD
  0
TEXT
  8
0
 10
-24.064983
 20
-16.721485
 40
1.599999
  1
A
 50
270.000000
 41
1.052632
 51
0.000000
  7
STANDARD
  0
POINT
  8
0
 10
-25.425003
 20
175.599960
  0
POINT
  8
0
 10
16.574997
 20
175.599960
  0
LINE
  8
0
 10
8.074997
 20
131.999985
 11
8.074997
 21
140.999985
  0
LINE
  8
0
 10
10.075058
 20
84.999985
 11
-18.924942
 21
84.999985
  0
LINE
  8
0
 10
11.574997
 20
139.999985
 11
-20.425003
 21
139.999985
  0
LINE
  8
0
 10
11.575027
 20
94.999985
 11
-20.424973
 21
94.999985
  0
LINE
  8
0
 10
11.575027
 20
124.999985
 11
-20.424973
 21
124.999985
  0
LINE
  8
0
 10
-20.425003
 20
86.499954
 11
-20.425003
 21
140.599960
  0
LINE
  8
0
 10
11.574997
 20
86.499985
 11
11.574997
 21
140.599991
  0
LINE
  8
0
 10
11.575027
 20
133.499985
 11
8.075027
 21
133.499985
  0
LINE
  8
0
 10
5.074997
 20
136.499985
 11
5.074997
 21
139.999985
  0
LINE
  8
0
 10
12.575027
 20
136.499985
 11
3.575027
 21
136.499985
  0
LINE
  8
0
 10
-0.924973
 20
129.099960
 11
-7.924973
 21
129.099960
  0
LINE
  8
0
 10
-16.925003
 20
131.999954
 11
-16.925003
 21
140.999954
  0
LINE
  8
0
 10
-20.424973
 20
133.499985
 11
-16.924973
 21
133.499985
  0
LINE
  8
0
 10
-13.925003
 20
136.499985
 11
-13.925003
 21
139.999985
  0
LINE
  8
0
 10
3.575027
 20
136.499985
 11
12.575027
 21
136.499985
  0
LINE
  8
0
 10
11.575027
 20
96.399979
 11
-20.424973
 21
96.399979
  0
LINE
  8
0
 10
11.575027
 20
98.399979
 11
-20.424973
 21
98.399979
  0
LINE
  8
0
 10
11.575027
 20
99.999985
 11
-4.424973
 21
99.999985
  0
LINE
  8
0
 10
11.575027
 20
101.999985
 11
-4.424973
 21
101.999985
  0
LINE
  8
0
 10
11.575027
 20
103.599960
 11
-20.424973
 21
103.599960
  0
LINE
  8
0
 10
11.575027
 20
105.599960
 11
-20.424973
 21
105.599960
  0
LINE
  8
0
 10
11.575027
 20
107.199966
 11
-20.424973
 21
107.199966
  0
LINE
  8
0
 10
11.575027
 20
109.199966
 11
-20.424973
 21
109.199966
  0
LINE
  8
0
 10
11.575027
 20
110.799973
 11
-20.424973
 21
110.799973
  0
LINE
  8
0
 10
11.575027
 20
112.799973
 11
-20.424973
 21
112.799973
  0
LINE
  8
0
 10
11.575027
 20
114.399979
 11
-20.424973
 21
114.399979
  0
LINE
  8
0
 10
11.575027
 20
116.399979
 11
-20.424973
 21
116.399979
  0
LINE
  8
0
 10
11.575027
 20
117.999954
 11
-20.424973
 21
117.999954
  0
LINE
  8
0
 10
11.575027
 20
119.999954
 11
-20.424973
 21
119.999954
  0
LINE
  8
0
 10
11.575027
 20
121.599960
 11
-20.424973
 21
121.599960
  0
LINE
  8
0
 10
11.575027
 20
123.599960
 11
-20.424973
 21
123.599960
  0
LINE
  8
0
 10
-17.425003
 20
99.999954
 11
-17.425003
 21
101.999954
  0
LINE
  8
0
 10
-17.424973
 20
99.999985
 11
-20.424973
 21
99.999985
  0
LINE
  8
0
 10
-17.424973
 20
101.999985
 11
-20.424973
 21
101.999985
  0
LINE
  8
0
 10
-4.425003
 20
99.999985
 11
-4.425003
 21
101.999985
  0
LINE
  8
0
 10
6.085037
 20
136.299973
 11
7.875015
 21
136.299973
  0
LINE
  8
0
 10
6.085037
 20
136.699966
 11
7.875015
 21
136.699966
  0
LINE
  8
0
 10
7.875015
 20
134.510025
 11
7.875015
 21
136.300003
  0
LINE
  8
0
 10
8.275009
 20
134.510025
 11
8.275009
 21
136.300003
  0
LINE
  8
0
 10
8.275009
 20
136.299973
 11
10.064987
 21
136.299973
  0
LINE
  8
0
 10
8.275009
 20
136.699997
 11
8.275009
 21
138.489975
  0
LINE
  8
0
 10
7.875015
 20
136.699997
 11
7.875015
 21
138.489975
  0
LINE
  8
0
 10
8.275009
 20
136.699966
 11
10.064987
 21
136.699966
  0
LINE
  8
0
 10
-21.424973
 20
136.499985
 11
-12.424973
 21
136.499985
  0
LINE
  8
0
 10
-18.914963
 20
136.299973
 11
-17.124985
 21
136.299973
  0
LINE
  8
0
 10
-18.914963
 20
136.699966
 11
-17.124985
 21
136.699966
  0
LINE
  8
0
 10
-17.124985
 20
134.509995
 11
-17.124985
 21
136.299973
  0
LINE
  8
0
 10
-16.724991
 20
134.509995
 11
-16.724991
 21
136.299973
  0
LINE
  8
0
 10
-16.724991
 20
136.299973
 11
-14.935013
 21
136.299973
  0
LINE
  8
0
 10
-16.724991
 20
136.699966
 11
-16.724991
 21
138.489944
  0
LINE
  8
0
 10
-17.124985
 20
136.699966
 11
-17.124985
 21
138.489944
  0
LINE
  8
0
 10
-16.724991
 20
136.699966
 11
-14.935013
 21
136.699966
  0
LINE
  8
0
 10
21.074997
 20
175.599960
 11
-29.925003
 21
175.599960
  0
LINE
  8
0
 10
18.074997
 20
141.599960
 11
-26.925003
 21
141.599960
  0
LINE
  8
0
 10
21.074997
 20
144.599960
 11
21.074997
 21
147.099960
  0
LINE
  8
0
 10
-29.925003
 20
144.599960
 11
-29.925003
 21
175.599960
  0
LINE
  8
0
 10
11.574997
 20
140.599960
 11
11.574997
 21
141.599960
  0
LINE
  8
0
 10
-20.425003
 20
140.599960
 11
-20.425003
 21
141.599960
  0
LINE
  8
0
 10
-4.425003
 20
181.763931
 11
-4.425003
 21
78.292282
  0
LINE
  8
0
 10
-27.925003
 20
147.599960
 11
-19.925003
 21
147.599960
  0
LINE
  8
0
 10
-27.925003
 20
169.099960
 11
-19.925003
 21
169.099960
  0
LINE
  8
0
 10
-23.925003
 20
151.599960
 11
-23.925003
 21
143.599960
  0
LINE
  8
0
 10
-23.925003
 20
173.099960
 11
-23.925003
 21
165.099960
  0
LINE
  8
0
 10
34.825119
 20
147.349991
 11
34.825119
 21
169.349991
  0
LINE
  8
0
 10
28.825119
 20
147.349991
 11
28.825119
 21
169.349991
  0
LINE
  8
0
 10
28.825119
 20
169.349991
 11
34.825119
 21
169.349991
  0
LINE
  8
0
 10
28.825119
 20
147.349991
 11
34.825119
 21
147.349991
  0
LINE
  8
0
 10
24.824997
 20
166.849991
 11
28.825119
 21
166.849991
  0
LINE
  8
0
 10
24.824997
 20
149.849991
 11
28.825119
 21
149.849991
  0
LINE
  8
0
 10
28.825119
 20
163.849991
 11
34.825119
 21
163.849991
  0
LINE
  8
0
 10
28.825119
 20
152.849991
 11
34.825119
 21
152.849991
  0
LINE
  8
0
 10
28.825119
 20
149.214676
 11
34.825119
 21
149.214676
  0
LINE
  8
0
 10
28.825119
 20
148.562424
 11
34.825119
 21
148.562424
  0
LINE
  8
0
 10
28.825119
 20
151.637558
 11
34.825119
 21
151.637558
  0
LINE
  8
0
 10
28.825119
 20
155.274857
 11
34.825119
 21
155.274857
  0
LINE
  8
0
 10
28.825119
 20
155.700577
 11
34.825119
 21
155.700577
  0
LINE
  8
0
 10
28.825119
 20
167.485306
 11
34.825119
 21
167.485306
  0
LINE
  8
0
 10
28.825119
 20
168.137558
 11
34.825119
 21
168.137558
  0
LINE
  8
0
 10
28.825119
 20
165.062424
 11
34.825119
 21
165.062424
  0
LINE
  8
0
 10
28.825119
 20
161.425125
 11
34.825119
 21
161.425125
  0
LINE
  8
0
 10
28.825119
 20
160.999405
 11
34.825119
 21
160.999405
  0
LINE
  8
0
 10
-18.175003
 20
169.099960
 11
-18.175003
 21
147.599960
  0
LINE
  8
0
 10
9.324997
 20
169.099960
 11
9.324997
 21
147.599960
  0
LINE
  8
0
 10
-15.175003
 20
144.599960
 11
6.324997
 21
144.599960
  0
LINE
  8
0
 10
-15.175003
 20
172.099960
 11
6.324997
 21
172.099960
  0
LINE
  8
0
 10
-5.697796
 20
157.501450
 11
-5.273548
 21
157.925705
  0
LINE
  8
0
 10
-5.273523
 20
157.077179
 11
-4.849277
 21
157.501434
  0
LINE
  8
0
 10
-5.697765
 20
157.501465
 11
-5.273497
 21
157.077194
  0
LINE
  8
0
 10
-3.576447
 20
159.622787
 11
-3.152178
 21
159.198517
  0
LINE
  8
0
 10
-6.392117
 20
159.892807
 11
-5.273537
 21
158.774231
  0
LINE
  8
0
 10
-5.967819
 20
160.317108
 11
-4.849241
 21
159.198532
  0
LINE
  8
0
 10
-4.000742
 20
159.198502
 11
-3.576475
 21
159.622772
  0
LINE
  8
0
 10
-3.576471
 20
158.774231
 11
-3.152203
 21
159.198502
  0
LINE
  8
0
 10
-4.000732
 20
157.501419
 11
-2.882132
 21
156.382828
  0
LINE
  8
0
 10
-3.576437
 20
157.925735
 11
-2.457836
 21
156.807129
  0
LINE
  8
0
 10
9.324997
 20
169.599960
 11
23.824997
 21
169.599960
  0
LINE
  8
0
 10
9.283035
 20
147.099960
 11
23.824997
 21
147.099960
  0
LINE
  8
0
 10
24.824997
 20
168.599960
 11
24.824997
 21
148.099960
  0
LINE
  8
0
 10
15.923538
 20
146.327164
 11
16.347805
 21
146.751434
  0
LINE
  8
0
 10
13.802200
 20
146.751434
 11
14.150723
 21
147.099960
  0
LINE
  8
0
 10
14.226456
 20
146.327179
 11
14.650726
 21
146.751434
  0
LINE
  8
0
 10
13.802223
 20
146.751450
 11
14.226490
 21
146.327179
  0
LINE
  8
0
 10
15.499283
 20
146.751434
 11
15.923553
 21
146.327164
  0
LINE
  8
0
 10
15.999294
 20
147.099976
 11
16.347820
 21
146.751450
  0
LINE
  8
0
 10
13.802197
 20
169.948502
 11
14.226467
 21
170.372772
  0
LINE
  8
0
 10
15.923561
 20
170.372787
 11
16.347828
 21
169.948517
  0
LINE
  8
0
 10
13.802200
 20
169.948502
 11
14.150723
 21
169.599976
  0
LINE
  8
0
 10
14.226471
 20
170.372772
 11
14.650738
 21
169.948502
  0
LINE
  8
0
 10
15.499260
 20
169.948486
 11
15.923527
 21
170.372757
  0
LINE
  8
0
 10
15.999271
 20
169.599960
 11
16.347797
 21
169.948486
  0
LINE
  8
0
 10
21.074997
 20
169.599960
 11
21.074997
 21
175.599960
  0
LINE
  8
0
 10
24.824997
 20
151.349991
 11
28.825119
 21
151.349991
  0
LINE
  8
0
 10
24.824997
 20
165.349991
 11
28.825119
 21
165.349991
  0
LINE
  8
0
 10
15.074997
 20
173.099960
 11
15.074997
 21
169.599960
  0
LINE
  8
0
 10
15.074997
 20
147.099960
 11
15.074997
 21
143.599960
  0
LINE
  8
0
 10
-25.197823
 20
169.948502
 11
-24.773554
 21
170.372772
  0
LINE
  8
0
 10
-23.076485
 20
167.827164
 11
-22.652216
 21
168.251434
  0
LINE
  8
0
 10
-25.197803
 20
168.251450
 11
-24.773535
 21
168.675720
  0
LINE
  8
0
 10
-24.773552
 20
167.827179
 11
-24.349283
 21
168.251450
  0
LINE
  8
0
 10
-25.197784
 20
168.251450
 11
-24.773516
 21
167.827179
  0
LINE
  8
0
 10
-23.076466
 20
170.372757
 11
-22.652197
 21
169.948486
  0
LINE
  8
0
 10
-25.197783
 20
169.948502
 11
-24.773520
 21
169.524246
  0
LINE
  8
0
 10
-24.773518
 20
170.372757
 11
-24.349255
 21
169.948486
  0
LINE
  8
0
 10
-23.500751
 20
169.948502
 11
-23.076483
 21
170.372772
  0
LINE
  8
0
 10
-23.076498
 20
169.524231
 11
-22.652229
 21
169.948502
  0
LINE
  8
0
 10
-23.500727
 20
168.251450
 11
-23.076464
 21
167.827179
  0
LINE
  8
0
 10
-23.076460
 20
168.675690
 11
-22.652197
 21
168.251434
  0
LINE
  8
0
 10
-25.197811
 20
148.448486
 11
-24.773542
 21
148.872757
  0
LINE
  8
0
 10
-23.076496
 20
146.327179
 11
-22.652227
 21
146.751450
  0
LINE
  8
0
 10
-25.197813
 20
146.751419
 11
-24.773544
 21
147.175690
  0
LINE
  8
0
 10
-24.773548
 20
146.327179
 11
-24.349279
 21
146.751450
  0
LINE
  8
0
 10
-25.197769
 20
146.751465
 11
-24.773500
 21
146.327194
  0
LINE
  8
0
 10
-23.076454
 20
148.872772
 11
-22.652187
 21
148.448502
  0
LINE
  8
0
 10
-25.197769
 20
148.448517
 11
-24.773506
 21
148.024261
  0
LINE
  8
0
 10
-24.773506
 20
148.872772
 11
-24.349243
 21
148.448502
  0
LINE
  8
0
 10
-23.500761
 20
148.448471
 11
-23.076492
 21
148.872742
  0
LINE
  8
0
 10
-23.076496
 20
148.024231
 11
-22.652227
 21
148.448502
  0
LINE
  8
0
 10
-23.500711
 20
146.751465
 11
-23.076448
 21
146.327194
  0
LINE
  8
0
 10
-23.076450
 20
147.175720
 11
-22.652187
 21
146.751450
  0
ARC
  8
0
 10
-23.925003
 20
146.327164
 40
0.600005
 50
45.000385
 51
134.999481
  0
ARC
  8
0
 10
-18.924942
 20
86.499954
 40
1.500000
 50
180.000000
 51
270.000000
  0
ARC
  8
0
 10
10.075058
 20
86.499985
 40
1.500000
 50
270.000000
 51
0.000000
  0
CIRCLE
  8
0
 10
8.075027
 20
136.499985
 40
2.500000
  0
ARC
  8
0
 10
8.075027
 20
136.499985
 40
3.000000
 50
180.000000
 51
270.000000
  0
CIRCLE
  8
0
 10
-4.424973
 20
129.099960
 40
2.150000
  0
CIRCLE
  8
0
 10
-4.424973
 20
129.099960
 40
1.500000
  0
CIRCLE
  8
0
 10
-16.924973
 20
136.499954
 40
2.500000
  0
ARC
  8
0
 10
-16.924973
 20
136.499954
 40
3.000000
 50
270.000000
 51
0.000000
  0
ARC
  8
0
 10
-16.924973
 20
136.499954
 40
2.000000
 50
264.260864
 51
275.739258
  0
ARC
  8
0
 10
8.075027
 20
136.499985
 40
2.000000
 50
354.260925
 51
5.739083
  0
ARC
  8
0
 10
8.075027
 20
136.499985
 40
2.000000
 50
84.260811
 51
95.739189
  0
ARC
  8
0
 10
8.075027
 20
136.499985
 40
2.000000
 50
174.260910
 51
185.739090
  0
ARC
  8
0
 10
-16.924973
 20
136.499954
 40
2.000000
 50
84.260811
 51
95.739136
  0
ARC
  8
0
 10
-16.924973
 20
136.499954
 40
2.000000
 50
354.260925
 51
5.739083
  0
ARC
  8
0
 10
-16.924973
 20
136.499954
 40
2.000000
 50
174.260910
 51
185.739090
  0
ARC
  8
0
 10
18.074997
 20
144.599960
 40
3.000000
 50
270.000000
 51
0.000000
  0
ARC
  8
0
 10
-26.925003
 20
144.599960
 40
3.000000
 50
180.000000
 51
269.999939
  0
ARC
  8
0
 10
6.324997
 20
169.099960
 40
3.000000
 50
0.000000
 51
90.000000
  0
ARC
  8
0
 10
6.324997
 20
147.599960
 40
3.000000
 50
270.000000
 51
0.000000
  0
ARC
  8
0
 10
-15.175003
 20
147.599960
 40
3.000000
 50
180.000000
 51
270.000000
  0
ARC
  8
0
 10
-15.175003
 20
169.099960
 40
3.000000
 50
89.999985
 51
180.000000
  0
CIRCLE
  8
0
 10
-4.425003
 20
158.349960
 40
2.799999
  0
ARC
  8
0
 10
-4.425003
 20
159.622757
 40
0.600005
 50
225.000381
 51
314.999603
  0
ARC
  8
0
 10
-5.697800
 20
158.349960
 40
0.600005
 50
314.999603
 51
45.000385
  0
ARC
  8
0
 10
-3.152206
 20
158.349960
 40
0.600004
 50
134.999481
 51
225.000381
  0
ARC
  8
0
 10
-4.425003
 20
157.077164
 40
0.600005
 50
45.000385
 51
134.999481
  0
CIRCLE
  8
0
 10
-4.425003
 20
158.349960
 40
3.500000
  0
ARC
  8
0
 10
-4.425003
 20
158.349960
 40
2.499995
 50
128.108032
 51
141.892136
  0
ARC
  8
0
 10
-4.425003
 20
158.349960
 40
2.500002
 50
308.107666
 51
321.892059
  0
ARC
  8
0
 10
23.824997
 20
168.599960
 40
1.000000
 50
0.000000
 51
90.000000
  0
ARC
  8
0
 10
23.824997
 20
148.099960
 40
1.000000
 50
270.000000
 51
0.000000
  0
ARC
  8
0
 10
15.074997
 20
147.599960
 40
2.799998
 50
190.286575
 51
349.713440
  0
ARC
  8
0
 10
15.074997
 20
146.327164
 40
0.600004
 50
45.000515
 51
134.999481
  0
ARC
  8
0
 10
15.074997
 20
169.099960
 40
2.799998
 50
10.286568
 51
169.713425
  0
ARC
  8
0
 10
15.074997
 20
170.372757
 40
0.600004
 50
225.000519
 51
314.999481
  0
CIRCLE
  8
0
 10
-23.925003
 20
147.599960
 40
3.000000
  0
CIRCLE
  8
0
 10
-23.925003
 20
169.099960
 40
3.000000
  0
ARC
  8
0
 10
15.074997
 20
147.599960
 40
2.999999
 50
189.594070
 51
350.405914
  0
ARC
  8
0
 10
15.074997
 20
169.099960
 40
2.999999
 50
9.594073
 51
170.405930
  0
ARC
  8
0
 10
8.075027
 20
136.499985
 40
2.000000
 50
264.260803
 51
275.739197
  0
CIRCLE
  8
0
 10
-23.925003
 20
169.099960
 40
2.799999
  0
ARC
  8
0
 10
-23.925003
 20
170.372757
 40
0.600005
 50
225.000381
 51
314.999603
  0
ARC
  8
0
 10
-25.197792
 20
169.099960
 40
0.600005
 50
314.999603
 51
45.000385
  0
ARC
  8
0
 10
-22.652214
 20
169.099960
 40
0.600004
 50
134.999481
 51
225.000381
  0
ARC
  8
0
 10
-23.925003
 20
167.827164
 40
0.600005
 50
45.000385
 51
134.999481
  0
CIRCLE
  8
0
 10
-23.925003
 20
147.599960
 40
2.799999
  0
ARC
  8
0
 10
-23.925003
 20
148.872757
 40
0.600005
 50
225.000381
 51
314.999603
  0
ARC
  8
0
 10
-25.197792
 20
147.599960
 40
0.600005
 50
314.999603
 51
45.000385
  0
ARC
  8
0
 10
-22.652214
 20
147.599960
 40
0.600004
 50
134.999481
 51
225.000381
  0
TEXT
  8
0
 10
-7.968401
 20
101.439949
 40
1.599999
  1
DC24V
 50
180.000000
 41
0.798236
 51
0.000000
  7
STANDARD
  0
POINT
  8
0
 10
-185.425003
 20
-60.999985
  0
POINT
  8
0
 10
-94.824997
 20
-60.999985
  0
LINE
  8
0
 10
-149.825027
 20
8.499985
 11
-150.424973
 21
8.499985
  0
LINE
  8
0
 10
-94.824997
 20
-72.499954
 11
-94.824997
 21
48.500015
  0
LINE
  8
0
 10
-94.825027
 20
-47.999985
 11
-124.825027
 21
-47.999985
  0
LINE
  8
0
 10
-94.825027
 20
-41.999985
 11
-124.825027
 21
-41.999985
  0
LINE
  8
0
 10
-124.824997
 20
-47.999954
 11
-124.824997
 21
-41.999954
  0
LINE
  8
0
 10
-120.824997
 20
-47.499954
 11
-120.824997
 21
-42.499954
  0
LINE
  8
0
 10
-96.324997
 20
-73.999985
 11
-149.824997
 21
-73.999985
  0
LINE
  8
0
 10
-94.825027
 20
25.999985
 11
-149.825027
 21
25.999985
  0
LINE
  8
0
 10
-94.825027
 20
5.999985
 11
-149.825027
 21
5.999985
  0
LINE
  8
0
 10
-104.824997
 20
-65.999954
 11
-104.824997
 21
6.000046
  0
LINE
  8
0
 10
-94.824997
 20
-65.999985
 11
-149.824997
 21
-65.999985
  0
LINE
  8
0
 10
-120.062485
 20
-44.999985
 11
-125.525650
 21
-44.999985
  0
LINE
  8
0
 10
-120.825027
 20
-42.499985
 11
-124.825027
 21
-42.499985
  0
LINE
  8
0
 10
-120.825027
 20
-47.499985
 11
-124.825027
 21
-47.499985
  0
LINE
  8
0
 10
-94.825027
 20
-12.000015
 11
-124.825027
 21
-12.000015
  0
LINE
  8
0
 10
-94.825027
 20
-18.000015
 11
-124.825027
 21
-18.000015
  0
LINE
  8
0
 10
-124.824997
 20
-11.999985
 11
-124.824997
 21
-17.999985
  0
LINE
  8
0
 10
-120.824997
 20
-12.499985
 11
-120.824997
 21
-17.499985
  0
LINE
  8
0
 10
-120.062485
 20
-15.000015
 11
-125.706314
 21
-15.000015
  0
LINE
  8
0
 10
-120.825027
 20
-17.500015
 11
-124.825027
 21
-17.500015
  0
LINE
  8
0
 10
-120.825027
 20
-12.500015
 11
-124.825027
 21
-12.500015
  0
LINE
  8
0
 10
-149.824997
 20
-73.999985
 11
-149.824997
 21
48.500015
  0
LINE
  8
0
 10
-146.324997
 20
44.920151
 11
-146.324997
 21
50.745865
  0
LINE
  8
0
 10
-143.325058
 20
45.999985
 11
-149.825058
 21
45.999985
  0
LINE
  8
0
 10
-145.325058
 20
48.999985
 11
-147.325058
 21
48.999985
  0
LINE
  8
0
 10
-143.324997
 20
46.000015
 11
-143.324997
 21
50.000015
  0
LINE
  8
0
 10
-148.824997
 20
46.000015
 11
-148.824997
 21
47.500015
  0
LINE
  8
0
 10
-143.824997
 20
46.000015
 11
-143.824997
 21
47.500015
  0
LINE
  8
0
 10
-143.825058
 20
46.999985
 11
-148.825058
 21
46.999985
  0
LINE
  8
0
 10
-141.074997
 20
50.000015
 11
-141.074997
 21
50.700027
  0
LINE
  8
0
 10
-136.774979
 20
50.000015
 11
-136.774979
 21
50.700027
  0
LINE
  8
0
 10
-136.775070
 20
50.699997
 11
-141.075058
 21
50.699997
  0
LINE
  8
0
 10
-96.325058
 20
49.999985
 11
-148.325058
 21
49.999985
  0
LINE
  8
0
 10
-106.224991
 20
50.000046
 11
-106.224991
 21
26.000046
  0
LINE
  8
0
 10
-108.224991
 20
50.000015
 11
-108.224991
 21
26.000015
  0
LINE
  8
0
 10
-109.824997
 20
50.000015
 11
-109.824997
 21
26.000015
  0
LINE
  8
0
 10
-111.824997
 20
50.000015
 11
-111.824997
 21
26.000015
  0
LINE
  8
0
 10
-113.425003
 20
50.000015
 11
-113.425003
 21
26.000015
  0
LINE
  8
0
 10
-115.425003
 20
50.000015
 11
-115.425003
 21
26.000015
  0
LINE
  8
0
 10
-117.024979
 20
50.000015
 11
-117.024979
 21
26.000015
  0
LINE
  8
0
 10
-119.024979
 20
50.000015
 11
-119.024979
 21
26.000015
  0
LINE
  8
0
 10
-120.624985
 20
50.000015
 11
-120.624985
 21
26.000015
  0
LINE
  8
0
 10
-122.624985
 20
50.000015
 11
-122.624985
 21
26.000015
  0
LINE
  8
0
 10
-124.224991
 20
50.000015
 11
-124.224991
 21
26.000015
  0
LINE
  8
0
 10
-126.224991
 20
50.000015
 11
-126.224991
 21
26.000015
  0
LINE
  8
0
 10
-127.824997
 20
50.000015
 11
-127.824997
 21
26.000015
  0
LINE
  8
0
 10
-129.824997
 20
50.000015
 11
-129.824997
 21
26.000015
  0
LINE
  8
0
 10
-131.425003
 20
50.000015
 11
-131.425003
 21
26.000015
  0
LINE
  8
0
 10
-133.425003
 20
50.000015
 11
-133.425003
 21
26.000015
  0
LINE
  8
0
 10
-104.824997
 20
50.000046
 11
-104.824997
 21
26.000046
  0
LINE
  8
0
 10
-134.824997
 20
50.000015
 11
-134.824997
 21
26.000015
  0
LINE
  8
0
 10
-146.125046
 20
47.999985
 11
-146.525070
 21
47.999985
  0
LINE
  8
0
 10
-146.125015
 20
48.000015
 11
-146.125015
 21
49.000015
  0
LINE
  8
0
 10
-146.524979
 20
48.000015
 11
-146.524979
 21
49.000015
  0
LINE
  8
0
 10
-159.425003
 20
-55.999954
 11
-159.425003
 21
-65.999954
  0
LINE
  8
0
 10
-152.425003
 20
-55.999985
 11
-159.425003
 21
-55.999985
  0
LINE
  8
0
 10
-152.425003
 20
-65.999985
 11
-159.425003
 21
-65.999985
  0
LINE
  8
0
 10
-146.117996
 20
-60.999985
 11
-163.630386
 21
-60.999985
  0
LINE
  8
0
 10
-154.425003
 20
-73.999985
 11
-185.425003
 21
-73.999985
  0
LINE
  8
0
 10
-170.525009
 20
-63.066025
 11
-168.324997
 21
-63.066025
  0
LINE
  8
0
 10
-172.391037
 20
-55.800003
 11
-172.391037
 21
-61.199966
  0
LINE
  8
0
 10
-166.458969
 20
-55.800003
 11
-166.458969
 21
-61.199966
  0
LINE
  8
0
 10
-170.525009
 20
-53.934036
 11
-168.324997
 21
-53.934036
  0
LINE
  8
0
 10
-151.425003
 20
25.999985
 11
-185.424942
 21
25.999985
  0
LINE
  8
0
 10
-151.425003
 20
37.000015
 11
-151.425003
 21
25.999985
  0
LINE
  8
0
 10
-150.424942
 20
8.499985
 11
-151.424942
 21
8.499985
  0
LINE
  8
0
 10
-172.391037
 20
1.199997
 11
-172.391037
 21
-4.199997
  0
LINE
  8
0
 10
-170.525009
 20
-6.066055
 11
-168.324997
 21
-6.066055
  0
LINE
  8
0
 10
-166.458969
 20
1.199997
 11
-166.458969
 21
-4.199997
  0
LINE
  8
0
 10
-170.525009
 20
3.065933
 11
-168.324997
 21
3.065933
  0
LINE
  8
0
 10
-185.425003
 20
26.000046
 11
-185.425003
 21
-73.999954
  0
LINE
  8
0
 10
-159.425003
 20
-42.499985
 11
-179.425003
 21
-42.499985
  0
LINE
  8
0
 10
-169.425003
 20
-7.500015
 11
-169.425003
 21
-53.333321
  0
LINE
  8
0
 10
-184.625015
 20
38.500015
 11
-184.625015
 21
25.999985
  0
LINE
  8
0
 10
-154.425003
 20
40.000015
 11
-183.125015
 21
40.000015
  0
LINE
  8
0
 10
-151.425003
 20
25.999985
 11
-151.425003
 21
-70.999954
  0
LINE
  8
0
 10
-168.025009
 20
80.512985
 11
-168.025009
 21
33.899643
  0
LINE
  8
0
 10
-178.775009
 20
71.400040
 11
-157.275009
 21
71.400040
  0
LINE
  8
0
 10
-154.275009
 20
68.400040
 11
-154.275009
 21
40.900040
  0
LINE
  8
0
 10
-181.775009
 20
66.900040
 11
-176.025009
 21
66.900040
  0
LINE
  8
0
 10
-181.775009
 20
65.400040
 11
-176.025009
 21
65.400040
  0
LINE
  8
0
 10
-181.775009
 20
62.400040
 11
-176.025009
 21
62.400040
  0
LINE
  8
0
 10
-181.775009
 20
60.900040
 11
-176.025009
 21
60.900040
  0
LINE
  8
0
 10
-181.775009
 20
59.400040
 11
-176.025009
 21
59.400040
  0
LINE
  8
0
 10
-181.775009
 20
57.900040
 11
-176.025009
 21
57.900040
  0
LINE
  8
0
 10
-181.775009
 20
54.900040
 11
-176.025009
 21
54.900040
  0
LINE
  8
0
 10
-181.775009
 20
53.400040
 11
-176.025009
 21
53.400040
  0
LINE
  8
0
 10
-181.775009
 20
51.900040
 11
-176.025009
 21
51.900040
  0
LINE
  8
0
 10
-181.775009
 20
50.400040
 11
-176.025009
 21
50.400040
  0
LINE
  8
0
 10
-181.775009
 20
40.900040
 11
-154.275009
 21
40.900040
  0
LINE
  8
0
 10
-181.525009
 20
40.900040
 11
-181.525009
 21
40.000015
  0
LINE
  8
0
 10
-154.525009
 20
40.900040
 11
-154.525009
 21
40.000015
  0
LINE
  8
0
 10
-181.775009
 20
68.400040
 11
-181.775009
 21
40.900040
  0
LINE
  8
0
 10
-161.775009
 20
65.900040
 11
-161.775009
 21
51.400040
  0
LINE
  8
0
 10
-174.275009
 20
65.900040
 11
-174.275009
 21
51.400040
  0
LINE
  8
0
 10
-160.025009
 20
66.900040
 11
-160.025009
 21
65.400040
  0
LINE
  8
0
 10
-176.025009
 20
66.900040
 11
-176.025009
 21
65.400040
  0
LINE
  8
0
 10
-158.025009
 20
47.400040
 11
-158.025009
 21
43.400040
  0
LINE
  8
0
 10
-178.025009
 20
47.400040
 11
-178.025009
 21
43.400040
  0
LINE
  8
0
 10
-177.025009
 20
48.400040
 11
-159.025009
 21
48.400040
  0
LINE
  8
0
 10
-177.025009
 20
42.400040
 11
-159.025009
 21
42.400040
  0
LINE
  8
0
 10
-176.025009
 20
62.400040
 11
-176.025009
 21
60.900040
  0
LINE
  8
0
 10
-160.025009
 20
62.400040
 11
-160.025009
 21
60.900040
  0
LINE
  8
0
 10
-176.025009
 20
59.400040
 11
-176.025009
 21
57.900040
  0
LINE
  8
0
 10
-160.025009
 20
59.400040
 11
-160.025009
 21
57.900040
  0
LINE
  8
0
 10
-176.025009
 20
54.900040
 11
-176.025009
 21
53.400040
  0
LINE
  8
0
 10
-160.025009
 20
54.900040
 11
-160.025009
 21
53.400040
  0
LINE
  8
0
 10
-176.025009
 20
51.900040
 11
-176.025009
 21
50.400040
  0
LINE
  8
0
 10
-160.025009
 20
51.900040
 11
-160.025009
 21
50.400040
  0
LINE
  8
0
 10
-173.275009
 20
66.900040
 11
-162.775009
 21
66.900040
  0
LINE
  8
0
 10
-160.025009
 20
66.900040
 11
-154.275009
 21
66.900040
  0
LINE
  8
0
 10
-173.275009
 20
50.400040
 11
-162.775009
 21
50.400040
  0
LINE
  8
0
 10
-160.025009
 20
50.400040
 11
-154.275009
 21
50.400040
  0
LINE
  8
0
 10
-160.025009
 20
65.400040
 11
-154.275009
 21
65.400040
  0
LINE
  8
0
 10
-160.025009
 20
62.400040
 11
-154.275009
 21
62.400040
  0
LINE
  8
0
 10
-160.025009
 20
60.900040
 11
-154.275009
 21
60.900040
  0
LINE
  8
0
 10
-160.025009
 20
59.400040
 11
-154.275009
 21
59.400040
  0
LINE
  8
0
 10
-160.025009
 20
57.900040
 11
-154.275009
 21
57.900040
  0
LINE
  8
0
 10
-160.025009
 20
54.900040
 11
-154.275009
 21
54.900040
  0
LINE
  8
0
 10
-160.025009
 20
51.900040
 11
-154.275009
 21
51.900040
  0
LINE
  8
0
 10
-138.925064
 20
47.787125
 11
-138.925064
 21
53.612839
  0
LINE
  8
0
 10
-149.824997
 20
-68.499985
 11
-151.425003
 21
-68.499985
  0
LINE
  8
0
 10
-159.425003
 20
-17.500015
 11
-179.425003
 21
-17.500015
  0
CIRCLE
  8
0
 10
-169.425003
 20
-17.500015
 40
5.722500
  0
ARC
  8
0
 10
-148.325058
 20
48.500015
 40
1.500000
 50
90.000000
 51
180.000000
  0
ARC
  8
0
 10
-145.325058
 20
47.500015
 40
1.500000
 50
0.000000
 51
90.000000
  0
ARC
  8
0
 10
-147.325058
 20
47.500015
 40
1.500000
 50
90.000000
 51
180.000000
  0
ARC
  8
0
 10
-96.325058
 20
48.500046
 40
1.500000
 50
0.000000
 51
90.000000
  0
ARC
  8
0
 10
-96.324997
 20
-72.499954
 40
1.500000
 50
270.000000
 51
0.000000
  0
ARC
  8
0
 10
-152.425003
 20
-54.999954
 40
1.000000
 50
270.000000
 51
0.000000
  0
ARC
  8
0
 10
-152.425003
 20
-66.999954
 40
1.000000
 50
0.000000
 51
90.000000
  0
ARC
  8
0
 10
-154.425003
 20
-70.999954
 40
3.000000
 50
270.000000
 51
0.000000
  0
ARC
  8
0
 10
-168.324997
 20
-61.199966
 40
1.865997
 50
270.000000
 51
0.000000
  0
ARC
  8
0
 10
-170.525009
 20
-61.199966
 40
1.865997
 50
179.999878
 51
270.000000
  0
ARC
  8
0
 10
-170.525009
 20
-55.800003
 40
1.865997
 50
90.000000
 51
179.999878
  0
ARC
  8
0
 10
-168.324997
 20
-55.800003
 40
1.865997
 50
0.000000
 51
90.000000
  0
ARC
  8
0
 10
-170.524948
 20
-4.199997
 40
1.865997
 50
179.999878
 51
270.000000
  0
ARC
  8
0
 10
-168.324966
 20
-4.199997
 40
1.865997
 50
270.000000
 51
0.000000
  0
ARC
  8
0
 10
-170.524948
 20
1.199997
 40
1.865997
 50
90.000000
 51
179.999878
  0
ARC
  8
0
 10
-168.324966
 20
1.199997
 40
1.865997
 50
0.000000
 51
90.000000
  0
ARC
  8
0
 10
-183.125015
 20
38.500015
 40
1.500000
 50
90.000000
 51
180.000000
  0
ARC
  8
0
 10
-154.425003
 20
37.000015
 40
3.000000
 50
0.000000
 51
90.000000
  0
ARC
  8
0
 10
-178.775009
 20
68.400040
 40
3.000000
 50
90.000000
 51
180.000000
  0
ARC
  8
0
 10
-157.275009
 20
68.400040
 40
3.000000
 50
0.000000
 51
90.000000
  0
ARC
  8
0
 10
-177.025009
 20
47.400040
 40
1.000000
 50
90.000000
 51
180.000000
  0
ARC
  8
0
 10
-159.025009
 20
47.400040
 40
1.000000
 50
0.000000
 51
90.000000
  0
ARC
  8
0
 10
-159.025009
 20
43.400040
 40
1.000000
 50
270.000000
 51
0.000000
  0
ARC
  8
0
 10
-177.025009
 20
43.400040
 40
1.000000
 50
180.000000
 51
270.000000
  0
ARC
  8
0
 10
-173.275009
 20
51.400040
 40
1.000000
 50
180.000000
 51
270.000000
  0
ARC
  8
0
 10
-162.775009
 20
51.400040
 40
1.000000
 50
270.000000
 51
0.000000
  0
ARC
  8
0
 10
-162.775009
 20
65.900040
 40
1.000000
 50
0.000000
 51
90.000000
  0
ARC
  8
0
 10
-173.275009
 20
65.900040
 40
1.000000
 50
90.000000
 51
180.000000
  0
CIRCLE
  8
0
 10
-169.425003
 20
-17.500015
 40
6.578500
  0
CIRCLE
  8
0
 10
-169.425003
 20
-42.500015
 40
6.578500
  0
CIRCLE
  8
0
 10
-169.425003
 20
-42.500015
 40
5.722500
  0
TEXT
  8
0
 10
-169.944733
 20
64.258881
 40
1.200000
  1
１２
 50
0.000000
 41
0.833333
 51
0.000000
  7
STANDARD
  0
TEXT
  8
0
 10
-169.830399
 20
57.608112
 40
3.199999
  1
Ｂ
 50
0.000000
 41
0.833333
 51
0.000000
  7
STANDARD
  0
TEXT
  8
0
 10
-169.865005
 20
-57.721485
 40
1.599999
  1
B
 50
270.000000
 41
1.052632
 51
0.000000
  7
STANDARD
  0
TEXT
  8
0
 10
-169.864975
 20
-0.721515
 40
1.599999
  1
A
 50
270.000000
 41
1.052632
 51
0.000000
  7
STANDARD
  0
TEXT
  8
0
 10
-172.858917
 20
53.188114
 40
2.000000
  1
ＧＤＢ
 50
0.000000
 41
0.833333
 51
0.000000
  7
STANDARD
  0
POINT
  8
0
 10
174.574997
 20
-60.999985
  0
POINT
  8
0
 10
194.574997
 20
-60.999985
  0
LINE
  8
0
 10
138.974899
 20
8.499985
 11
139.574997
 21
8.499985
  0
LINE
  8
0
 10
83.974899
 20
-72.499985
 11
83.974899
 21
48.499985
  0
LINE
  8
0
 10
83.974899
 20
-47.999985
 11
113.974899
 21
-47.999985
  0
LINE
  8
0
 10
83.974899
 20
-41.999985
 11
113.974899
 21
-41.999985
  0
LINE
  8
0
 10
113.974899
 20
-48.000015
 11
113.974899
 21
-42.000015
  0
LINE
  8
0
 10
109.974899
 20
-47.500015
 11
109.974899
 21
-42.500015
  0
LINE
  8
0
 10
85.474899
 20
-73.999985
 11
138.974899
 21
-73.999985
  0
LINE
  8
0
 10
83.974899
 20
25.999985
 11
138.974899
 21
25.999985
  0
LINE
  8
0
 10
83.974899
 20
5.999985
 11
138.974899
 21
5.999985
  0
LINE
  8
0
 10
93.974899
 20
-65.999985
 11
93.974899
 21
5.999985
  0
LINE
  8
0
 10
83.974899
 20
-65.999985
 11
138.974899
 21
-65.999985
  0
LINE
  8
0
 10
109.212204
 20
-44.999985
 11
114.675583
 21
-44.999985
  0
LINE
  8
0
 10
109.974899
 20
-42.499985
 11
113.974899
 21
-42.499985
  0
LINE
  8
0
 10
109.974899
 20
-47.499985
 11
113.974899
 21
-47.499985
  0
LINE
  8
0
 10
83.974899
 20
-12.000015
 11
113.974899
 21
-12.000015
  0
LINE
  8
0
 10
83.974899
 20
-18.000015
 11
113.974899
 21
-18.000015
  0
LINE
  8
0
 10
113.974899
 20
-12.000015
 11
113.974899
 21
-18.000015
  0
LINE
  8
0
 10
109.974899
 20
-12.500015
 11
109.974899
 21
-17.500015
  0
LINE
  8
0
 10
109.212204
 20
-15.000015
 11
114.856247
 21
-15.000015
  0
LINE
  8
0
 10
109.974899
 20
-17.500015
 11
113.974899
 21
-17.500015
  0
LINE
  8
0
 10
109.974899
 20
-12.500015
 11
113.974899
 21
-12.500015
  0
LINE
  8
0
 10
138.974899
 20
-74.000046
 11
138.974899
 21
48.499954
  0
LINE
  8
0
 10
85.474899
 20
49.999985
 11
137.474899
 21
49.999985
  0
LINE
  8
0
 10
135.474899
 20
44.920090
 11
135.474899
 21
50.745804
  0
LINE
  8
0
 10
132.474899
 20
45.999985
 11
138.974899
 21
45.999985
  0
LINE
  8
0
 10
134.474899
 20
48.999985
 11
136.474899
 21
48.999985
  0
LINE
  8
0
 10
132.474899
 20
45.999954
 11
132.474899
 21
49.999954
  0
LINE
  8
0
 10
137.974899
 20
45.999954
 11
137.974899
 21
47.499954
  0
LINE
  8
0
 10
132.974899
 20
45.999954
 11
132.974899
 21
47.499954
  0
LINE
  8
0
 10
132.974899
 20
46.999985
 11
137.974899
 21
46.999985
  0
LINE
  8
0
 10
130.224899
 20
49.999954
 11
130.224899
 21
50.699966
  0
LINE
  8
0
 10
125.925095
 20
49.999954
 11
125.925095
 21
50.699966
  0
LINE
  8
0
 10
125.925095
 20
50.699997
 11
130.224899
 21
50.699997
  0
LINE
  8
0
 10
95.374802
 20
49.999985
 11
95.374802
 21
25.999985
  0
LINE
  8
0
 10
97.374802
 20
49.999985
 11
97.374802
 21
25.999985
  0
LINE
  8
0
 10
98.974899
 20
49.999985
 11
98.974899
 21
25.999985
  0
LINE
  8
0
 10
100.974899
 20
49.999985
 11
100.974899
 21
25.999985
  0
LINE
  8
0
 10
102.574997
 20
49.999985
 11
102.574997
 21
25.999985
  0
LINE
  8
0
 10
104.574997
 20
49.999985
 11
104.574997
 21
25.999985
  0
LINE
  8
0
 10
106.175095
 20
49.999985
 11
106.175095
 21
25.999985
  0
LINE
  8
0
 10
108.175095
 20
49.999985
 11
108.175095
 21
25.999985
  0
LINE
  8
0
 10
109.774704
 20
49.999985
 11
109.774704
 21
25.999985
  0
LINE
  8
0
 10
111.774704
 20
49.999985
 11
111.774704
 21
25.999985
  0
LINE
  8
0
 10
113.374802
 20
49.999985
 11
113.374802
 21
25.999985
  0
LINE
  8
0
 10
115.374802
 20
49.999985
 11
115.374802
 21
25.999985
  0
LINE
  8
0
 10
116.974899
 20
49.999985
 11
116.974899
 21
25.999985
  0
LINE
  8
0
 10
118.974899
 20
49.999954
 11
118.974899
 21
25.999954
  0
LINE
  8
0
 10
120.574997
 20
49.999954
 11
120.574997
 21
25.999954
  0
LINE
  8
0
 10
122.574997
 20
49.999954
 11
122.574997
 21
25.999954
  0
LINE
  8
0
 10
93.974899
 20
49.999985
 11
93.974899
 21
25.999985
  0
LINE
  8
0
 10
123.974899
 20
49.999954
 11
123.974899
 21
25.999954
  0
LINE
  8
0
 10
135.275192
 20
47.999985
 11
135.675095
 21
47.999985
  0
LINE
  8
0
 10
135.275192
 20
47.999954
 11
135.275192
 21
48.999954
  0
LINE
  8
0
 10
135.675095
 20
47.999954
 11
135.675095
 21
48.999954
  0
LINE
  8
0
 10
143.574997
 20
-73.999985
 11
174.574997
 21
-73.999985
  0
LINE
  8
0
 10
140.574997
 20
25.999985
 11
174.574997
 21
25.999985
  0
LINE
  8
0
 10
140.574997
 20
25.999985
 11
140.574997
 21
-71.000015
  0
LINE
  8
0
 10
139.574997
 20
8.499985
 11
140.574997
 21
8.499985
  0
LINE
  8
0
 10
174.574997
 20
25.999985
 11
174.574997
 21
-74.000015
  0
LINE
  8
0
 10
148.574997
 20
17.999985
 11
148.574997
 21
7.999985
  0
LINE
  8
0
 10
141.574997
 20
17.999985
 11
148.574997
 21
17.999985
  0
LINE
  8
0
 10
141.574997
 20
7.999985
 11
148.574997
 21
7.999985
  0
LINE
  8
0
 10
147.620407
 20
-30.000015
 11
170.219040
 21
-30.000015
  0
LINE
  8
0
 10
148.574997
 20
-5.500015
 11
168.574997
 21
-5.500015
  0
LINE
  8
0
 10
135.267868
 20
12.999985
 11
152.780563
 21
12.999985
  0
LINE
  8
0
 10
148.574997
 20
-54.499985
 11
168.574997
 21
-54.499985
  0
LINE
  8
0
 10
158.574997
 20
6.981339
 11
158.574997
 21
-64.500015
  0
LINE
  8
0
 10
165.608688
 20
-16.300034
 11
165.608688
 21
-21.700027
  0
LINE
  8
0
 10
167.474899
 20
-23.565994
 11
169.675095
 21
-23.565994
  0
LINE
  8
0
 10
171.540817
 20
-16.300034
 11
171.540817
 21
-21.700027
  0
LINE
  8
0
 10
167.474899
 20
-14.434006
 11
169.675095
 21
-14.434006
  0
LINE
  8
0
 10
165.608688
 20
-40.800003
 11
165.608688
 21
-46.199997
  0
LINE
  8
0
 10
167.474899
 20
-48.065994
 11
169.675095
 21
-48.065994
  0
LINE
  8
0
 10
171.540817
 20
-40.800003
 11
171.540817
 21
-46.199997
  0
LINE
  8
0
 10
167.474899
 20
-38.934006
 11
169.675095
 21
-38.934006
  0
LINE
  8
0
 10
140.724899
 20
37.000015
 11
140.724899
 21
25.999985
  0
LINE
  8
0
 10
173.925095
 20
38.500015
 11
173.925095
 21
25.999985
  0
LINE
  8
0
 10
165.608688
 20
8.199966
 11
165.608688
 21
2.799973
  0
LINE
  8
0
 10
167.474899
 20
0.934006
 11
169.675095
 21
0.934006
  0
LINE
  8
0
 10
171.540817
 20
8.199966
 11
171.540817
 21
2.799973
  0
LINE
  8
0
 10
167.474899
 20
10.065994
 11
169.675095
 21
10.065994
  0
LINE
  8
0
 10
157.324997
 20
80.247116
 11
157.324997
 21
33.812759
  0
LINE
  8
0
 10
143.724899
 20
40.000015
 11
172.425095
 21
40.000015
  0
LINE
  8
0
 10
146.574997
 20
71.400040
 11
168.074997
 21
71.400040
  0
LINE
  8
0
 10
171.074997
 20
68.400040
 11
171.074997
 21
40.900040
  0
LINE
  8
0
 10
143.574997
 20
68.400040
 11
143.574997
 21
40.900040
  0
LINE
  8
0
 10
143.574997
 20
65.400040
 11
147.658493
 21
65.400040
  0
LINE
  8
0
 10
143.574997
 20
62.400040
 11
146.557419
 21
62.400040
  0
LINE
  8
0
 10
143.574997
 20
60.900040
 11
146.350388
 21
60.900040
  0
LINE
  8
0
 10
143.574997
 20
59.400040
 11
146.350388
 21
59.400040
  0
LINE
  8
0
 10
143.574997
 20
57.900040
 11
146.557419
 21
57.900040
  0
LINE
  8
0
 10
143.574997
 20
54.900040
 11
147.658493
 21
54.900040
  0
LINE
  8
0
 10
143.574997
 20
53.400040
 11
148.639450
 21
53.400040
  0
LINE
  8
0
 10
143.574997
 20
51.900040
 11
150.049118
 21
51.900040
  0
LINE
  8
0
 10
143.574997
 20
50.400040
 11
152.232224
 21
50.400040
  0
LINE
  8
0
 10
143.574997
 20
40.900040
 11
171.074997
 21
40.900040
  0
LINE
  8
0
 10
143.824997
 20
40.900040
 11
143.824997
 21
40.000015
  0
LINE
  8
0
 10
170.824997
 20
40.900040
 11
170.824997
 21
40.000015
  0
LINE
  8
0
 10
143.574997
 20
66.900040
 11
148.639450
 21
66.900040
  0
LINE
  8
0
 10
146.325165
 20
60.149956
 11
147.537582
 21
62.249924
  0
LINE
  8
0
 10
147.537384
 20
58.050095
 11
146.324966
 21
60.150063
  0
LINE
  8
0
 10
148.223221
 20
62.499680
 11
147.537262
 21
62.250008
  0
LINE
  8
0
 10
148.189667
 20
57.934998
 11
147.537613
 21
58.049965
  0
LINE
  8
0
 10
151.824997
 20
69.676315
 11
154.249802
 21
69.676315
  0
LINE
  8
0
 10
150.612717
 20
67.576218
 11
151.825150
 21
69.676208
  0
LINE
  8
0
 10
154.809128
 20
69.207001
 11
154.249939
 21
69.676224
  0
LINE
  8
0
 10
150.838974
 20
66.953880
 11
150.612442
 21
67.576263
  0
LINE
  8
0
 10
162.824951
 20
69.676331
 11
164.037369
 21
67.576370
  0
LINE
  8
0
 10
160.400192
 20
69.676315
 11
162.824997
 21
69.676315
  0
LINE
  8
0
 10
163.910477
 20
66.857407
 11
164.037231
 21
67.576324
  0
LINE
  8
0
 10
159.974503
 20
69.168823
 11
160.400238
 21
69.676193
  0
LINE
  8
0
 10
168.324890
 20
60.150085
 11
167.112457
 21
58.050087
  0
LINE
  8
0
 10
167.112564
 20
62.249977
 11
168.324966
 21
60.150032
  0
LINE
  8
0
 10
166.426315
 20
57.800247
 11
167.112732
 21
58.050087
  0
LINE
  8
0
 10
166.460129
 20
62.365036
 11
167.112656
 21
62.249977
  0
LINE
  8
0
 10
162.824997
 20
50.623764
 11
160.400192
 21
50.623764
  0
LINE
  8
0
 10
164.037323
 20
52.723801
 11
162.824905
 21
50.623833
  0
LINE
  8
0
 10
159.840881
 20
51.092941
 11
160.400085
 21
50.623718
  0
LINE
  8
0
 10
163.811005
 20
53.346230
 11
164.037537
 21
52.723854
  0
LINE
  8
0
 10
151.824982
 20
50.623756
 11
150.612579
 21
52.723701
  0
LINE
  8
0
 10
154.249802
 20
50.623764
 11
151.824997
 21
50.623764
  0
LINE
  8
0
 10
150.739212
 20
53.442696
 11
150.612457
 21
52.723778
  0
LINE
  8
0
 10
154.675522
 20
51.131180
 11
154.249786
 21
50.623817
  0
LINE
  8
0
 10
166.010544
 20
66.900040
 11
171.074997
 21
66.900040
  0
LINE
  8
0
 10
166.991501
 20
65.400040
 11
171.074997
 21
65.400040
  0
LINE
  8
0
 10
168.092575
 20
62.400040
 11
171.074997
 21
62.400040
  0
LINE
  8
0
 10
168.299606
 20
60.900040
 11
171.074997
 21
60.900040
  0
LINE
  8
0
 10
168.299606
 20
59.400040
 11
171.074997
 21
59.400040
  0
LINE
  8
0
 10
168.092575
 20
57.900040
 11
171.074997
 21
57.900040
  0
LINE
  8
0
 10
166.991501
 20
54.900040
 11
171.074997
 21
54.900040
  0
LINE
  8
0
 10
166.010544
 20
53.400040
 11
171.074997
 21
53.400040
  0
LINE
  8
0
 10
164.600876
 20
51.900040
 11
171.074997
 21
51.900040
  0
LINE
  8
0
 10
162.417770
 20
50.400040
 11
171.074997
 21
50.400040
  0
LINE
  8
0
 10
144.466599
 20
60.150040
 11
169.776169
 21
60.150040
  0
LINE
  8
0
 10
128.074997
 20
47.787125
 11
128.074997
 21
53.612839
  0
LINE
  8
0
 10
138.974899
 20
-68.499985
 11
140.574997
 21
-68.499985
  0
ARC
  8
0
 10
137.474899
 20
48.499954
 40
1.500000
 50
0.000000
 51
90.000000
  0
ARC
  8
0
 10
134.474899
 20
47.499954
 40
1.500000
 50
90.000000
 51
180.000000
  0
ARC
  8
0
 10
136.474899
 20
47.499954
 40
1.500000
 50
0.000000
 51
90.000000
  0
ARC
  8
0
 10
85.474899
 20
48.499985
 40
1.500000
 50
90.000000
 51
180.000000
  0
ARC
  8
0
 10
85.474899
 20
-72.499985
 40
1.500000
 50
180.000000
 51
270.000000
  0
ARC
  8
0
 10
143.574997
 20
-71.000015
 40
3.000000
 50
180.000000
 51
270.000000
  0
ARC
  8
0
 10
141.574997
 20
18.999985
 40
1.000000
 50
180.000000
 51
270.000000
  0
ARC
  8
0
 10
141.574997
 20
6.999985
 40
1.000000
 50
90.000000
 51
180.000000
  0
ARC
  8
0
 10
167.474899
 20
-21.700027
 40
1.865997
 50
180.000000
 51
270.000000
  0
ARC
  8
0
 10
169.675095
 20
-21.700027
 40
1.865997
 50
270.000000
 51
0.000000
  0
ARC
  8
0
 10
167.474899
 20
-16.300034
 40
1.865997
 50
90.000000
 51
179.999878
  0
ARC
  8
0
 10
169.675095
 20
-16.300034
 40
1.865997
 50
0.000117
 51
90.000000
  0
ARC
  8
0
 10
167.474899
 20
-46.199997
 40
1.865997
 50
180.000000
 51
270.000000
  0
ARC
  8
0
 10
169.675095
 20
-46.199997
 40
1.865997
 50
270.000000
 51
0.000000
  0
ARC
  8
0
 10
167.474899
 20
-40.800003
 40
1.865997
 50
90.000000
 51
179.999878
  0
ARC
  8
0
 10
169.675095
 20
-40.800003
 40
1.865997
 50
0.000000
 51
90.000000
  0
ARC
  8
0
 10
167.474899
 20
2.799973
 40
1.865997
 50
180.000000
 51
270.000000
  0
ARC
  8
0
 10
169.675095
 20
2.799973
 40
1.865997
 50
270.000000
 51
0.000000
  0
ARC
  8
0
 10
167.474899
 20
8.199966
 40
1.865997
 50
90.000000
 51
180.000000
  0
ARC
  8
0
 10
169.675095
 20
8.199966
 40
1.865997
 50
0.000000
 51
90.000000
  0
ARC
  8
0
 10
143.724899
 20
37.000015
 40
3.000000
 50
90.000000
 51
180.000000
  0
ARC
  8
0
 10
172.425095
 20
38.500015
 40
1.500000
 50
0.000000
 51
90.000000
  0
ARC
  8
0
 10
146.574997
 20
68.400040
 40
3.000000
 50
90.000000
 51
180.000000
  0
ARC
  8
0
 10
168.074997
 20
68.400040
 40
3.000000
 50
0.000000
 51
90.000000
  0
CIRCLE
  8
0
 10
157.324997
 20
60.150040
 40
11.000000
  0
CIRCLE
  8
0
 10
157.324997
 20
60.150040
 40
6.500000
  0
ARC
  8
0
 10
157.324997
 20
60.150040
 40
9.399994
 50
90.000000
 51
104.887909
  0
CIRCLE
  8
0
 10
157.324997
 20
60.150040
 40
3.799999
  0
ARC
  8
0
 10
157.324997
 20
60.150040
 40
9.399995
 50
193.629242
 51
225.524521
  0
ARC
  8
0
 10
157.324997
 20
60.150040
 40
9.399994
 50
133.629181
 51
165.524338
  0
ARC
  8
0
 10
157.324997
 20
60.150040
 40
9.400002
 50
73.629204
 51
90.000000
  0
ARC
  8
0
 10
157.324997
 20
60.150040
 40
9.399993
 50
13.629190
 51
45.524227
  0
ARC
  8
0
 10
157.324997
 20
60.150040
 40
9.399994
 50
313.629181
 51
345.524323
  0
ARC
  8
0
 10
157.324997
 20
60.150040
 40
9.400002
 50
253.629196
 51
285.524323
  0
CIRCLE
  8
0
 10
158.574936
 20
-54.500046
 40
5.722500
  0
CIRCLE
  8
0
 10
158.574936
 20
-54.500046
 40
6.578500
  0
CIRCLE
  8
0
 10
158.574936
 20
-5.500031
 40
6.578500
  0
CIRCLE
  8
0
 10
158.574936
 20
-5.500031
 40
5.722500
  0
CIRCLE
  8
0
 10
158.574936
 20
-30.000031
 40
6.578500
  0
CIRCLE
  8
0
 10
158.574936
 20
-30.000031
 40
5.722500
  0
TEXT
  8
0
 10
169.014999
 20
3.921486
 40
1.599999
  1
R1
 50
90.000000
 41
1.052632
 51
0.000000
  7
STANDARD
  0
TEXT
  8
0
 10
169.014999
 20
-45.078514
 40
1.599999
  1
R2
 50
90.000000
 41
1.052632
 51
0.000000
  7
STANDARD
  0
TEXT
  8
0
 10
169.014999
 20
-19.778515
 40
1.599999
  1
P
 50
90.000000
 41
1.052632
 51
0.000000
  7
STANDARD
  0
POINT
  8
0
 10
-25.425003
 20
-179.599991
  0
POINT
  8
0
 10
16.574997
 20
-179.599991
  0
LINE
  8
0
 10
-18.224991
 20
-166.133926
 11
-23.625015
 21
-166.133926
  0
LINE
  8
0
 10
-25.490982
 20
-167.999954
 11
-25.490982
 21
-170.199966
  0
LINE
  8
0
 10
-18.224991
 20
-172.065994
 11
-23.625015
 21
-172.065994
  0
LINE
  8
0
 10
-16.358963
 20
-167.999954
 11
-16.358963
 21
-170.199966
  0
LINE
  8
0
 10
-18.925064
 20
-88.999985
 11
10.074936
 21
-88.999985
  0
LINE
  8
0
 10
-20.425095
 20
-143.999985
 11
11.574905
 21
-143.999985
  0
LINE
  8
0
 10
11.574997
 20
-90.499924
 11
11.574997
 21
-144.599930
  0
LINE
  8
0
 10
-20.425003
 20
-90.499954
 11
-20.425003
 21
-144.599960
  0
LINE
  8
0
 10
-29.925095
 20
-179.599991
 11
21.074905
 21
-179.599991
  0
LINE
  8
0
 10
-26.925095
 20
-145.599991
 11
18.074905
 21
-145.599991
  0
LINE
  8
0
 10
-29.925003
 20
-148.599930
 11
-29.925003
 21
-179.599930
  0
LINE
  8
0
 10
21.074997
 20
-148.599960
 11
21.074997
 21
-179.599960
  0
LINE
  8
0
 10
-20.425003
 20
-144.599960
 11
-20.425003
 21
-145.599960
  0
LINE
  8
0
 10
11.574997
 20
-144.599960
 11
11.574997
 21
-145.599960
  0
LINE
  8
0
 10
-4.425003
 20
-183.599991
 11
-4.425003
 21
-84.999985
  0
LINE
  8
0
 10
-13.425003
 20
-154.099991
 11
-13.425003
 21
-166.099991
  0
LINE
  8
0
 10
-19.425003
 20
-160.099991
 11
-7.425003
 21
-160.099991
  0
LINE
  8
0
 10
7.074814
 20
-105.133926
 11
7.074814
 21
-106.865982
  0
LINE
  8
0
 10
5.574854
 20
-104.267769
 11
7.074856
 21
-105.133797
  0
LINE
  8
0
 10
4.074823
 20
-106.865898
 11
5.574827
 21
-107.731926
  0
LINE
  8
0
 10
5.574751
 20
-107.731956
 11
7.074753
 21
-106.865929
  0
LINE
  8
0
 10
4.074745
 20
-105.133911
 11
5.574747
 21
-104.267883
  0
LINE
  8
0
 10
4.074814
 20
-105.133926
 11
4.074814
 21
-106.865982
  0
LINE
  8
0
 10
-15.425169
 20
-131.267822
 11
-13.925165
 21
-132.133850
  0
LINE
  8
0
 10
-16.925190
 20
-132.133911
 11
-15.425187
 21
-131.267883
  0
LINE
  8
0
 10
-16.925194
 20
-133.865891
 11
-15.425189
 21
-134.731918
  0
LINE
  8
0
 10
-15.425235
 20
-134.731949
 11
-13.925230
 21
-133.865921
  0
LINE
  8
0
 10
-13.925186
 20
-132.133926
 11
-13.925186
 21
-133.865982
  0
LINE
  8
0
 10
-16.925186
 20
-132.133926
 11
-16.925186
 21
-133.865982
  0
LINE
  8
0
 10
-20.425186
 20
-132.999954
 11
-10.425186
 21
-132.999954
  0
LINE
  8
0
 10
0.574814
 20
-105.999954
 11
10.574814
 21
-105.999954
  0
LINE
  8
0
 10
-15.425186
 20
-127.999954
 11
-15.425186
 21
-137.999954
  0
LINE
  8
0
 10
5.574814
 20
-100.999954
 11
5.574814
 21
-110.999954
  0
LINE
  8
0
 10
24.824997
 20
-152.099991
 11
24.824997
 21
-172.599991
  0
LINE
  8
0
 10
28.824997
 20
-162.349991
 11
34.824997
 21
-162.349991
  0
LINE
  8
0
 10
21.074997
 20
-173.599991
 11
23.824997
 21
-173.599991
  0
LINE
  8
0
 10
21.074997
 20
-151.099991
 11
23.824997
 21
-151.099991
  0
LINE
  8
0
 10
22.390854
 20
-162.349991
 11
37.884445
 21
-162.349991
  0
LINE
  8
0
 10
34.824997
 20
-173.349960
 11
34.824997
 21
-151.349960
  0
LINE
  8
0
 10
28.824997
 20
-173.349960
 11
28.824997
 21
-151.349960
  0
LINE
  8
0
 10
28.824997
 20
-151.349960
 11
34.824997
 21
-151.349960
  0
LINE
  8
0
 10
28.824997
 20
-173.349960
 11
34.824997
 21
-173.349960
  0
LINE
  8
0
 10
24.824997
 20
-153.849960
 11
28.824997
 21
-153.849960
  0
LINE
  8
0
 10
24.824997
 20
-170.849960
 11
28.824997
 21
-170.849960
  0
LINE
  8
0
 10
28.824997
 20
-156.849960
 11
34.824997
 21
-156.849960
  0
LINE
  8
0
 10
28.824997
 20
-167.849960
 11
34.824997
 21
-167.849960
  0
LINE
  8
0
 10
28.824997
 20
-171.485275
 11
34.824997
 21
-171.485275
  0
LINE
  8
0
 10
28.824997
 20
-172.137527
 11
34.824997
 21
-172.137527
  0
LINE
  8
0
 10
28.824997
 20
-169.062393
 11
34.824997
 21
-169.062393
  0
LINE
  8
0
 10
28.824997
 20
-165.425095
 11
34.824997
 21
-165.425095
  0
LINE
  8
0
 10
28.824997
 20
-164.999374
 11
34.824997
 21
-164.999374
  0
LINE
  8
0
 10
28.824997
 20
-153.214645
 11
34.824997
 21
-153.214645
  0
LINE
  8
0
 10
28.824997
 20
-152.562393
 11
34.824997
 21
-152.562393
  0
LINE
  8
0
 10
28.824997
 20
-155.637527
 11
34.824997
 21
-155.637527
  0
LINE
  8
0
 10
28.824997
 20
-159.274826
 11
34.824997
 21
-159.274826
  0
LINE
  8
0
 10
28.824997
 20
-159.700546
 11
34.824997
 21
-159.700546
  0
LINE
  8
0
 10
24.824997
 20
-169.349960
 11
28.824997
 21
-169.349960
  0
LINE
  8
0
 10
24.824997
 20
-155.349960
 11
28.824997
 21
-155.349960
  0
CIRCLE
  8
0
 10
5.574814
 20
-105.999954
 40
4.000000
  0
ARC
  8
0
 10
-23.625015
 20
-167.999954
 40
1.865997
 50
89.999939
 51
180.000000
  0
ARC
  8
0
 10
-23.625015
 20
-170.199966
 40
1.865997
 50
180.000000
 51
270.000000
  0
ARC
  8
0
 10
-18.225021
 20
-167.999954
 40
1.865997
 50
0.000000
 51
89.999939
  0
ARC
  8
0
 10
-18.225021
 20
-170.199966
 40
1.865997
 50
270.000061
 51
0.000000
  0
ARC
  8
0
 10
10.074905
 20
-90.499954
 40
1.500000
 50
0.000000
 51
90.000000
  0
ARC
  8
0
 10
-18.925095
 20
-90.499954
 40
1.500000
 50
90.000000
 51
180.000000
  0
ARC
  8
0
 10
-26.925125
 20
-148.599930
 40
3.000000
 50
90.000000
 51
180.000000
  0
ARC
  8
0
 10
18.074875
 20
-148.599960
 40
3.000000
 50
0.000000
 51
90.000076
  0
CIRCLE
  8
0
 10
-13.425003
 20
-160.099991
 40
4.282999
  0
CIRCLE
  8
0
 10
-13.425003
 20
-160.099991
 40
4.863998
  0
CIRCLE
  8
0
 10
5.574814
 20
-105.999954
 40
3.500000
  0
CIRCLE
  8
0
 10
-15.425186
 20
-132.999954
 40
3.500000
  0
ARC
  8
0
 10
23.824997
 20
-152.099991
 40
1.000000
 50
0.000000
 51
90.000000
  0
ARC
  8
0
 10
23.824997
 20
-172.599991
 40
1.000000
 50
270.000000
 51
0.000000
  0
CIRCLE
  8
0
 10
-15.425186
 20
-132.999954
 40
4.000000
  0
TEXT
  8
0
 10
-22.503502
 20
-169.539993
 40
1.599999
  1
PR
 50
0.000000
 41
1.052632
 51
0.000000
  7
STANDARD
  0
ENDSEC
  0
EOF
