  0
SECTION
  2
HEADER
  9
$ACADVER
  1
AC1012
  9
$DWGCODEPAGE
  3
dos932
  9
$INSBASE
 10
0.0
 20
0.0
 30
0.0
  9
$EXTMIN
 10
-138.39999389648437
 20
-94.800003051757812
 30
0.0
  9
$EXTMAX
 10
138.35000610351562
 20
94.5
 30
0.0
  9
$LIMMIN
 10
-148.5
 20
-105.00000000000001
  9
$LIMMAX
 10
148.5
 20
105.00000000000001
  9
$ORTHOMODE
 70
               0
  9
$REGENMODE
 70
               1
  9
$FILLMODE
 70
               1
  9
$QTEXTMODE
 70
               0
  9
$MIRRTEXT
 70
               1
  9
$DRAGMODE
 70
               2
  9
$LTSCALE
 40
1.0
  9
$OSMODE
 70
               0
  9
$ATTMODE
 70
               1
  9
$TEXTSIZE
 40
3.2000000476837158
  9
$TRACEWID
 40
0.05
  9
$TEXTSTYLE
  7
MX_NOTE_STANDARD
  9
$CLAYER
  8
0
  9
$CELTYPE
  6
CONTINUOUS
  9
$CECOLOR
 62
             256
  9
$CELTSCALE
 40
1.0
  9
$DELOBJ
 70
               1
  9
$DISPSILH
 70
               0
  9
$DIMSCALE
 40
1.0
  9
$DIMASZ
 40
2.5
  9
$DIMEXO
 40
1.5
  9
$DIMDLI
 40
3.75
  9
$DIMRND
 40
0.0
  9
$DIMDLE
 40
0.0
  9
$DIMEXE
 40
1.5
  9
$DIMTP
 40
0.0
  9
$DIMTM
 40
0.0
  9
$DIMTXT
 40
3.2000000476837158
  9
$DIMCEN
 40
2.5
  9
$DIMTSZ
 40
0.0
  9
$DIMTOL
 70
               0
  9
$DIMLIM
 70
               0
  9
$DIMTIH
 70
               0
  9
$DIMTOH
 70
               0
  9
$DIMSE1
 70
               0
  9
$DIMSE2
 70
               0
  9
$DIMTAD
 70
               1
  9
$DIMZIN
 70
               8
  9
$DIMBLK
  1

  9
$DIMASO
 70
               1
  9
$DIMSHO
 70
               1
  9
$DIMPOST
  1

  9
$DIMAPOST
  1

  9
$DIMALT
 70
               0
  9
$DIMALTD
 70
               4
  9
$DIMALTF
 40
0.03937007874016
  9
$DIMLFAC
 40
1.0
  9
$DIMTOFL
 70
               1
  9
$DIMTVP
 40
0.0
  9
$DIMTIX
 70
               0
  9
$DIMSOXD
 70
               0
  9
$DIMSAH
 70
               1
  9
$DIMBLK1
  1
_OPEN30
  9
$DIMBLK2
  1
_OPEN30
  9
$DIMSTYLE
  2
MXDIMSTYLE
  9
$DIMCLRD
 70
               0
  9
$DIMCLRE
 70
               0
  9
$DIMCLRT
 70
               0
  9
$DIMTFAC
 40
1.0
  9
$DIMGAP
 40
1.0
  9
$DIMJUST
 70
               0
  9
$DIMSD1
 70
               0
  9
$DIMSD2
 70
               0
  9
$DIMTOLJ
 70
               0
  9
$DIMTZIN
 70
               0
  9
$DIMALTZ
 70
               0
  9
$DIMALTTZ
 70
               0
  9
$DIMFIT
 70
               3
  9
$DIMUPT
 70
               1
  9
$DIMUNIT
 70
               2
  9
$DIMDEC
 70
               2
  9
$DIMTDEC
 70
               2
  9
$DIMALTU
 70
               2
  9
$DIMALTTD
 70
               4
  9
$DIMTXSTY
  7
MX_NOTE_STANDARD
  9
$DIMAUNIT
 70
               0
  9
$LUNITS
 70
               2
  9
$LUPREC
 70
               4
  9
$SKETCHINC
 40
0.1
  9
$FILLETRAD
 40
0.0
  9
$AUNITS
 70
               0
  9
$AUPREC
 70
               0
  9
$MENU
  1
acad
  9
$ELEVATION
 40
0.0
  9
$PELEVATION
 40
0.0
  9
$THICKNESS
 40
0.0
  9
$LIMCHECK
 70
               0
  9
$BLIPMODE
 70
               1
  9
$CHAMFERA
 40
0.0
  9
$CHAMFERB
 40
0.0
  9
$CHAMFERC
 40
0.0
  9
$CHAMFERD
 40
0.0
  9
$SKPOLY
 70
               0
  9
$TDCREATE
 40
2454085.536608796
  9
$TDUPDATE
 40
2454085.536608796
  9
$TDINDWG
 40
0.0000000000
  9
$TDUSRTIMER
 40
0.0000000000
  9
$USRTIMER
 70
               1
  9
$ANGBASE
 50
0.0
  9
$ANGDIR
 70
               0
  9
$PDMODE
 70
               0
  9
$PDSIZE
 40
0.0
  9
$PLINEWID
 40
0.0
  9
$COORDS
 70
               1
  9
$SPLFRAME
 70
               0
  9
$SPLINETYPE
 70
               6
  9
$SPLINESEGS
 70
               8
  9
$ATTDIA
 70
               0
  9
$ATTREQ
 70
               1
  9
$HANDLING
 70
               1
  9
$HANDSEED
  5
13B
  9
$SURFTAB1
 70
               6
  9
$SURFTAB2
 70
               6
  9
$SURFTYPE
 70
               6
  9
$SURFU
 70
               6
  9
$SURFV
 70
               6
  9
$UCSNAME
  2

  9
$UCSORG
 10
0.0
 20
0.0
 30
0.0
  9
$UCSXDIR
 10
1.0
 20
0.0
 30
0.0
  9
$UCSYDIR
 10
0.0
 20
1.0
 30
0.0
  9
$PUCSNAME
  2

  9
$PUCSORG
 10
0.0
 20
0.0
 30
0.0
  9
$PUCSXDIR
 10
1.0
 20
0.0
 30
0.0
  9
$PUCSYDIR
 10
0.0
 20
1.0
 30
0.0
  9
$USERI1
 70
               0
  9
$USERI2
 70
               0
  9
$USERI3
 70
               0
  9
$USERI4
 70
               0
  9
$USERI5
 70
               0
  9
$USERR1
 40
0.0
  9
$USERR2
 40
0.0
  9
$USERR3
 40
0.0
  9
$USERR4
 40
0.0
  9
$USERR5
 40
0.0
  9
$WORLDVIEW
 70
               1
  9
$SHADEDGE
 70
               3
  9
$SHADEDIF
 70
              70
  9
$TILEMODE
 70
               1
  9
$MAXACTVP
 70
              16
  9
$PINSBASE
 10
0.0
 20
0.0
 30
0.0
  9
$PLIMCHECK
 70
               0
  9
$PEXTMIN
 10
1.0000000000000000E+20
 20
1.0000000000000000E+20
 30
1.0000000000000000E+20
  9
$PEXTMAX
 10
-1.0000000000000000E+20
 20
-1.0000000000000000E+20
 30
-1.0000000000000000E+20
  9
$PLIMMIN
 10
0.0
 20
0.0
  9
$PLIMMAX
 10
12.0
 20
9.0
  9
$UNITMODE
 70
               0
  9
$VISRETAIN
 70
               0
  9
$PLINEGEN
 70
               1
  9
$PSLTSCALE
 70
               0
  9
$TREEDEPTH
 70
            3020
  9
$PICKSTYLE
 70
               1
  9
$CMLSTYLE
  2
Standard
  9
$CMLJUST
 70
               0
  9
$CMLSCALE
 40
1.0
  9
$SAVEIMAGES
 70
               0
  0
ENDSEC
  0
SECTION
  2
CLASSES
  0
CLASS
  1
LWPOLYLINE
  2
AcDbPolyline
  3
"AutoCAD"
 90
    32768
280
               0
281
               1
  0
CLASS
  1
IMAGE
  2
AcDbRasterImage
  3
ISM
 90
    32895
280
               0
281
               1
  0
CLASS
  1
OLE2FRAME
  2
AcDbOle2Frame
  3
""
 90
    32768
280
               0
281
               1
  0
CLASS
  1
HATCH
  2
AcDbHatch
  3
"ACAD_SEDONA"
 90
    32768
280
               0
281
               1
  0
CLASS
  1
DICTIONARYVAR
  2
AcDbDictionaryVar
  3
"AutoCAD"
 90
    32768
280
               0
281
               0
  0
CLASS
  1
RASTERVARIABLES
  2
AcDbRasterVariables
  3
ISM
 90
    32768
280
               0
281
               0
  0
CLASS
  1
IMAGEDEF
  2
AcDbRasterImageDef
  3
ISM
 90
    32768
280
               0
281
               0
  0
CLASS
  1
IMAGEDEF_REACTOR
  2
AcDbRasterImageDefReactor
  3
ISM
 90
    32769
280
               0
281
               0
  0
CLASS
  1
IDBUFFER
  2
AcDbIdBuffer
  3
"Acad"
 90
    32768
280
               0
281
               0
  0
CLASS
  1
SPATIAL_FILTER
  2
AcDbSpatialFilter
  3
"Acad"
 90
    32768
280
               0
281
               0
  0
CLASS
  1
XRECORD
  2
AcDbXrecord
  3
"<Built In>"
 90
    32768
280
               0
281
               0
  0
CLASS
  1
SORTENTSTABLE
  2
AcDbSortentsTable
  3
"AutoCAD"
 90
    32768
280
               0
281
               0
  0
CLASS
  1
LAYER_INDEX
  2
AcDbLayerIndex
  3
"Acad"
 90
    32768
280
               0
281
               0
  0
CLASS
  1
SPATIAL_INDEX
  2
AcDbSpatialIndex
  3
"Acad"
 90
    32768
280
               0
281
               0
  0
CLASS
  1
OBJECT_PTR
  2
CAseDLPNTableRecord
  3
"ASE-LPNTableRecord"
 90
    32769
280
               0
281
               0
  0
CLASS
  1
LAYOUT
  2
AcDbLayout
  3
"AutoCAD 2000"
 90
    32768
280
               0
281
               0
  0
CLASS
  1
PLOTSETTINGS
  2
AcDbPlotSettings
  3
"AutoCAD 2000"
 90
    32768
280
               0
281
               0
  0
CLASS
  1
ACDBDICTIONARYWDFLT
  2
AcDbDictionaryWithDefault
  3
"AutoCAD 2000"
 90
    32768
280
               0
281
               0
  0
CLASS
  1
ACDBPLACEHOLDER
  2
AcDbPlaceHolder
  3
"AutoCAD 2000"
 90
    32768
280
               0
281
               0
  0
ENDSEC
  0
SECTION
  2
TABLES
  0
TABLE
  2
VPORT
  5
7
100
AcDbSymbolTable
 70
               1
  0
VPORT
  5
15
100
AcDbSymbolTableRecord
100
AcDbViewportTableRecord
  2
*ACTIVE
 70
               0
 10
0.0
 20
0.0
 11
1.0
 21
1.0
 12
0.0
 22
0.0
 13
0.0
 23
0.0
 14
1.0
 24
1.0
 15
0.0
 25
0.0
 16
0.0
 26
0.0
 36
1.0
 17
0.0
 27
0.0
 37
0.0
 40
212.10000000000002
 41
1.7320508075688772
 42
50.0
 43
0.0
 44
0.0
 50
0.0
 51
0.0
 71
               0
 72
             100
 73
               1
 74
               1
 75
               0
 76
               0
 77
               0
 78
               0
  0
ENDTAB
  0
TABLE
  2
LTYPE
  5
4
100
AcDbSymbolTable
 70
               5
  0
LTYPE
  5
11
100
AcDbSymbolTableRecord
100
AcDbLinetypeTableRecord
  2
BYBLOCK
 70
              64
  3

 72
              65
 73
               0
 40
0.0
  0
LTYPE
  5
12
100
AcDbSymbolTableRecord
100
AcDbLinetypeTableRecord
  2
BYLAYER
 70
              64
  3

 72
              65
 73
               0
 40
0.0
  0
LTYPE
  5
13
100
AcDbSymbolTableRecord
100
AcDbLinetypeTableRecord
  2
CONTINUOUS
 70
              64
  3
Solid line
 72
              65
 73
               0
 40
0.0
  0
LTYPE
  5
29
100
AcDbSymbolTableRecord
100
AcDbLinetypeTableRecord
  2
CENTER
 70
              64
  3
Center ____ _ ____ _ ____ _ ____ _ ____ _ ____
 72
              65
 73
               4
 40
50.800000000000004
 49
31.75
 74
               0
 49
-6.3499999999999996
 74
               0
 49
6.3499999999999996
 74
               0
 49
-6.3499999999999996
 74
               0
  0
LTYPE
  5
9D
100
AcDbSymbolTableRecord
100
AcDbLinetypeTableRecord
  2
DASHED
 70
              64
  3
Dashed __ __ __ __ __ __ __ __ __ __ __ __ __ _
 72
              65
 73
               2
 40
19.049999999999997
 49
12.699999999999999
 74
               0
 49
-6.3499999999999996
 74
               0
  0
ENDTAB
  0
TABLE
  2
LAYER
  5
2
100
AcDbSymbolTable
 70
               2
  0
LAYER
  5
14
100
AcDbSymbolTableRecord
100
AcDbLayerTableRecord
  2
0
 70
               0
 62
               7
  6
CONTINUOUS
  0
LAYER
  5
1D
100
AcDbSymbolTableRecord
100
AcDbLayerTableRecord
  2
DEFPOINTS
 70
               0
 62
               7
  6
CONTINUOUS
  0
ENDTAB
  0
TABLE
  2
STYLE
  5
3
100
AcDbSymbolTable
 70
               1
  0
STYLE
  5
17
100
AcDbSymbolTableRecord
100
AcDbTextStyleTableRecord
  2
MX_NOTE_STANDARD
 70
               0
 40
0.0
 41
1.0
 50
0.0
 71
               0
 42
3.2000000476837158
  3
txt.shx
  4
extfont.shx
  0
ENDTAB
  0
TABLE
  2
VIEW
  5
5
100
AcDbSymbolTable
 70
               0
  0
ENDTAB
  0
TABLE
  2
UCS
  5
6
100
AcDbSymbolTable
 70
               0
  0
ENDTAB
  0
TABLE
  2
APPID
  5
8
100
AcDbSymbolTable
 70
               1
  0
APPID
  5
16
100
AcDbSymbolTableRecord
100
AcDbRegAppTableRecord
  2
ACAD
 70
               0
  0
ENDTAB
  0
TABLE
  2
DIMSTYLE
  5
9
100
AcDbSymbolTable
 70
               1
  0
DIMSTYLE
105
18
100
AcDbSymbolTableRecord
100
AcDbDimStyleTableRecord
  2
MXDIMSTYLE
 70
               0
  3

  4

  5

  6
_OPEN30
  7
_OPEN30
 40
1.0
 41
2.5
 42
1.5
 43
3.75
 44
1.5
 45
0.0
 46
0.0
 47
0.0
 48
0.0
 71
               0
 72
               0
 73
               0
 74
               0
 75
               0
 76
               0
 77
               1
 78
               8
140
3.2000000476837158
141
2.5
142
0.0
143
0.03937007874016
144
1.0
145
0.0
146
1.0
147
1.0
170
               0
171
               4
172
               1
173
               1
174
               0
175
               0
176
               0
177
               0
178
               0
270
               2
271
               2
272
               2
273
               2
274
               4
275
               0
280
               0
281
               0
282
               0
283
               0
284
               0
285
               0
286
               0
287
               3
288
               1
340
17
  0
ENDTAB
  0
TABLE
  2
BLOCK_RECORD
  5
1
100
AcDbSymbolTable
 70
               5
  0
BLOCK_RECORD
  5
A
100
AcDbSymbolTableRecord
100
AcDbBlockTableRecord
  2
*MODEL_SPACE
  0
BLOCK_RECORD
  5
B
100
AcDbSymbolTableRecord
100
AcDbBlockTableRecord
  2
*PAPER_SPACE
  0
BLOCK_RECORD
  5
1E
100
AcDbSymbolTableRecord
100
AcDbBlockTableRecord
  2
3VR-1
  0
BLOCK_RECORD
  5
1F
100
AcDbSymbolTableRecord
100
AcDbBlockTableRecord
  2
3VR-2
  0
BLOCK_RECORD
  5
20
100
AcDbSymbolTableRecord
100
AcDbBlockTableRecord
  2
3VR-3
  0
BLOCK_RECORD
  5
21
100
AcDbSymbolTableRecord
100
AcDbBlockTableRecord
  2
3VR-4
  0
BLOCK_RECORD
  5
22
100
AcDbSymbolTableRecord
100
AcDbBlockTableRecord
  2
_OPEN30
  0
ENDTAB
  0
ENDSEC
  0
SECTION
  2
BLOCKS
  0
BLOCK
  5
D
100
AcDbEntity
  8
0
100
AcDbBlockBegin
  2
*MODEL_SPACE
 70
               0
 10
0.0
 20
0.0
 30
0.0
  3
*MODEL_SPACE
  1

  0
ENDBLK
  5
E
100
AcDbEntity
  8
0
100
AcDbBlockEnd
  0
BLOCK
  5
F
100
AcDbEntity
 67
               1
  8
0
100
AcDbBlockBegin
  2
*PAPER_SPACE
 70
               0
 10
0.0
 20
0.0
 30
0.0
  3
*PAPER_SPACE
  1

  0
ENDBLK
  5
10
100
AcDbEntity
 67
               1
  8
0
100
AcDbBlockEnd
  0
BLOCK
  5
28
100
AcDbEntity
  8
0
100
AcDbBlockBegin
  2
3VR-1
 70
               0
 10
0.0
 20
0.0
 30
0.0
  3
3VR-1
  1

  0
LINE
  5
2A
100
AcDbEntity
  8
0
  6
CENTER
 62
               2
100
AcDbLine
 10
-17.372159260000057
 20
46.13024997792995
 30
0.0
 11
-0.00000000000018
 21
25.529991861979415
 31
0.0
  0
LINE
  5
2B
100
AcDbEntity
  8
0
  6
CENTER
 62
               2
100
AcDbLine
 10
17.382735153140374
 20
46.123003908884669
 30
0.0
 11
0.001987624696185
 21
25.529991447582326
 31
0.0
  0
LINE
  5
2C
100
AcDbEntity
  8
0
  6
CENTER
 62
               2
100
AcDbLine
 10
-2.8999999999999915
 20
11.029999999999994
 30
0.0
 11
-8.8999999999999915
 21
11.029999999999994
 31
0.0
  0
CIRCLE
  5
2D
100
AcDbEntity
  8
0
  6
CONTINUOUS
 62
               7
100
AcDbCircle
 10
0.0000000000000995
 20
25.529991861979251
 30
0.0
 40
0.7999998728433386
  0
ARC
  5
2E
100
AcDbEntity
  8
0
  6
CONTINUOUS
 62
               7
100
AcDbCircle
 10
-3.1082393577158758
 20
29.821247401004182
 30
0.0
 40
1.5995718806869479
100
AcDbArc
 50
305.76574425556083
 51
4.3773074735165993
  0
ARC
  5
2F
100
AcDbEntity
  8
0
  6
CONTINUOUS
 62
               7
100
AcDbCircle
 10
-0.0000000000000226
 20
42.233391520182366
 30
0.0
 40
2.4994149891957589
100
AcDbArc
 50
8.4144382670749707
 51
171.58556173292502
  0
ARC
  5
30
100
AcDbEntity
  8
0
  6
CONTINUOUS
 62
               7
100
AcDbCircle
 10
0.0471916601311526
 20
25.438232890301634
 30
0.0
 40
3.8011282522687244
100
AcDbArc
 50
125.74474555737392
 51
137.01228503439313
  0
ARC
  5
31
100
AcDbEntity
  8
0
  6
CONTINUOUS
 62
               7
100
AcDbCircle
 10
-5.8972147007797133
 20
6.5327852992202722
 30
0.0
 40
1.0027891673846696
100
AcDbArc
 50
180.15914222090677
 51
269.84085777909013
  0
ARC
  5
32
100
AcDbEntity
  8
0
  6
CONTINUOUS
 62
               7
100
AcDbCircle
 10
5.8972147007797417
 20
6.5327852992202722
 30
0.0
 40
1.0027891673846696
100
AcDbArc
 50
270.15914222090981
 51
359.8408577790932
  0
LINE
  5
33
100
AcDbEntity
  8
0
  6
CONTINUOUS
 62
               7
100
AcDbLine
 10
1.5230477378335801
 20
30.071509503823133
 30
0.0
 11
2.4725100098426718
 21
42.59913670394306
 31
0.0
  0
LINE
  5
34
100
AcDbEntity
  8
0
  6
CONTINUOUS
 62
               7
100
AcDbLine
 10
-2.4725100098427046
 20
42.599136703943067
 30
0.0
 11
-1.5133333333333525
 21
29.943333333333424
 31
0.0
  0
LINE
  5
35
100
AcDbEntity
  8
0
  6
CONTINUOUS
 62
               7
100
AcDbLine
 10
3.7700000000000102
 20
-3.9699999999999989
 30
0.0
 11
4.7700000000000102
 21
-2.9699999999999989
 31
0.0
  0
LINE
  5
36
100
AcDbEntity
  8
0
  6
CONTINUOUS
 62
               7
100
AcDbLine
 10
-4.7699999999999818
 20
-2.9699999999999989
 30
0.0
 11
-3.7699999999999818
 21
-3.9699999999999989
 31
0.0
  0
LINE
  5
37
100
AcDbEntity
  8
0
  6
CONTINUOUS
 62
               7
100
AcDbLine
 10
3.7700000000000102
 20
-3.9699999999999989
 30
0.0
 11
-3.7699999999999818
 21
-3.9699999999999989
 31
0.0
  0
LINE
  5
38
100
AcDbEntity
  8
0
  6
CONTINUOUS
 62
               7
100
AcDbLine
 10
4.7700000000000102
 20
-2.9699999999999989
 30
0.0
 11
4.9900000000000091
 21
4.0200000000000031
 31
0.0
  0
LINE
  5
39
100
AcDbEntity
  8
0
  6
CONTINUOUS
 62
               7
100
AcDbLine
 10
-4.9899999999999807
 20
4.0200000000000031
 30
0.0
 11
-4.7699999999999818
 21
-2.9699999999999989
 31
0.0
  0
LINE
  5
3A
100
AcDbEntity
  8
0
  6
CONTINUOUS
 62
               7
100
AcDbLine
 10
4.7700000000000102
 20
-2.9699999999999989
 30
0.0
 11
-4.7699999999999818
 21
-2.9699999999999989
 31
0.0
  0
LINE
  5
3B
100
AcDbEntity
  8
0
  6
CONTINUOUS
 62
               7
100
AcDbLine
 10
-4.9899999999999807
 20
5.5300000000000011
 30
0.0
 11
-4.9899999999999807
 21
4.0200000000000031
 31
0.0
  0
LINE
  5
3C
100
AcDbEntity
  8
0
  6
CONTINUOUS
 62
               7
100
AcDbLine
 10
4.9900000000000091
 20
4.0200000000000031
 30
0.0
 11
4.9900000000000091
 21
5.5300000000000011
 31
0.0
  0
LINE
  5
3D
100
AcDbEntity
  8
0
  6
CONTINUOUS
 62
               7
100
AcDbLine
 10
4.9900000000000091
 20
4.0200000000000031
 30
0.0
 11
-4.9899999999999807
 21
4.0200000000000031
 31
0.0
  0
LINE
  5
3E
100
AcDbEntity
  8
0
  6
CONTINUOUS
 62
               7
100
AcDbLine
 10
-6.9999999999999858
 20
23.829999999999998
 30
0.0
 11
7.0000000000000142
 21
23.829999999999998
 31
0.0
  0
LINE
  5
3F
100
AcDbEntity
  8
0
  6
CONTINUOUS
 62
               7
100
AcDbLine
 10
-6.9999999999999858
 20
21.829999999999998
 30
0.0
 11
-6.9999999999999787
 21
23.829999999999998
 31
0.0
  0
LINE
  5
40
100
AcDbEntity
  8
0
  6
CONTINUOUS
 62
               7
100
AcDbLine
 10
-5.5
 20
28.030000000000001
 30
0.0
 11
5.5000000000000284
 21
28.030000000000001
 31
0.0
  0
LINE
  5
41
100
AcDbEntity
  8
0
  6
CONTINUOUS
 62
               7
100
AcDbLine
 10
-5.5
 20
28.030000000000001
 30
0.0
 11
-5.9999999999999858
 21
27.529999999999959
 31
0.0
  0
LINE
  5
42
100
AcDbEntity
  8
0
  6
CONTINUOUS
 62
               7
100
AcDbLine
 10
6.0000000000000142
 20
27.529999999999959
 30
0.0
 11
5.5000000000000284
 21
28.030000000000001
 31
0.0
  0
LINE
  5
43
100
AcDbEntity
  8
0
  6
CONTINUOUS
 62
               7
100
AcDbLine
 10
-5.9999999999999858
 20
27.529999999999959
 30
0.0
 11
6.0000000000000142
 21
27.529999999999959
 31
0.0
  0
LINE
  5
44
100
AcDbEntity
  8
0
  6
CONTINUOUS
 62
               7
100
AcDbLine
 10
-5.9999999999999858
 20
27.529999999999959
 30
0.0
 11
-5.9999999999999858
 21
23.830000000000034
 31
0.0
  0
LINE
  5
45
100
AcDbEntity
  8
0
  6
CONTINUOUS
 62
               7
100
AcDbLine
 10
6.0000000000000142
 20
23.830000000000034
 30
0.0
 11
6.0000000000000142
 21
27.529999999999959
 31
0.0
  0
LINE
  5
46
100
AcDbEntity
  8
0
  6
CONTINUOUS
 62
               7
100
AcDbLine
 10
5.9000000000000199
 20
5.5300000000000011
 30
0.0
 11
-5.8999999999999915
 21
5.5300000000000011
 31
0.0
  0
LINE
  5
47
100
AcDbEntity
  8
0
  6
CONTINUOUS
 62
               7
100
AcDbLine
 10
-5.8999999999999915
 20
8.8299999999999983
 30
0.0
 11
-5.8999999999999915
 21
13.229999999999997
 31
0.0
  0
LINE
  5
48
100
AcDbEntity
  8
0
  6
CONTINUOUS
 62
               7
100
AcDbLine
 10
-5.8999999999999915
 20
8.8299999999999983
 30
0.0
 11
-6.8999999999999844
 21
6.8300000000000125
 31
0.0
  0
LINE
  5
49
100
AcDbEntity
  8
0
  6
CONTINUOUS
 62
               7
100
AcDbLine
 10
-6.8999999999999844
 20
16.030000000000001
 30
0.0
 11
-6.8999999999999844
 21
15.229999999999984
 31
0.0
  0
LINE
  5
4A
100
AcDbEntity
  8
0
  6
CONTINUOUS
 62
               7
100
AcDbLine
 10
-6.8999999999999844
 20
6.830000000000009
 30
0.0
 11
-6.8999999999999844
 21
6.5300000000000011
 31
0.0
  0
LINE
  5
4B
100
AcDbEntity
  8
0
  6
CONTINUOUS
 62
               7
100
AcDbLine
 10
6.9000000000000199
 20
6.5300000000000011
 30
0.0
 11
6.9000000000000199
 21
16.030000000000001
 31
0.0
  0
LINE
  5
4C
100
AcDbEntity
  8
0
  6
CONTINUOUS
 62
               7
100
AcDbLine
 10
-6.8999999999999915
 20
15.229999999999986
 30
0.0
 11
-5.8999999999999915
 21
13.229999999999993
 31
0.0
  0
LINE
  5
4D
100
AcDbEntity
  8
0
  6
CONTINUOUS
 62
               7
100
AcDbLine
 10
-6.9999999999999858
 20
20.829999999999995
 30
0.0
 11
7.0000000000000142
 21
20.829999999999995
 31
0.0
  0
LINE
  5
4E
100
AcDbEntity
  8
0
  6
CONTINUOUS
 62
               7
100
AcDbLine
 10
-6.9999999999999858
 20
21.829999999999998
 30
0.0
 11
-6.9999999999999858
 21
20.829999999999995
 31
0.0
  0
LINE
  5
4F
100
AcDbEntity
  8
0
  6
CONTINUOUS
 62
               7
100
AcDbLine
 10
7.0000000000000142
 20
20.829999999999995
 30
0.0
 11
7.0000000000000142
 21
21.829999999999998
 31
0.0
  0
LINE
  5
50
100
AcDbEntity
  8
0
  6
CONTINUOUS
 62
               7
100
AcDbLine
 10
-6.9999999999999858
 20
21.829999999999998
 30
0.0
 11
7.0000000000000142
 21
21.829999999999998
 31
0.0
  0
LINE
  5
51
100
AcDbEntity
  8
0
  6
CONTINUOUS
 62
               7
100
AcDbLine
 10
0.0000000000000142
 20
20.512689075630249
 30
0.0
 11
0.0000000000000284
 21
16.347310924369751
 31
0.0
  0
LINE
  5
52
100
AcDbEntity
  8
0
  6
CONTINUOUS
 62
               7
100
AcDbLine
 10
7.0000000000000284
 20
16.347310924369754
 30
0.0
 11
7.0000000000000284
 21
20.803109243694749
 31
0.0
  0
LINE
  5
53
100
AcDbEntity
  8
0
  6
CONTINUOUS
 62
               7
100
AcDbLine
 10
-6.8999999999999844
 20
20.829999999999998
 30
0.0
 11
-6.9999999999999787
 21
20.803109243697481
 31
0.0
  0
LINE
  5
54
100
AcDbEntity
  8
0
  6
CONTINUOUS
 62
               7
100
AcDbLine
 10
7.0000000000000284
 20
20.803109243697477
 30
0.0
 11
6.9000000000000057
 21
20.829999999999998
 31
0.0
  0
LINE
  5
55
100
AcDbEntity
  8
0
  6
CONTINUOUS
 62
               7
100
AcDbLine
 10
-6.9999999999999787
 20
16.056890756303162
 30
0.0
 11
-6.9999999999999787
 21
20.803109243696838
 31
0.0
  0
LINE
  5
56
100
AcDbEntity
  8
0
  6
CONTINUOUS
 62
               7
100
AcDbLine
 10
7.0000000000000284
 20
16.056890756305254
 30
0.0
 11
7.0000000000000284
 21
16.347310924369754
 31
0.0
  0
LINE
  5
57
100
AcDbEntity
  8
0
  6
CONTINUOUS
 62
               7
100
AcDbLine
 10
6.9000000000000199
 20
16.030000000000001
 30
0.0
 11
7.0000000000000284
 21
16.056890756302526
 31
0.0
  0
LINE
  5
58
100
AcDbEntity
  8
0
  6
CONTINUOUS
 62
               7
100
AcDbLine
 10
-6.9999999999999787
 20
16.056890756302518
 30
0.0
 11
-6.8999999999999844
 21
16.030000000000001
 31
0.0
  0
LINE
  5
59
100
AcDbEntity
  8
0
  6
CONTINUOUS
 62
               7
100
AcDbLine
 10
6.9000000000000199
 20
16.030000000000001
 30
0.0
 11
-6.8999999999999844
 21
16.030000000000001
 31
0.0
  0
LINE
  5
5A
100
AcDbEntity
  8
0
  6
CONTINUOUS
 62
               7
100
AcDbLine
 10
7.0000000000000142
 20
21.829999999999998
 30
0.0
 11
7.0000000000000284
 21
23.829999999999998
 31
0.0
  0
LINE
  5
5B
100
AcDbEntity
  8
0
  6
CONTINUOUS
 62
               7
100
AcDbLine
 10
0.0000000000000142
 20
23.542660550458713
 30
0.0
 11
-0.0000000000000142
 21
22.117339449541213
 31
0.0
  0
ARC
  5
5C
100
AcDbEntity
  8
0
  6
CONTINUOUS
 62
               7
100
AcDbCircle
 10
-3.4976664445863008
 20
2.3984935770132623
 30
0.0
 40
21.431506422986736
100
AcDbArc
 50
80.60719441091716
 51
99.405452605987634
  0
ARC
  5
5D
100
AcDbEntity
  8
0
  6
CONTINUOUS
 62
               7
100
AcDbCircle
 10
3.4999999999999858
 20
2.3700786788052426
 30
0.0
 40
21.459921321194756
100
AcDbArc
 50
80.613428892396328
 51
99.386571107603672
  0
ARC
  5
5E
100
AcDbEntity
  8
0
  6
CONTINUOUS
 62
               7
100
AcDbCircle
 10
3.5
 20
43.289921321202641
 30
0.0
 40
21.459921321202611
100
AcDbArc
 50
260.61342889239984
 51
279.3865711076001
  0
ARC
  5
5F
100
AcDbEntity
  8
0
  6
CONTINUOUS
 62
               7
100
AcDbCircle
 10
-3.4976664445863008
 20
43.261506423002068
 30
0.0
 40
21.431506423002038
100
AcDbArc
 50
260.594547394019
 51
279.3928055890762
  0
ARC
  5
60
100
AcDbEntity
  8
0
  6
CONTINUOUS
 62
               7
100
AcDbCircle
 10
-3.4978671466663087
 20
1.3920294621907345
 30
0.0
 40
19.437970537809296
100
AcDbArc
 50
79.633139508520514
 51
100.37964310375487
  0
ARC
  5
61
100
AcDbEntity
  8
0
  6
CONTINUOUS
 62
               7
100
AcDbCircle
 10
3.5000000000000142
 20
1.3685108513765378
 30
0.0
 40
19.461489148623492
100
AcDbArc
 50
79.639422552951388
 51
100.36057744704858
  0
ARC
  5
62
100
AcDbEntity
  8
0
  6
CONTINUOUS
 62
               7
100
AcDbCircle
 10
3.5
 20
35.49148914862544
 30
0.0
 40
19.461489148625443
100
AcDbArc
 50
259.6394225529524
 51
280.3605774470476
  0
ARC
  5
63
100
AcDbEntity
  8
0
  6
CONTINUOUS
 62
               7
100
AcDbCircle
 10
-3.4978671466668771
 20
35.467970537820591
 30
0.0
 40
19.43797053782059
100
AcDbArc
 50
259.62035689625282
 51
280.36686049147499
  0
LINE
  5
64
100
AcDbEntity
  8
0
  6
CONTINUOUS
 62
               2
100
AcDbLine
 10
-4.9899999999999949
 20
5.0500000000000007
 30
0.0
 11
-4.3975816993464036
 21
4.0200000000000031
 31
0.0
  0
LINE
  5
65
100
AcDbEntity
  8
0
  6
CONTINUOUS
 62
               2
100
AcDbLine
 10
-4.3975816993464036
 20
4.0200000000000031
 30
0.0
 11
-4.156410581217628
 21
-3.5835894187823669
 31
0.0
  0
LINE
  5
66
100
AcDbEntity
  8
0
  6
CONTINUOUS
 62
               2
100
AcDbLine
 10
4.4043137254901978
 20
4.0200000000000031
 30
0.0
 11
4.9899999999999949
 21
5.0500000000000007
 31
0.0
  0
LINE
  5
67
100
AcDbEntity
  8
0
  6
CONTINUOUS
 62
               2
100
AcDbLine
 10
4.4043137254901978
 20
4.0200000000000031
 30
0.0
 11
4.1633631286909605
 21
-3.5766368713090344
 31
0.0
  0
LINE
  5
68
100
AcDbEntity
  8
0
  6
CENTER
 62
               2
100
AcDbLine
 10
-6.9999999999999787
 20
0.0000000000000071
 30
0.0
 11
7.0000000000000284
 21
0.0000000000000071
 31
0.0
  0
LINE
  5
69
100
AcDbEntity
  8
0
  6
CENTER
 62
               2
100
AcDbLine
 10
-2.9999999999999005
 20
25.529991861979251
 30
0.0
 11
3.0000000000000995
 21
25.529991861979251
 31
0.0
  0
CIRCLE
  5
6A
100
AcDbEntity
  8
0
  6
CONTINUOUS
 62
               7
100
AcDbCircle
 10
0.0000000000000995
 20
25.529991861979251
 30
0.0
 40
1.5
  0
LINE
  5
6B
100
AcDbEntity
  8
0
  6
CONTINUOUS
 62
               2
100
AcDbLine
 10
5.5000000000000284
 20
28.030000000000001
 30
0.0
 11
5.5000000000000284
 21
23.829999999999998
 31
0.0
  0
LINE
  5
6C
100
AcDbEntity
  8
0
  6
CONTINUOUS
 62
               2
100
AcDbLine
 10
-5.5
 20
28.030000000000001
 30
0.0
 11
-5.5
 21
23.829999999999998
 31
0.0
  0
ARC
  5
6D
100
AcDbEntity
  8
0
  6
CONTINUOUS
 62
               7
100
AcDbCircle
 10
3.1082393577157879
 20
29.821247401004193
 30
0.0
 40
1.5995718806869479
100
AcDbArc
 50
175.62269252648358
 51
234.23425574443934
  0
ARC
  5
6E
100
AcDbEntity
  8
0
  6
CONTINUOUS
 62
               7
100
AcDbCircle
 10
-0.047191660131226
 20
25.438232890301634
 30
0.0
 40
3.8011282522687244
100
AcDbArc
 50
42.987714965606877
 51
54.255254442626288
  0
LINE
  5
6F
100
AcDbEntity
  8
0
  6
CENTER
 62
               2
100
AcDbLine
 10
0.0016423222441606
 20
28.640520943054995
 30
0.0
 11
0.0051182103641472
 21
45.312358742345999
 31
0.0
  0
LINE
  5
70
100
AcDbEntity
  8
0
  6
CENTER
 62
               2
100
AcDbLine
 10
0.0000000000000142
 20
-5.7659999999999982
 30
0.0
 11
-0.0000000000000426
 21
29.009999999999927
 31
0.0
  0
ENDBLK
  5
71
100
AcDbEntity
  8
0
100
AcDbBlockEnd
  0
BLOCK
  5
72
100
AcDbEntity
  8
0
100
AcDbBlockBegin
  2
3VR-2
 70
               0
 10
0.0
 20
0.0
 30
0.0
  3
3VR-2
  1

  0
LINE
  5
73
100
AcDbEntity
  8
0
  6
CONTINUOUS
 62
               7
100
AcDbLine
 10
-7.5
 20
20.83000000000003
 30
0.0
 11
7.5
 21
20.83000000000003
 31
0.0
  0
LINE
  5
74
100
AcDbEntity
  8
0
  6
CONTINUOUS
 62
               7
100
AcDbLine
 10
-7.5
 20
21.830000000000034
 30
0.0
 11
7.5
 21
21.830000000000034
 31
0.0
  0
LINE
  5
75
100
AcDbEntity
  8
0
  6
CONTINUOUS
 62
               7
100
AcDbLine
 10
7.5
 20
20.83000000000003
 30
0.0
 11
7.5
 21
21.830000000000034
 31
0.0
  0
LINE
  5
76
100
AcDbEntity
  8
0
  6
CONTINUOUS
 62
               7
100
AcDbLine
 10
-7.5
 20
21.830000000000034
 30
0.0
 11
-7.5
 21
20.83000000000003
 31
0.0
  0
LINE
  5
77
100
AcDbEntity
  8
0
  6
CONTINUOUS
 62
               7
100
AcDbLine
 10
-7.0
 20
23.829999999999998
 30
0.0
 11
7.0
 21
23.829999999999998
 31
0.0
  0
LINE
  5
78
100
AcDbEntity
  8
0
  6
CONTINUOUS
 62
               7
100
AcDbLine
 10
8.0800000000000125
 20
20.512689075630249
 30
0.0
 11
6.8999999999999986
 21
20.829999999999998
 31
0.0
  0
LINE
  5
79
100
AcDbEntity
  8
0
  6
CONTINUOUS
 62
               7
100
AcDbLine
 10
-6.9000000000000057
 20
20.829999999999998
 30
0.0
 11
-8.0800000000000125
 21
20.512689075630249
 31
0.0
  0
LINE
  5
7A
100
AcDbEntity
  8
0
  6
CONTINUOUS
 62
               7
100
AcDbLine
 10
6.8999999999999986
 20
16.030000000000001
 30
0.0
 11
-6.9000000000000057
 21
16.030000000000001
 31
0.0
  0
LINE
  5
7B
100
AcDbEntity
  8
0
  6
CONTINUOUS
 62
               7
100
AcDbLine
 10
-8.0800000000000125
 20
16.347310924369751
 30
0.0
 11
-6.9000000000000057
 21
16.030000000000001
 31
0.0
  0
LINE
  5
7C
100
AcDbEntity
  8
0
  6
CONTINUOUS
 62
               7
100
AcDbLine
 10
6.8999999999999986
 20
16.030000000000001
 30
0.0
 11
8.0800000000000125
 21
16.347310924369751
 31
0.0
  0
LINE
  5
7D
100
AcDbEntity
  8
0
  6
CONTINUOUS
 62
               7
100
AcDbLine
 10
8.0800000000000125
 20
20.512689075630249
 30
0.0
 11
8.0800000000000125
 21
16.347310924369751
 31
0.0
  0
LINE
  5
7E
100
AcDbEntity
  8
0
  6
CONTINUOUS
 62
               7
100
AcDbLine
 10
4.0414518843273726
 20
20.511908230277712
 30
0.0
 11
4.0414518843273726
 21
16.348091769722288
 31
0.0
  0
LINE
  5
7F
100
AcDbEntity
  8
0
  6
CONTINUOUS
 62
               7
100
AcDbLine
 10
-4.0385481156726257
 20
20.512298547741104
 30
0.0
 11
-4.0385481156726257
 21
16.347701452258896
 31
0.0
  0
LINE
  5
80
100
AcDbEntity
  8
0
  6
CONTINUOUS
 62
               7
100
AcDbLine
 10
-4.0385481156726257
 20
23.542274165210593
 30
0.0
 11
-4.0385481156726257
 21
22.117725834789411
 31
0.0
  0
LINE
  5
81
100
AcDbEntity
  8
0
  6
CONTINUOUS
 62
               7
100
AcDbLine
 10
4.0414518843273726
 20
23.541887988156077
 30
0.0
 11
4.0414518843273584
 21
22.118112011843849
 31
0.0
  0
LINE
  5
82
100
AcDbEntity
  8
0
  6
CONTINUOUS
 62
               7
100
AcDbLine
 10
-8.0800000000000125
 20
20.512689075630249
 30
0.0
 11
-8.0800000000000125
 21
16.347310924369751
 31
0.0
  0
LINE
  5
83
100
AcDbEntity
  8
0
  6
CONTINUOUS
 62
               7
100
AcDbLine
 10
8.0800000000000196
 20
23.542660550458713
 30
0.0
 11
8.0800000000000409
 21
22.117339449541213
 31
0.0
  0
LINE
  5
84
100
AcDbEntity
  8
0
  6
CONTINUOUS
 62
               7
100
AcDbLine
 10
-8.0799999999944703
 20
23.542660550460187
 30
0.0
 11
-8.0799999999944987
 21
22.117339449539735
 31
0.0
  0
LINE
  5
85
100
AcDbEntity
  8
0
  6
CONTINUOUS
 62
               7
100
AcDbLine
 10
6.8999999999999986
 20
6.5300000000000011
 30
0.0
 11
6.8999999999999986
 21
16.030000000000001
 31
0.0
  0
LINE
  5
86
100
AcDbEntity
  8
0
  6
CONTINUOUS
 62
               7
100
AcDbLine
 10
-6.9000000000000057
 20
16.030000000000001
 30
0.0
 11
-6.9000000000000057
 21
6.5300000000000011
 31
0.0
  0
LINE
  5
87
100
AcDbEntity
  8
0
  6
CONTINUOUS
 62
               7
100
AcDbLine
 10
-3.5777087639985439
 20
8.8299999999999983
 30
0.0
 11
-3.5777087639985439
 21
13.229999999999997
 31
0.0
  0
LINE
  5
88
100
AcDbEntity
  8
0
  6
CONTINUOUS
 62
               7
100
AcDbLine
 10
3.5777087639985439
 20
8.8299999999999983
 30
0.0
 11
3.577708764083809
 21
13.229999999999997
 31
0.0
  0
LINE
  5
89
100
AcDbEntity
  8
0
  6
CONTINUOUS
 62
               7
100
AcDbLine
 10
5.9000000000000057
 20
5.5300000000000011
 30
0.0
 11
-5.9000000000000057
 21
5.5300000000000011
 31
0.0
  0
LINE
  5
8A
100
AcDbEntity
  8
0
  6
CONTINUOUS
 62
               7
100
AcDbLine
 10
6.0
 20
23.829999999999998
 30
0.0
 11
6.0
 21
27.529999999999959
 31
0.0
  0
LINE
  5
8B
100
AcDbEntity
  8
0
  6
CONTINUOUS
 62
               7
100
AcDbLine
 10
-6.0
 20
27.529999999999959
 30
0.0
 11
-6.0
 21
23.830000000000034
 31
0.0
  0
LINE
  5
8C
100
AcDbEntity
  8
0
  6
CONTINUOUS
 62
               7
100
AcDbLine
 10
6.0
 20
27.529999999999959
 30
0.0
 11
-6.0
 21
27.529999999999959
 31
0.0
  0
LINE
  5
8D
100
AcDbEntity
  8
0
  6
CONTINUOUS
 62
               7
100
AcDbLine
 10
-5.5000000000000142
 20
28.030000000000001
 30
0.0
 11
5.5000000000000142
 21
28.030000000000001
 31
0.0
  0
LINE
  5
8E
100
AcDbEntity
  8
0
  6
CONTINUOUS
 62
               7
100
AcDbLine
 10
6.0
 20
27.529999999999959
 30
0.0
 11
5.5000000000000142
 21
28.030000000000001
 31
0.0
  0
LINE
  5
8F
100
AcDbEntity
  8
0
  6
CONTINUOUS
 62
               7
100
AcDbLine
 10
-5.5000000000000142
 20
28.030000000000001
 30
0.0
 11
-6.0
 21
27.529999999999959
 31
0.0
  0
LINE
  5
90
100
AcDbEntity
  8
0
  6
CONTINUOUS
 62
               7
100
AcDbLine
 10
4.9899999999999949
 20
4.0200000000000031
 30
0.0
 11
-4.9899999999999949
 21
4.0200000000000031
 31
0.0
  0
LINE
  5
91
100
AcDbEntity
  8
0
  6
CONTINUOUS
 62
               7
100
AcDbLine
 10
4.9899999999999949
 20
4.0200000000000031
 30
0.0
 11
4.9899999999999949
 21
5.5300000000000011
 31
0.0
  0
LINE
  5
92
100
AcDbEntity
  8
0
  6
CONTINUOUS
 62
               7
100
AcDbLine
 10
-4.9899999999999949
 20
5.5300000000000011
 30
0.0
 11
-4.9899999999999949
 21
4.0200000000000031
 31
0.0
  0
LINE
  5
93
100
AcDbEntity
  8
0
  6
CONTINUOUS
 62
               7
100
AcDbLine
 10
4.769999999999996
 20
-2.9699999999999989
 30
0.0
 11
-4.769999999999996
 21
-2.9699999999999989
 31
0.0
  0
LINE
  5
94
100
AcDbEntity
  8
0
  6
CONTINUOUS
 62
               7
100
AcDbLine
 10
-4.9899999999999949
 20
4.0200000000000031
 30
0.0
 11
-4.769999999999996
 21
-2.9699999999999989
 31
0.0
  0
LINE
  5
95
100
AcDbEntity
  8
0
  6
CONTINUOUS
 62
               7
100
AcDbLine
 10
4.769999999999996
 20
-2.9699999999999989
 30
0.0
 11
4.9899999999999949
 21
4.0200000000000031
 31
0.0
  0
LINE
  5
96
100
AcDbEntity
  8
0
  6
CONTINUOUS
 62
               7
100
AcDbLine
 10
3.769999999999996
 20
-3.9699999999999989
 30
0.0
 11
-3.769999999999996
 21
-3.9699999999999989
 31
0.0
  0
LINE
  5
97
100
AcDbEntity
  8
0
  6
CONTINUOUS
 62
               7
100
AcDbLine
 10
-4.769999999999996
 20
-2.9699999999999989
 30
0.0
 11
-3.769999999999996
 21
-3.9699999999999989
 31
0.0
  0
LINE
  5
98
100
AcDbEntity
  8
0
  6
CONTINUOUS
 62
               7
100
AcDbLine
 10
3.769999999999996
 20
-3.9699999999999989
 30
0.0
 11
4.769999999999996
 21
-2.9699999999999989
 31
0.0
  0
LINE
  5
99
100
AcDbEntity
  8
0
  6
CONTINUOUS
 62
               7
100
AcDbLine
 10
8.0800000000000409
 20
23.542660550458706
 30
0.0
 11
7.0
 21
23.829999999999998
 31
0.0
  0
LINE
  5
9A
100
AcDbEntity
  8
0
  6
CONTINUOUS
 62
               7
100
AcDbLine
 10
7.0
 20
21.829999999999998
 30
0.0
 11
8.0800000000000409
 21
22.117339449541298
 31
0.0
  0
LINE
  5
9B
100
AcDbEntity
  8
0
  6
CONTINUOUS
 62
               7
100
AcDbLine
 10
-8.0799999999944987
 20
22.11733944953982
 30
0.0
 11
-7.0
 21
21.829999999999998
 31
0.0
  0
LINE
  5
9C
100
AcDbEntity
  8
0
  6
CONTINUOUS
 62
               7
100
AcDbLine
 10
-7.0
 20
23.829999999999998
 30
0.0
 11
-8.0799999999944987
 21
23.542660550460184
 31
0.0
  0
LINE
  5
9E
100
AcDbEntity
  8
0
  6
DASHED
 62
               7
100
AcDbLine
 10
0.0
 20
25.805139587033544
 30
0.0
 11
0.0
 21
24.72999198913574
 31
0.0
  0
ARC
  5
9F
100
AcDbEntity
  8
0
  6
CONTINUOUS
 62
               7
100
AcDbCircle
 10
5.8972147007797275
 20
6.5327852992202722
 30
0.0
 40
1.0027891673846696
100
AcDbArc
 50
270.15914222090987
 51
359.8408577790932
  0
ARC
  5
A0
100
AcDbEntity
  8
0
  6
CONTINUOUS
 62
               7
100
AcDbCircle
 10
-5.8972147007797275
 20
6.5327852992202722
 30
0.0
 40
1.0027891673846696
100
AcDbArc
 50
180.15914222090677
 51
269.84085777909013
  0
ELLIPSE
  5
A1
100
AcDbEntity
  8
0
  6
CONTINUOUS
 62
               7
100
AcDbEllipse
 10
0.0
 20
1.4299999999999891
 30
0.0
 11
0.0000000000000008
 21
-13.799999999999997
 31
0.0
210
0.0
220
0.0
230
1.0
 40
0.5000000000000001
 41
2.5964869045051682
 42
3.6866984026599661
  0
ELLIPSE
  5
A2
100
AcDbEntity
  8
0
  6
CONTINUOUS
 62
               7
100
AcDbEllipse
 10
0.0
 20
20.630000000000017
 30
0.0
 11
0.0000000000000008
 21
-13.800000000000008
 31
0.0
210
0.0
220
0.0
230
1.0
 40
0.4999999999999997
 41
5.7380795581094128
 42
0.5451057490701734
  0
CIRCLE
  5
A3
100
AcDbEntity
  8
0
  6
CONTINUOUS
 62
               7
100
AcDbCircle
 10
0.0
 20
17.829999999999998
 30
0.0
 40
1.0
  0
LINE
  5
A4
100
AcDbEntity
  8
0
  6
CENTER
 62
               2
100
AcDbLine
 10
-5.0
 20
11.030000000000001
 30
0.0
 11
5.0
 21
11.030000000000001
 31
0.0
  0
ARC
  5
A5
100
AcDbEntity
  8
0
  6
CONTINUOUS
 62
               7
100
AcDbCircle
 10
-6.056200818297782
 20
16.611828945850341
 30
0.0
 40
7.2181710541496571
100
AcDbArc
 50
73.768196965614052
 51
104.89869543440027
  0
ARC
  5
A6
100
AcDbEntity
  8
0
  6
CONTINUOUS
 62
               7
100
AcDbCircle
 10
-6.0562008182977962
 20
29.048171054150458
 30
0.0
 40
7.2181710541504271
100
AcDbArc
 50
255.10130456559955
 51
286.2318030343842
  0
ARC
  5
A7
100
AcDbEntity
  8
0
  6
CONTINUOUS
 62
               7
100
AcDbCircle
 10
0.000104081758181
 20
-4.6580531145504125
 30
0.0
 40
28.488053114550411
100
AcDbArc
 50
81.844443036190924
 51
98.15008015307842
  0
ARC
  5
A8
100
AcDbEntity
  8
0
  6
CONTINUOUS
 62
               7
100
AcDbCircle
 10
0.0001040817582094
 20
50.318053114553742
 30
0.0
 40
28.488053114553708
100
AcDbArc
 50
261.84991984692249
 51
278.15555696380807
  0
ARC
  5
A9
100
AcDbEntity
  8
0
  6
CONTINUOUS
 62
               7
100
AcDbCircle
 10
6.0582227196635401
 20
16.627292436596633
 30
0.0
 40
7.2027075634033668
100
AcDbArc
 50
75.101304565599719
 51
106.26031008882819
  0
ARC
  5
AA
100
AcDbEntity
  8
0
  6
CONTINUOUS
 62
               7
100
AcDbCircle
 10
6.058222719663398
 20
29.0327075634053
 30
0.0
 40
7.2027075634052666
100
AcDbArc
 50
253.73968991117721
 51
284.89869543440045
  0
ARC
  5
AB
100
AcDbEntity
  8
0
  6
CONTINUOUS
 62
               7
100
AcDbCircle
 10
-6.0433622344610569
 20
14.345588559061881
 30
0.0
 40
6.4844114409381497
100
AcDbArc
 50
71.990515996353523
 51
105.05121999259106
  0
ARC
  5
AC
100
AcDbEntity
  8
0
  6
CONTINUOUS
 62
               7
100
AcDbCircle
 10
-0.001453451340268
 20
-5.0103009352341701
 30
0.0
 40
25.840300935234197
100
AcDbArc
 50
81.011716138198636
 51
98.988283861801378
  0
ARC
  5
AD
100
AcDbEntity
  8
0
  6
CONTINUOUS
 62
               7
100
AcDbCircle
 10
6.0441362545440569
 20
14.351447587094039
 30
0.0
 40
6.4785524129059908
100
AcDbArc
 50
74.948780007409027
 51
108.00652410423316
  0
ARC
  5
AE
100
AcDbEntity
  8
0
  6
CONTINUOUS
 62
               7
100
AcDbCircle
 10
6.0414931205007747
 20
22.528559899524495
 30
0.0
 40
6.4985598995244951
100
AcDbArc
 50
252.02144617627664
 51
285.05121999259103
  0
ARC
  5
AF
100
AcDbEntity
  8
0
  6
CONTINUOUS
 62
               7
100
AcDbCircle
 10
0.0
 20
41.851812241845529
 30
0.0
 40
25.821812241845528
100
AcDbArc
 50
261.00849224247594
 51
278.99150775752406
  0
ARC
  5
B0
100
AcDbEntity
  8
0
  6
CONTINUOUS
 62
               7
100
AcDbCircle
 10
-6.043452296106949
 20
22.513729709651265
 30
0.0
 40
6.4837297096512678
100
AcDbArc
 50
254.948780007409
 51
288.01237934318237
  0
CIRCLE
  5
B1
100
AcDbEntity
  8
0
  6
CONTINUOUS
 62
               2
100
AcDbCircle
 10
0.0
 20
11.030000000000001
 30
0.0
 40
2.5
  0
CIRCLE
  5
B2
100
AcDbEntity
  8
0
  6
CONTINUOUS
 62
               7
100
AcDbCircle
 10
0.0
 20
11.030000000000001
 30
0.0
 40
2.0670000000000002
  0
LINE
  5
B3
100
AcDbEntity
  8
0
  6
CONTINUOUS
 62
               2
100
AcDbLine
 10
-4.9899999999999949
 20
5.0500000000000007
 30
0.0
 11
-4.3975816993464036
 21
4.0200000000000031
 31
0.0
  0
LINE
  5
B4
100
AcDbEntity
  8
0
  6
CONTINUOUS
 62
               2
100
AcDbLine
 10
-4.3975816993464036
 20
4.0200000000000031
 30
0.0
 11
-4.156410581217628
 21
-3.5835894187823669
 31
0.0
  0
LINE
  5
B5
100
AcDbEntity
  8
0
  6
CONTINUOUS
 62
               2
100
AcDbLine
 10
4.4043137254901978
 20
4.0200000000000031
 30
0.0
 11
4.9899999999999949
 21
5.0500000000000007
 31
0.0
  0
LINE
  5
B6
100
AcDbEntity
  8
0
  6
CONTINUOUS
 62
               2
100
AcDbLine
 10
4.4043137254901978
 20
4.0200000000000031
 30
0.0
 11
4.1633631286909605
 21
-3.5766368713090344
 31
0.0
  0
LINE
  5
B7
100
AcDbEntity
  8
0
  6
CENTER
 62
               2
100
AcDbLine
 10
-6.9000000000000057
 20
0.0
 30
0.0
 11
6.8999999999999986
 21
0.0
 31
0.0
  0
LINE
  5
B8
100
AcDbEntity
  8
0
  6
CENTER
 62
               2
100
AcDbLine
 10
-2.0
 20
17.829999999999998
 30
0.0
 11
2.0
 21
17.829999999999998
 31
0.0
  0
LINE
  5
B9
100
AcDbEntity
  8
0
  6
CONTINUOUS
 62
               2
100
AcDbLine
 10
5.5000000000000711
 20
28.030000000000001
 30
0.0
 11
5.5000000000000711
 21
23.829999999999998
 31
0.0
  0
LINE
  5
BA
100
AcDbEntity
  8
0
  6
CONTINUOUS
 62
               2
100
AcDbLine
 10
-5.4999999999999574
 20
28.030000000000001
 30
0.0
 11
-5.4999999999999574
 21
23.829999999999998
 31
0.0
  0
LINE
  5
BB
100
AcDbEntity
  8
0
  6
CONTINUOUS
 62
               7
100
AcDbLine
 10
-2.4725100098426651
 20
42.599136703943067
 30
0.0
 11
-1.513333333333307
 21
29.943333333333424
 31
0.0
  0
ARC
  5
BC
100
AcDbEntity
  8
0
  6
CONTINUOUS
 62
               7
100
AcDbCircle
 10
0.0000000000000142
 20
42.233391520182366
 30
0.0
 40
2.4994149891957589
100
AcDbArc
 50
8.4144382670749707
 51
171.58556173292502
  0
LINE
  5
BD
100
AcDbEntity
  8
0
  6
CONTINUOUS
 62
               7
100
AcDbLine
 10
1.5230477378336218
 20
30.071509503823133
 30
0.0
 11
2.4725100098427077
 21
42.59913670394306
 31
0.0
  0
ARC
  5
BE
100
AcDbEntity
  8
0
  6
CONTINUOUS
 62
               7
100
AcDbCircle
 10
3.1082393577158314
 20
29.821247401004193
 30
0.0
 40
1.5995718806869479
100
AcDbArc
 50
175.62269252648358
 51
234.23425574443934
  0
ARC
  5
BF
100
AcDbEntity
  8
0
  6
CONTINUOUS
 62
               7
100
AcDbCircle
 10
-0.0471916601311904
 20
25.438232890301634
 30
0.0
 40
3.8011282522687244
100
AcDbArc
 50
42.987714965606877
 51
54.255254442626288
  0
ARC
  5
C0
100
AcDbEntity
  8
0
  6
CONTINUOUS
 62
               7
100
AcDbCircle
 10
-3.1082393577158314
 20
29.821247401004182
 30
0.0
 40
1.5995718806869479
100
AcDbArc
 50
305.76574425556083
 51
4.3773074735165993
  0
ARC
  5
C1
100
AcDbEntity
  8
0
  6
CONTINUOUS
 62
               7
100
AcDbCircle
 10
0.0471916601311904
 20
25.438232890301634
 30
0.0
 40
3.8011282522687244
100
AcDbArc
 50
125.74474555737392
 51
137.01228503439313
  0
LINE
  5
C2
100
AcDbEntity
  8
0
  6
CENTER
 62
               2
100
AcDbLine
 10
0.0
 20
-5.7659999999999982
 30
0.0
 11
0.0
 21
46.731278003733564
 31
0.0
  0
ENDBLK
  5
C3
100
AcDbEntity
  8
0
100
AcDbBlockEnd
  0
BLOCK
  5
C4
100
AcDbEntity
  8
0
100
AcDbBlockBegin
  2
3VR-3
 70
               0
 10
0.0
 20
0.0
 30
0.0
  3
3VR-3
  1

  0
LINE
  5
C5
100
AcDbEntity
  8
0
  6
CONTINUOUS
 62
               7
100
AcDbLine
 10
8.0800000000000125
 20
20.512689075630249
 30
0.0
 11
8.0800000000000125
 21
16.347310924369751
 31
0.0
  0
LINE
  5
C6
100
AcDbEntity
  8
0
  6
CONTINUOUS
 62
               7
100
AcDbLine
 10
8.0800000000000125
 20
23.542660550458713
 30
0.0
 11
8.0800000000000409
 21
22.117339449541213
 31
0.0
  0
LINE
  5
C7
100
AcDbEntity
  8
0
  6
CONTINUOUS
 62
               7
100
AcDbLine
 10
-7.5
 20
20.83000000000003
 30
0.0
 11
7.5
 21
20.83000000000003
 31
0.0
  0
LINE
  5
C8
100
AcDbEntity
  8
0
  6
CONTINUOUS
 62
               7
100
AcDbLine
 10
-7.5
 20
21.830000000000034
 30
0.0
 11
7.5
 21
21.830000000000034
 31
0.0
  0
LINE
  5
C9
100
AcDbEntity
  8
0
  6
CONTINUOUS
 62
               7
100
AcDbLine
 10
7.5
 20
20.83000000000003
 30
0.0
 11
7.5
 21
21.830000000000034
 31
0.0
  0
LINE
  5
CA
100
AcDbEntity
  8
0
  6
CONTINUOUS
 62
               7
100
AcDbLine
 10
-7.5
 20
21.830000000000034
 30
0.0
 11
-7.5
 21
20.83000000000003
 31
0.0
  0
LINE
  5
CB
100
AcDbEntity
  8
0
  6
CONTINUOUS
 62
               7
100
AcDbLine
 10
-7.0
 20
23.829999999999998
 30
0.0
 11
7.0
 21
23.829999999999998
 31
0.0
  0
LINE
  5
CC
100
AcDbEntity
  8
0
  6
CONTINUOUS
 62
               7
100
AcDbLine
 10
-6.8999999999999986
 20
20.829999999999998
 30
0.0
 11
-8.0800000000000125
 21
20.512689075630249
 31
0.0
  0
LINE
  5
CD
100
AcDbEntity
  8
0
  6
CONTINUOUS
 62
               7
100
AcDbLine
 10
6.9000000000000057
 20
16.030000000000001
 30
0.0
 11
-6.8999999999999986
 21
16.030000000000001
 31
0.0
  0
LINE
  5
CE
100
AcDbEntity
  8
0
  6
CONTINUOUS
 62
               7
100
AcDbLine
 10
-8.0800000000000125
 20
16.347310924369751
 30
0.0
 11
-6.8999999999999986
 21
16.030000000000001
 31
0.0
  0
LINE
  5
CF
100
AcDbEntity
  8
0
  6
CONTINUOUS
 62
               7
100
AcDbLine
 10
4.0414518843273726
 20
20.511908230277712
 30
0.0
 11
4.0414518843273726
 21
16.348091769722288
 31
0.0
  0
LINE
  5
D0
100
AcDbEntity
  8
0
  6
CONTINUOUS
 62
               7
100
AcDbLine
 10
-4.0385481156726257
 20
20.512298547741104
 30
0.0
 11
-4.0385481156726257
 21
16.347701452258896
 31
0.0
  0
LINE
  5
D1
100
AcDbEntity
  8
0
  6
CONTINUOUS
 62
               7
100
AcDbLine
 10
-4.0385481156726257
 20
23.542274165210593
 30
0.0
 11
-4.0385481156726257
 21
22.117725834789411
 31
0.0
  0
LINE
  5
D2
100
AcDbEntity
  8
0
  6
CONTINUOUS
 62
               7
100
AcDbLine
 10
4.0414518843273726
 20
23.541887988156077
 30
0.0
 11
4.0414518843273584
 21
22.118112011843849
 31
0.0
  0
LINE
  5
D3
100
AcDbEntity
  8
0
  6
CONTINUOUS
 62
               7
100
AcDbLine
 10
-8.0800000000000125
 20
20.512689075630249
 30
0.0
 11
-8.0800000000000125
 21
16.347310924369751
 31
0.0
  0
LINE
  5
D4
100
AcDbEntity
  8
0
  6
CONTINUOUS
 62
               7
100
AcDbLine
 10
-8.0799999999944703
 20
23.542660550460187
 30
0.0
 11
-8.0799999999944916
 21
22.117339449539735
 31
0.0
  0
LINE
  5
D5
100
AcDbEntity
  8
0
  6
CONTINUOUS
 62
               7
100
AcDbLine
 10
6.9000000000000057
 20
6.5300000000000011
 30
0.0
 11
6.9000000000000057
 21
16.030000000000001
 31
0.0
  0
LINE
  5
D6
100
AcDbEntity
  8
0
  6
CONTINUOUS
 62
               7
100
AcDbLine
 10
-6.8999999999999986
 20
16.030000000000001
 30
0.0
 11
-6.8999999999999986
 21
6.5300000000000011
 31
0.0
  0
LINE
  5
D7
100
AcDbEntity
  8
0
  6
CONTINUOUS
 62
               7
100
AcDbLine
 10
5.9000000000000057
 20
5.5300000000000011
 30
0.0
 11
-5.9000000000000057
 21
5.5300000000000011
 31
0.0
  0
LINE
  5
D8
100
AcDbEntity
  8
0
  6
CONTINUOUS
 62
               7
100
AcDbLine
 10
6.0
 20
23.829999999999998
 30
0.0
 11
6.0
 21
27.529999999999959
 31
0.0
  0
LINE
  5
D9
100
AcDbEntity
  8
0
  6
CONTINUOUS
 62
               7
100
AcDbLine
 10
-6.0
 20
27.529999999999959
 30
0.0
 11
-6.0
 21
23.830000000000034
 31
0.0
  0
LINE
  5
DA
100
AcDbEntity
  8
0
  6
CONTINUOUS
 62
               7
100
AcDbLine
 10
6.0
 20
27.529999999999959
 30
0.0
 11
-6.0
 21
27.529999999999959
 31
0.0
  0
LINE
  5
DB
100
AcDbEntity
  8
0
  6
CONTINUOUS
 62
               7
100
AcDbLine
 10
-5.5000000000000142
 20
28.030000000000001
 30
0.0
 11
5.5000000000000142
 21
28.030000000000001
 31
0.0
  0
LINE
  5
DC
100
AcDbEntity
  8
0
  6
CONTINUOUS
 62
               7
100
AcDbLine
 10
6.0
 20
27.529999999999959
 30
0.0
 11
5.5000000000000142
 21
28.030000000000001
 31
0.0
  0
LINE
  5
DD
100
AcDbEntity
  8
0
  6
CONTINUOUS
 62
               7
100
AcDbLine
 10
-5.5000000000000142
 20
28.030000000000001
 30
0.0
 11
-6.0
 21
27.529999999999959
 31
0.0
  0
LINE
  5
DE
100
AcDbEntity
  8
0
  6
CONTINUOUS
 62
               7
100
AcDbLine
 10
4.9899999999999949
 20
4.0200000000000031
 30
0.0
 11
-4.9899999999999949
 21
4.0200000000000031
 31
0.0
  0
LINE
  5
DF
100
AcDbEntity
  8
0
  6
CONTINUOUS
 62
               7
100
AcDbLine
 10
4.9899999999999949
 20
4.0200000000000031
 30
0.0
 11
4.9899999999999949
 21
5.5300000000000011
 31
0.0
  0
LINE
  5
E0
100
AcDbEntity
  8
0
  6
CONTINUOUS
 62
               7
100
AcDbLine
 10
-4.9899999999999949
 20
5.5300000000000011
 30
0.0
 11
-4.9899999999999949
 21
4.0200000000000031
 31
0.0
  0
LINE
  5
E1
100
AcDbEntity
  8
0
  6
CONTINUOUS
 62
               7
100
AcDbLine
 10
4.769999999999996
 20
-2.9699999999999989
 30
0.0
 11
-4.769999999999996
 21
-2.9699999999999989
 31
0.0
  0
LINE
  5
E2
100
AcDbEntity
  8
0
  6
CONTINUOUS
 62
               7
100
AcDbLine
 10
-4.9899999999999949
 20
4.0200000000000031
 30
0.0
 11
-4.769999999999996
 21
-2.9699999999999989
 31
0.0
  0
LINE
  5
E3
100
AcDbEntity
  8
0
  6
CONTINUOUS
 62
               7
100
AcDbLine
 10
4.769999999999996
 20
-2.9699999999999989
 30
0.0
 11
4.9899999999999949
 21
4.0200000000000031
 31
0.0
  0
LINE
  5
E4
100
AcDbEntity
  8
0
  6
CONTINUOUS
 62
               7
100
AcDbLine
 10
3.769999999999996
 20
-3.9699999999999989
 30
0.0
 11
-3.769999999999996
 21
-3.9699999999999989
 31
0.0
  0
LINE
  5
E5
100
AcDbEntity
  8
0
  6
CONTINUOUS
 62
               7
100
AcDbLine
 10
-4.769999999999996
 20
-2.9699999999999989
 30
0.0
 11
-3.769999999999996
 21
-3.9699999999999989
 31
0.0
  0
LINE
  5
E6
100
AcDbEntity
  8
0
  6
CONTINUOUS
 62
               7
100
AcDbLine
 10
3.769999999999996
 20
-3.9699999999999989
 30
0.0
 11
4.769999999999996
 21
-2.9699999999999989
 31
0.0
  0
LINE
  5
E7
100
AcDbEntity
  8
0
  6
CONTINUOUS
 62
               7
100
AcDbLine
 10
-8.0799999999944916
 20
22.11733944953982
 30
0.0
 11
-7.0
 21
21.829999999999998
 31
0.0
  0
LINE
  5
E8
100
AcDbEntity
  8
0
  6
CONTINUOUS
 62
               7
100
AcDbLine
 10
-7.0
 20
23.829999999999998
 30
0.0
 11
-8.0799999999944916
 21
23.542660550460184
 31
0.0
  0
LINE
  5
E9
100
AcDbEntity
  8
0
  6
DASHED
 62
               7
100
AcDbLine
 10
0.0
 20
25.805139587033544
 30
0.0
 11
0.0
 21
24.72999198913574
 31
0.0
  0
ARC
  5
EA
100
AcDbEntity
  8
0
  6
CONTINUOUS
 62
               7
100
AcDbCircle
 10
5.8972147007797275
 20
6.5327852992202722
 30
0.0
 40
1.0027891673846696
100
AcDbArc
 50
270.15914222090987
 51
359.8408577790932
  0
ARC
  5
EB
100
AcDbEntity
  8
0
  6
CONTINUOUS
 62
               7
100
AcDbCircle
 10
-5.8972147007797275
 20
6.5327852992202722
 30
0.0
 40
1.0027891673846696
100
AcDbArc
 50
180.15914222090677
 51
269.84085777909013
  0
CIRCLE
  5
EC
100
AcDbEntity
  8
0
  6
CONTINUOUS
 62
               7
100
AcDbCircle
 10
0.0
 20
17.829999999999998
 30
0.0
 40
1.0
  0
ARC
  5
ED
100
AcDbEntity
  8
0
  6
CONTINUOUS
 62
               7
100
AcDbCircle
 10
-6.0562008182977891
 20
16.611828945850341
 30
0.0
 40
7.2181710541496571
100
AcDbArc
 50
73.768196965614052
 51
104.89869543440027
  0
ARC
  5
EE
100
AcDbEntity
  8
0
  6
CONTINUOUS
 62
               7
100
AcDbCircle
 10
-6.0562008182977962
 20
29.048171054150458
 30
0.0
 40
7.2181710541504271
100
AcDbArc
 50
255.10130456559955
 51
286.2318030343842
  0
ARC
  5
EF
100
AcDbEntity
  8
0
  6
CONTINUOUS
 62
               7
100
AcDbCircle
 10
0.000104081758181
 20
-4.6580531145504125
 30
0.0
 40
28.488053114550411
100
AcDbArc
 50
81.844443036190924
 51
98.15008015307842
  0
ARC
  5
F0
100
AcDbEntity
  8
0
  6
CONTINUOUS
 62
               7
100
AcDbCircle
 10
0.0001040817582094
 20
50.318053114553742
 30
0.0
 40
28.488053114553708
100
AcDbArc
 50
261.84991984692249
 51
278.15555696380807
  0
ARC
  5
F1
100
AcDbEntity
  8
0
  6
CONTINUOUS
 62
               7
100
AcDbCircle
 10
-6.043362234461064
 20
14.345588559061881
 30
0.0
 40
6.4844114409381497
100
AcDbArc
 50
71.990515996353523
 51
105.05121999259106
  0
ARC
  5
F2
100
AcDbEntity
  8
0
  6
CONTINUOUS
 62
               7
100
AcDbCircle
 10
-0.001453451340268
 20
-5.0103009352341701
 30
0.0
 40
25.840300935234197
100
AcDbArc
 50
81.011716138198636
 51
98.988283861801378
  0
ARC
  5
F3
100
AcDbEntity
  8
0
  6
CONTINUOUS
 62
               7
100
AcDbCircle
 10
6.0441362545440569
 20
14.351447587094039
 30
0.0
 40
6.4785524129059908
100
AcDbArc
 50
74.948780007409027
 51
108.00652410423316
  0
ARC
  5
F4
100
AcDbEntity
  8
0
  6
CONTINUOUS
 62
               7
100
AcDbCircle
 10
6.0414931205007747
 20
22.528559899524495
 30
0.0
 40
6.4985598995244951
100
AcDbArc
 50
252.02144617627664
 51
285.05121999259103
  0
ARC
  5
F5
100
AcDbEntity
  8
0
  6
CONTINUOUS
 62
               7
100
AcDbCircle
 10
0.0
 20
41.851812241845529
 30
0.0
 40
25.821812241845528
100
AcDbArc
 50
261.00849224247594
 51
278.99150775752406
  0
ARC
  5
F6
100
AcDbEntity
  8
0
  6
CONTINUOUS
 62
               7
100
AcDbCircle
 10
-6.0434522961069561
 20
22.513729709651265
 30
0.0
 40
6.4837297096512678
100
AcDbArc
 50
254.948780007409
 51
288.01237934318237
  0
LINE
  5
F7
100
AcDbEntity
  8
0
  6
CONTINUOUS
 62
               2
100
AcDbLine
 10
-4.9899999999999949
 20
5.0500000000000007
 30
0.0
 11
-4.3975816993464036
 21
4.0200000000000031
 31
0.0
  0
LINE
  5
F8
100
AcDbEntity
  8
0
  6
CONTINUOUS
 62
               2
100
AcDbLine
 10
-4.3975816993464036
 20
4.0200000000000031
 30
0.0
 11
-4.156410581217628
 21
-3.5835894187823669
 31
0.0
  0
LINE
  5
F9
100
AcDbEntity
  8
0
  6
CONTINUOUS
 62
               2
100
AcDbLine
 10
4.4043137254901978
 20
4.0200000000000031
 30
0.0
 11
4.9899999999999949
 21
5.0500000000000007
 31
0.0
  0
LINE
  5
FA
100
AcDbEntity
  8
0
  6
CONTINUOUS
 62
               2
100
AcDbLine
 10
4.4043137254901978
 20
4.0200000000000031
 30
0.0
 11
4.1633631286909605
 21
-3.5766368713090344
 31
0.0
  0
LINE
  5
FB
100
AcDbEntity
  8
0
  6
CENTER
 62
               2
100
AcDbLine
 10
-6.8999999999999986
 20
0.0
 30
0.0
 11
6.9000000000000057
 21
0.0
 31
0.0
  0
LINE
  5
FC
100
AcDbEntity
  8
0
  6
CENTER
 62
               2
100
AcDbLine
 10
-2.0
 20
17.829999999999998
 30
0.0
 11
2.0
 21
17.829999999999998
 31
0.0
  0
LINE
  5
FD
100
AcDbEntity
  8
0
  6
CONTINUOUS
 62
               2
100
AcDbLine
 10
5.5000000000000711
 20
28.030000000000001
 30
0.0
 11
5.5000000000000711
 21
23.829999999999998
 31
0.0
  0
LINE
  5
FE
100
AcDbEntity
  8
0
  6
CONTINUOUS
 62
               2
100
AcDbLine
 10
-5.4999999999999574
 20
28.030000000000001
 30
0.0
 11
-5.4999999999999574
 21
23.829999999999998
 31
0.0
  0
LINE
  5
FF
100
AcDbEntity
  8
0
  6
CONTINUOUS
 62
               7
100
AcDbLine
 10
1.5230477378336218
 20
30.071509503823133
 30
0.0
 11
2.4725100098427077
 21
42.59913670394306
 31
0.0
  0
ARC
  5
100
100
AcDbEntity
  8
0
  6
CONTINUOUS
 62
               7
100
AcDbCircle
 10
3.1082393577158314
 20
29.821247401004193
 30
0.0
 40
1.5995718806869479
100
AcDbArc
 50
175.62269252648358
 51
234.23425574443934
  0
ARC
  5
101
100
AcDbEntity
  8
0
  6
CONTINUOUS
 62
               7
100
AcDbCircle
 10
-3.1082393577158314
 20
29.821247401004182
 30
0.0
 40
1.5995718806869479
100
AcDbArc
 50
305.76574425556083
 51
4.3773074735165993
  0
ARC
  5
102
100
AcDbEntity
  8
0
  6
CONTINUOUS
 62
               7
100
AcDbCircle
 10
0.0000000000000142
 20
42.233391520182366
 30
0.0
 40
2.4994149891957589
100
AcDbArc
 50
8.4144382670749707
 51
171.58556173292502
  0
LINE
  5
103
100
AcDbEntity
  8
0
  6
CONTINUOUS
 62
               7
100
AcDbLine
 10
-2.4725100098426651
 20
42.599136703943067
 30
0.0
 11
-1.513333333333307
 21
29.943333333333424
 31
0.0
  0
ARC
  5
104
100
AcDbEntity
  8
0
  6
CONTINUOUS
 62
               7
100
AcDbCircle
 10
-0.0471916601311904
 20
25.438232890301634
 30
0.0
 40
3.8011282522687244
100
AcDbArc
 50
42.987714965606877
 51
54.255254442626288
  0
ARC
  5
105
100
AcDbEntity
  8
0
  6
CONTINUOUS
 62
               7
100
AcDbCircle
 10
0.0471916601311904
 20
25.438232890301634
 30
0.0
 40
3.8011282522687244
100
AcDbArc
 50
125.74474555737392
 51
137.01228503439313
  0
LINE
  5
106
100
AcDbEntity
  8
0
  6
CENTER
 62
               2
100
AcDbLine
 10
0.0
 20
-5.7659999999999982
 30
0.0
 11
0.0
 21
46.731278003733564
 31
0.0
  0
ARC
  5
107
100
AcDbEntity
  8
0
  6
CONTINUOUS
 62
               7
100
AcDbCircle
 10
6.0582227196634051
 20
29.0327075634053
 30
0.0
 40
7.2027075634052666
100
AcDbArc
 50
253.73968991117721
 51
284.89869543440045
  0
ARC
  5
108
100
AcDbEntity
  8
0
  6
CONTINUOUS
 62
               7
100
AcDbCircle
 10
6.0582227196635472
 20
16.627292436596633
 30
0.0
 40
7.2027075634033668
100
AcDbArc
 50
75.101304565599719
 51
106.26031008882819
  0
LINE
  5
109
100
AcDbEntity
  8
0
  6
CONTINUOUS
 62
               7
100
AcDbLine
 10
7.0
 20
21.829999999999998
 30
0.0
 11
8.0800000000000409
 21
22.117339449541298
 31
0.0
  0
LINE
  5
10A
100
AcDbEntity
  8
0
  6
CONTINUOUS
 62
               7
100
AcDbLine
 10
8.0800000000000409
 20
23.542660550458706
 30
0.0
 11
7.0
 21
23.829999999999998
 31
0.0
  0
LINE
  5
10B
100
AcDbEntity
  8
0
  6
CONTINUOUS
 62
               7
100
AcDbLine
 10
6.9000000000000057
 20
16.030000000000001
 30
0.0
 11
8.0800000000000125
 21
16.347310924369751
 31
0.0
  0
LINE
  5
10C
100
AcDbEntity
  8
0
  6
CONTINUOUS
 62
               7
100
AcDbLine
 10
8.0800000000000125
 20
20.512689075630249
 30
0.0
 11
6.9000000000000057
 21
20.829999999999998
 31
0.0
  0
ENDBLK
  5
10D
100
AcDbEntity
  8
0
100
AcDbBlockEnd
  0
BLOCK
  5
10E
100
AcDbEntity
  8
0
100
AcDbBlockBegin
  2
3VR-4
 70
               0
 10
0.0
 20
0.0
 30
0.0
  3
3VR-4
  1

  0
ARC
  5
10F
100
AcDbEntity
  8
0
  6
CONTINUOUS
 62
               7
100
AcDbCircle
 10
0.0
 20
0.0
 30
0.0
 40
7.5
100
AcDbArc
 50
219.0928141657154
 51
260.91901025197268
  0
ARC
  5
110
100
AcDbEntity
  8
0
  6
CONTINUOUS
 62
               7
100
AcDbCircle
 10
0.0
 20
0.0
 30
0.0
 40
7.5
100
AcDbArc
 50
159.01770285385263
 51
200.93356115664557
  0
ARC
  5
111
100
AcDbEntity
  8
0
  6
CONTINUOUS
 62
               7
100
AcDbCircle
 10
0.0
 20
0.0
 30
0.0
 40
7.5
100
AcDbArc
 50
98.958950724062305
 51
141.0608343409136
  0
ARC
  5
112
100
AcDbEntity
  8
0
  6
CONTINUOUS
 62
               7
100
AcDbCircle
 10
0.0
 20
0.0
 30
0.0
 40
7.5
100
AcDbArc
 50
38.990553050423841
 51
81.029141401273264
  0
ARC
  5
113
100
AcDbEntity
  8
0
  6
CONTINUOUS
 62
               7
100
AcDbCircle
 10
0.0
 20
0.0
 30
0.0
 40
7.5
100
AcDbArc
 50
339.13299010241786
 51
20.883542824412022
  0
ARC
  5
114
100
AcDbEntity
  8
0
  6
CONTINUOUS
 62
               7
100
AcDbCircle
 10
0.0
 20
0.0
 30
0.0
 40
7.5
100
AcDbArc
 50
279.09587955094611
 51
320.94743070695392
  0
CIRCLE
  5
115
100
AcDbEntity
  8
0
  6
CONTINUOUS
 62
               7
100
AcDbCircle
 10
0.0
 20
0.0
 30
0.0
 40
7.0
  0
LINE
  5
116
100
AcDbEntity
  8
0
  6
CONTINUOUS
 62
               7
100
AcDbLine
 10
-7.0
 20
4.0385481156726257
 30
0.0
 11
-6.9999999999999858
 21
-4.0414518843273797
 31
0.0
  0
LINE
  5
117
100
AcDbEntity
  8
0
  6
CONTINUOUS
 62
               7
100
AcDbLine
 10
-7.0
 20
4.0385481156726257
 30
0.0
 11
-0.000000000007276
 21
8.0799999999944703
 31
0.0
  0
LINE
  5
118
100
AcDbEntity
  8
0
  6
CONTINUOUS
 62
               7
100
AcDbLine
 10
-0.000000000007276
 20
8.0799999999944703
 30
0.0
 11
7.0000000000000142
 21
4.0356412129920756
 31
0.0
  0
LINE
  5
119
100
AcDbEntity
  8
0
  6
CONTINUOUS
 62
               7
100
AcDbLine
 10
7.0000000000000142
 20
-4.0356412129913153
 30
0.0
 11
7.0000000000000142
 21
4.0356412129920756
 31
0.0
  0
LINE
  5
11A
100
AcDbEntity
  8
0
  6
DASHED
 62
               7
100
AcDbLine
 10
-0.7511947323743016
 20
0.0
 30
0.0
 11
-0.7999998728434292
 21
0.0
 31
0.0
  0
CIRCLE
  5
11B
100
AcDbEntity
  8
0
  6
CONTINUOUS
 62
               7
100
AcDbCircle
 10
0.0
 20
0.0
 30
0.0
 40
2.7653388235576473
  0
CIRCLE
  5
11C
100
AcDbEntity
  8
0
  6
CONTINUOUS
 62
               7
100
AcDbCircle
 10
0.0
 20
0.0
 30
0.0
 40
6.0
  0
CIRCLE
  5
11D
100
AcDbEntity
  8
0
  6
CONTINUOUS
 62
               2
100
AcDbCircle
 10
0.0
 20
0.0
 30
0.0
 40
5.5000000000000133
  0
LINE
  5
11E
100
AcDbEntity
  8
0
  6
CENTER
 62
               2
100
AcDbLine
 10
10.5
 20
0.0
 30
0.0
 11
-10.799999999999997
 21
0.0
 31
0.0
  0
CIRCLE
  5
11F
100
AcDbEntity
  8
0
  6
CONTINUOUS
 62
               7
100
AcDbCircle
 10
0.0
 20
0.0
 30
0.0
 40
2.5
  0
LINE
  5
120
100
AcDbEntity
  8
0
  6
CENTER
 62
               2
100
AcDbLine
 10
0.0
 20
-10.799999999999997
 30
0.0
 11
0.0
 21
10.799999999999997
 31
0.0
  0
LINE
  5
121
100
AcDbEntity
  8
0
  6
CONTINUOUS
 62
               7
100
AcDbLine
 10
0.0000000000000142
 20
-8.0800000000000196
 30
0.0
 11
7.0000000000000142
 21
-4.0356412129913153
 31
0.0
  0
LINE
  5
122
100
AcDbEntity
  8
0
  6
CONTINUOUS
 62
               7
100
AcDbLine
 10
-6.9999999999999858
 20
-4.0414518843273797
 30
0.0
 11
0.0000000000000142
 21
-8.0800000000000196
 31
0.0
  0
ENDBLK
  5
123
100
AcDbEntity
  8
0
100
AcDbBlockEnd
  0
BLOCK
  5
23
100
AcDbEntity
  8
0
  6
ByBlock
 62
               0
100
AcDbBlockBegin
  2
_OPEN30
 70
               2
 10
0.0
 20
0.0
 30
0.0
  3
_OPEN30
  1

  0
LINE
  5
24
100
AcDbEntity
  8
0
  6
ByBlock
 62
               0
100
AcDbLine
 10
-1.0
 20
0.267949
 30
0.0
 11
0.0
 21
0.0
 31
0.0
  0
LINE
  5
25
100
AcDbEntity
  8
0
  6
ByBlock
 62
               0
100
AcDbLine
 10
0.0
 20
0.0
 30
0.0
 11
-1.0
 21
-0.267949
 31
0.0
  0
LINE
  5
26
100
AcDbEntity
  8
0
  6
ByBlock
 62
               0
100
AcDbLine
 10
0.0
 20
0.0
 30
0.0
 11
-1.0
 21
0.0
 31
0.0
  0
ENDBLK
  5
27
100
AcDbEntity
  8
0
  6
ByBlock
 62
               0
100
AcDbBlockEnd
  0
ENDSEC
  0
SECTION
  2
ENTITIES
  0
INSERT
  5
124
100
AcDbEntity
  8
0
  6
ByBlock
100
AcDbBlockReference
  2
3VR-4
 10
0.0
 20
60.052680157699498
 30
0.0
  0
INSERT
  5
125
100
AcDbEntity
  8
0
  6
ByBlock
100
AcDbBlockReference
  2
3VR-3
 10
70.0
 20
-30.0
 30
0.0
  0
INSERT
  5
126
100
AcDbEntity
  8
0
  6
ByBlock
100
AcDbBlockReference
  2
3VR-2
 10
-70.0
 20
-30.0
 30
0.0
  0
INSERT
  5
127
100
AcDbEntity
  8
0
  6
ByBlock
100
AcDbBlockReference
  2
3VR-1
 10
-0.0000000000000142
 20
-30.0
 30
0.0
  0
MTEXT
  5
128
100
AcDbEntity
  8
0
  6
CONTINUOUS
 62
               7
100
AcDbMText
 10
18.799933902798337
 20
22.693885386152377
 30
0.0
 40
3.2000000476837158
 41
0.0
 71
               4
 72
               1
  1
\A1;ON
  0
MTEXT
  5
129
100
AcDbEntity
  8
0
  6
CONTINUOUS
 62
               7
100
AcDbMText
 10
-24.133267315604918
 20
22.693885386152377
 30
0.0
 40
3.2000000476837158
 41
0.0
 71
               4
 72
               1
  1
\A1;ON
  0
MTEXT
  5
12A
100
AcDbEntity
  8
0
  6
CONTINUOUS
 62
               7
100
AcDbMText
 10
-110.21999364471435
 20
89.099999904632568
 30
0.0
 40
3.1999998092651367
 41
0.0
 71
               1
 72
               1
  1
\W0.900;\A1;3VR
  0
LINE
  5
12B
100
AcDbEntity
  8
0
  6
CONTINUOUS
 62
               7
100
AcDbLine
 10
-138.39999389648437
 20
94.5
 30
0.0
 11
138.35000610351562
 21
94.5
 31
0.0
  0
LINE
  5
12C
100
AcDbEntity
  8
0
  6
CONTINUOUS
 62
               7
100
AcDbLine
 10
138.35000610351562
 20
94.5
 30
0.0
 11
138.35000610351562
 21
-94.800003051757812
 31
0.0
  0
LINE
  5
12D
100
AcDbEntity
  8
0
  6
CONTINUOUS
 62
               7
100
AcDbLine
 10
-138.39999389648437
 20
-94.800003051757812
 30
0.0
 11
138.35000610351562
 21
-94.800003051757812
 31
0.0
  0
LINE
  5
12E
100
AcDbEntity
  8
0
  6
CONTINUOUS
 62
               7
100
AcDbLine
 10
-138.39999389648437
 20
94.5
 30
0.0
 11
-138.39999389648437
 21
-94.800003051757812
 31
0.0
  0
LINE
  5
12F
100
AcDbEntity
  8
0
  6
CONTINUOUS
 62
               7
100
AcDbLine
 10
73.350006103515625
 20
-84.800003051757813
 30
0.0
 11
138.35000610351562
 21
-84.800003051757813
 31
0.0
  0
LINE
  5
130
100
AcDbEntity
  8
0
  6
CONTINUOUS
 62
               7
100
AcDbLine
 10
-138.39999389648437
 20
84.5
 30
0.0
 11
-73.399993896484375
 21
84.5
 31
0.0
  0
LINE
  5
131
100
AcDbEntity
  8
0
  6
CONTINUOUS
 62
               7
100
AcDbLine
 10
73.350006103515625
 20
84.5
 30
0.0
 11
138.35000610351562
 21
84.5
 31
0.0
  0
LINE
  5
132
100
AcDbEntity
  8
0
  6
CONTINUOUS
 62
               7
100
AcDbLine
 10
73.350006103515625
 20
-84.800003051757813
 30
0.0
 11
73.350006103515625
 21
-94.800003051757812
 31
0.0
  0
LINE
  5
133
100
AcDbEntity
  8
0
  6
CONTINUOUS
 62
               7
100
AcDbLine
 10
73.350006103515625
 20
94.5
 30
0.0
 11
73.350006103515625
 21
84.5
 31
0.0
  0
LINE
  5
134
100
AcDbEntity
  8
0
  6
CONTINUOUS
 62
               7
100
AcDbLine
 10
-73.399993896484375
 20
94.5
 30
0.0
 11
-73.399993896484375
 21
84.5
 31
0.0
  0
MTEXT
  5
135
100
AcDbEntity
  8
0
  6
CONTINUOUS
 62
               7
100
AcDbMText
 10
77.440523342735503
 20
-89.800003051757812
 30
0.0
 40
4.5
 41
0.0
 71
               4
 72
               1
  1
\W1.121;\A1;KOGANEI CORP.
  0
MTEXT
  5
136
100
AcDbEntity
  8
0
  6
CONTINUOUS
 62
               7
100
AcDbMText
 10
93.749460369842424
 20
89.5
 30
0.0
 40
3.1999998092651367
 41
0.0
 71
               4
 72
               1
  1
\W1.311;\A1;Ver. 1.0
  0
MTEXT
  5
137
100
AcDbEntity
  8
0
  6
CONTINUOUS
 62
               7
100
AcDbMText
 10
-119.7820074619834
 20
93.099999904632568
 30
0.0
 40
3.1999998092651367
 41
0.0
 71
               1
 72
               1
  1
\W0.971;\A1;TAC VALVE
  0
MTEXT
  5
138
100
AcDbEntity
  8
0
  6
CONTINUOUS
 62
               7
100
AcDbMText
 10
-129.44614776140133
 20
74.5
 30
0.0
 40
3.2000000476837158
 41
0.0
 71
               4
 72
               1
  1
\W1.038;\A1;MODEL:3VR
  0
ENDSEC
  0
SECTION
  2
OBJECTS
  0
DICTIONARY
  5
19
100
AcDbDictionary
  3
ACAD_GROUP
350
1A
  3
ACAD_MLINESTYLE
350
1B
  0
DICTIONARY
  5
1A
102
{ACAD_REACTORS
330
19
102
}
100
AcDbDictionary
  0
DICTIONARY
  5
1B
102
{ACAD_REACTORS
330
19
102
}
100
AcDbDictionary
  3
STANDARD
350
1C
  0
MLINESTYLE
  5
1C
102
{ACAD_REACTORS
330
1B
102
}
100
AcDbMlineStyle
  2
Standard
 70
               0
  3

 62
               0
 51
90.0
 52
90.0
 71
               2
 49
0.5
 62
             256
  6
ByLayer
 49
-0.5
 62
             256
  6
ByLayer
  0
ENDSEC
  0
EOF
