  0
SECTION
  2
HEADER
  9
$ACADVER
  1
AC1015
  9
$ACADMAINTVER
 70
    20
  9
$DWGCODEPAGE
  3
ANSI_932
  9
$INSBASE
 10
0.0
 20
0.0
 30
0.0
  9
$EXTMIN
 10
-194.25
 20
-133.5
 30
0.0
  9
$EXTMAX
 10
194.80000305
 20
132.6000061
 30
0.0
  9
$LIMMIN
 10
-194.25
 20
-133.5
  9
$LIMMAX
 10
194.80000305
 20
132.6000061
  9
$ORTHOMODE
 70
     0
  9
$REGENMODE
 70
     1
  9
$FILLMODE
 70
     1
  9
$QTEXTMODE
 70
     0
  9
$MIRRTEXT
 70
     1
  9
$LTSCALE
 40
1.0
  9
$ATTMODE
 70
     1
  9
$TEXTSIZE
 40
3.200000049999999
  9
$TRACEWID
 40
0.05
  9
$TEXTSTYLE
  7
MX_NOTE_STANDARD
  9
$CLAYER
  8
0
  9
$CELTYPE
  6
CONTINUOUS
  9
$CECOLOR
 62
   256
  9
$CELTSCALE
 40
1.0
  9
$DISPSILH
 70
     0
  9
$DIMSCALE
 40
1.0
  9
$DIMASZ
 40
2.5
  9
$DIMEXO
 40
1.5
  9
$DIMDLI
 40
3.75
  9
$DIMRND
 40
0.0
  9
$DIMDLE
 40
0.0
  9
$DIMEXE
 40
1.5
  9
$DIMTP
 40
0.0
  9
$DIMTM
 40
0.0
  9
$DIMTXT
 40
3.200000049999999
  9
$DIMCEN
 40
2.5
  9
$DIMTSZ
 40
0.0
  9
$DIMTOL
 70
     0
  9
$DIMLIM
 70
     0
  9
$DIMTIH
 70
     0
  9
$DIMTOH
 70
     0
  9
$DIMSE1
 70
     0
  9
$DIMSE2
 70
     0
  9
$DIMTAD
 70
     1
  9
$DIMZIN
 70
     8
  9
$DIMBLK
  1

  9
$DIMASO
 70
     1
  9
$DIMSHO
 70
     1
  9
$DIMPOST
  1

  9
$DIMAPOST
  1

  9
$DIMALT
 70
     0
  9
$DIMALTD
 70
     4
  9
$DIMALTF
 40
0.0394
  9
$DIMLFAC
 40
1.0
  9
$DIMTOFL
 70
     1
  9
$DIMTVP
 40
0.0
  9
$DIMTIX
 70
     0
  9
$DIMSOXD
 70
     0
  9
$DIMSAH
 70
     0
  9
$DIMBLK1
  1

  9
$DIMBLK2
  1

  9
$DIMSTYLE
  2
MXDIMSTYLE
  9
$DIMCLRD
 70
     0
  9
$DIMCLRE
 70
     0
  9
$DIMCLRT
 70
     0
  9
$DIMTFAC
 40
1.0
  9
$DIMGAP
 40
1.0
  9
$DIMJUST
 70
     0
  9
$DIMSD1
 70
     0
  9
$DIMSD2
 70
     0
  9
$DIMTOLJ
 70
     1
  9
$DIMTZIN
 70
     0
  9
$DIMALTZ
 70
     0
  9
$DIMALTTZ
 70
     0
  9
$DIMUPT
 70
     0
  9
$DIMDEC
 70
     4
  9
$DIMTDEC
 70
     4
  9
$DIMALTU
 70
     2
  9
$DIMALTTD
 70
     2
  9
$DIMTXSTY
  7
Standard
  9
$DIMAUNIT
 70
     0
  9
$DIMADEC
 70
     0
  9
$DIMALTRND
 40
0.0
  9
$DIMAZIN
 70
     0
  9
$DIMDSEP
 70
    46
  9
$DIMATFIT
 70
     3
  9
$DIMFRAC
 70
     0
  9
$DIMLDRBLK
  1

  9
$DIMLUNIT
 70
     2
  9
$DIMLWD
 70
    -2
  9
$DIMLWE
 70
    -2
  9
$DIMTMOVE
 70
     0
  9
$LUNITS
 70
     2
  9
$LUPREC
 70
     4
  9
$SKETCHINC
 40
0.1
  9
$FILLETRAD
 40
0.0
  9
$AUNITS
 70
     0
  9
$AUPREC
 70
     0
  9
$MENU
  1
acad
  9
$ELEVATION
 40
0.0
  9
$PELEVATION
 40
0.0
  9
$THICKNESS
 40
0.0
  9
$LIMCHECK
 70
     0
  9
$CHAMFERA
 40
0.0
  9
$CHAMFERB
 40
0.0
  9
$CHAMFERC
 40
0.0
  9
$CHAMFERD
 40
0.0
  9
$SKPOLY
 70
     0
  9
$TDCREATE
 40
2452902.575729167
  9
$TDUCREATE
 40
2452902.200729166
  9
$TDUPDATE
 40
2454336.399839306
  9
$TDUUPDATE
 40
2454336.024839306
  9
$TDINDWG
 40
0.0064970255
  9
$TDUSRTIMER
 40
0.0064574306
  9
$USRTIMER
 70
     1
  9
$ANGBASE
 50
0.0
  9
$ANGDIR
 70
     0
  9
$PDMODE
 70
     0
  9
$PDSIZE
 40
0.0
  9
$PLINEWID
 40
0.0
  9
$SPLFRAME
 70
     0
  9
$SPLINETYPE
 70
     6
  9
$SPLINESEGS
 70
     8
  9
$HANDSEED
  5
315
  9
$SURFTAB1
 70
     6
  9
$SURFTAB2
 70
     6
  9
$SURFTYPE
 70
     6
  9
$SURFU
 70
     6
  9
$SURFV
 70
     6
  9
$UCSBASE
  2

  9
$UCSNAME
  2

  9
$UCSORG
 10
0.0
 20
0.0
 30
0.0
  9
$UCSXDIR
 10
1.0
 20
0.0
 30
0.0
  9
$UCSYDIR
 10
0.0
 20
1.0
 30
0.0
  9
$UCSORTHOREF
  2

  9
$UCSORTHOVIEW
 70
     0
  9
$UCSORGTOP
 10
0.0
 20
0.0
 30
0.0
  9
$UCSORGBOTTOM
 10
0.0
 20
0.0
 30
0.0
  9
$UCSORGLEFT
 10
0.0
 20
0.0
 30
0.0
  9
$UCSORGRIGHT
 10
0.0
 20
0.0
 30
0.0
  9
$UCSORGFRONT
 10
0.0
 20
0.0
 30
0.0
  9
$UCSORGBACK
 10
0.0
 20
0.0
 30
0.0
  9
$PUCSBASE
  2

  9
$PUCSNAME
  2

  9
$PUCSORG
 10
0.0
 20
0.0
 30
0.0
  9
$PUCSXDIR
 10
1.0
 20
0.0
 30
0.0
  9
$PUCSYDIR
 10
0.0
 20
1.0
 30
0.0
  9
$PUCSORTHOREF
  2

  9
$PUCSORTHOVIEW
 70
     0
  9
$PUCSORGTOP
 10
0.0
 20
0.0
 30
0.0
  9
$PUCSORGBOTTOM
 10
0.0
 20
0.0
 30
0.0
  9
$PUCSORGLEFT
 10
0.0
 20
0.0
 30
0.0
  9
$PUCSORGRIGHT
 10
0.0
 20
0.0
 30
0.0
  9
$PUCSORGFRONT
 10
0.0
 20
0.0
 30
0.0
  9
$PUCSORGBACK
 10
0.0
 20
0.0
 30
0.0
  9
$USERI1
 70
     0
  9
$USERI2
 70
     0
  9
$USERI3
 70
     0
  9
$USERI4
 70
     0
  9
$USERI5
 70
     0
  9
$USERR1
 40
0.0
  9
$USERR2
 40
0.0
  9
$USERR3
 40
0.0
  9
$USERR4
 40
0.0
  9
$USERR5
 40
0.0
  9
$WORLDVIEW
 70
     1
  9
$SHADEDGE
 70
     3
  9
$SHADEDIF
 70
    70
  9
$TILEMODE
 70
     1
  9
$MAXACTVP
 70
    16
  9
$PINSBASE
 10
0.0
 20
0.0
 30
0.0
  9
$PLIMCHECK
 70
     0
  9
$PEXTMIN
 10
1.000000000000000E+20
 20
1.000000000000000E+20
 30
1.000000000000000E+20
  9
$PEXTMAX
 10
-1.000000000000000E+20
 20
-1.000000000000000E+20
 30
-1.000000000000000E+20
  9
$PLIMMIN
 10
0.0
 20
0.0
  9
$PLIMMAX
 10
12.0
 20
9.0
  9
$UNITMODE
 70
     0
  9
$VISRETAIN
 70
     0
  9
$PLINEGEN
 70
     1
  9
$PSLTSCALE
 70
     0
  9
$TREEDEPTH
 70
  3020
  9
$CMLSTYLE
  2
Standard
  9
$CMLJUST
 70
     0
  9
$CMLSCALE
 40
1.0
  9
$PROXYGRAPHICS
 70
     1
  9
$MEASUREMENT
 70
     0
  9
$CELWEIGHT
370
    -1
  9
$ENDCAPS
280
     0
  9
$JOINSTYLE
280
     0
  9
$LWDISPLAY
290
     0
  9
$INSUNITS
 70
     0
  9
$HYPERLINKBASE
  1

  9
$STYLESHEET
  1

  9
$XEDIT
290
     1
  9
$CEPSNTYPE
380
     0
  9
$PSTYLEMODE
290
     1
  9
$FINGERPRINTGUID
  2
{1AD7BFF4-71E4-4C83-A9E6-8F629654D43E}
  9
$VERSIONGUID
  2
{AB0FB765-7D06-43D5-9F68-8E77D3DBB63A}
  9
$EXTNAMES
290
     1
  9
$PSVPSCALE
 40
0.0
  9
$OLESTARTUP
290
     0
  0
ENDSEC
  0
SECTION
  2
CLASSES
  0
CLASS
  1
ACDBDICTIONARYWDFLT
  2
AcDbDictionaryWithDefault
  3
ObjectDBX Classes
 90
        0
280
     0
281
     0
  0
CLASS
  1
TABLESTYLE
  2
AcDbTableStyle
  3
ObjectDBX Classes
 90
     2047
280
     0
281
     0
  0
CLASS
  1
SORTENTSTABLE
  2
AcDbSortentsTable
  3
ObjectDBX Classes
 90
        0
280
     0
281
     0
  0
CLASS
  1
DICTIONARYVAR
  2
AcDbDictionaryVar
  3
ObjectDBX Classes
 90
        0
280
     0
281
     0
  0
CLASS
  1
ACDBPLACEHOLDER
  2
AcDbPlaceHolder
  3
ObjectDBX Classes
 90
        0
280
     0
281
     0
  0
CLASS
  1
LAYOUT
  2
AcDbLayout
  3
ObjectDBX Classes
 90
        0
280
     0
281
     0
  0
ENDSEC
  0
SECTION
  2
TABLES
  0
TABLE
  2
VPORT
  5
28C
330
0
100
AcDbSymbolTable
 70
     2
  0
VPORT
  5
30E
330
28C
100
AcDbSymbolTableRecord
100
AcDbViewportTableRecord
  2
*Active
 70
     0
 10
0.0
 20
0.0
 11
1.0
 21
1.0
 12
-25.35121988723302
 22
-32.1808357141137
 13
0.0
 23
0.0
 14
1.0
 24
1.0
 15
0.0
 25
0.0
 16
0.0
 26
0.0
 36
1.0
 17
0.0
 27
0.0
 37
0.0
 40
486.3673096466085
 41
1.694986072423398
 42
50.0
 43
0.0
 44
0.0
 50
0.0
 51
0.0
 71
     0
 72
   100
 73
     1
 74
     1
 75
     0
 76
     0
 77
     0
 78
     0
281
     0
 65
     1
110
0.0
120
0.0
130
0.0
111
1.0
121
0.0
131
0.0
112
0.0
122
1.0
132
0.0
 79
     0
146
0.0
  0
ENDTAB
  0
TABLE
  2
LTYPE
  5
289
330
0
100
AcDbSymbolTable
 70
     3
  0
LTYPE
  5
297
330
289
100
AcDbSymbolTableRecord
100
AcDbLinetypeTableRecord
  2
ByBlock
 70
     0
  3

 72
    65
 73
     0
 40
0.0
  0
LTYPE
  5
298
330
289
100
AcDbSymbolTableRecord
100
AcDbLinetypeTableRecord
  2
ByLayer
 70
     0
  3

 72
    65
 73
     0
 40
0.0
  0
LTYPE
  5
299
330
289
100
AcDbSymbolTableRecord
100
AcDbLinetypeTableRecord
  2
CONTINUOUS
 70
     0
  3
Solid line
 72
    65
 73
     0
 40
0.0
  0
LTYPE
  5
2AC
330
289
100
AcDbSymbolTableRecord
100
AcDbLinetypeTableRecord
  2
CENTER
 70
     0
  3
Center ____ _ ____ _ ____ _ ____ _ ____ _ ____
 72
    65
 73
     4
 40
50.8
 49
31.75
 74
     0
 49
-6.349999999999999
 74
     0
 49
6.349999999999999
 74
     0
 49
-6.349999999999999
 74
     0
  0
ENDTAB
  0
TABLE
  2
LAYER
  5
286
102
{ACAD_XDICTIONARY
360
2B7
102
}
330
0
100
AcDbSymbolTable
 70
     2
  0
LAYER
  5
294
330
286
100
AcDbSymbolTableRecord
100
AcDbLayerTableRecord
  2
0
 70
     0
 62
     7
  6
CONTINUOUS
370
    -3
390
293
  0
LAYER
  5
2AD
330
286
100
AcDbSymbolTableRecord
100
AcDbLayerTableRecord
  2
DEFPOINTS
 70
     0
 62
     7
  6
CONTINUOUS
290
     0
370
    -3
390
293
  0
ENDTAB
  0
TABLE
  2
STYLE
  5
287
330
0
100
AcDbSymbolTable
 70
     2
  0
STYLE
  5
295
330
287
100
AcDbSymbolTableRecord
100
AcDbTextStyleTableRecord
  2
Standard
 70
     0
 40
0.0
 41
1.0
 50
0.0
 71
     0
 42
0.2
  3
txt
  4

  0
STYLE
  5
2AA
330
287
100
AcDbSymbolTableRecord
100
AcDbTextStyleTableRecord
  2
MX_NOTE_STANDARD
 70
     0
 40
3.200000049999999
 41
1.0
 50
0.0
 71
     0
 42
3.200000049999999
  3
txt.shx
  4
extfont.shx
  0
ENDTAB
  0
TABLE
  2
VIEW
  5
28A
330
0
100
AcDbSymbolTable
 70
     0
  0
ENDTAB
  0
TABLE
  2
UCS
  5
28B
330
0
100
AcDbSymbolTable
 70
     0
  0
ENDTAB
  0
TABLE
  2
APPID
  5
28D
330
0
100
AcDbSymbolTable
 70
     3
  0
APPID
  5
296
330
28D
100
AcDbSymbolTableRecord
100
AcDbRegAppTableRecord
  2
ACAD
 70
     0
  0
APPID
  5
2B6
330
28D
100
AcDbSymbolTableRecord
100
AcDbRegAppTableRecord
  2
ACAD_PSEXT
 70
     0
  0
APPID
  5
2FC
330
28D
100
AcDbSymbolTableRecord
100
AcDbRegAppTableRecord
  2
ACAD_EXEMPT_FROM_CAD_STANDARDS
 70
     0
  0
ENDTAB
  0
TABLE
  2
DIMSTYLE
  5
28E
330
0
100
AcDbSymbolTable
 70
     2
100
AcDbDimStyleTable
 71
     1
340
2AE
  0
DIMSTYLE
105
2AE
330
28E
100
AcDbSymbolTableRecord
100
AcDbDimStyleTableRecord
  2
MXDIMSTYLE
 70
     0
 41
2.5
 42
1.5
 43
3.75
 44
1.5
 73
     0
 74
     0
 77
     1
 78
     8
140
3.200000049999999
141
2.5
143
0.0394
147
1.0
171
     4
172
     1
274
     4
279
     2
284
     8
285
     8
286
     8
340
2AA
  0
ENDTAB
  0
TABLE
  2
BLOCK_RECORD
  5
285
330
0
100
AcDbSymbolTable
 70
     6
  0
BLOCK_RECORD
  5
2A6
330
285
100
AcDbSymbolTableRecord
100
AcDbBlockTableRecord
  2
*Model_Space
340
2A9
  0
BLOCK_RECORD
  5
2A2
330
285
100
AcDbSymbolTableRecord
100
AcDbBlockTableRecord
  2
*Paper_Space
340
2A5
  0
BLOCK_RECORD
  5
2B1
330
285
100
AcDbSymbolTableRecord
100
AcDbBlockTableRecord
  2
*X0
340
0
102
{BLKREFS
331
B8
102
}
  0
BLOCK_RECORD
  5
2B2
330
285
100
AcDbSymbolTableRecord
100
AcDbBlockTableRecord
  2
*X1
340
0
102
{BLKREFS
331
C3
102
}
  0
BLOCK_RECORD
  5
2B3
330
285
100
AcDbSymbolTableRecord
100
AcDbBlockTableRecord
  2
*X2
340
0
102
{BLKREFS
331
CE
102
}
  0
BLOCK_RECORD
  5
2B4
330
285
100
AcDbSymbolTableRecord
100
AcDbBlockTableRecord
  2
*X3
340
0
102
{BLKREFS
331
D9
102
}
  0
ENDTAB
  0
ENDSEC
  0
SECTION
  2
BLOCKS
  0
BLOCK
  5
2A7
330
2A6
100
AcDbEntity
  8
0
100
AcDbBlockBegin
  2
*Model_Space
 70
     0
 10
0.0
 20
0.0
 30
0.0
  3
*Model_Space
  1

  0
ENDBLK
  5
2A8
330
2A6
100
AcDbEntity
  8
0
100
AcDbBlockEnd
  0
BLOCK
  5
2A3
330
2A2
100
AcDbEntity
 67
     1
  8
0
100
AcDbBlockBegin
  2
*Paper_Space
 70
     0
 10
0.0
 20
0.0
 30
0.0
  3
*Paper_Space
  1

  0
ENDBLK
  5
2A4
330
2A2
100
AcDbEntity
 67
     1
  8
0
100
AcDbBlockEnd
  0
BLOCK
  5
B0
330
2B1
100
AcDbEntity
  8
0
  6
ByBlock
 62
     0
100
AcDbBlockBegin
  2
*X0
 70
     1
 10
0.0
 20
0.0
 30
0.0
  3
*X0
  1

  0
LINE
  5
B1
330
2B1
100
AcDbEntity
  8
0
  6
ByBlock
 62
     0
100
AcDbLine
 10
115.80855153
 20
63.48264973
 30
0.0
 11
116.16402302
 21
63.83812121
 31
0.0
  0
LINE
  5
B2
330
2B1
100
AcDbEntity
  8
0
  6
ByBlock
 62
     0
100
AcDbLine
 10
114.39433797
 20
63.48264973
 30
0.0
 11
115.79170769
 21
64.88001945
 31
0.0
  0
LINE
  5
B3
330
2B1
100
AcDbEntity
  8
0
  6
ByBlock
 62
     0
100
AcDbLine
 10
113.53220238
 20
64.03472769
 30
0.0
 11
115.11424957
 21
65.61677489
 31
0.0
  0
LINE
  5
B4
330
2B1
100
AcDbEntity
  8
0
  6
ByBlock
 62
     0
100
AcDbLine
 10
113.53220238
 20
65.44894125999999
 30
0.0
 11
114.14875748
 21
66.06549636
 31
0.0
  0
LINE
  5
B5
330
2B1
100
AcDbEntity
  8
0
  6
ByBlock
 62
     0
100
AcDbLine
 10
114.70825913
 20
63.48264973
 30
0.0
 11
113.53220238
 21
64.65870648
 31
0.0
  0
LINE
  5
B6
330
2B1
100
AcDbEntity
  8
0
  6
ByBlock
 62
     0
100
AcDbLine
 10
116.1224727
 20
63.48264973
 30
0.0
 11
113.53220238
 21
66.07292004999999
 31
0.0
  0
ENDBLK
  5
B7
330
2B1
100
AcDbEntity
  8
0
  6
ByBlock
 62
     0
100
AcDbBlockEnd
  0
BLOCK
  5
BA
330
2B2
100
AcDbEntity
  8
0
  6
ByBlock
 62
     0
100
AcDbBlockBegin
  2
*X1
 70
     1
 10
0.0
 20
0.0
 30
0.0
  3
*X1
  1

  0
LINE
  5
BB
330
2B2
100
AcDbEntity
  8
0
  6
ByBlock
 62
     0
100
AcDbLine
 10
115.05396803
 20
61.31385266
 30
0.0
 11
115.71051863
 21
61.97040325999999
 31
0.0
  0
LINE
  5
BC
330
2B2
100
AcDbEntity
  8
0
  6
ByBlock
 62
     0
100
AcDbLine
 10
113.53220238
 20
61.20630057
 30
0.0
 11
115.80855153
 21
63.48264973
 31
0.0
  0
LINE
  5
BD
330
2B2
100
AcDbEntity
  8
0
  6
ByBlock
 62
     0
100
AcDbLine
 10
113.53220238
 20
62.62051413
 30
0.0
 11
114.39433797
 21
63.48264973
 31
0.0
  0
LINE
  5
BE
330
2B2
100
AcDbEntity
  8
0
  6
ByBlock
 62
     0
100
AcDbLine
 10
114.3859629
 20
60.97651883000001
 30
0.0
 11
113.53220238
 21
61.83027936
 31
0.0
  0
LINE
  5
BF
330
2B2
100
AcDbEntity
  8
0
  6
ByBlock
 62
     0
100
AcDbLine
 10
115.28328797
 20
61.49340732999999
 30
0.0
 11
113.53220238
 21
63.24449292
 31
0.0
  0
LINE
  5
C0
330
2B2
100
AcDbEntity
  8
0
  6
ByBlock
 62
     0
100
AcDbLine
 10
115.90140193
 20
62.28950693
 30
0.0
 11
114.70825913
 21
63.48264973
 31
0.0
  0
LINE
  5
C1
330
2B2
100
AcDbEntity
  8
0
  6
ByBlock
 62
     0
100
AcDbLine
 10
116.18650782
 20
63.4186146
 30
0.0
 11
116.1224727
 21
63.48264973
 31
0.0
  0
ENDBLK
  5
C2
330
2B2
100
AcDbEntity
  8
0
  6
ByBlock
 62
     0
100
AcDbBlockEnd
  0
BLOCK
  5
C5
330
2B3
100
AcDbEntity
  8
0
  6
ByBlock
 62
     0
100
AcDbBlockBegin
  2
*X2
 70
     1
 10
0.0
 20
0.0
 30
0.0
  3
*X2
  1

  0
LINE
  5
C6
330
2B3
100
AcDbEntity
  8
0
  6
ByBlock
 62
     0
100
AcDbLine
 10
113.18625008
 20
60.86034827999999
 30
0.0
 11
113.53220238
 21
61.20630057
 31
0.0
  0
LINE
  5
C7
330
2B3
100
AcDbEntity
  8
0
  6
ByBlock
 62
     0
100
AcDbLine
 10
112.14435185
 20
61.2326636
 30
0.0
 11
113.53220238
 21
62.62051413
 31
0.0
  0
LINE
  5
C8
330
2B3
100
AcDbEntity
  8
0
  6
ByBlock
 62
     0
100
AcDbLine
 10
111.40759641
 20
61.91012173
 30
0.0
 11
112.98012441
 21
63.48264973
 31
0.0
  0
LINE
  5
C9
330
2B3
100
AcDbEntity
  8
0
  6
ByBlock
 62
     0
100
AcDbLine
 10
110.95887494
 20
62.87561381999999
 30
0.0
 11
111.56591085
 21
63.48264973
 31
0.0
  0
LINE
  5
CA
330
2B3
100
AcDbEntity
  8
0
  6
ByBlock
 62
     0
100
AcDbLine
 10
113.06968777
 20
60.87858041
 30
0.0
 11
110.92898679
 21
63.01928139000001
 31
0.0
  0
LINE
  5
CB
330
2B3
100
AcDbEntity
  8
0
  6
ByBlock
 62
     0
100
AcDbLine
 10
113.53220238
 20
61.83027936
 30
0.0
 11
111.87983201
 21
63.48264973
 31
0.0
  0
LINE
  5
CC
330
2B3
100
AcDbEntity
  8
0
  6
ByBlock
 62
     0
100
AcDbLine
 10
113.53220238
 20
63.24449292
 30
0.0
 11
113.29404557
 21
63.48264973
 31
0.0
  0
ENDBLK
  5
CD
330
2B3
100
AcDbEntity
  8
0
  6
ByBlock
 62
     0
100
AcDbBlockEnd
  0
BLOCK
  5
D0
330
2B4
100
AcDbEntity
  8
0
  6
ByBlock
 62
     0
100
AcDbBlockBegin
  2
*X3
 70
     1
 10
0.0
 20
0.0
 30
0.0
  3
*X3
  1

  0
LINE
  5
D1
330
2B4
100
AcDbEntity
  8
0
  6
ByBlock
 62
     0
100
AcDbLine
 10
112.98012441
 20
63.48264973
 30
0.0
 11
113.53220238
 21
64.03472769
 31
0.0
  0
LINE
  5
D2
330
2B4
100
AcDbEntity
  8
0
  6
ByBlock
 62
     0
100
AcDbLine
 10
111.56591085
 20
63.48264973
 30
0.0
 11
113.53220238
 21
65.44894125999999
 31
0.0
  0
LINE
  5
D3
330
2B4
100
AcDbEntity
  8
0
  6
ByBlock
 62
     0
100
AcDbLine
 10
111.03871443
 20
64.36966688
 30
0.0
 11
112.65470442
 21
65.98565686
 31
0.0
  0
LINE
  5
D4
330
2B4
100
AcDbEntity
  8
0
  6
ByBlock
 62
     0
100
AcDbLine
 10
111.87983201
 20
63.48264973
 30
0.0
 11
111.02692521
 21
64.33555651999999
 31
0.0
  0
LINE
  5
D5
330
2B4
100
AcDbEntity
  8
0
  6
ByBlock
 62
     0
100
AcDbLine
 10
113.29404557
 20
63.48264973
 30
0.0
 11
111.54381371
 21
65.23288159
 31
0.0
  0
LINE
  5
D6
330
2B4
100
AcDbEntity
  8
0
  6
ByBlock
 62
     0
100
AcDbLine
 10
113.53220238
 20
64.65870648
 30
0.0
 11
112.33991331
 21
65.85099554999999
 31
0.0
  0
LINE
  5
D7
330
2B4
100
AcDbEntity
  8
0
  6
ByBlock
 62
     0
100
AcDbLine
 10
113.53220238
 20
66.07292004999999
 30
0.0
 11
113.46902098
 21
66.13610144
 31
0.0
  0
ENDBLK
  5
D8
330
2B4
100
AcDbEntity
  8
0
  6
ByBlock
 62
     0
100
AcDbBlockEnd
  0
ENDSEC
  0
SECTION
  2
ENTITIES
  0
LINE
  5
21
330
2A6
100
AcDbEntity
  8
0
  6
CENTER
 62
     2
100
AcDbLine
 10
16.30574762
 20
-94.01735026999999
 30
0.0
 11
-33.29082541
 21
-94.01735026999999
 31
0.0
  0
LINE
  5
25
330
2A6
100
AcDbEntity
  8
0
  6
Continuous
 62
     7
100
AcDbLine
 10
11.53220238
 20
-107.51735023
 30
0.0
 11
11.53220238
 21
-80.51735023
 31
0.0
  0
LINE
  5
36
330
2A6
100
AcDbEntity
  8
0
  6
Continuous
 62
     7
100
AcDbLine
 10
14.02220238
 20
-89.02735027
 30
0.0
 11
11.53220238
 21
-89.02735027
 31
0.0
  0
LWPOLYLINE
  5
37
330
2A6
100
AcDbEntity
  8
0
  6
Continuous
 62
     7
100
AcDbPolyline
 90
       49
 70
     0
 43
0.0
 10
21.64220238
 20
-90.25735027000001
 10
21.65270913
 20
-90.30663201000001
 10
21.66277117
 20
-90.35622010999999
 10
21.67229074
 20
-90.4060873
 10
21.68117009
 20
-90.45620632
 10
21.68931147
 20
-90.50654988999999
 10
21.69661711
 20
-90.55709074000001
 10
21.70298927
 20
-90.60780161
 10
21.70833019
 20
-90.65865521
 10
21.71254211
 20
-90.70962428999999
 10
21.71552729
 20
-90.76068156999999
 10
21.71718796
 20
-90.81179976999999
 10
21.71742637
 20
-90.86295164
 10
21.71614478
 20
-90.91410989000001
 10
21.71324542
 20
-90.96524726
 10
21.70863053
 20
-91.01633648000001
 10
21.70220238
 20
-91.06735027
 10
21.69151632
 20
-91.13082133
 10
21.67818908
 20
-91.19385287
 10
21.66269017
 20
-91.25649348000001
 10
21.64548908
 20
-91.31879172999999
 10
21.6270553
 20
-91.38079621000001
 10
21.60785833
 20
-91.44255550000002
 10
21.58836766
 20
-91.50411818
 10
21.5690528
 20
-91.56553282
 10
21.55038324
 20
-91.62684801000001
 10
21.53282847
 20
-91.68811232000001
 10
21.516858
 20
-91.74937433
 10
21.50294131
 20
-91.81068263
 10
21.49154791
 20
-91.87208580000001
 10
21.48314729
 20
-91.93363241
 10
21.47820895
 20
-91.99537103999999
 10
21.47720238
 20
-92.05735027000001
 10
21.479087
 20
-92.10271967
 10
21.48304935
 20
-92.14822822
 10
21.48899212
 20
-92.19380877
 10
21.49681805
 20
-92.23939416
 10
21.50642983
 20
-92.28491723000001
 10
21.51773018
 20
-92.33031082
 10
21.53062182
 20
-92.37550778000001
 10
21.54500747
 20
-92.42044093
 10
21.56078983
 20
-92.46504313
 10
21.57787162
 20
-92.50924721
 10
21.59615555
 20
-92.55298600999999
 10
21.61554434
 20
-92.59619237
 10
21.63594071
 20
-92.63879914
 10
21.65724736
 20
-92.68073916
 10
21.67936701
 20
-92.72194525000001
 10
21.70220238
 20
-92.76235027
  0
LWPOLYLINE
  5
38
330
2A6
100
AcDbEntity
  8
0
  6
Continuous
 62
     7
100
AcDbPolyline
 90
       49
 70
     0
 43
0.0
 10
19.90220238
 20
-90.28735027000001
 10
19.91644041
 20
-90.34247458000001
 10
19.93049831
 20
-90.39805787
 10
19.94419539
 20
-90.45406074
 10
19.95735093
 20
-90.51044378
 10
19.96978424
 20
-90.56716758
 10
19.98131461
 20
-90.62419275000001
 10
19.99176134
 20
-90.68147987000001
 10
20.00094373
 20
-90.73898954
 10
20.00868108
 20
-90.79668236999999
 10
20.01479268
 20
-90.85451893
 10
20.01909784
 20
-90.91245984
 10
20.02141585
 20
-90.97046568000001
 10
20.02156601
 20
-91.02849704
 10
20.01936762
 20
-91.08651454
 10
20.01463998
 20
-91.14447875000001
 10
20.00720238
 20
-91.20235026999999
 10
19.99611716
 20
-91.26387902000001
 10
19.98212904
 20
-91.32510935
 10
19.96580179
 20
-91.38606153000001
 10
19.94769917
 20
-91.44675582000001
 10
19.92838496
 20
-91.5072125
 10
19.90842293
 20
-91.56745184
 10
19.88837685
 20
-91.62749409999999
 10
19.86881049
 20
-91.68735955
 10
19.85028764
 20
-91.74706845999999
 10
19.83337205
 20
-91.8066411
 10
19.8186275
 20
-91.86609774
 10
19.80661776
 20
-91.92545864000001
 10
19.79790661
 20
-91.98474408
 10
19.79305781
 20
-92.04397432
 10
19.79263515
 20
-92.10316963
 10
19.79720238
 20
-92.16235027000001
 10
19.80335424
 20
-92.20269663000001
 10
19.81182085
 20
-92.24290502
 10
19.82246612
 20
-92.28292370000001
 10
19.83515401
 20
-92.3227009
 10
19.84974842
 20
-92.36218486
 10
19.8661133
 20
-92.40132382
 10
19.88411258
 20
-92.440066
 10
19.90361018
 20
-92.47835966
 10
19.92447003
 20
-92.51615302000001
 10
19.94655608
 20
-92.55339433000001
 10
19.96973224
 20
-92.59003181999998
 10
19.99386245
 20
-92.62601372
 10
20.01881064
 20
-92.66128829000001
 10
20.04444073
 20
-92.69580374
 10
20.07061667
 20
-92.72950831999999
 10
20.09720238
 20
-92.76235027
  0
ARC
  5
39
330
2A6
100
AcDbEntity
  8
0
  6
Continuous
 62
     7
100
AcDbCircle
 10
14.03919728
 20
-89.52006765
 30
0.0
 40
0.4930103800000001
100
AcDbArc
 50
359.73472101
 51
91.97547379000001
  0
LINE
  5
3A
330
2A6
100
AcDbEntity
  8
0
  6
Continuous
 62
     7
100
AcDbLine
 10
27.28220238
 20
-90.27235027000001
 30
0.0
 11
27.28220238
 21
-92.77735027
 31
0.0
  0
LINE
  5
3B
330
2A6
100
AcDbEntity
  8
0
  6
Continuous
 62
     7
100
AcDbLine
 10
20.09720238
 20
-92.77735027
 30
0.0
 11
14.53220238
 21
-92.77735027
 31
0.0
  0
LINE
  5
3C
330
2A6
100
AcDbEntity
  8
0
  6
Continuous
 62
     7
100
AcDbLine
 10
19.84220238
 20
-90.27235027000001
 30
0.0
 11
14.53220238
 21
-90.27235027000001
 31
0.0
  0
LINE
  5
3D
330
2A6
100
AcDbEntity
  8
0
  6
Continuous
 62
     7
100
AcDbLine
 10
27.28220238
 20
-92.77735027
 30
0.0
 11
21.70220238
 21
-92.77735027
 31
0.0
  0
LINE
  5
3E
330
2A6
100
AcDbEntity
  8
0
  6
Continuous
 62
     7
100
AcDbLine
 10
27.28220238
 20
-90.27235027000001
 30
0.0
 11
21.64220238
 21
-90.27235027000001
 31
0.0
  0
LINE
  5
3F
330
2A6
100
AcDbEntity
  8
0
  6
Continuous
 62
     7
100
AcDbLine
 10
14.02220238
 20
-99.00735027000001
 30
0.0
 11
11.53220238
 21
-99.00735027000001
 31
0.0
  0
LWPOLYLINE
  5
40
330
2A6
100
AcDbEntity
  8
0
  6
Continuous
 62
     7
100
AcDbPolyline
 90
       49
 70
     0
 43
0.0
 10
21.64220238
 20
-97.77735027
 10
21.65270913
 20
-97.72806854
 10
21.66277117
 20
-97.67848044
 10
21.67229074
 20
-97.62861325000001
 10
21.68117009
 20
-97.57849423000001
 10
21.68931147
 20
-97.52815066
 10
21.69661711
 20
-97.47760981
 10
21.70298927
 20
-97.42689894000001
 10
21.70833019
 20
-97.37604534
 10
21.71254211
 20
-97.32507626
 10
21.71552729
 20
-97.27401898
 10
21.71718796
 20
-97.22290078
 10
21.71742637
 20
-97.17174891
 10
21.71614478
 20
-97.12059066000001
 10
21.71324542
 20
-97.06945328999999
 10
21.70863053
 20
-97.01836407000001
 10
21.70220238
 20
-96.96735027
 10
21.69151632
 20
-96.90387921999999
 10
21.67818908
 20
-96.84084767999999
 10
21.66269017
 20
-96.77820707
 10
21.64548908
 20
-96.71590882
 10
21.6270553
 20
-96.65390434
 10
21.60785833
 20
-96.59214505000001
 10
21.58836766
 20
-96.53058237000001
 10
21.5690528
 20
-96.46916773
 10
21.55038324
 20
-96.40785254
 10
21.53282847
 20
-96.34658823
 10
21.516858
 20
-96.28532622000001
 10
21.50294131
 20
-96.22401791000001
 10
21.49154791
 20
-96.16261475000001
 10
21.48314729
 20
-96.10106813999999
 10
21.47820895
 20
-96.03932951
 10
21.47720238
 20
-95.97735027
 10
21.479087
 20
-95.93198087999999
 10
21.48304935
 20
-95.88647233000001
 10
21.48899212
 20
-95.84089178000001
 10
21.49681805
 20
-95.79530638999999
 10
21.50642983
 20
-95.74978332
 10
21.51773018
 20
-95.70438972999999
 10
21.53062182
 20
-95.65919277
 10
21.54500747
 20
-95.61425961999999
 10
21.56078983
 20
-95.56965742
 10
21.57787162
 20
-95.52545333999999
 10
21.59615555
 20
-95.48171454
 10
21.61554434
 20
-95.43850817
 10
21.63594071
 20
-95.39590140999999
 10
21.65724736
 20
-95.35396138999999
 10
21.67936701
 20
-95.3127553
 10
21.70220238
 20
-95.27235027000001
  0
LWPOLYLINE
  5
41
330
2A6
100
AcDbEntity
  8
0
  6
Continuous
 62
     7
100
AcDbPolyline
 90
       49
 70
     0
 43
0.0
 10
19.90220238
 20
-97.74735027
 10
19.91644041
 20
-97.69222597
 10
19.93049831
 20
-97.63664267999999
 10
19.94419539
 20
-97.58063980999999
 10
19.95735093
 20
-97.52425676999999
 10
19.96978424
 20
-97.46753296999999
 10
19.98131461
 20
-97.41050780000001
 10
19.99176134
 20
-97.35322068000002
 10
20.00094373
 20
-97.29571100000001
 10
20.00868108
 20
-97.23801818
 10
20.01479268
 20
-97.18018161999999
 10
20.01909784
 20
-97.12224071000001
 10
20.02141585
 20
-97.06423487000002
 10
20.02156601
 20
-97.00620350000001
 10
20.01936762
 20
-96.94818601000001
 10
20.01463998
 20
-96.89022180000002
 10
20.00720238
 20
-96.83235027000002
 10
19.99611716
 20
-96.77082153
 10
19.98212904
 20
-96.7095912
 10
19.96580179
 20
-96.64863902
 10
19.94769917
 20
-96.58794473
 10
19.92838496
 20
-96.52748805000001
 10
19.90842293
 20
-96.46724871000001
 10
19.88837685
 20
-96.40720645000001
 10
19.86881049
 20
-96.34734100000001
 10
19.85028764
 20
-96.28763209
 10
19.83337205
 20
-96.22805945000001
 10
19.8186275
 20
-96.16860281000001
 10
19.80661776
 20
-96.10924191
 10
19.79790661
 20
-96.04995647
 10
19.79305781
 20
-95.99072623000001
 10
19.79263515
 20
-95.93153091999999
 10
19.79720238
 20
-95.87235027
 10
19.80335424
 20
-95.83200392
 10
19.81182085
 20
-95.79179553000001
 10
19.82246612
 20
-95.75177684999999
 10
19.83515401
 20
-95.71199963999999
 10
19.84974842
 20
-95.67251568999999
 10
19.8661133
 20
-95.63337672999999
 10
19.88411258
 20
-95.59463454000001
 10
19.90361018
 20
-95.55634088999999
 10
19.92447003
 20
-95.51854753
 10
19.94655608
 20
-95.48130622
 10
19.96973224
 20
-95.44466873000001
 10
19.99386245
 20
-95.40868682000001
 10
20.01881064
 20
-95.37341226
 10
20.04444073
 20
-95.33889680999999
 10
20.07061667
 20
-95.30519223
 10
20.09720238
 20
-95.27235027000001
  0
ARC
  5
42
330
2A6
100
AcDbEntity
  8
0
  6
Continuous
 62
     7
100
AcDbCircle
 10
14.03919728
 20
-98.51463290000001
 30
0.0
 40
0.4930103800000001
100
AcDbArc
 50
268.0245262100001
 51
0.26527899
  0
LINE
  5
43
330
2A6
100
AcDbEntity
  8
0
  6
Continuous
 62
     7
100
AcDbLine
 10
27.28220238
 20
-97.76235027
 30
0.0
 11
27.28220238
 21
-95.25735027000001
 31
0.0
  0
LINE
  5
44
330
2A6
100
AcDbEntity
  8
0
  6
Continuous
 62
     7
100
AcDbLine
 10
20.09720238
 20
-95.25735027000001
 30
0.0
 11
14.53220238
 21
-95.25735027000001
 31
0.0
  0
LINE
  5
45
330
2A6
100
AcDbEntity
  8
0
  6
Continuous
 62
     7
100
AcDbLine
 10
19.84220238
 20
-97.76235027
 30
0.0
 11
14.53220238
 21
-97.76235027
 31
0.0
  0
LINE
  5
46
330
2A6
100
AcDbEntity
  8
0
  6
Continuous
 62
     7
100
AcDbLine
 10
27.28220238
 20
-95.25735027000001
 30
0.0
 11
21.70220238
 21
-95.25735027000001
 31
0.0
  0
LINE
  5
47
330
2A6
100
AcDbEntity
  8
0
  6
Continuous
 62
     7
100
AcDbLine
 10
27.28220238
 20
-97.76235027
 30
0.0
 11
21.64220238
 21
-97.76235027
 31
0.0
  0
LINE
  5
48
330
2A6
100
AcDbEntity
  8
0
  6
Continuous
 62
     7
100
AcDbLine
 10
14.53220238
 20
-98.51235027000001
 30
0.0
 11
14.53220238
 21
-89.52235027
 31
0.0
  0
LINE
  5
49
330
2A6
100
AcDbEntity
  8
0
  6
Continuous
 62
     7
100
AcDbLine
 10
33.23720238
 20
-96.00735027
 30
0.0
 11
27.28220238
 21
-96.00735027
 31
0.0
  0
LINE
  5
4A
330
2A6
100
AcDbEntity
  8
0
  6
Continuous
 62
     7
100
AcDbLine
 10
33.23720238
 20
-97.01235027
 30
0.0
 11
27.28220238
 21
-97.01235027
 31
0.0
  0
LINE
  5
4B
330
2A6
100
AcDbEntity
  8
0
  6
CENTER
 62
     2
100
AcDbLine
 10
34.33220238
 20
-96.51735027
 30
0.0
 11
9.897202379999999
 21
-96.51735027
 31
0.0
  0
LINE
  5
4C
330
2A6
100
AcDbEntity
  8
0
  6
Continuous
 62
     7
100
AcDbLine
 10
33.23720238
 20
-92.02735027000001
 30
0.0
 11
27.28220238
 21
-92.02735027000001
 31
0.0
  0
LINE
  5
4D
330
2A6
100
AcDbEntity
  8
0
  6
Continuous
 62
     7
100
AcDbLine
 10
33.23720238
 20
-91.02235027
 30
0.0
 11
27.28220238
 21
-91.02235027
 31
0.0
  0
LINE
  5
4E
330
2A6
100
AcDbEntity
  8
0
  6
CENTER
 62
     2
100
AcDbLine
 10
34.33220238
 20
-91.51735026999999
 30
0.0
 11
9.897202379999999
 21
-91.51735026999999
 31
0.0
  0
LINE
  5
59
330
2A6
100
AcDbEntity
  8
0
  6
CENTER
 62
     2
100
AcDbLine
 10
-8.46779762
 20
-125.24921594
 30
0.0
 11
-8.46779762
 21
-63.87971901
 31
0.0
  0
ARC
  5
84
330
2A6
100
AcDbEntity
  8
0
  6
Continuous
 62
     7
100
AcDbCircle
 10
100.53220238
 20
-19.51735027
 30
0.0
 40
0.5
100
AcDbArc
 50
180.0
 51
270.0
  0
ARC
  5
85
330
2A6
100
AcDbEntity
  8
0
  6
Continuous
 62
     7
100
AcDbCircle
 10
126.53220238
 20
-19.51735027
 30
0.0
 40
0.5
100
AcDbArc
 50
270.0
 51
0.0
  0
ARC
  5
87
330
2A6
100
AcDbEntity
  8
0
  6
Continuous
 62
     7
100
AcDbCircle
 10
-27.96779762
 20
-19.51734991
 30
0.0
 40
0.5
100
AcDbArc
 50
180.0
 51
270.0
  0
ARC
  5
88
330
2A6
100
AcDbEntity
  8
0
  6
Continuous
 62
     7
100
AcDbCircle
 10
11.03220238
 20
-19.51734991
 30
0.0
 40
0.5
100
AcDbArc
 50
270.0
 51
0.0
  0
LINE
  5
89
330
2A6
100
AcDbEntity
  8
0
  6
Continuous
 62
     7
100
AcDbLine
 10
11.03220238
 20
-20.01734991
 30
0.0
 11
-27.96779762
 21
-20.01734991
 31
0.0
  0
ARC
  5
8A
330
2A6
100
AcDbEntity
  8
0
  6
Continuous
 62
     7
100
AcDbCircle
 10
-123.46779762
 20
-19.51735027
 30
0.0
 40
0.5
100
AcDbArc
 50
180.0
 51
270.0
  0
ARC
  5
8B
330
2A6
100
AcDbEntity
  8
0
  6
Continuous
 62
     7
100
AcDbCircle
 10
-97.46779762
 20
-19.51735027
 30
0.0
 40
0.5
100
AcDbArc
 50
270.0
 51
0.0
  0
LINE
  5
8D
330
2A6
100
AcDbEntity
  8
0
  6
CENTER
 62
     2
100
AcDbLine
 10
109.64470238
 20
63.48264973
 30
0.0
 11
117.04470238
 21
63.48264973
 31
0.0
  0
LINE
  5
8E
330
2A6
100
AcDbEntity
  8
0
  6
Continuous
 62
     7
100
AcDbLine
 10
127.03220238
 20
49.98264973
 30
0.0
 11
100.03220238
 21
49.98264973
 31
0.0
  0
LINE
  5
8F
330
2A6
100
AcDbEntity
  8
0
  6
Continuous
 62
     7
100
AcDbLine
 10
103.53220238
 20
95.98264973
 30
0.0
 11
103.53220238
 21
96.18264973
 31
0.0
  0
LINE
  5
90
330
2A6
100
AcDbEntity
  8
0
  6
Continuous
 62
     7
100
AcDbLine
 10
103.53220238
 20
96.18264973
 30
0.0
 11
104.33220238
 21
96.98264973
 31
0.0
  0
LINE
  5
91
330
2A6
100
AcDbEntity
  8
0
  6
Continuous
 62
     7
100
AcDbLine
 10
127.03220238
 20
95.98264973
 30
0.0
 11
100.03220238
 21
95.98264973
 31
0.0
  0
LINE
  5
92
330
2A6
100
AcDbEntity
  8
0
  6
Continuous
 62
     7
100
AcDbLine
 10
104.33220238
 20
96.98264973
 30
0.0
 11
122.73220238
 21
96.98264973
 31
0.0
  0
LINE
  5
93
330
2A6
100
AcDbEntity
  8
0
  6
Continuous
 62
     7
100
AcDbLine
 10
123.53220238
 20
96.18264973
 30
0.0
 11
122.73220238
 21
96.98264973
 31
0.0
  0
LINE
  5
94
330
2A6
100
AcDbEntity
  8
0
  6
Continuous
 62
     7
100
AcDbLine
 10
123.53220238
 20
95.98264973
 30
0.0
 11
123.53220238
 21
96.18264973
 31
0.0
  0
LINE
  5
95
330
2A6
100
AcDbEntity
  8
0
  6
Continuous
 62
     7
100
AcDbLine
 10
100.03220238
 20
-19.51735027
 30
0.0
 11
100.03220238
 21
95.98264973
 31
0.0
  0
LINE
  5
96
330
2A6
100
AcDbEntity
  8
0
  6
Continuous
 62
     7
100
AcDbLine
 10
127.03220238
 20
-19.51735027
 30
0.0
 11
127.03220238
 21
95.98264973
 31
0.0
  0
LINE
  5
97
330
2A6
100
AcDbEntity
  8
0
  6
Continuous
 62
     7
100
AcDbLine
 10
100.03220238
 20
66.48264973
 30
0.0
 11
127.03220238
 21
66.48264973
 31
0.0
  0
LINE
  5
98
330
2A6
100
AcDbEntity
  8
0
  6
CENTER
 62
     2
100
AcDbLine
 10
113.53220238
 20
-24.01735027
 30
0.0
 11
113.53220238
 21
102.99492348
 31
0.0
  0
LINE
  5
99
330
2A6
100
AcDbEntity
  8
0
  6
Continuous
 62
     7
100
AcDbLine
 10
100.03220238
 20
-14.01735027
 30
0.0
 11
127.03220238
 21
-14.01735027
 31
0.0
  0
LINE
  5
9A
330
2A6
100
AcDbEntity
  8
0
  6
CENTER
 62
     2
100
AcDbLine
 10
120.89470238
 20
40.98264973
 30
0.0
 11
104.9541314
 21
40.98264973
 31
0.0
  0
LINE
  5
9B
330
2A6
100
AcDbEntity
  8
0
  6
CENTER
 62
     2
100
AcDbLine
 10
123.25720238
 20
17.98264973
 30
0.0
 11
103.08453534
 21
17.98264973
 31
0.0
  0
LINE
  5
9C
330
2A6
100
AcDbEntity
  8
0
  6
CENTER
 62
     2
100
AcDbLine
 10
120.83220238
 20
-5.017350269999999
 30
0.0
 11
104.9541314
 21
-5.017350269999999
 31
0.0
  0
LINE
  5
9D
330
2A6
100
AcDbEntity
  8
0
  6
CENTER
 62
     2
100
AcDbLine
 10
103.03220238
 20
9.3800199
 30
0.0
 11
103.03220238
 21
16.62470463
 31
0.0
  0
LINE
  5
9E
330
2A6
100
AcDbEntity
  8
0
  6
CENTER
 62
     2
100
AcDbLine
 10
98.99479396
 20
12.98264973
 30
0.0
 11
106.7068777
 21
12.98264973
 31
0.0
  0
LINE
  5
9F
330
2A6
100
AcDbEntity
  8
0
  6
CENTER
 62
     2
100
AcDbLine
 10
120.37829889
 20
22.98264973
 30
0.0
 11
127.50613387
 21
22.98264973
 31
0.0
  0
LINE
  5
A0
330
2A6
100
AcDbEntity
  8
0
  6
CENTER
 62
     2
100
AcDbLine
 10
124.03220238
 20
19.66279823
 30
0.0
 11
124.03220238
 21
26.5569337
 31
0.0
  0
LINE
  5
A1
330
2A6
100
AcDbEntity
  8
0
  6
CENTER
 62
     2
100
AcDbLine
 10
121.20598465
 20
83.23264973
 30
0.0
 11
105.7117073
 21
83.23264973
 31
0.0
  0
LINE
  5
A2
330
2A6
100
AcDbEntity
  8
0
  6
Continuous
 62
     7
100
AcDbLine
 10
111.03220238
 20
86.73264973
 30
0.0
 11
116.03220238
 21
86.73264973
 31
0.0
  0
LINE
  5
A3
330
2A6
100
AcDbEntity
  8
0
  6
Continuous
 62
     7
100
AcDbLine
 10
111.03220238
 20
79.73264973
 30
0.0
 11
116.03220238
 21
79.73264973
 31
0.0
  0
CIRCLE
  5
A4
330
2A6
100
AcDbEntity
  8
0
  6
Continuous
 62
     7
100
AcDbCircle
 10
113.53738884
 20
63.48698246
 30
0.0
 40
2.65000105
  0
CIRCLE
  5
A5
330
2A6
100
AcDbEntity
  8
0
  6
Continuous
 62
     7
100
AcDbCircle
 10
113.53738884
 20
40.98698246
 30
0.0
 40
5.49999952
  0
CIRCLE
  5
A6
330
2A6
100
AcDbEntity
  8
0
  6
Continuous
 62
     2
100
AcDbCircle
 10
113.53738884
 20
40.98698246
 30
0.0
 40
6.499999759999999
  0
CIRCLE
  5
A7
330
2A6
100
AcDbEntity
  8
0
  6
Continuous
 62
     7
100
AcDbCircle
 10
113.53738884
 20
-5.01300228
 30
0.0
 40
5.49999952
  0
CIRCLE
  5
A8
330
2A6
100
AcDbEntity
  8
0
  6
Continuous
 62
     2
100
AcDbCircle
 10
113.53738884
 20
-5.01300228
 30
0.0
 40
6.499999759999999
  0
CIRCLE
  5
A9
330
2A6
100
AcDbEntity
  8
0
  6
Continuous
 62
     7
100
AcDbCircle
 10
103.03739647
 20
12.98697101
 30
0.0
 40
2.199999089999999
  0
CIRCLE
  5
AA
330
2A6
100
AcDbEntity
  8
0
  6
Continuous
 62
     7
100
AcDbCircle
 10
124.03740028
 20
22.98697101
 30
0.0
 40
2.199999089999999
  0
ARC
  5
AB
330
2A6
100
AcDbEntity
  8
0
  6
Continuous
 62
     7
100
AcDbCircle
 10
116.03220238
 20
83.23264973
 30
0.0
 40
3.50000384
100
AcDbArc
 50
270.0
 51
90.0
  0
CIRCLE
  5
AC
330
2A6
100
AcDbEntity
  8
0
  6
Continuous
 62
     7
100
AcDbCircle
 10
116.03738884
 20
83.23698627
 30
0.0
 40
1.249999929999999
  0
CIRCLE
  5
AD
330
2A6
100
AcDbEntity
  8
0
  6
Continuous
 62
     7
100
AcDbCircle
 10
111.03738884
 20
83.23698627
 30
0.0
 40
1.249999929999999
  0
ARC
  5
AE
330
2A6
100
AcDbEntity
  8
0
  6
Continuous
 62
     7
100
AcDbCircle
 10
111.03220238
 20
83.23264973
 30
0.0
 40
3.50000384
100
AcDbArc
 50
90.0
 51
270.0
  0
INSERT
  5
B8
330
2A6
100
AcDbEntity
  8
0
  6
Continuous
 62
     7
100
AcDbBlockReference
  2
*X0
 10
0.0
 20
0.0
 30
0.0
  0
INSERT
  5
C3
330
2A6
100
AcDbEntity
  8
0
  6
Continuous
 62
     7
100
AcDbBlockReference
  2
*X1
 10
0.0
 20
0.0
 30
0.0
  0
INSERT
  5
CE
330
2A6
100
AcDbEntity
  8
0
  6
Continuous
 62
     7
100
AcDbBlockReference
  2
*X2
 10
0.0
 20
0.0
 30
0.0
  0
INSERT
  5
D9
330
2A6
100
AcDbEntity
  8
0
  6
Continuous
 62
     7
100
AcDbBlockReference
  2
*X3
 10
0.0
 20
0.0
 30
0.0
  0
LINE
  5
DA
330
2A6
100
AcDbEntity
  8
0
  6
CENTER
 62
     2
100
AcDbLine
 10
-8.46779762
 20
-24.01735027
 30
0.0
 11
-8.46779762
 21
99.30765008999999
 31
0.0
  0
LINE
  5
DB
330
2A6
100
AcDbEntity
  8
0
  6
Continuous
 62
     7
100
AcDbLine
 10
11.53220238
 20
66.48265009000001
 30
0.0
 11
-28.46779762
 21
66.48265009000001
 31
0.0
  0
LINE
  5
DC
330
2A6
100
AcDbEntity
  8
0
  6
Continuous
 62
     7
100
AcDbLine
 10
11.53220238
 20
-19.51734991
 30
0.0
 11
11.53220238
 21
81.98265009000001
 31
0.0
  0
LINE
  5
DD
330
2A6
100
AcDbEntity
  8
0
  6
Continuous
 62
     7
100
AcDbLine
 10
11.53220238
 20
-14.01734991
 30
0.0
 11
-28.46779762
 21
-14.01734991
 31
0.0
  0
LINE
  5
DE
330
2A6
100
AcDbEntity
  8
0
  6
CENTER
 62
     2
100
AcDbLine
 10
3.53220238
 20
8.930044249999999
 30
0.0
 11
3.53220238
 21
3.14515009
 31
0.0
  0
LINE
  5
DF
330
2A6
100
AcDbEntity
  8
0
  6
CENTER
 62
     2
100
AcDbLine
 10
6.444702379999999
 20
5.982650089999999
 30
0.0
 11
0.50619108
 21
5.982650089999999
 31
0.0
  0
LINE
  5
E0
330
2A6
100
AcDbEntity
  8
0
  6
CENTER
 62
     2
100
AcDbLine
 10
-23.51672174
 20
17.98265009
 30
0.0
 11
-17.63029762
 21
17.98265009
 31
0.0
  0
LINE
  5
E1
330
2A6
100
AcDbEntity
  8
0
  6
CENTER
 62
     2
100
AcDbLine
 10
-20.46779762
 20
21.16969758
 30
0.0
 11
-20.46779762
 21
15.09515009
 31
0.0
  0
LINE
  5
E2
330
2A6
100
AcDbEntity
  8
0
  6
Continuous
 62
     7
100
AcDbLine
 10
11.53220238
 20
95.98264973
 30
0.0
 11
-28.46779762
 21
95.98264973
 31
0.0
  0
LINE
  5
E3
330
2A6
100
AcDbEntity
  8
0
  6
Continuous
 62
     7
100
AcDbLine
 10
14.03220238
 20
81.98265009000001
 30
0.0
 11
11.53220238
 21
81.98265009000001
 31
0.0
  0
LINE
  5
E4
330
2A6
100
AcDbEntity
  8
0
  6
Continuous
 62
     7
100
AcDbLine
 10
14.53220238
 20
82.48265009
 30
0.0
 11
14.53220238
 21
85.73265009000001
 31
0.0
  0
LINE
  5
E5
330
2A6
100
AcDbEntity
  8
0
  6
Continuous
 62
     7
100
AcDbLine
 10
11.53220238
 20
81.98265009000001
 30
0.0
 11
11.53220238
 21
95.98264973
 31
0.0
  0
LINE
  5
E6
330
2A6
100
AcDbEntity
  8
0
  6
Continuous
 62
     7
100
AcDbLine
 10
14.03220238
 20
86.98265009000001
 30
0.0
 11
11.53220238
 21
86.98265009000001
 31
0.0
  0
LINE
  5
E7
330
2A6
100
AcDbEntity
  8
0
  6
Continuous
 62
     7
100
AcDbLine
 10
14.53220238
 20
86.48265009000001
 30
0.0
 11
14.53220238
 21
85.73265009000001
 31
0.0
  0
LINE
  5
E8
330
2A6
100
AcDbEntity
  8
0
  6
CENTER
 62
     2
100
AcDbLine
 10
39.026497
 20
84.48265009000001
 30
0.0
 11
9.157202379999999
 21
84.48265009000001
 31
0.0
  0
LINE
  5
E9
330
2A6
100
AcDbEntity
  8
0
  6
Continuous
 62
     7
100
AcDbLine
 10
30.95720238
 20
83.23265009000001
 30
0.0
 11
28.55720238
 21
83.23265009000001
 31
0.0
  0
LINE
  5
EA
330
2A6
100
AcDbEntity
  8
0
  6
Continuous
 62
     7
100
AcDbLine
 10
30.86970238
 20
85.73265009000001
 30
0.0
 11
28.06970238
 21
85.73265009000001
 31
0.0
  0
LINE
  5
EB
330
2A6
100
AcDbEntity
  8
0
  6
Continuous
 62
     7
100
AcDbLine
 10
26.55720238
 20
83.23265009000001
 30
0.0
 11
14.53220238
 21
83.23265009000001
 31
0.0
  0
LINE
  5
EC
330
2A6
100
AcDbEntity
  8
0
  6
Continuous
 62
     7
100
AcDbLine
 10
26.06970238
 20
85.73265009000001
 30
0.0
 11
14.53220238
 21
85.73265009000001
 31
0.0
  0
LINE
  5
ED
330
2A6
100
AcDbEntity
  8
0
  6
Continuous
 62
     7
100
AcDbLine
 10
30.86970238
 20
83.23265009000001
 30
0.0
 11
30.86970238
 21
85.73265009000001
 31
0.0
  0
LINE
  5
EE
330
2A6
100
AcDbEntity
  8
0
  6
Continuous
 62
     7
100
AcDbLine
 10
35.86970238
 20
84.98265009
 30
0.0
 11
30.86970238
 21
84.98265009
 31
0.0
  0
LINE
  5
EF
330
2A6
100
AcDbEntity
  8
0
  6
Continuous
 62
     7
100
AcDbLine
 10
35.86970238
 20
83.98265009000001
 30
0.0
 11
30.86970238
 21
83.98265009000001
 31
0.0
  0
LINE
  5
F0
330
2A6
100
AcDbEntity
  8
0
  6
Continuous
 62
     7
100
AcDbLine
 10
35.86970238
 20
83.98265009000001
 30
0.0
 11
35.86970238
 21
84.98265009
 31
0.0
  0
LINE
  5
F1
330
2A6
100
AcDbEntity
  8
0
  6
Continuous
 62
     7
100
AcDbLine
 10
-28.46779762
 20
-19.51734991
 30
0.0
 11
-28.46779762
 21
95.98264973
 31
0.0
  0
LINE
  5
F2
330
2A6
100
AcDbEntity
  8
0
  6
Continuous
 62
     7
100
AcDbLine
 10
-28.46779762
 20
49.98265009
 30
0.0
 11
11.53220238
 21
49.98265009
 31
0.0
  0
LINE
  5
F3
330
2A6
100
AcDbEntity
  8
0
  6
Continuous
 62
     7
100
AcDbLine
 10
-17.66779762
 20
96.98264973
 30
0.0
 11
0.7322023800000001
 21
96.98264973
 31
0.0
  0
LINE
  5
F4
330
2A6
100
AcDbEntity
  8
0
  6
Continuous
 62
     7
100
AcDbLine
 10
-18.46779762
 20
96.18264973
 30
0.0
 11
-17.66779762
 21
96.98264973
 31
0.0
  0
LINE
  5
F5
330
2A6
100
AcDbEntity
  8
0
  6
Continuous
 62
     7
100
AcDbLine
 10
1.53220238
 20
96.18264973
 30
0.0
 11
0.7322023800000001
 21
96.98264973
 31
0.0
  0
LINE
  5
F6
330
2A6
100
AcDbEntity
  8
0
  6
Continuous
 62
     7
100
AcDbLine
 10
-18.46779762
 20
95.98264973
 30
0.0
 11
-18.46779762
 21
96.18264973
 31
0.0
  0
LINE
  5
F7
330
2A6
100
AcDbEntity
  8
0
  6
Continuous
 62
     7
100
AcDbLine
 10
1.53220238
 20
95.98264973
 30
0.0
 11
1.53220238
 21
96.18264973
 31
0.0
  0
LINE
  5
F8
330
2A6
100
AcDbEntity
  8
0
  6
Continuous
 62
     7
100
AcDbLine
 10
-28.46779762
 20
15.63265009
 30
0.0
 11
-25.46779762
 21
15.63265009
 31
0.0
  0
LINE
  5
F9
330
2A6
100
AcDbEntity
  8
0
  6
Continuous
 62
     7
100
AcDbLine
 10
-28.46779762
 20
10.33265009
 30
0.0
 11
-25.46779762
 21
10.33265009
 31
0.0
  0
LINE
  5
FA
330
2A6
100
AcDbEntity
  8
0
  6
Continuous
 62
     7
100
AcDbLine
 10
-25.46779762
 20
10.33265009
 30
0.0
 11
-25.46779762
 21
15.63265009
 31
0.0
  0
LINE
  5
FB
330
2A6
100
AcDbEntity
  8
0
  6
Continuous
 62
     7
100
AcDbLine
 10
-15.46779762
 20
91.48264973000001
 30
0.0
 11
-22.46779762
 21
91.48264973000001
 31
0.0
  0
LINE
  5
FC
330
2A6
100
AcDbEntity
  8
0
  6
Continuous
 62
     7
100
AcDbLine
 10
-15.46779762
 20
91.48264973000001
 30
0.0
 11
-15.46779762
 21
95.98264973
 31
0.0
  0
LINE
  5
FD
330
2A6
100
AcDbEntity
  8
0
  6
Continuous
 62
     7
100
AcDbLine
 10
-22.46779762
 20
91.48264973000001
 30
0.0
 11
-22.46779762
 21
95.98264973
 31
0.0
  0
LINE
  5
FE
330
2A6
100
AcDbEntity
  8
0
  6
Continuous
 62
     7
100
AcDbLine
 10
-15.46779762
 20
92.48264973000001
 30
0.0
 11
-22.46779762
 21
92.48264973000001
 31
0.0
  0
LINE
  5
FF
330
2A6
100
AcDbEntity
  8
0
  6
Continuous
 62
     7
100
AcDbLine
 10
-17.96779762
 20
95.18264972999999
 30
0.0
 11
-19.96779762
 21
95.18264972999999
 31
0.0
  0
LINE
  5
100
330
2A6
100
AcDbEntity
  8
0
  6
CENTER
 62
     2
100
AcDbLine
 10
-18.96779762
 20
90.04514973
 30
0.0
 11
-18.96779762
 21
96.68264972999999
 31
0.0
  0
CIRCLE
  5
101
330
2A6
100
AcDbEntity
  8
0
  6
Continuous
 62
     7
100
AcDbCircle
 10
3.537400279999999
 20
5.986982819999999
 30
0.0
 40
2.199999089999999
  0
CIRCLE
  5
102
330
2A6
100
AcDbEntity
  8
0
  6
Continuous
 62
     7
100
AcDbCircle
 10
-20.4625959
 20
17.98699045
 30
0.0
 40
2.199999089999999
  0
ARC
  5
103
330
2A6
100
AcDbEntity
  8
0
  6
Continuous
 62
     7
100
AcDbCircle
 10
14.03261985
 20
82.48223262000001
 30
0.0
 40
0.4995827000000001
100
AcDbArc
 50
269.95212145
 51
0.04787855
  0
ARC
  5
104
330
2A6
100
AcDbEntity
  8
0
  6
Continuous
 62
     7
100
AcDbCircle
 10
14.03696941
 20
86.48741712000001
 30
0.0
 40
0.4952559100000001
100
AcDbArc
 50
359.44849721
 51
90.55150279000001
  0
ARC
  5
105
330
2A6
100
AcDbEntity
  8
0
  6
Continuous
 62
     7
100
AcDbCircle
 10
-19.96736355
 20
92.68221565000001
 30
0.0
 40
2.50043411
100
AcDbArc
 50
90.00994654000001
 51
179.99005346
  0
ARC
  5
106
330
2A6
100
AcDbEntity
  8
0
  6
Continuous
 62
     7
100
AcDbCircle
 10
-17.96303882
 20
92.68740852
 30
0.0
 40
2.49524574
100
AcDbArc
 50
359.89072849
 51
90.10927151
  0
LWPOLYLINE
  5
107
330
2A6
100
AcDbEntity
  8
0
  6
Continuous
 62
     7
100
AcDbPolyline
 90
       49
 70
     0
 43
0.0
 10
27.78220238
 20
82.64515009
 10
27.8747952
 20
82.69972934
 10
27.97117635
 20
82.75987757999999
 10
28.06983049
 20
82.82509651999999
 10
28.16924231
 20
82.89488785999999
 10
28.26789646
 20
82.96875329
 10
28.36427763
 20
83.04619452999999
 10
28.45687047
 20
83.12671326
 10
28.54415967
 20
83.2098112
 10
28.62462988
 20
83.29499004
 10
28.69676579
 20
83.38175148000001
 10
28.75905207
 20
83.46959723000001
 10
28.80997338
 20
83.55802898
 10
28.84801439
 20
83.64654845
 10
28.87165978
 20
83.73465731999999
 10
28.87939422
 20
83.82185729999999
 10
28.86970238
 20
83.90765009
 10
28.84219071
 20
83.99036913000001
 10
28.79846664
 20
84.07145124999999
 10
28.74089298
 20
84.15111596
 10
28.67183253
 20
84.22958276999999
 10
28.59364811
 20
84.30707117999999
 10
28.50870254
 20
84.38380071999999
 10
28.41935863
 20
84.45999089
 10
28.3279792
 20
84.53586120000002
 10
28.23692705
 20
84.61163116999999
 10
28.148565
 20
84.68752028999999
 10
28.06525587
 20
84.76374809000001
 10
27.98936246
 20
84.84053407999999
 10
27.92324759
 20
84.91809776
 10
27.86927408
 20
84.99665865
 10
27.82980474
 20
85.07643626
 10
27.80720238
 20
85.15765009
 10
27.80287518
 20
85.23662644999999
 10
27.81450303
 20
85.31673206
 10
27.84068795
 20
85.39752203
 10
27.88003195
 20
85.4785515
 10
27.93113705
 20
85.55937558
 10
27.99260527
 20
85.6395494
 10
28.06303861
 20
85.71862808
 10
28.14103911
 20
85.79616673
 10
28.22520877
 20
85.87172049999999
 10
28.31414961
 20
85.94484448999999
 10
28.40646364
 20
86.01509382999999
 10
28.5007529
 20
86.08202365
 10
28.59561938
 20
86.14518906
 10
28.68966511
 20
86.20414519
 10
28.78149210000001
 20
86.25844714999999
 10
28.86970238
 20
86.30765008999999
  0
LWPOLYLINE
  5
108
330
2A6
100
AcDbEntity
  8
0
  6
Continuous
 62
     7
100
AcDbPolyline
 90
       49
 70
     0
 43
0.0
 10
25.78220238
 20
82.64515009
 10
25.87479521
 20
82.69972934
 10
25.97117638
 20
82.75987759000001
 10
26.06983053
 20
82.82509652999999
 10
26.16924235
 20
82.89488787000001
 10
26.26789651
 20
82.96875329999998
 10
26.36427768
 20
83.04619452999999
 10
26.45687052
 20
83.12671326
 10
26.54415971
 20
83.20981119
 10
26.62462993
 20
83.29499003
 10
26.69676583
 20
83.38175146999999
 10
26.7590521
 20
83.46959721000001
 10
26.80997341
 20
83.55802897
 10
26.84801441
 20
83.64654843
 10
26.8716598
 20
83.73465729999999
 10
26.87939423
 20
83.82185728999999
 10
26.86970238
 20
83.90765009
 10
26.84219071
 20
83.99036913999999
 10
26.79846663
 20
84.07145126999999
 10
26.74089296
 20
84.15111598000001
 10
26.67183251
 20
84.22958278999999
 10
26.5936481
 20
84.30707121000001
 10
26.50870253
 20
84.38380075000001
 10
26.41935862
 20
84.45999093000001
 10
26.32797918
 20
84.53586124
 10
26.23692703
 20
84.6116312
 10
26.14856499
 20
84.68752032000001
 10
26.06525585
 20
84.76374812000001
 10
25.98936245
 20
84.84053410999999
 10
25.92324758
 20
84.91809778
 10
25.86927408
 20
84.99665865999999
 10
25.82980474
 20
85.07643626
 10
25.80720238
 20
85.15765009
 10
25.80287518
 20
85.23662643999999
 10
25.81450303
 20
85.31673204
 10
25.84068794
 20
85.39752201
 10
25.88003194
 20
85.47855146999999
 10
25.93113703
 20
85.55937554999999
 10
25.99260523
 20
85.63954936
 10
26.06303857
 20
85.71862803
 10
26.14103906
 20
85.79616669000001
 10
26.22520871
 20
85.87172045
 10
26.31414955
 20
85.94484445
 10
26.40646358
 20
86.01509378999999
 10
26.50075284
 20
86.08202361
 10
26.59561933
 20
86.14518902
 10
26.68966507
 20
86.20414516
 10
26.78149208
 20
86.25844714000001
 10
26.86970238
 20
86.30765008999999
  0
LINE
  5
109
330
2A6
100
AcDbEntity
  8
0
  6
Continuous
 62
     7
100
AcDbLine
 10
-123.96779762
 20
49.98264973
 30
0.0
 11
-96.96779762
 21
49.98264973
 31
0.0
  0
LINE
  5
10A
330
2A6
100
AcDbEntity
  8
0
  6
Continuous
 62
     7
100
AcDbLine
 10
-100.46779762
 20
95.98264973
 30
0.0
 11
-100.46779762
 21
96.18264973
 31
0.0
  0
LINE
  5
10B
330
2A6
100
AcDbEntity
  8
0
  6
Continuous
 62
     7
100
AcDbLine
 10
-100.46779762
 20
96.18264973
 30
0.0
 11
-101.26779762
 21
96.98264973
 31
0.0
  0
LINE
  5
10C
330
2A6
100
AcDbEntity
  8
0
  6
Continuous
 62
     7
100
AcDbLine
 10
-123.96779762
 20
95.98264973
 30
0.0
 11
-96.96779762
 21
95.98264973
 31
0.0
  0
LINE
  5
10D
330
2A6
100
AcDbEntity
  8
0
  6
Continuous
 62
     7
100
AcDbLine
 10
-119.66779762
 20
96.98264973
 30
0.0
 11
-101.26779762
 21
96.98264973
 31
0.0
  0
LINE
  5
10E
330
2A6
100
AcDbEntity
  8
0
  6
Continuous
 62
     7
100
AcDbLine
 10
-120.46779762
 20
96.18264973
 30
0.0
 11
-119.66779762
 21
96.98264973
 31
0.0
  0
LINE
  5
10F
330
2A6
100
AcDbEntity
  8
0
  6
Continuous
 62
     7
100
AcDbLine
 10
-120.46779762
 20
95.98264973
 30
0.0
 11
-120.46779762
 21
96.18264973
 31
0.0
  0
LINE
  5
110
330
2A6
100
AcDbEntity
  8
0
  6
Continuous
 62
     7
100
AcDbLine
 10
-96.96779762
 20
-19.51735027
 30
0.0
 11
-96.96779762
 21
95.98264973
 31
0.0
  0
LINE
  5
111
330
2A6
100
AcDbEntity
  8
0
  6
Continuous
 62
     7
100
AcDbLine
 10
-123.96779762
 20
-19.51735027
 30
0.0
 11
-123.96779762
 21
95.98264973
 31
0.0
  0
LINE
  5
112
330
2A6
100
AcDbEntity
  8
0
  6
Continuous
 62
     7
100
AcDbLine
 10
-96.96779762
 20
-14.01735027
 30
0.0
 11
-123.96779762
 21
-14.01735027
 31
0.0
  0
LINE
  5
113
330
2A6
100
AcDbEntity
  8
0
  6
Continuous
 62
     7
100
AcDbLine
 10
-96.96779762
 20
66.48264973
 30
0.0
 11
-123.96779762
 21
66.48264973
 31
0.0
  0
LINE
  5
114
330
2A6
100
AcDbEntity
  8
0
  6
CENTER
 62
     2
100
AcDbLine
 10
-120.55529762
 20
31.48264973
 30
0.0
 11
-100.41779762
 21
31.48264973
 31
0.0
  0
LINE
  5
115
330
2A6
100
AcDbEntity
  8
0
  6
CENTER
 62
     2
100
AcDbLine
 10
-120.14279762
 20
4.48264973
 30
0.0
 11
-99.18029762000001
 21
4.48264973
 31
0.0
  0
LINE
  5
116
330
2A6
100
AcDbEntity
  8
0
  6
CENTER
 62
     2
100
AcDbLine
 10
-95.48410795
 20
12.98264973
 30
0.0
 11
-105.06779762
 21
12.98264973
 31
0.0
  0
LINE
  5
117
330
2A6
100
AcDbEntity
  8
0
  6
CENTER
 62
     2
100
AcDbLine
 10
-114.98438435
 20
22.98264973
 30
0.0
 11
-123.96779762
 21
22.98264973
 31
0.0
  0
LINE
  5
118
330
2A6
100
AcDbEntity
  8
0
  6
CENTER
 62
     2
100
AcDbLine
 10
-99.96779762
 20
8.120149729999999
 30
0.0
 11
-99.96779762
 21
19.83568022
 31
0.0
  0
LINE
  5
119
330
2A6
100
AcDbEntity
  8
0
  6
CENTER
 62
     2
100
AcDbLine
 10
-120.96779762
 20
18.40764973
 30
0.0
 11
-120.96779762
 21
29.07265326
 31
0.0
  0
CIRCLE
  5
11A
330
2A6
100
AcDbEntity
  8
0
  6
Continuous
 62
     7
100
AcDbCircle
 10
-120.97508446
 20
22.98697101
 30
0.0
 40
2.199999089999999
  0
ARC
  5
11B
330
2A6
100
AcDbEntity
  8
0
  6
Continuous
 62
     7
100
AcDbCircle
 10
-120.97508271
 20
22.98264973
 30
0.0
 40
3.99735444
100
AcDbArc
 50
221.52436338
 51
138.47563662
  0
ARC
  5
11C
330
2A6
100
AcDbEntity
  8
0
  6
Continuous
 62
     7
100
AcDbCircle
 10
-99.97508239
 20
12.98264973
 30
0.0
 40
4.00827415
100
AcDbArc
 50
41.38629506
 51
318.61370494
  0
CIRCLE
  5
11D
330
2A6
100
AcDbEntity
  8
0
  6
Continuous
 62
     7
100
AcDbCircle
 10
-99.97508064000001
 20
12.98697101
 30
0.0
 40
2.199999089999999
  0
LINE
  5
11E
330
2A6
100
AcDbEntity
  8
0
  6
CENTER
 62
     2
100
AcDbLine
 10
-110.46779762
 20
-24.01735027
 30
0.0
 11
-110.46779762
 21
101.98264973
 31
0.0
  0
LINE
  5
11F
330
2A6
100
AcDbEntity
  8
0
  6
CENTER
 62
     2
100
AcDbLine
 10
-110.93317519
 20
43.98264972999999
 30
0.0
 11
-100.53533694
 21
43.98264972999999
 31
0.0
  0
LINE
  5
120
330
2A6
100
AcDbEntity
  8
0
  6
CENTER
 62
     2
100
AcDbLine
 10
-110.36602037
 20
-8.017350269999999
 30
0.0
 11
-120.10217801
 21
-8.017350269999999
 31
0.0
  0
LINE
  5
121
330
2A6
100
AcDbEntity
  8
0
  6
CENTER
 62
     2
100
AcDbLine
 10
-105.96779762
 20
38.68473038
 30
0.0
 11
-105.96779762
 21
49.27162023000001
 31
0.0
  0
LINE
  5
122
330
2A6
100
AcDbEntity
  8
0
  6
CENTER
 62
     2
100
AcDbLine
 10
-114.96779762
 20
-13.11540925
 30
0.0
 11
-114.96779762
 21
-2.812096809999999
 31
0.0
  0
CIRCLE
  5
123
330
2A6
100
AcDbEntity
  8
0
  6
CENTER
 62
     2
100
AcDbCircle
 10
-105.96779762
 20
43.98264972999999
 30
0.0
 40
3.725
  0
CIRCLE
  5
124
330
2A6
100
AcDbEntity
  8
0
  6
CENTER
 62
     2
100
AcDbCircle
 10
-114.96779762
 20
-8.017350269999999
 30
0.0
 40
3.725
  0
CIRCLE
  5
125
330
2A6
100
AcDbEntity
  8
0
  6
CENTER
 62
     2
100
AcDbCircle
 10
-105.96779762
 20
43.98264972999999
 30
0.0
 40
2.5
  0
CIRCLE
  5
126
330
2A6
100
AcDbEntity
  8
0
  6
CENTER
 62
     2
100
AcDbCircle
 10
-114.96779762
 20
-8.017350269999999
 30
0.0
 40
2.5
  0
CIRCLE
  5
127
330
2A6
100
AcDbEntity
  8
0
  6
CENTER
 62
     2
100
AcDbCircle
 10
-105.96779762
 20
43.98264972999999
 30
0.0
 40
1.35
  0
CIRCLE
  5
128
330
2A6
100
AcDbEntity
  8
0
  6
CENTER
 62
     2
100
AcDbCircle
 10
-114.96779762
 20
-8.017350269999999
 30
0.0
 40
1.35
  0
LINE
  5
133
330
2A6
100
AcDbEntity
  8
0
  6
CENTER
 62
     2
100
AcDbLine
 10
-21.96779762
 20
-21.60243522
 30
0.0
 11
-21.96779762
 21
-14.93625747
 31
0.0
  0
LINE
  5
134
330
2A6
100
AcDbEntity
  8
0
  6
Continuous
 62
     7
100
AcDbLine
 10
-25.46779762
 20
-19.51734991
 30
0.0
 11
-25.46779762
 21
-17.51734991
 31
0.0
  0
LINE
  5
135
330
2A6
100
AcDbEntity
  8
0
  6
Continuous
 62
     7
100
AcDbLine
 10
-18.46779762
 20
-19.51734991
 30
0.0
 11
-18.46779762
 21
-17.51734991
 31
0.0
  0
LINE
  5
136
330
2A6
100
AcDbEntity
  8
0
  6
Continuous
 62
     7
100
AcDbLine
 10
-18.46779762
 20
-17.51734991
 30
0.0
 11
-25.46779762
 21
-17.51734991
 31
0.0
  0
ARC
  5
139
330
2A6
100
AcDbEntity
  8
0
  6
Continuous
 62
     7
100
AcDbCircle
 10
-21.9668158
 20
-14.60857582
 30
0.0
 40
4.908774189999999
100
AcDbArc
 50
240.51240195
 51
299.48759805
  0
LINE
  5
13A
330
2A6
100
AcDbEntity
  8
0
  6
Continuous
 62
     7
100
AcDbLine
 10
-24.71690751
 20
-18.31005638
 30
0.0
 11
-24.71690751
 21
-17.51734991
 31
0.0
  0
ARC
  5
13B
330
2A6
100
AcDbEntity
  8
0
  6
Continuous
 62
     7
100
AcDbCircle
 10
-24.06277487
 20
-18.31113581
 30
0.0
 40
0.65413353
100
AcDbArc
 50
179.90545297
 51
240.6808461
  0
ARC
  5
13C
330
2A6
100
AcDbEntity
  8
0
  6
Continuous
 62
     7
100
AcDbCircle
 10
-19.87330132
 20
-18.3119606
 30
0.0
 40
0.65461636
100
AcDbArc
 50
299.54106156
 51
0.16666792
  0
LINE
  5
13D
330
2A6
100
AcDbEntity
  8
0
  6
Continuous
 62
     7
100
AcDbLine
 10
-19.21868773
 20
-18.31005638
 30
0.0
 11
-19.21868773
 21
-17.51734991
 31
0.0
  0
TEXT
  5
152
330
2A6
100
AcDbEntity
  8
0
  6
Continuous
 62
     7
100
AcDbText
 10
-185.6699029099999
 20
115.3500061
 30
0.0
 40
4.5
  1
MODEL:300-4E1
 41
1.10679612
  7
MX_NOTE_STANDARD
 11
-185.6699029099999
 21
117.6000061
 31
0.0
100
AcDbText
 73
     2
  0
LINE
  5
153
330
2A6
100
AcDbEntity
  8
0
  6
Continuous
 62
     7
100
AcDbLine
 10
-194.25
 20
132.6000061
 30
0.0
 11
194.80000305
 21
132.6000061
 31
0.0
  0
LINE
  5
154
330
2A6
100
AcDbEntity
  8
0
  6
Continuous
 62
     7
100
AcDbLine
 10
194.80000305
 20
132.6000061
 30
0.0
 11
194.80000305
 21
-133.5
 31
0.0
  0
LINE
  5
155
330
2A6
100
AcDbEntity
  8
0
  6
Continuous
 62
     7
100
AcDbLine
 10
-194.25
 20
132.6000061
 30
0.0
 11
-194.25
 21
-133.5
 31
0.0
  0
LINE
  5
156
330
2A6
100
AcDbEntity
  8
0
  6
Continuous
 62
     7
100
AcDbLine
 10
-194.25
 20
-133.5
 30
0.0
 11
194.80000305
 21
-133.5
 31
0.0
  0
LINE
  5
2DD
330
2A6
100
AcDbEntity
  8
0
  6
Continuous
 62
     7
100
AcDbLine
 10
-28.46779761999998
 20
-80.51735022999999
 30
0.0
 11
11.53220238
 21
-80.51735023
 31
0.0
  0
CIRCLE
  5
2DE
330
2A6
100
AcDbEntity
  8
0
  6
Continuous
 62
     7
100
AcDbCircle
 10
-18.96779761999998
 20
-104.51735023
 30
0.0
 40
2.0
  0
CIRCLE
  5
2DF
330
2A6
100
AcDbEntity
  8
0
  6
Continuous
 62
     2
100
AcDbCircle
 10
-18.96779761999998
 20
-104.51735023
 30
0.0
 40
1.5
  0
CIRCLE
  5
2E0
330
2A6
100
AcDbEntity
  8
0
  6
Continuous
 62
     7
100
AcDbCircle
 10
-18.96779761999998
 20
-104.51735023
 30
0.0
 40
1.0
  0
LINE
  5
2E1
330
2A6
100
AcDbEntity
  8
0
  6
Continuous
 62
     7
100
AcDbLine
 10
-28.46779761999998
 20
-80.51735022999999
 30
0.0
 11
-28.46779761999998
 21
-107.51735023
 31
0.0
  0
LINE
  5
2E2
330
2A6
100
AcDbEntity
  8
0
  6
Continuous
 62
     2
100
AcDbLine
 10
-18.96779761999998
 20
-101.6938277499999
 30
0.0
 11
-18.96779761999998
 21
-107.22885374
 31
0.0
  0
LINE
  5
2E3
330
2A6
100
AcDbEntity
  8
0
  6
Continuous
 62
     7
100
AcDbLine
 10
-23.40779761999997
 20
-84.57735022999999
 30
0.0
 11
-20.48779762
 21
-87.49735023000001
 31
0.0
  0
LINE
  5
2E4
330
2A6
100
AcDbEntity
  8
0
  6
Continuous
 62
     7
100
AcDbLine
 10
-23.38779761999997
 20
-87.43735023000001
 30
0.0
 11
-20.60779761999999
 21
-84.65735023
 31
0.0
  0
LINE
  5
2E5
330
2A6
100
AcDbEntity
  8
0
  6
Continuous
 62
     2
100
AcDbLine
 10
-25.96779761999998
 20
-86.01735022999998
 30
0.0
 11
-17.96779761999998
 21
-86.01735022999998
 31
0.0
  0
LINE
  5
2E6
330
2A6
100
AcDbEntity
  8
0
  6
Continuous
 62
     2
100
AcDbLine
 10
-21.96779761999997
 20
-82.01735022999999
 30
0.0
 11
-21.96779761999998
 21
-90.01735023
 31
0.0
  0
LINE
  5
2E7
330
2A6
100
AcDbEntity
  8
0
  6
Continuous
 62
     2
100
AcDbLine
 10
-21.73584433999999
 20
-104.51735023
 30
0.0
 11
-16.14414572999997
 21
-104.51735023
 31
0.0
  0
ARC
  5
2E8
330
2A6
100
AcDbEntity
  8
0
  6
Continuous
 62
     7
100
AcDbCircle
 10
-21.96779761999998
 20
-86.01735022999998
 30
0.0
 40
3.5
100
AcDbArc
 50
180.0
 51
0.0
  0
CIRCLE
  5
2E9
330
2A6
100
AcDbEntity
  8
0
  6
Continuous
 62
     7
100
AcDbCircle
 10
-21.96779761999998
 20
-86.01735022999998
 30
0.0
 40
3.149999999999999
  0
LINE
  5
2EA
330
2A6
100
AcDbEntity
  8
0
  6
Continuous
 62
     7
100
AcDbLine
 10
-25.46779761999998
 20
-86.01735022999998
 30
0.0
 11
-25.46779761999998
 21
-80.51735022999999
 31
0.0
  0
LINE
  5
2EB
330
2A6
100
AcDbEntity
  8
0
  6
Continuous
 62
     7
100
AcDbLine
 10
-18.46779761999998
 20
-86.01735022999998
 30
0.0
 11
-18.46779761999997
 21
-80.51735022999999
 31
0.0
  0
LINE
  5
2EC
330
2A6
100
AcDbEntity
  8
0
  6
Continuous
 62
     7
100
AcDbLine
 10
1.532202380000001
 20
-102.01735023
 30
0.0
 11
1.532202380000001
 21
-107.51735023
 31
0.0
  0
LINE
  5
2ED
330
2A6
100
AcDbEntity
  8
0
  6
Continuous
 62
     2
100
AcDbLine
 10
5.032202380000001
 20
-106.01735023
 30
0.0
 11
5.032202380000001
 21
-98.01735022999999
 31
0.0
  0
LINE
  5
2EF
330
2A6
100
AcDbEntity
  8
0
  6
Continuous
 62
     7
100
AcDbLine
 10
8.532202380000015
 20
-102.01735023
 30
0.0
 11
8.532202380000015
 21
-107.51735023
 31
0.0
  0
LINE
  5
2F0
330
2A6
100
AcDbEntity
  8
0
  6
Continuous
 62
     2
100
AcDbLine
 10
-0.6819656199999855
 20
-83.51735022999999
 30
0.0
 11
5.041969110000025
 21
-83.51735022999999
 31
0.0
  0
CIRCLE
  5
2F1
330
2A6
100
AcDbEntity
  8
0
  6
Continuous
 62
     2
100
AcDbCircle
 10
2.032202380000029
 20
-83.51735022999999
 30
0.0
 40
1.5
  0
CIRCLE
  5
2F2
330
2A6
100
AcDbEntity
  8
0
  6
Continuous
 62
     7
100
AcDbCircle
 10
2.032202380000029
 20
-83.51735022999999
 30
0.0
 40
1.0
  0
LINE
  5
2F3
330
2A6
100
AcDbEntity
  8
0
  6
Continuous
 62
     2
100
AcDbLine
 10
2.032202380000029
 20
-80.80052146000001
 30
0.0
 11
2.032202380000015
 21
-86.50556530999999
 31
0.0
  0
CIRCLE
  5
2F4
330
2A6
100
AcDbEntity
  8
0
  6
Continuous
 62
     7
100
AcDbCircle
 10
2.032202380000029
 20
-83.51735022999999
 30
0.0
 40
2.0
  0
LINE
  5
2F5
330
2A6
100
AcDbEntity
  8
0
  6
Continuous
 62
     7
100
AcDbLine
 10
6.472202379999998
 20
-103.45735023
 30
0.0
 11
3.552202380000039
 21
-100.53735023
 31
0.0
  0
LINE
  5
2F6
330
2A6
100
AcDbEntity
  8
0
  6
Continuous
 62
     7
100
AcDbLine
 10
6.452202380000002
 20
-100.59735023
 30
0.0
 11
3.67220238000003
 21
-103.37735023
 31
0.0
  0
LINE
  5
2F7
330
2A6
100
AcDbEntity
  8
0
  6
Continuous
 62
     2
100
AcDbLine
 10
9.032202380000001
 20
-102.01735023
 30
0.0
 11
1.032202380000001
 21
-102.01735023
 31
0.0
  0
ARC
  5
2F8
330
2A6
100
AcDbEntity
  8
0
  6
Continuous
 62
     7
100
AcDbCircle
 10
5.032202380000001
 20
-102.01735023
 30
0.0
 40
3.5
100
AcDbArc
 50
0.0
 51
180.0
  0
CIRCLE
  5
2F9
330
2A6
100
AcDbEntity
  8
0
  6
Continuous
 62
     7
100
AcDbCircle
 10
5.032202380000001
 20
-102.01735023
 30
0.0
 40
3.149999999999999
  0
LINE
  5
2FA
330
2A6
100
AcDbEntity
  8
0
  6
Continuous
 62
     7
100
AcDbLine
 10
-28.46779761999998
 20
-107.51735023
 30
0.0
 11
11.53220238000001
 21
-107.5173502299999
 31
0.0
  0
LINE
  5
302
330
2A6
100
AcDbEntity
  8
0
  6
Continuous
100
AcDbLine
 10
-123.46779762
 20
-20.01735027
 30
0.0
 11
-97.46779762
 21
-20.01735027
 31
0.0
  0
LINE
  5
303
330
2A6
100
AcDbEntity
  8
0
  6
Continuous
100
AcDbLine
 10
100.53220238
 20
-20.01735027
 30
0.0
 11
126.53220238
 21
-20.01735027
 31
0.0
  0
CIRCLE
  5
304
330
2A6
100
AcDbEntity
  8
0
  6
Continuous
 62
     7
100
AcDbCircle
 10
113.53220238
 20
17.98264973
 30
0.0
 40
5.49999952
  0
CIRCLE
  5
305
330
2A6
100
AcDbEntity
  8
0
  6
Continuous
 62
     2
100
AcDbCircle
 10
113.53220238
 20
17.98264973
 30
0.0
 40
6.499999759999999
  0
CIRCLE
  5
306
330
2A6
100
AcDbEntity
  8
0
  6
Continuous
 62
     7
100
AcDbCircle
 10
-110.46261116
 20
31.48698246
 30
0.0
 40
5.49999952
  0
CIRCLE
  5
307
330
2A6
100
AcDbEntity
  8
0
  6
Continuous
 62
     2
100
AcDbCircle
 10
-110.46261116
 20
31.48698246
 30
0.0
 40
6.499999759999999
  0
CIRCLE
  5
308
330
2A6
100
AcDbEntity
  8
0
  6
Continuous
 62
     7
100
AcDbCircle
 10
-110.46261116
 20
4.48698246
 30
0.0
 40
5.49999952
  0
CIRCLE
  5
309
330
2A6
100
AcDbEntity
  8
0
  6
Continuous
 62
     2
100
AcDbCircle
 10
-110.46261116
 20
4.48698246
 30
0.0
 40
6.499999759999999
  0
ENDSEC
  0
SECTION
  2
OBJECTS
  0
DICTIONARY
  5
290
330
0
100
AcDbDictionary
281
     1
  3
ACAD_COLOR
350
29F
  3
ACAD_GROUP
350
291
  3
ACAD_LAYOUT
350
29D
  3
ACAD_MATERIAL
350
29E
  3
ACAD_MLINESTYLE
350
29A
  3
ACAD_PLOTSETTINGS
350
29C
  3
ACAD_PLOTSTYLENAME
350
292
  3
ACAD_TABLESTYLE
350
2A0
  3
ACDBHEADERROUNDTRIPXREC
350
310
  3
AcDbVariableDictionary
350
30A
  3
DWGPROPS
350
30F
  0
DICTIONARY
  5
2B7
330
286
100
AcDbDictionary
280
     1
281
     1
  3
ACAD_LAYERSTATES
360
2B8
  0
DICTIONARY
  5
29F
102
{ACAD_REACTORS
330
290
102
}
330
290
100
AcDbDictionary
281
     1
  0
DICTIONARY
  5
291
102
{ACAD_REACTORS
330
290
102
}
330
290
100
AcDbDictionary
281
     1
  0
DICTIONARY
  5
29D
102
{ACAD_REACTORS
330
290
102
}
330
290
100
AcDbDictionary
281
     1
  3
Model
350
2A9
  3
レイアウト1
350
2A5
  0
DICTIONARY
  5
29E
102
{ACAD_REACTORS
330
290
102
}
330
290
100
AcDbDictionary
281
     1
  0
DICTIONARY
  5
29A
102
{ACAD_REACTORS
330
290
102
}
330
290
100
AcDbDictionary
281
     1
  3
Standard
350
29B
  0
DICTIONARY
  5
29C
102
{ACAD_REACTORS
330
290
102
}
330
290
100
AcDbDictionary
281
     1
  0
ACDBDICTIONARYWDFLT
  5
292
102
{ACAD_REACTORS
330
290
102
}
330
290
100
AcDbDictionary
281
     1
  3
Normal
350
293
100
AcDbDictionaryWithDefault
340
293
  0
DICTIONARY
  5
2A0
102
{ACAD_REACTORS
330
290
102
}
330
290
100
AcDbDictionary
281
     1
  3
Standard
350
2A1
  0
DICTIONARY
  5
310
102
{ACAD_REACTORS
330
290
102
}
330
290
100
AcDbDictionary
281
     1
  0
DICTIONARY
  5
30A
102
{ACAD_REACTORS
330
290
102
}
330
290
100
AcDbDictionary
281
     1
  3
CTABLESTYLE
350
30B
  3
DIMASSOC
350
30C
  3
PROJECTNAME
350
30D
  0
XRECORD
  5
30F
102
{ACAD_REACTORS
330
290
102
}
330
290
100
AcDbXrecord
280
     1
  1
DWGPROPS COOKIE
  2

  3

  4

  6

  7

  8

  9

300
=
301
=
302
=
303
=
304
=
305
=
306
=
307
=
308
=
309
=
 40
0.0064966666666667
 41
2452902.575729167
 42
2454336.399839306
  1

 90
        0
  0
DICTIONARY
  5
2B8
102
{ACAD_REACTORS
330
2B7
102
}
330
2B7
100
AcDbDictionary
281
     1
  0
LAYOUT
  5
2A9
102
{ACAD_XDICTIONARY
360
313
102
}
102
{ACAD_REACTORS
330
29D
102
}
330
29D
100
AcDbPlotSettings
  1

  2
DocuCentre Color f450
  4

  6

 40
0.0
 41
0.0
 42
0.0
 43
0.0
 44
0.0
 45
0.0
 46
0.0
 47
0.0
 48
0.0
 49
0.0
140
0.0
141
0.0
142
1.0
143
1.0
 70
  1712
 72
     0
 73
     0
 74
     0
  7

 75
     0
147
1.0
148
0.0
149
0.0
100
AcDbLayout
  1
Model
 70
     1
 71
     0
 10
0.0
 20
0.0
 11
12.0
 21
9.0
 12
0.0
 22
0.0
 32
0.0
 14
0.0
 24
0.0
 34
0.0
 15
0.0
 25
0.0
 35
0.0
146
0.0
 13
0.0
 23
0.0
 33
0.0
 16
1.0
 26
0.0
 36
0.0
 17
0.0
 27
1.0
 37
0.0
 76
     0
330
2A6
  0
LAYOUT
  5
2A5
102
{ACAD_XDICTIONARY
360
311
102
}
102
{ACAD_REACTORS
330
29D
102
}
330
29D
100
AcDbPlotSettings
  1

  2
DocuCentre Color f450
  4

  6

 40
0.0
 41
0.0
 42
0.0
 43
0.0
 44
0.0
 45
0.0
 46
0.0
 47
0.0
 48
0.0
 49
0.0
140
0.0
141
0.0
142
1.0
143
1.0
 70
   688
 72
     0
 73
     0
 74
     5
  7

 75
    16
147
1.0
148
0.0
149
0.0
100
AcDbLayout
  1
レイアウト1
 70
     0
 71
     1
 10
0.0
 20
0.0
 11
12.0
 21
9.0
 12
0.0
 22
0.0
 32
0.0
 14
1.000000000000000E+20
 24
1.000000000000000E+20
 34
1.000000000000000E+20
 15
-1.000000000000000E+20
 25
-1.000000000000000E+20
 35
-1.000000000000000E+20
146
0.0
 13
0.0
 23
0.0
 33
0.0
 16
1.0
 26
0.0
 36
0.0
 17
0.0
 27
1.0
 37
0.0
 76
     0
330
2A2
  0
MLINESTYLE
  5
29B
102
{ACAD_REACTORS
330
29A
102
}
330
29A
100
AcDbMlineStyle
  2
STANDARD
 70
     0
  3

 62
   256
 51
90.0
 52
90.0
 71
     2
 49
0.5
 62
   256
  6
BYLAYER
 49
-0.5
 62
   256
  6
BYLAYER
  0
ACDBPLACEHOLDER
  5
293
102
{ACAD_REACTORS
330
292
102
}
330
292
  0
TABLESTYLE
  5
2A1
102
{ACAD_REACTORS
330
2A0
102
}
330
2A0
100
AcDbTableStyle
  3
Standard
 70
     0
 71
     0
 40
0.06
 41
0.06
280
     0
281
     0
  7
Standard
140
0.18
170
     2
 62
     0
 63
     7
283
     0
274
    -2
284
     1
 64
     0
275
    -2
285
     1
 65
     0
276
    -2
286
     1
 66
     0
277
    -2
287
     1
 67
     0
278
    -2
288
     1
 68
     0
279
    -2
289
     1
 69
     0
  7
Standard
140
0.25
170
     5
 62
     0
 63
     7
283
     0
274
    -2
284
     1
 64
     0
275
    -2
285
     1
 65
     0
276
    -2
286
     1
 66
     0
277
    -2
287
     1
 67
     0
278
    -2
288
     1
 68
     0
279
    -2
289
     1
 69
     0
  7
Standard
140
0.18
170
     5
 62
     0
 63
     7
283
     0
274
    -2
284
     1
 64
     0
275
    -2
285
     1
 65
     0
276
    -2
286
     1
 66
     0
277
    -2
287
     1
 67
     0
278
    -2
288
     1
 68
     0
279
    -2
289
     1
 69
     0
  0
DICTIONARYVAR
  5
30B
102
{ACAD_REACTORS
330
30A
102
}
330
30A
100
DictionaryVariables
280
     0
  1
STANDARD
  0
DICTIONARYVAR
  5
30C
102
{ACAD_REACTORS
330
30A
102
}
330
30A
100
DictionaryVariables
280
     0
  1
1
  0
DICTIONARYVAR
  5
30D
102
{ACAD_REACTORS
330
30A
102
}
330
30A
100
DictionaryVariables
280
     0
  1

  0
DICTIONARY
  5
313
330
2A9
100
AcDbDictionary
280
     1
281
     1
  3
ACAD_XREC_ROUNDTRIP
360
314
  0
DICTIONARY
  5
311
330
2A5
100
AcDbDictionary
280
     1
281
     1
  3
ACAD_XREC_ROUNDTRIP
360
312
  0
XRECORD
  5
314
102
{ACAD_REACTORS
330
313
102
}
330
313
100
AcDbXrecord
280
     1
102
SHADEPLOT
 70
     0
102
SHADEPLOTRESLEVEL
 70
     2
102
SHADEPLOTCUSTOMDPI
 70
   300
  0
XRECORD
  5
312
102
{ACAD_REACTORS
330
311
102
}
330
311
100
AcDbXrecord
280
     1
102
SHADEPLOT
 70
     0
102
SHADEPLOTRESLEVEL
 70
     2
102
SHADEPLOTCUSTOMDPI
 70
   300
  0
ENDSEC
  0
EOF
