  0
SECTION
  2
HEADER
  9
$ACADVER
  1
AC1009
  9
$INSBASE
 10
0.0
 20
0.0
 30
0.0
  9
$EXTMIN
 10
-194.25
 20
-133.5
 30
0.0
  9
$EXTMAX
 10
194.80000305
 20
132.6000061
 30
0.0
  9
$LIMMIN
 10
-194.25
 20
-133.5
  9
$LIMMAX
 10
194.80000305
 20
132.6000061
  9
$ORTHOMODE
 70
       0
  9
$REGENMODE
 70
       1
  9
$FILLMODE
 70
       1
  9
$QTEXTMODE
 70
       0
  9
$MIRRTEXT
 70
       1
  9
$DRAGMODE
 70
       2
  9
$LTSCALE
 40
1.0
  9
$OSMODE
 70
       0
  9
$ATTMODE
 70
       1
  9
$TEXTSIZE
 40
3.20000005
  9
$TRACEWID
 40
0.05
  9
$TEXTSTYLE
  7
MX_NOTE_STANDARD
  9
$CLAYER
  8
0
  9
$CELTYPE
  6
CONTINUOUS
  9
$CECOLOR
 62
     256
  9
$DIMSCALE
 40
1.0
  9
$DIMASZ
 40
2.5
  9
$DIMEXO
 40
1.5
  9
$DIMDLI
 40
3.75
  9
$DIMRND
 40
0.0
  9
$DIMDLE
 40
0.0
  9
$DIMEXE
 40
1.5
  9
$DIMTP
 40
0.0
  9
$DIMTM
 40
0.0
  9
$DIMTXT
 40
3.20000005
  9
$DIMCEN
 40
2.5
  9
$DIMTSZ
 40
0.0
  9
$DIMTOL
 70
       0
  9
$DIMLIM
 70
       0
  9
$DIMTIH
 70
       0
  9
$DIMTOH
 70
       0
  9
$DIMSE1
 70
       0
  9
$DIMSE2
 70
       0
  9
$DIMTAD
 70
       1
  9
$DIMZIN
 70
       8
  9
$DIMBLK
  1

  9
$DIMASO
 70
       1
  9
$DIMSHO
 70
       1
  9
$DIMPOST
  1

  9
$DIMAPOST
  1

  9
$DIMALT
 70
       0
  9
$DIMALTD
 70
       4
  9
$DIMALTF
 40
0.0394
  9
$DIMLFAC
 40
1.0
  9
$DIMTOFL
 70
       1
  9
$DIMTVP
 40
0.0
  9
$DIMTIX
 70
       0
  9
$DIMSOXD
 70
       0
  9
$DIMSAH
 70
       0
  9
$DIMBLK1
  1

  9
$DIMBLK2
  1

  9
$DIMSTYLE
  2
MXDIMSTYLE
  9
$DIMCLRD
 70
       0
  9
$DIMCLRE
 70
       0
  9
$DIMCLRT
 70
       0
  9
$DIMTFAC
 40
1.0
  9
$DIMGAP
 40
1.0
  9
$LUNITS
 70
       2
  9
$LUPREC
 70
       4
  9
$AXISMODE
 70
       0
  9
$AXISUNIT
 10
0.0
 20
0.0
  9
$SKETCHINC
 40
0.1
  9
$FILLETRAD
 40
0.0
  9
$AUNITS
 70
       0
  9
$AUPREC
 70
       0
  9
$MENU
  1
acad
  9
$ELEVATION
 40
0.0
  9
$PELEVATION
 40
0.0
  9
$THICKNESS
 40
0.0
  9
$LIMCHECK
 70
       0
  9
$BLIPMODE
 70
       1
  9
$CHAMFERA
 40
0.0
  9
$CHAMFERB
 40
0.0
  9
$SKPOLY
 70
       0
  9
$TDCREATE
 40
2452902.575729167
  9
$TDUPDATE
 40
2452902.575729167
  9
$TDINDWG
 40
0.0000000000
  9
$TDUSRTIMER
 40
0.0000000000
  9
$USRTIMER
 70
       1
  9
$ANGBASE
 50
0.0
  9
$ANGDIR
 70
       0
  9
$PDMODE
 70
       0
  9
$PDSIZE
 40
0.0
  9
$PLINEWID
 40
0.0
  9
$COORDS
 70
       1
  9
$SPLFRAME
 70
       0
  9
$SPLINETYPE
 70
       6
  9
$SPLINESEGS
 70
       8
  9
$ATTDIA
 70
       0
  9
$ATTREQ
 70
       1
  9
$HANDLING
 70
       1
  9
$HANDSEED
  5
285
  9
$SURFTAB1
 70
       6
  9
$SURFTAB2
 70
       6
  9
$SURFTYPE
 70
       6
  9
$SURFU
 70
       6
  9
$SURFV
 70
       6
  9
$UCSNAME
  2

  9
$UCSORG
 10
0.0
 20
0.0
 30
0.0
  9
$UCSXDIR
 10
1.0
 20
0.0
 30
0.0
  9
$UCSYDIR
 10
0.0
 20
1.0
 30
0.0
  9
$PUCSNAME
  2

  9
$PUCSORG
 10
0.0
 20
0.0
 30
0.0
  9
$PUCSXDIR
 10
1.0
 20
0.0
 30
0.0
  9
$PUCSYDIR
 10
0.0
 20
1.0
 30
0.0
  9
$USERI1
 70
       0
  9
$USERI2
 70
       0
  9
$USERI3
 70
       0
  9
$USERI4
 70
       0
  9
$USERI5
 70
       0
  9
$USERR1
 40
0.0
  9
$USERR2
 40
0.0
  9
$USERR3
 40
0.0
  9
$USERR4
 40
0.0
  9
$USERR5
 40
0.0
  9
$WORLDVIEW
 70
       1
  9
$SHADEDGE
 70
       3
  9
$SHADEDIF
 70
      70
  9
$TILEMODE
 70
       1
  9
$MAXACTVP
 70
      16
  9
$PINSBASE
 10
0.0
 20
0.0
 30
0.0
  9
$PLIMCHECK
 70
       0
  9
$PEXTMIN
 10
1.00000000E+20
 20
1.00000000E+20
 30
1.00000000E+20
  9
$PEXTMAX
 10
-1.00000000E+20
 20
-1.00000000E+20
 30
-1.00000000E+20
  9
$PLIMMIN
 10
0.0
 20
0.0
  9
$PLIMMAX
 10
12.0
 20
9.0
  9
$UNITMODE
 70
       0
  9
$VISRETAIN
 70
       0
  9
$PLINEGEN
 70
       1
  9
$PSLTSCALE
 70
       0
  9
$TREEDEPTH
 70
    3020
  9
$DWGCODEPAGE
  3
dos932
  0
ENDSEC
  0
SECTION
  2
TABLES
  0
TABLE
  2
VPORT
 70
       1
  0
VPORT
  2
*ACTIVE
 70
       0
 10
0.0
 20
0.0
 11
1.0
 21
1.0
 12
0.27500153
 22
-0.44999695
 13
0.0
 23
0.0
 14
1.0
 24
1.0
 15
0.0
 25
0.0
 16
0.0
 26
0.0
 36
1.0
 17
0.0
 27
0.0
 37
0.0
 40
268.76100616
 41
1.73205081
 42
50.0
 43
0.0
 44
0.0
 50
0.0
 51
0.0
 71
       0
 72
     100
 73
       1
 74
       1
 75
       0
 76
       0
 77
       0
 78
       0
  0
ENDTAB
  0
TABLE
  2
LTYPE
 70
       2
  0
LTYPE
  2
CONTINUOUS
 70
      64
  3
Solid line
 72
      65
 73
       0
 40
0.0
  0
LTYPE
  2
CENTER
 70
      64
  3
Center ____ _ ____ _ ____ _ ____ _ ____ _ ____
 72
      65
 73
       4
 40
50.8
 49
31.75
 49
-6.35
 49
6.35
 49
-6.35
  0
ENDTAB
  0
TABLE
  2
LAYER
 70
       2
  0
LAYER
  2
0
 70
       0
 62
       7
  6
CONTINUOUS
  0
LAYER
  2
DEFPOINTS
 70
       0
 62
       7
  6
CONTINUOUS
  0
ENDTAB
  0
TABLE
  2
STYLE
 70
       1
  0
STYLE
  2
MX_NOTE_STANDARD
 70
       0
 40
3.20000005
 41
1.0
 50
0.0
 71
       0
 42
3.20000005
  3
txt.shx
  4
extfont.shx
  0
ENDTAB
  0
TABLE
  2
VIEW
 70
       0
  0
ENDTAB
  0
TABLE
  2
UCS
 70
       0
  0
ENDTAB
  0
TABLE
  2
APPID
 70
       1
  0
APPID
  2
ACAD
 70
       0
  0
ENDTAB
  0
TABLE
  2
DIMSTYLE
 70
       1
  0
DIMSTYLE
  2
MXDIMSTYLE
 70
       0
  3

  4

  5

  6

  7

 40
1.0
 41
2.5
 42
1.5
 43
3.75
 44
1.5
 45
0.0
 46
0.0
 47
0.0
 48
0.0
 71
       0
 72
       0
 73
       0
 74
       0
 75
       0
 76
       0
 77
       1
 78
       8
140
3.20000005
141
2.5
142
0.0
143
0.0394
144
1.0
145
0.0
146
1.0
147
1.0
170
       0
171
       4
172
       1
173
       0
174
       0
175
       0
176
       0
177
       0
178
       0
  0
ENDTAB
  0
ENDSEC
  0
SECTION
  2
BLOCKS
  0
BLOCK
  8
0
  6
BYBLOCK
 62
       0
  5
B0
  2
*X0
 70
       1
 10
0.0
 20
0.0
 30
0.0
  3
*X0
  0
LINE
  8
0
  6
BYBLOCK
 62
       0
  5
B1
 10
115.80855153
 20
63.48264973
 30
0.0
 11
116.16402302
 21
63.83812121
 31
0.0
  0
LINE
  8
0
  6
BYBLOCK
 62
       0
  5
B2
 10
114.39433797
 20
63.48264973
 30
0.0
 11
115.79170769
 21
64.88001945
 31
0.0
  0
LINE
  8
0
  6
BYBLOCK
 62
       0
  5
B3
 10
113.53220238
 20
64.03472769
 30
0.0
 11
115.11424957
 21
65.61677489
 31
0.0
  0
LINE
  8
0
  6
BYBLOCK
 62
       0
  5
B4
 10
113.53220238
 20
65.44894126
 30
0.0
 11
114.14875748
 21
66.06549636
 31
0.0
  0
LINE
  8
0
  6
BYBLOCK
 62
       0
  5
B5
 10
114.70825913
 20
63.48264973
 30
0.0
 11
113.53220238
 21
64.65870648
 31
0.0
  0
LINE
  8
0
  6
BYBLOCK
 62
       0
  5
B6
 10
116.1224727
 20
63.48264973
 30
0.0
 11
113.53220238
 21
66.07292005
 31
0.0
  0
ENDBLK
  8
0
  6
BYBLOCK
 62
       0
  5
B7
  0
BLOCK
  8
0
  6
BYBLOCK
 62
       0
  5
BA
  2
*X1
 70
       1
 10
0.0
 20
0.0
 30
0.0
  3
*X1
  0
LINE
  8
0
  6
BYBLOCK
 62
       0
  5
BB
 10
115.05396803
 20
61.31385266
 30
0.0
 11
115.71051863
 21
61.97040326
 31
0.0
  0
LINE
  8
0
  6
BYBLOCK
 62
       0
  5
BC
 10
113.53220238
 20
61.20630057
 30
0.0
 11
115.80855153
 21
63.48264973
 31
0.0
  0
LINE
  8
0
  6
BYBLOCK
 62
       0
  5
BD
 10
113.53220238
 20
62.62051413
 30
0.0
 11
114.39433797
 21
63.48264973
 31
0.0
  0
LINE
  8
0
  6
BYBLOCK
 62
       0
  5
BE
 10
114.3859629
 20
60.97651883
 30
0.0
 11
113.53220238
 21
61.83027936
 31
0.0
  0
LINE
  8
0
  6
BYBLOCK
 62
       0
  5
BF
 10
115.28328797
 20
61.49340733
 30
0.0
 11
113.53220238
 21
63.24449292
 31
0.0
  0
LINE
  8
0
  6
BYBLOCK
 62
       0
  5
C0
 10
115.90140193
 20
62.28950693
 30
0.0
 11
114.70825913
 21
63.48264973
 31
0.0
  0
LINE
  8
0
  6
BYBLOCK
 62
       0
  5
C1
 10
116.18650782
 20
63.4186146
 30
0.0
 11
116.1224727
 21
63.48264973
 31
0.0
  0
ENDBLK
  8
0
  6
BYBLOCK
 62
       0
  5
C2
  0
BLOCK
  8
0
  6
BYBLOCK
 62
       0
  5
C5
  2
*X2
 70
       1
 10
0.0
 20
0.0
 30
0.0
  3
*X2
  0
LINE
  8
0
  6
BYBLOCK
 62
       0
  5
C6
 10
113.18625008
 20
60.86034828
 30
0.0
 11
113.53220238
 21
61.20630057
 31
0.0
  0
LINE
  8
0
  6
BYBLOCK
 62
       0
  5
C7
 10
112.14435185
 20
61.2326636
 30
0.0
 11
113.53220238
 21
62.62051413
 31
0.0
  0
LINE
  8
0
  6
BYBLOCK
 62
       0
  5
C8
 10
111.40759641
 20
61.91012173
 30
0.0
 11
112.98012441
 21
63.48264973
 31
0.0
  0
LINE
  8
0
  6
BYBLOCK
 62
       0
  5
C9
 10
110.95887494
 20
62.87561382
 30
0.0
 11
111.56591085
 21
63.48264973
 31
0.0
  0
LINE
  8
0
  6
BYBLOCK
 62
       0
  5
CA
 10
113.06968777
 20
60.87858041
 30
0.0
 11
110.92898679
 21
63.01928139
 31
0.0
  0
LINE
  8
0
  6
BYBLOCK
 62
       0
  5
CB
 10
113.53220238
 20
61.83027936
 30
0.0
 11
111.87983201
 21
63.48264973
 31
0.0
  0
LINE
  8
0
  6
BYBLOCK
 62
       0
  5
CC
 10
113.53220238
 20
63.24449292
 30
0.0
 11
113.29404557
 21
63.48264973
 31
0.0
  0
ENDBLK
  8
0
  6
BYBLOCK
 62
       0
  5
CD
  0
BLOCK
  8
0
  6
BYBLOCK
 62
       0
  5
D0
  2
*X3
 70
       1
 10
0.0
 20
0.0
 30
0.0
  3
*X3
  0
LINE
  8
0
  6
BYBLOCK
 62
       0
  5
D1
 10
112.98012441
 20
63.48264973
 30
0.0
 11
113.53220238
 21
64.03472769
 31
0.0
  0
LINE
  8
0
  6
BYBLOCK
 62
       0
  5
D2
 10
111.56591085
 20
63.48264973
 30
0.0
 11
113.53220238
 21
65.44894126
 31
0.0
  0
LINE
  8
0
  6
BYBLOCK
 62
       0
  5
D3
 10
111.03871443
 20
64.36966688
 30
0.0
 11
112.65470442
 21
65.98565686
 31
0.0
  0
LINE
  8
0
  6
BYBLOCK
 62
       0
  5
D4
 10
111.87983201
 20
63.48264973
 30
0.0
 11
111.02692521
 21
64.33555652
 31
0.0
  0
LINE
  8
0
  6
BYBLOCK
 62
       0
  5
D5
 10
113.29404557
 20
63.48264973
 30
0.0
 11
111.54381371
 21
65.23288159
 31
0.0
  0
LINE
  8
0
  6
BYBLOCK
 62
       0
  5
D6
 10
113.53220238
 20
64.65870648
 30
0.0
 11
112.33991331
 21
65.85099555
 31
0.0
  0
LINE
  8
0
  6
BYBLOCK
 62
       0
  5
D7
 10
113.53220238
 20
66.07292005
 30
0.0
 11
113.46902098
 21
66.13610144
 31
0.0
  0
ENDBLK
  8
0
  6
BYBLOCK
 62
       0
  5
D8
  0
ENDSEC
  0
SECTION
  2
ENTITIES
  0
LINE
  8
0
  6
CONTINUOUS
 62
       7
  5
1E
 10
127.53220228
 20
-20.00485027
 30
0.0
 11
126.53220238
 21
-20.01735027
 31
0.0
  0
LINE
  8
0
  6
CONTINUOUS
 62
       7
  5
1F
 10
100.53220238
 20
-20.01735027
 30
0.0
 11
99.53220248
 21
-20.00485027
 31
0.0
  0
LINE
  8
0
  6
CENTER
 62
       2
  5
21
 10
16.30574762
 20
-94.01735027
 30
0.0
 11
-33.29082541
 21
-94.01735027
 31
0.0
  0
LINE
  8
0
  6
CONTINUOUS
 62
       7
  5
22
 10
-28.46779759
 20
-80.51735027
 30
0.0
 11
-26.96779762
 21
-80.51735027
 31
0.0
  0
LINE
  8
0
  6
CONTINUOUS
 62
       7
  5
23
 10
-28.46779759
 20
-107.51735027
 30
0.0
 11
-26.96779762
 21
-107.51735027
 31
0.0
  0
LINE
  8
0
  6
CONTINUOUS
 62
       7
  5
24
 10
-28.46779762
 20
-107.51735023
 30
0.0
 11
-28.46779762
 21
-80.51735023
 31
0.0
  0
LINE
  8
0
  6
CONTINUOUS
 62
       7
  5
25
 10
11.53220238
 20
-107.51735023
 30
0.0
 11
11.53220238
 21
-80.51735023
 31
0.0
  0
LINE
  8
0
  6
CONTINUOUS
 62
       7
  5
26
 10
-20.96779762
 20
-66.01735027
 30
0.0
 11
4.03220238
 21
-66.01735027
 31
0.0
  0
LINE
  8
0
  6
CONTINUOUS
 62
       7
  5
27
 10
-20.96779762
 20
-122.01735027
 30
0.0
 11
4.03220238
 21
-122.01735027
 31
0.0
  0
LINE
  8
0
  6
CONTINUOUS
 62
       7
  5
28
 10
-26.96779762
 20
-116.01735027
 30
0.0
 11
-26.96779762
 21
-72.01735027
 31
0.0
  0
LINE
  8
0
  6
CONTINUOUS
 62
       7
  5
29
 10
10.03220238
 20
-116.01735027
 30
0.0
 11
10.03220238
 21
-72.01735027
 31
0.0
  0
LINE
  8
0
  6
CENTER
 62
       2
  5
2A
 10
-15.08654858
 20
-71.51735027
 30
0.0
 11
-0.91005882
 21
-71.51735027
 31
0.0
  0
LINE
  8
0
  6
CENTER
 62
       2
  5
2B
 10
-15.08654858
 20
-116.51735027
 30
0.0
 11
-0.91005882
 21
-116.51735027
 31
0.0
  0
CIRCLE
  8
0
  6
CONTINUOUS
 62
       7
  5
2C
 10
-8.46779762
 20
-71.51735027
 30
0.0
 40
2.75
  0
CIRCLE
  8
0
  6
CONTINUOUS
 62
       7
  5
2D
 10
-8.46779762
 20
-116.51735027
 30
0.0
 40
2.75
  0
LINE
  8
0
  6
CONTINUOUS
 62
       7
  5
2E
 10
-26.96779762
 20
-72.01735027
 30
0.0
 11
-20.96779762
 21
-66.01735027
 31
0.0
  0
LINE
  8
0
  6
CONTINUOUS
 62
       7
  5
2F
 10
4.03220238
 20
-66.01735027
 30
0.0
 11
10.03220238
 21
-72.01735027
 31
0.0
  0
LINE
  8
0
  6
CONTINUOUS
 62
       7
  5
30
 10
10.03220238
 20
-116.01735027
 30
0.0
 11
4.03220238
 21
-122.01735027
 31
0.0
  0
LINE
  8
0
  6
CONTINUOUS
 62
       7
  5
31
 10
-20.96779762
 20
-122.01735027
 30
0.0
 11
-26.96779762
 21
-116.01735027
 31
0.0
  0
LINE
  8
0
  6
CENTER
 62
       2
  5
32
 10
-1.86521927
 20
-83.51735027
 30
0.0
 11
5.66389207
 21
-83.51735027
 31
0.0
  0
LINE
  8
0
  6
CENTER
 62
       2
  5
33
 10
-22.94673102
 20
-104.51735027
 30
0.0
 11
-14.66470855
 21
-104.51735027
 31
0.0
  0
LINE
  8
0
  6
CENTER
 62
       2
  5
34
 10
-18.96779762
 20
-109.63632268
 30
0.0
 11
-18.96779762
 21
-100.1496424
 31
0.0
  0
LINE
  8
0
  6
CENTER
 62
       2
  5
35
 10
2.03220238
 20
-87.95248203
 30
0.0
 11
2.03220238
 21
-79.06813065
 31
0.0
  0
LINE
  8
0
  6
CONTINUOUS
 62
       7
  5
36
 10
14.02220238
 20
-89.02735027
 30
0.0
 11
11.53220238
 21
-89.02735027
 31
0.0
  0
POLYLINE
  8
0
  6
CONTINUOUS
 62
       7
  5
37
 66
       1
 10
0.0
 20
0.0
 30
0.0
  0
VERTEX
  8
0
  6
CONTINUOUS
 62
       7
  5
158
 10
21.64220238
 20
-90.25735027
 30
0.0
  0
VERTEX
  8
0
  6
CONTINUOUS
 62
       7
  5
159
 10
21.65270913
 20
-90.30663201
 30
0.0
  0
VERTEX
  8
0
  6
CONTINUOUS
 62
       7
  5
15A
 10
21.66277117
 20
-90.35622011
 30
0.0
  0
VERTEX
  8
0
  6
CONTINUOUS
 62
       7
  5
15B
 10
21.67229074
 20
-90.4060873
 30
0.0
  0
VERTEX
  8
0
  6
CONTINUOUS
 62
       7
  5
15C
 10
21.68117009
 20
-90.45620632
 30
0.0
  0
VERTEX
  8
0
  6
CONTINUOUS
 62
       7
  5
15D
 10
21.68931147
 20
-90.50654989
 30
0.0
  0
VERTEX
  8
0
  6
CONTINUOUS
 62
       7
  5
15E
 10
21.69661711
 20
-90.55709074
 30
0.0
  0
VERTEX
  8
0
  6
CONTINUOUS
 62
       7
  5
15F
 10
21.70298927
 20
-90.60780161
 30
0.0
  0
VERTEX
  8
0
  6
CONTINUOUS
 62
       7
  5
160
 10
21.70833019
 20
-90.65865521
 30
0.0
  0
VERTEX
  8
0
  6
CONTINUOUS
 62
       7
  5
161
 10
21.71254211
 20
-90.70962429
 30
0.0
  0
VERTEX
  8
0
  6
CONTINUOUS
 62
       7
  5
162
 10
21.71552729
 20
-90.76068157
 30
0.0
  0
VERTEX
  8
0
  6
CONTINUOUS
 62
       7
  5
163
 10
21.71718796
 20
-90.81179977
 30
0.0
  0
VERTEX
  8
0
  6
CONTINUOUS
 62
       7
  5
164
 10
21.71742637
 20
-90.86295164
 30
0.0
  0
VERTEX
  8
0
  6
CONTINUOUS
 62
       7
  5
165
 10
21.71614478
 20
-90.91410989
 30
0.0
  0
VERTEX
  8
0
  6
CONTINUOUS
 62
       7
  5
166
 10
21.71324542
 20
-90.96524726
 30
0.0
  0
VERTEX
  8
0
  6
CONTINUOUS
 62
       7
  5
167
 10
21.70863053
 20
-91.01633648
 30
0.0
  0
VERTEX
  8
0
  6
CONTINUOUS
 62
       7
  5
168
 10
21.70220238
 20
-91.06735027
 30
0.0
  0
VERTEX
  8
0
  6
CONTINUOUS
 62
       7
  5
169
 10
21.69151632
 20
-91.13082133
 30
0.0
  0
VERTEX
  8
0
  6
CONTINUOUS
 62
       7
  5
16A
 10
21.67818908
 20
-91.19385287
 30
0.0
  0
VERTEX
  8
0
  6
CONTINUOUS
 62
       7
  5
16B
 10
21.66269017
 20
-91.25649348
 30
0.0
  0
VERTEX
  8
0
  6
CONTINUOUS
 62
       7
  5
16C
 10
21.64548908
 20
-91.31879173
 30
0.0
  0
VERTEX
  8
0
  6
CONTINUOUS
 62
       7
  5
16D
 10
21.6270553
 20
-91.38079621
 30
0.0
  0
VERTEX
  8
0
  6
CONTINUOUS
 62
       7
  5
16E
 10
21.60785833
 20
-91.4425555
 30
0.0
  0
VERTEX
  8
0
  6
CONTINUOUS
 62
       7
  5
16F
 10
21.58836766
 20
-91.50411818
 30
0.0
  0
VERTEX
  8
0
  6
CONTINUOUS
 62
       7
  5
170
 10
21.5690528
 20
-91.56553282
 30
0.0
  0
VERTEX
  8
0
  6
CONTINUOUS
 62
       7
  5
171
 10
21.55038324
 20
-91.62684801
 30
0.0
  0
VERTEX
  8
0
  6
CONTINUOUS
 62
       7
  5
172
 10
21.53282847
 20
-91.68811232
 30
0.0
  0
VERTEX
  8
0
  6
CONTINUOUS
 62
       7
  5
173
 10
21.516858
 20
-91.74937433
 30
0.0
  0
VERTEX
  8
0
  6
CONTINUOUS
 62
       7
  5
174
 10
21.50294131
 20
-91.81068263
 30
0.0
  0
VERTEX
  8
0
  6
CONTINUOUS
 62
       7
  5
175
 10
21.49154791
 20
-91.8720858
 30
0.0
  0
VERTEX
  8
0
  6
CONTINUOUS
 62
       7
  5
176
 10
21.48314729
 20
-91.93363241
 30
0.0
  0
VERTEX
  8
0
  6
CONTINUOUS
 62
       7
  5
177
 10
21.47820895
 20
-91.99537104
 30
0.0
  0
VERTEX
  8
0
  6
CONTINUOUS
 62
       7
  5
178
 10
21.47720238
 20
-92.05735027
 30
0.0
  0
VERTEX
  8
0
  6
CONTINUOUS
 62
       7
  5
179
 10
21.479087
 20
-92.10271967
 30
0.0
  0
VERTEX
  8
0
  6
CONTINUOUS
 62
       7
  5
17A
 10
21.48304935
 20
-92.14822822
 30
0.0
  0
VERTEX
  8
0
  6
CONTINUOUS
 62
       7
  5
17B
 10
21.48899212
 20
-92.19380877
 30
0.0
  0
VERTEX
  8
0
  6
CONTINUOUS
 62
       7
  5
17C
 10
21.49681805
 20
-92.23939416
 30
0.0
  0
VERTEX
  8
0
  6
CONTINUOUS
 62
       7
  5
17D
 10
21.50642983
 20
-92.28491723
 30
0.0
  0
VERTEX
  8
0
  6
CONTINUOUS
 62
       7
  5
17E
 10
21.51773018
 20
-92.33031082
 30
0.0
  0
VERTEX
  8
0
  6
CONTINUOUS
 62
       7
  5
17F
 10
21.53062182
 20
-92.37550778
 30
0.0
  0
VERTEX
  8
0
  6
CONTINUOUS
 62
       7
  5
180
 10
21.54500747
 20
-92.42044093
 30
0.0
  0
VERTEX
  8
0
  6
CONTINUOUS
 62
       7
  5
181
 10
21.56078983
 20
-92.46504313
 30
0.0
  0
VERTEX
  8
0
  6
CONTINUOUS
 62
       7
  5
182
 10
21.57787162
 20
-92.50924721
 30
0.0
  0
VERTEX
  8
0
  6
CONTINUOUS
 62
       7
  5
183
 10
21.59615555
 20
-92.55298601
 30
0.0
  0
VERTEX
  8
0
  6
CONTINUOUS
 62
       7
  5
184
 10
21.61554434
 20
-92.59619237
 30
0.0
  0
VERTEX
  8
0
  6
CONTINUOUS
 62
       7
  5
185
 10
21.63594071
 20
-92.63879914
 30
0.0
  0
VERTEX
  8
0
  6
CONTINUOUS
 62
       7
  5
186
 10
21.65724736
 20
-92.68073916
 30
0.0
  0
VERTEX
  8
0
  6
CONTINUOUS
 62
       7
  5
187
 10
21.67936701
 20
-92.72194525
 30
0.0
  0
VERTEX
  8
0
  6
CONTINUOUS
 62
       7
  5
188
 10
21.70220238
 20
-92.76235027
 30
0.0
  0
SEQEND
  8
0
  6
CONTINUOUS
 62
       7
  5
189
  0
POLYLINE
  8
0
  6
CONTINUOUS
 62
       7
  5
38
 66
       1
 10
0.0
 20
0.0
 30
0.0
  0
VERTEX
  8
0
  6
CONTINUOUS
 62
       7
  5
18A
 10
19.90220238
 20
-90.28735027
 30
0.0
  0
VERTEX
  8
0
  6
CONTINUOUS
 62
       7
  5
18B
 10
19.91644041
 20
-90.34247458
 30
0.0
  0
VERTEX
  8
0
  6
CONTINUOUS
 62
       7
  5
18C
 10
19.93049831
 20
-90.39805787
 30
0.0
  0
VERTEX
  8
0
  6
CONTINUOUS
 62
       7
  5
18D
 10
19.94419539
 20
-90.45406074
 30
0.0
  0
VERTEX
  8
0
  6
CONTINUOUS
 62
       7
  5
18E
 10
19.95735093
 20
-90.51044378
 30
0.0
  0
VERTEX
  8
0
  6
CONTINUOUS
 62
       7
  5
18F
 10
19.96978424
 20
-90.56716758
 30
0.0
  0
VERTEX
  8
0
  6
CONTINUOUS
 62
       7
  5
190
 10
19.98131461
 20
-90.62419275
 30
0.0
  0
VERTEX
  8
0
  6
CONTINUOUS
 62
       7
  5
191
 10
19.99176134
 20
-90.68147987
 30
0.0
  0
VERTEX
  8
0
  6
CONTINUOUS
 62
       7
  5
192
 10
20.00094373
 20
-90.73898954
 30
0.0
  0
VERTEX
  8
0
  6
CONTINUOUS
 62
       7
  5
193
 10
20.00868108
 20
-90.79668237
 30
0.0
  0
VERTEX
  8
0
  6
CONTINUOUS
 62
       7
  5
194
 10
20.01479268
 20
-90.85451893
 30
0.0
  0
VERTEX
  8
0
  6
CONTINUOUS
 62
       7
  5
195
 10
20.01909784
 20
-90.91245984
 30
0.0
  0
VERTEX
  8
0
  6
CONTINUOUS
 62
       7
  5
196
 10
20.02141585
 20
-90.97046568
 30
0.0
  0
VERTEX
  8
0
  6
CONTINUOUS
 62
       7
  5
197
 10
20.02156601
 20
-91.02849704
 30
0.0
  0
VERTEX
  8
0
  6
CONTINUOUS
 62
       7
  5
198
 10
20.01936762
 20
-91.08651454
 30
0.0
  0
VERTEX
  8
0
  6
CONTINUOUS
 62
       7
  5
199
 10
20.01463998
 20
-91.14447875
 30
0.0
  0
VERTEX
  8
0
  6
CONTINUOUS
 62
       7
  5
19A
 10
20.00720238
 20
-91.20235027
 30
0.0
  0
VERTEX
  8
0
  6
CONTINUOUS
 62
       7
  5
19B
 10
19.99611716
 20
-91.26387902
 30
0.0
  0
VERTEX
  8
0
  6
CONTINUOUS
 62
       7
  5
19C
 10
19.98212904
 20
-91.32510935
 30
0.0
  0
VERTEX
  8
0
  6
CONTINUOUS
 62
       7
  5
19D
 10
19.96580179
 20
-91.38606153
 30
0.0
  0
VERTEX
  8
0
  6
CONTINUOUS
 62
       7
  5
19E
 10
19.94769917
 20
-91.44675582
 30
0.0
  0
VERTEX
  8
0
  6
CONTINUOUS
 62
       7
  5
19F
 10
19.92838496
 20
-91.5072125
 30
0.0
  0
VERTEX
  8
0
  6
CONTINUOUS
 62
       7
  5
1A0
 10
19.90842293
 20
-91.56745184
 30
0.0
  0
VERTEX
  8
0
  6
CONTINUOUS
 62
       7
  5
1A1
 10
19.88837685
 20
-91.6274941
 30
0.0
  0
VERTEX
  8
0
  6
CONTINUOUS
 62
       7
  5
1A2
 10
19.86881049
 20
-91.68735955
 30
0.0
  0
VERTEX
  8
0
  6
CONTINUOUS
 62
       7
  5
1A3
 10
19.85028764
 20
-91.74706846
 30
0.0
  0
VERTEX
  8
0
  6
CONTINUOUS
 62
       7
  5
1A4
 10
19.83337205
 20
-91.8066411
 30
0.0
  0
VERTEX
  8
0
  6
CONTINUOUS
 62
       7
  5
1A5
 10
19.8186275
 20
-91.86609774
 30
0.0
  0
VERTEX
  8
0
  6
CONTINUOUS
 62
       7
  5
1A6
 10
19.80661776
 20
-91.92545864
 30
0.0
  0
VERTEX
  8
0
  6
CONTINUOUS
 62
       7
  5
1A7
 10
19.79790661
 20
-91.98474408
 30
0.0
  0
VERTEX
  8
0
  6
CONTINUOUS
 62
       7
  5
1A8
 10
19.79305781
 20
-92.04397432
 30
0.0
  0
VERTEX
  8
0
  6
CONTINUOUS
 62
       7
  5
1A9
 10
19.79263515
 20
-92.10316963
 30
0.0
  0
VERTEX
  8
0
  6
CONTINUOUS
 62
       7
  5
1AA
 10
19.79720238
 20
-92.16235027
 30
0.0
  0
VERTEX
  8
0
  6
CONTINUOUS
 62
       7
  5
1AB
 10
19.80335424
 20
-92.20269663
 30
0.0
  0
VERTEX
  8
0
  6
CONTINUOUS
 62
       7
  5
1AC
 10
19.81182085
 20
-92.24290502
 30
0.0
  0
VERTEX
  8
0
  6
CONTINUOUS
 62
       7
  5
1AD
 10
19.82246612
 20
-92.2829237
 30
0.0
  0
VERTEX
  8
0
  6
CONTINUOUS
 62
       7
  5
1AE
 10
19.83515401
 20
-92.3227009
 30
0.0
  0
VERTEX
  8
0
  6
CONTINUOUS
 62
       7
  5
1AF
 10
19.84974842
 20
-92.36218486
 30
0.0
  0
VERTEX
  8
0
  6
CONTINUOUS
 62
       7
  5
1B0
 10
19.8661133
 20
-92.40132382
 30
0.0
  0
VERTEX
  8
0
  6
CONTINUOUS
 62
       7
  5
1B1
 10
19.88411258
 20
-92.440066
 30
0.0
  0
VERTEX
  8
0
  6
CONTINUOUS
 62
       7
  5
1B2
 10
19.90361018
 20
-92.47835966
 30
0.0
  0
VERTEX
  8
0
  6
CONTINUOUS
 62
       7
  5
1B3
 10
19.92447003
 20
-92.51615302
 30
0.0
  0
VERTEX
  8
0
  6
CONTINUOUS
 62
       7
  5
1B4
 10
19.94655608
 20
-92.55339433
 30
0.0
  0
VERTEX
  8
0
  6
CONTINUOUS
 62
       7
  5
1B5
 10
19.96973224
 20
-92.59003182
 30
0.0
  0
VERTEX
  8
0
  6
CONTINUOUS
 62
       7
  5
1B6
 10
19.99386245
 20
-92.62601372
 30
0.0
  0
VERTEX
  8
0
  6
CONTINUOUS
 62
       7
  5
1B7
 10
20.01881064
 20
-92.66128829
 30
0.0
  0
VERTEX
  8
0
  6
CONTINUOUS
 62
       7
  5
1B8
 10
20.04444073
 20
-92.69580374
 30
0.0
  0
VERTEX
  8
0
  6
CONTINUOUS
 62
       7
  5
1B9
 10
20.07061667
 20
-92.72950832
 30
0.0
  0
VERTEX
  8
0
  6
CONTINUOUS
 62
       7
  5
1BA
 10
20.09720238
 20
-92.76235027
 30
0.0
  0
SEQEND
  8
0
  6
CONTINUOUS
 62
       7
  5
1BB
  0
ARC
  8
0
  6
CONTINUOUS
 62
       7
  5
39
 10
14.03919728
 20
-89.52006765
 30
0.0
 40
0.49301038
 50
359.73472101
 51
91.97547379
  0
LINE
  8
0
  6
CONTINUOUS
 62
       7
  5
3A
 10
27.28220238
 20
-90.27235027
 30
0.0
 11
27.28220238
 21
-92.77735027
 31
0.0
  0
LINE
  8
0
  6
CONTINUOUS
 62
       7
  5
3B
 10
20.09720238
 20
-92.77735027
 30
0.0
 11
14.53220238
 21
-92.77735027
 31
0.0
  0
LINE
  8
0
  6
CONTINUOUS
 62
       7
  5
3C
 10
19.84220238
 20
-90.27235027
 30
0.0
 11
14.53220238
 21
-90.27235027
 31
0.0
  0
LINE
  8
0
  6
CONTINUOUS
 62
       7
  5
3D
 10
27.28220238
 20
-92.77735027
 30
0.0
 11
21.70220238
 21
-92.77735027
 31
0.0
  0
LINE
  8
0
  6
CONTINUOUS
 62
       7
  5
3E
 10
27.28220238
 20
-90.27235027
 30
0.0
 11
21.64220238
 21
-90.27235027
 31
0.0
  0
LINE
  8
0
  6
CONTINUOUS
 62
       7
  5
3F
 10
14.02220238
 20
-99.00735027
 30
0.0
 11
11.53220238
 21
-99.00735027
 31
0.0
  0
POLYLINE
  8
0
  6
CONTINUOUS
 62
       7
  5
40
 66
       1
 10
0.0
 20
0.0
 30
0.0
  0
VERTEX
  8
0
  6
CONTINUOUS
 62
       7
  5
1BC
 10
21.64220238
 20
-97.77735027
 30
0.0
  0
VERTEX
  8
0
  6
CONTINUOUS
 62
       7
  5
1BD
 10
21.65270913
 20
-97.72806854
 30
0.0
  0
VERTEX
  8
0
  6
CONTINUOUS
 62
       7
  5
1BE
 10
21.66277117
 20
-97.67848044
 30
0.0
  0
VERTEX
  8
0
  6
CONTINUOUS
 62
       7
  5
1BF
 10
21.67229074
 20
-97.62861325
 30
0.0
  0
VERTEX
  8
0
  6
CONTINUOUS
 62
       7
  5
1C0
 10
21.68117009
 20
-97.57849423
 30
0.0
  0
VERTEX
  8
0
  6
CONTINUOUS
 62
       7
  5
1C1
 10
21.68931147
 20
-97.52815066
 30
0.0
  0
VERTEX
  8
0
  6
CONTINUOUS
 62
       7
  5
1C2
 10
21.69661711
 20
-97.47760981
 30
0.0
  0
VERTEX
  8
0
  6
CONTINUOUS
 62
       7
  5
1C3
 10
21.70298927
 20
-97.42689894
 30
0.0
  0
VERTEX
  8
0
  6
CONTINUOUS
 62
       7
  5
1C4
 10
21.70833019
 20
-97.37604534
 30
0.0
  0
VERTEX
  8
0
  6
CONTINUOUS
 62
       7
  5
1C5
 10
21.71254211
 20
-97.32507626
 30
0.0
  0
VERTEX
  8
0
  6
CONTINUOUS
 62
       7
  5
1C6
 10
21.71552729
 20
-97.27401898
 30
0.0
  0
VERTEX
  8
0
  6
CONTINUOUS
 62
       7
  5
1C7
 10
21.71718796
 20
-97.22290078
 30
0.0
  0
VERTEX
  8
0
  6
CONTINUOUS
 62
       7
  5
1C8
 10
21.71742637
 20
-97.17174891
 30
0.0
  0
VERTEX
  8
0
  6
CONTINUOUS
 62
       7
  5
1C9
 10
21.71614478
 20
-97.12059066
 30
0.0
  0
VERTEX
  8
0
  6
CONTINUOUS
 62
       7
  5
1CA
 10
21.71324542
 20
-97.06945329
 30
0.0
  0
VERTEX
  8
0
  6
CONTINUOUS
 62
       7
  5
1CB
 10
21.70863053
 20
-97.01836407
 30
0.0
  0
VERTEX
  8
0
  6
CONTINUOUS
 62
       7
  5
1CC
 10
21.70220238
 20
-96.96735027
 30
0.0
  0
VERTEX
  8
0
  6
CONTINUOUS
 62
       7
  5
1CD
 10
21.69151632
 20
-96.90387922
 30
0.0
  0
VERTEX
  8
0
  6
CONTINUOUS
 62
       7
  5
1CE
 10
21.67818908
 20
-96.84084768
 30
0.0
  0
VERTEX
  8
0
  6
CONTINUOUS
 62
       7
  5
1CF
 10
21.66269017
 20
-96.77820707
 30
0.0
  0
VERTEX
  8
0
  6
CONTINUOUS
 62
       7
  5
1D0
 10
21.64548908
 20
-96.71590882
 30
0.0
  0
VERTEX
  8
0
  6
CONTINUOUS
 62
       7
  5
1D1
 10
21.6270553
 20
-96.65390434
 30
0.0
  0
VERTEX
  8
0
  6
CONTINUOUS
 62
       7
  5
1D2
 10
21.60785833
 20
-96.59214505
 30
0.0
  0
VERTEX
  8
0
  6
CONTINUOUS
 62
       7
  5
1D3
 10
21.58836766
 20
-96.53058237
 30
0.0
  0
VERTEX
  8
0
  6
CONTINUOUS
 62
       7
  5
1D4
 10
21.5690528
 20
-96.46916773
 30
0.0
  0
VERTEX
  8
0
  6
CONTINUOUS
 62
       7
  5
1D5
 10
21.55038324
 20
-96.40785254
 30
0.0
  0
VERTEX
  8
0
  6
CONTINUOUS
 62
       7
  5
1D6
 10
21.53282847
 20
-96.34658823
 30
0.0
  0
VERTEX
  8
0
  6
CONTINUOUS
 62
       7
  5
1D7
 10
21.516858
 20
-96.28532622
 30
0.0
  0
VERTEX
  8
0
  6
CONTINUOUS
 62
       7
  5
1D8
 10
21.50294131
 20
-96.22401791
 30
0.0
  0
VERTEX
  8
0
  6
CONTINUOUS
 62
       7
  5
1D9
 10
21.49154791
 20
-96.16261475
 30
0.0
  0
VERTEX
  8
0
  6
CONTINUOUS
 62
       7
  5
1DA
 10
21.48314729
 20
-96.10106814
 30
0.0
  0
VERTEX
  8
0
  6
CONTINUOUS
 62
       7
  5
1DB
 10
21.47820895
 20
-96.03932951
 30
0.0
  0
VERTEX
  8
0
  6
CONTINUOUS
 62
       7
  5
1DC
 10
21.47720238
 20
-95.97735027
 30
0.0
  0
VERTEX
  8
0
  6
CONTINUOUS
 62
       7
  5
1DD
 10
21.479087
 20
-95.93198088
 30
0.0
  0
VERTEX
  8
0
  6
CONTINUOUS
 62
       7
  5
1DE
 10
21.48304935
 20
-95.88647233
 30
0.0
  0
VERTEX
  8
0
  6
CONTINUOUS
 62
       7
  5
1DF
 10
21.48899212
 20
-95.84089178
 30
0.0
  0
VERTEX
  8
0
  6
CONTINUOUS
 62
       7
  5
1E0
 10
21.49681805
 20
-95.79530639
 30
0.0
  0
VERTEX
  8
0
  6
CONTINUOUS
 62
       7
  5
1E1
 10
21.50642983
 20
-95.74978332
 30
0.0
  0
VERTEX
  8
0
  6
CONTINUOUS
 62
       7
  5
1E2
 10
21.51773018
 20
-95.70438973
 30
0.0
  0
VERTEX
  8
0
  6
CONTINUOUS
 62
       7
  5
1E3
 10
21.53062182
 20
-95.65919277
 30
0.0
  0
VERTEX
  8
0
  6
CONTINUOUS
 62
       7
  5
1E4
 10
21.54500747
 20
-95.61425962
 30
0.0
  0
VERTEX
  8
0
  6
CONTINUOUS
 62
       7
  5
1E5
 10
21.56078983
 20
-95.56965742
 30
0.0
  0
VERTEX
  8
0
  6
CONTINUOUS
 62
       7
  5
1E6
 10
21.57787162
 20
-95.52545334
 30
0.0
  0
VERTEX
  8
0
  6
CONTINUOUS
 62
       7
  5
1E7
 10
21.59615555
 20
-95.48171454
 30
0.0
  0
VERTEX
  8
0
  6
CONTINUOUS
 62
       7
  5
1E8
 10
21.61554434
 20
-95.43850817
 30
0.0
  0
VERTEX
  8
0
  6
CONTINUOUS
 62
       7
  5
1E9
 10
21.63594071
 20
-95.39590141
 30
0.0
  0
VERTEX
  8
0
  6
CONTINUOUS
 62
       7
  5
1EA
 10
21.65724736
 20
-95.35396139
 30
0.0
  0
VERTEX
  8
0
  6
CONTINUOUS
 62
       7
  5
1EB
 10
21.67936701
 20
-95.3127553
 30
0.0
  0
VERTEX
  8
0
  6
CONTINUOUS
 62
       7
  5
1EC
 10
21.70220238
 20
-95.27235027
 30
0.0
  0
SEQEND
  8
0
  6
CONTINUOUS
 62
       7
  5
1ED
  0
POLYLINE
  8
0
  6
CONTINUOUS
 62
       7
  5
41
 66
       1
 10
0.0
 20
0.0
 30
0.0
  0
VERTEX
  8
0
  6
CONTINUOUS
 62
       7
  5
1EE
 10
19.90220238
 20
-97.74735027
 30
0.0
  0
VERTEX
  8
0
  6
CONTINUOUS
 62
       7
  5
1EF
 10
19.91644041
 20
-97.69222597
 30
0.0
  0
VERTEX
  8
0
  6
CONTINUOUS
 62
       7
  5
1F0
 10
19.93049831
 20
-97.63664268
 30
0.0
  0
VERTEX
  8
0
  6
CONTINUOUS
 62
       7
  5
1F1
 10
19.94419539
 20
-97.58063981
 30
0.0
  0
VERTEX
  8
0
  6
CONTINUOUS
 62
       7
  5
1F2
 10
19.95735093
 20
-97.52425677
 30
0.0
  0
VERTEX
  8
0
  6
CONTINUOUS
 62
       7
  5
1F3
 10
19.96978424
 20
-97.46753297
 30
0.0
  0
VERTEX
  8
0
  6
CONTINUOUS
 62
       7
  5
1F4
 10
19.98131461
 20
-97.4105078
 30
0.0
  0
VERTEX
  8
0
  6
CONTINUOUS
 62
       7
  5
1F5
 10
19.99176134
 20
-97.35322068
 30
0.0
  0
VERTEX
  8
0
  6
CONTINUOUS
 62
       7
  5
1F6
 10
20.00094373
 20
-97.295711
 30
0.0
  0
VERTEX
  8
0
  6
CONTINUOUS
 62
       7
  5
1F7
 10
20.00868108
 20
-97.23801818
 30
0.0
  0
VERTEX
  8
0
  6
CONTINUOUS
 62
       7
  5
1F8
 10
20.01479268
 20
-97.18018162
 30
0.0
  0
VERTEX
  8
0
  6
CONTINUOUS
 62
       7
  5
1F9
 10
20.01909784
 20
-97.12224071
 30
0.0
  0
VERTEX
  8
0
  6
CONTINUOUS
 62
       7
  5
1FA
 10
20.02141585
 20
-97.06423487
 30
0.0
  0
VERTEX
  8
0
  6
CONTINUOUS
 62
       7
  5
1FB
 10
20.02156601
 20
-97.0062035
 30
0.0
  0
VERTEX
  8
0
  6
CONTINUOUS
 62
       7
  5
1FC
 10
20.01936762
 20
-96.94818601
 30
0.0
  0
VERTEX
  8
0
  6
CONTINUOUS
 62
       7
  5
1FD
 10
20.01463998
 20
-96.8902218
 30
0.0
  0
VERTEX
  8
0
  6
CONTINUOUS
 62
       7
  5
1FE
 10
20.00720238
 20
-96.83235027
 30
0.0
  0
VERTEX
  8
0
  6
CONTINUOUS
 62
       7
  5
1FF
 10
19.99611716
 20
-96.77082153
 30
0.0
  0
VERTEX
  8
0
  6
CONTINUOUS
 62
       7
  5
200
 10
19.98212904
 20
-96.7095912
 30
0.0
  0
VERTEX
  8
0
  6
CONTINUOUS
 62
       7
  5
201
 10
19.96580179
 20
-96.64863902
 30
0.0
  0
VERTEX
  8
0
  6
CONTINUOUS
 62
       7
  5
202
 10
19.94769917
 20
-96.58794473
 30
0.0
  0
VERTEX
  8
0
  6
CONTINUOUS
 62
       7
  5
203
 10
19.92838496
 20
-96.52748805
 30
0.0
  0
VERTEX
  8
0
  6
CONTINUOUS
 62
       7
  5
204
 10
19.90842293
 20
-96.46724871
 30
0.0
  0
VERTEX
  8
0
  6
CONTINUOUS
 62
       7
  5
205
 10
19.88837685
 20
-96.40720645
 30
0.0
  0
VERTEX
  8
0
  6
CONTINUOUS
 62
       7
  5
206
 10
19.86881049
 20
-96.347341
 30
0.0
  0
VERTEX
  8
0
  6
CONTINUOUS
 62
       7
  5
207
 10
19.85028764
 20
-96.28763209
 30
0.0
  0
VERTEX
  8
0
  6
CONTINUOUS
 62
       7
  5
208
 10
19.83337205
 20
-96.22805945
 30
0.0
  0
VERTEX
  8
0
  6
CONTINUOUS
 62
       7
  5
209
 10
19.8186275
 20
-96.16860281
 30
0.0
  0
VERTEX
  8
0
  6
CONTINUOUS
 62
       7
  5
20A
 10
19.80661776
 20
-96.10924191
 30
0.0
  0
VERTEX
  8
0
  6
CONTINUOUS
 62
       7
  5
20B
 10
19.79790661
 20
-96.04995647
 30
0.0
  0
VERTEX
  8
0
  6
CONTINUOUS
 62
       7
  5
20C
 10
19.79305781
 20
-95.99072623
 30
0.0
  0
VERTEX
  8
0
  6
CONTINUOUS
 62
       7
  5
20D
 10
19.79263515
 20
-95.93153092
 30
0.0
  0
VERTEX
  8
0
  6
CONTINUOUS
 62
       7
  5
20E
 10
19.79720238
 20
-95.87235027
 30
0.0
  0
VERTEX
  8
0
  6
CONTINUOUS
 62
       7
  5
20F
 10
19.80335424
 20
-95.83200392
 30
0.0
  0
VERTEX
  8
0
  6
CONTINUOUS
 62
       7
  5
210
 10
19.81182085
 20
-95.79179553
 30
0.0
  0
VERTEX
  8
0
  6
CONTINUOUS
 62
       7
  5
211
 10
19.82246612
 20
-95.75177685
 30
0.0
  0
VERTEX
  8
0
  6
CONTINUOUS
 62
       7
  5
212
 10
19.83515401
 20
-95.71199964
 30
0.0
  0
VERTEX
  8
0
  6
CONTINUOUS
 62
       7
  5
213
 10
19.84974842
 20
-95.67251569
 30
0.0
  0
VERTEX
  8
0
  6
CONTINUOUS
 62
       7
  5
214
 10
19.8661133
 20
-95.63337673
 30
0.0
  0
VERTEX
  8
0
  6
CONTINUOUS
 62
       7
  5
215
 10
19.88411258
 20
-95.59463454
 30
0.0
  0
VERTEX
  8
0
  6
CONTINUOUS
 62
       7
  5
216
 10
19.90361018
 20
-95.55634089
 30
0.0
  0
VERTEX
  8
0
  6
CONTINUOUS
 62
       7
  5
217
 10
19.92447003
 20
-95.51854753
 30
0.0
  0
VERTEX
  8
0
  6
CONTINUOUS
 62
       7
  5
218
 10
19.94655608
 20
-95.48130622
 30
0.0
  0
VERTEX
  8
0
  6
CONTINUOUS
 62
       7
  5
219
 10
19.96973224
 20
-95.44466873
 30
0.0
  0
VERTEX
  8
0
  6
CONTINUOUS
 62
       7
  5
21A
 10
19.99386245
 20
-95.40868682
 30
0.0
  0
VERTEX
  8
0
  6
CONTINUOUS
 62
       7
  5
21B
 10
20.01881064
 20
-95.37341226
 30
0.0
  0
VERTEX
  8
0
  6
CONTINUOUS
 62
       7
  5
21C
 10
20.04444073
 20
-95.33889681
 30
0.0
  0
VERTEX
  8
0
  6
CONTINUOUS
 62
       7
  5
21D
 10
20.07061667
 20
-95.30519223
 30
0.0
  0
VERTEX
  8
0
  6
CONTINUOUS
 62
       7
  5
21E
 10
20.09720238
 20
-95.27235027
 30
0.0
  0
SEQEND
  8
0
  6
CONTINUOUS
 62
       7
  5
21F
  0
ARC
  8
0
  6
CONTINUOUS
 62
       7
  5
42
 10
14.03919728
 20
-98.5146329
 30
0.0
 40
0.49301038
 50
-91.97547379
 51
0.26527899
  0
LINE
  8
0
  6
CONTINUOUS
 62
       7
  5
43
 10
27.28220238
 20
-97.76235027
 30
0.0
 11
27.28220238
 21
-95.25735027
 31
0.0
  0
LINE
  8
0
  6
CONTINUOUS
 62
       7
  5
44
 10
20.09720238
 20
-95.25735027
 30
0.0
 11
14.53220238
 21
-95.25735027
 31
0.0
  0
LINE
  8
0
  6
CONTINUOUS
 62
       7
  5
45
 10
19.84220238
 20
-97.76235027
 30
0.0
 11
14.53220238
 21
-97.76235027
 31
0.0
  0
LINE
  8
0
  6
CONTINUOUS
 62
       7
  5
46
 10
27.28220238
 20
-95.25735027
 30
0.0
 11
21.70220238
 21
-95.25735027
 31
0.0
  0
LINE
  8
0
  6
CONTINUOUS
 62
       7
  5
47
 10
27.28220238
 20
-97.76235027
 30
0.0
 11
21.64220238
 21
-97.76235027
 31
0.0
  0
LINE
  8
0
  6
CONTINUOUS
 62
       7
  5
48
 10
14.53220238
 20
-98.51235027
 30
0.0
 11
14.53220238
 21
-89.52235027
 31
0.0
  0
LINE
  8
0
  6
CONTINUOUS
 62
       7
  5
49
 10
33.23720238
 20
-96.00735027
 30
0.0
 11
27.28220238
 21
-96.00735027
 31
0.0
  0
LINE
  8
0
  6
CONTINUOUS
 62
       7
  5
4A
 10
33.23720238
 20
-97.01235027
 30
0.0
 11
27.28220238
 21
-97.01235027
 31
0.0
  0
LINE
  8
0
  6
CENTER
 62
       2
  5
4B
 10
34.33220238
 20
-96.51735027
 30
0.0
 11
9.89720238
 21
-96.51735027
 31
0.0
  0
LINE
  8
0
  6
CONTINUOUS
 62
       7
  5
4C
 10
33.23720238
 20
-92.02735027
 30
0.0
 11
27.28220238
 21
-92.02735027
 31
0.0
  0
LINE
  8
0
  6
CONTINUOUS
 62
       7
  5
4D
 10
33.23720238
 20
-91.02235027
 30
0.0
 11
27.28220238
 21
-91.02235027
 31
0.0
  0
LINE
  8
0
  6
CENTER
 62
       2
  5
4E
 10
34.33220238
 20
-91.51735027
 30
0.0
 11
9.89720238
 21
-91.51735027
 31
0.0
  0
LINE
  8
0
  6
CONTINUOUS
 62
       7
  5
4F
 10
10.03220238
 20
-107.51735027
 30
0.0
 11
11.53220241
 21
-107.51735027
 31
0.0
  0
LINE
  8
0
  6
CONTINUOUS
 62
       7
  5
50
 10
10.03220238
 20
-109.01735027
 30
0.0
 11
-26.96779762
 21
-109.01735027
 31
0.0
  0
LINE
  8
0
  6
CONTINUOUS
 62
       7
  5
51
 10
10.03220238
 20
-79.01735027
 30
0.0
 11
-26.96779762
 21
-79.01735027
 31
0.0
  0
LINE
  8
0
  6
CONTINUOUS
 62
       7
  5
52
 10
10.03220238
 20
-80.51735027
 30
0.0
 11
11.53220241
 21
-80.51735027
 31
0.0
  0
CIRCLE
  8
0
  6
CONTINUOUS
 62
       7
  5
53
 10
2.03220238
 20
-83.51735027
 30
0.0
 40
2.79999924
  0
LINE
  8
0
  6
CONTINUOUS
 62
       7
  5
54
 10
0.97154243
 20
-84.57801072
 30
0.0
 11
3.09286291
 21
-82.45669042
 31
0.0
  0
LINE
  8
0
  6
CONTINUOUS
 62
       7
  5
55
 10
3.0928624
 20
-84.57801064
 30
0.0
 11
0.9715421
 21
-82.45669016
 31
0.0
  0
CIRCLE
  8
0
  6
CONTINUOUS
 62
       7
  5
56
 10
-18.96779762
 20
-104.51735027
 30
0.0
 40
2.79999924
  0
LINE
  8
0
  6
CONTINUOUS
 62
       7
  5
57
 10
-20.02845757
 20
-105.57801072
 30
0.0
 11
-17.90713709
 21
-103.45669042
 31
0.0
  0
LINE
  8
0
  6
CONTINUOUS
 62
       7
  5
58
 10
-17.9071376
 20
-105.57801064
 30
0.0
 11
-20.0284579
 21
-103.45669016
 31
0.0
  0
LINE
  8
0
  6
CENTER
 62
       2
  5
59
 10
-8.46779762
 20
-125.24921594
 30
0.0
 11
-8.46779762
 21
-63.87971901
 31
0.0
  0
ARC
  8
0
  6
CONTINUOUS
 62
       7
  5
5A
 10
131.53402885
 20
-26.00302363
 30
0.0
 40
1.00182826
 50
180.10446583
 51
269.89553417
  0
ARC
  8
0
  6
CONTINUOUS
 62
       7
  5
5B
 10
131.53402686
 20
-26.00302562
 30
0.0
 40
3.00182515
 50
180.03482634
 51
269.96517366
  0
ARC
  8
0
  6
CONTINUOUS
 62
       7
  5
5C
 10
127.53402576
 20
-23.00302677
 30
0.0
 40
0.99817817
 50
359.89533122
 51
90.10466878
  0
ARC
  8
0
  6
CONTINUOUS
 62
       7
  5
5D
 10
99.5346444
 20
-23.00729217
 30
0.0
 40
1.00244489
 50
90.13957058
 51
179.86042942
  0
ARC
  8
0
  6
CONTINUOUS
 62
       7
  5
5E
 10
95.53465349
 20
-26.00730121
 30
0.0
 40
0.99755202
 50
269.85922427
 51
0.14077573
  0
ARC
  8
0
  6
CONTINUOUS
 62
       7
  5
5F
 10
95.53465461
 20
-26.00730233
 30
0.0
 40
2.99754888
 50
269.95313003
 51
0.04686997
  0
LINE
  8
0
  6
CONTINUOUS
 62
       7
  5
60
 10
141.53220218
 20
-27.01735022
 30
0.0
 11
141.53220218
 21
-29.00485021
 31
0.0
  0
LINE
  8
0
  6
CONTINUOUS
 62
       7
  5
61
 10
131.53220225
 20
-29.00485021
 30
0.0
 11
141.53220218
 21
-29.00485021
 31
0.0
  0
LINE
  8
0
  6
CONTINUOUS
 62
       7
  5
62
 10
131.53220225
 20
-27.00485022
 30
0.0
 11
141.53220218
 21
-27.00485022
 31
0.0
  0
LINE
  8
0
  6
CONTINUOUS
 62
       7
  5
63
 10
128.53220227
 20
-23.01735025
 30
0.0
 11
128.53220227
 21
-26.00485023
 31
0.0
  0
LINE
  8
0
  6
CONTINUOUS
 62
       7
  5
64
 10
130.53220225
 20
-23.01735025
 30
0.0
 11
130.53220225
 21
-26.00485023
 31
0.0
  0
LINE
  8
0
  6
CONTINUOUS
 62
       7
  5
65
 10
99.53220248
 20
-22.01735026
 30
0.0
 11
127.53220228
 21
-22.01735026
 31
0.0
  0
LINE
  8
0
  6
CONTINUOUS
 62
       7
  5
66
 10
96.5322025
 20
-23.01735025
 30
0.0
 11
96.5322025
 21
-26.00485023
 31
0.0
  0
LINE
  8
0
  6
CONTINUOUS
 62
       7
  5
67
 10
98.53220248
 20
-23.01735025
 30
0.0
 11
98.53220248
 21
-26.00485023
 31
0.0
  0
LINE
  8
0
  6
CONTINUOUS
 62
       7
  5
68
 10
85.53220258
 20
-27.00485022
 30
0.0
 11
95.53220251
 21
-27.00485022
 31
0.0
  0
LINE
  8
0
  6
CONTINUOUS
 62
       7
  5
69
 10
85.53220258
 20
-29.00485021
 30
0.0
 11
95.53220251
 21
-29.00485021
 31
0.0
  0
LINE
  8
0
  6
CONTINUOUS
 62
       7
  5
6A
 10
85.53220258
 20
-27.01735022
 30
0.0
 11
85.53220258
 21
-29.00485021
 31
0.0
  0
LINE
  8
0
  6
CENTER
 62
       2
  5
6B
 10
136.03220222
 20
-24.64234935
 30
0.0
 11
136.03220222
 21
-31.45484931
 31
0.0
  0
LINE
  8
0
  6
CENTER
 62
       2
  5
6C
 10
91.03220254
 20
-24.64234935
 30
0.0
 11
91.03220254
 21
-31.45484931
 31
0.0
  0
ARC
  8
0
  6
CONTINUOUS
 62
       7
  5
6D
 10
99.53464329
 20
-23.00729107
 30
0.0
 40
3.00244179
 50
90.04657821
 51
179.95342179
  0
ARC
  8
0
  6
CONTINUOUS
 62
       7
  5
6E
 10
127.53402776
 20
-23.00302477
 30
0.0
 40
2.99817505
 50
359.96511468
 51
90.03488532
  0
ARC
  8
0
  6
CONTINUOUS
 62
       7
  5
6F
 10
-92.46597115
 20
-26.00302363
 30
0.0
 40
1.00182826
 50
180.10446583
 51
269.89553417
  0
ARC
  8
0
  6
CONTINUOUS
 62
       7
  5
70
 10
-92.46597314
 20
-26.00302562
 30
0.0
 40
3.00182515
 50
180.03482634
 51
269.96517366
  0
ARC
  8
0
  6
CONTINUOUS
 62
       7
  5
71
 10
-96.46597424
 20
-23.00302677
 30
0.0
 40
0.99817817
 50
359.89533122
 51
90.10466878
  0
ARC
  8
0
  6
CONTINUOUS
 62
       7
  5
72
 10
-124.4653556
 20
-23.00729217
 30
0.0
 40
1.00244489
 50
90.13957058
 51
179.86042942
  0
ARC
  8
0
  6
CONTINUOUS
 62
       7
  5
73
 10
-128.46534651
 20
-26.00730121
 30
0.0
 40
0.99755202
 50
269.85922427
 51
0.14077573
  0
ARC
  8
0
  6
CONTINUOUS
 62
       7
  5
74
 10
-128.46534539
 20
-26.00730233
 30
0.0
 40
2.99754888
 50
269.95313003
 51
0.04686997
  0
LINE
  8
0
  6
CONTINUOUS
 62
       7
  5
75
 10
-82.46779782
 20
-27.01735022
 30
0.0
 11
-82.46779782
 21
-29.00485021
 31
0.0
  0
LINE
  8
0
  6
CONTINUOUS
 62
       7
  5
76
 10
-92.46779775
 20
-29.00485021
 30
0.0
 11
-82.46779782
 21
-29.00485021
 31
0.0
  0
LINE
  8
0
  6
CONTINUOUS
 62
       7
  5
77
 10
-92.46779775
 20
-27.00485022
 30
0.0
 11
-82.46779782
 21
-27.00485022
 31
0.0
  0
LINE
  8
0
  6
CONTINUOUS
 62
       7
  5
78
 10
-95.46779773
 20
-23.01735025
 30
0.0
 11
-95.46779773
 21
-26.00485023
 31
0.0
  0
LINE
  8
0
  6
CONTINUOUS
 62
       7
  5
79
 10
-93.46779775
 20
-23.01735025
 30
0.0
 11
-93.46779775
 21
-26.00485023
 31
0.0
  0
LINE
  8
0
  6
CONTINUOUS
 62
       7
  5
7A
 10
-124.46779752
 20
-22.01735026
 30
0.0
 11
-96.46779772
 21
-22.01735026
 31
0.0
  0
LINE
  8
0
  6
CONTINUOUS
 62
       7
  5
7B
 10
-127.4677975
 20
-23.01735025
 30
0.0
 11
-127.4677975
 21
-26.00485023
 31
0.0
  0
LINE
  8
0
  6
CONTINUOUS
 62
       7
  5
7C
 10
-125.46779752
 20
-23.01735025
 30
0.0
 11
-125.46779752
 21
-26.00485023
 31
0.0
  0
LINE
  8
0
  6
CONTINUOUS
 62
       7
  5
7D
 10
-138.46779742
 20
-27.00485022
 30
0.0
 11
-128.46779749
 21
-27.00485022
 31
0.0
  0
LINE
  8
0
  6
CONTINUOUS
 62
       7
  5
7E
 10
-138.46779742
 20
-29.00485021
 30
0.0
 11
-128.46779749
 21
-29.00485021
 31
0.0
  0
LINE
  8
0
  6
CONTINUOUS
 62
       7
  5
7F
 10
-138.46779742
 20
-27.01735022
 30
0.0
 11
-138.46779742
 21
-29.00485021
 31
0.0
  0
LINE
  8
0
  6
CENTER
 62
       2
  5
80
 10
-87.96779778
 20
-24.64234935
 30
0.0
 11
-87.96779778
 21
-31.45484931
 31
0.0
  0
LINE
  8
0
  6
CENTER
 62
       2
  5
81
 10
-132.96779746
 20
-24.64234935
 30
0.0
 11
-132.96779746
 21
-31.45484931
 31
0.0
  0
ARC
  8
0
  6
CONTINUOUS
 62
       7
  5
82
 10
-124.46535671
 20
-23.00729107
 30
0.0
 40
3.00244179
 50
90.04657821
 51
179.95342179
  0
ARC
  8
0
  6
CONTINUOUS
 62
       7
  5
83
 10
-96.46597224
 20
-23.00302477
 30
0.0
 40
2.99817505
 50
359.96511468
 51
90.03488532
  0
ARC
  8
0
  6
CONTINUOUS
 62
       7
  5
84
 10
100.53220238
 20
-19.51735027
 30
0.0
 40
0.5
 50
180.0
 51
270.0
  0
ARC
  8
0
  6
CONTINUOUS
 62
       7
  5
85
 10
126.53220238
 20
-19.51735027
 30
0.0
 40
0.5
 50
-90.0
 51
0.0
  0
LINE
  8
0
  6
CONTINUOUS
 62
       7
  5
86
 10
126.53220238
 20
-20.01735027
 30
0.0
 11
100.53220238
 21
-20.01735027
 31
0.0
  0
ARC
  8
0
  6
CONTINUOUS
 62
       7
  5
87
 10
-27.96779762
 20
-19.51734991
 30
0.0
 40
0.5
 50
180.0
 51
270.0
  0
ARC
  8
0
  6
CONTINUOUS
 62
       7
  5
88
 10
11.03220238
 20
-19.51734991
 30
0.0
 40
0.5
 50
270.0
 51
0.0
  0
LINE
  8
0
  6
CONTINUOUS
 62
       7
  5
89
 10
11.03220238
 20
-20.01734991
 30
0.0
 11
-27.96779762
 21
-20.01734991
 31
0.0
  0
ARC
  8
0
  6
CONTINUOUS
 62
       7
  5
8A
 10
-123.46779762
 20
-19.51735027
 30
0.0
 40
0.5
 50
180.0
 51
270.0
  0
ARC
  8
0
  6
CONTINUOUS
 62
       7
  5
8B
 10
-97.46779762
 20
-19.51735027
 30
0.0
 40
0.5
 50
270.0
 51
0.0
  0
LINE
  8
0
  6
CONTINUOUS
 62
       7
  5
8C
 10
-124.46779752
 20
-20.01735027
 30
0.0
 11
-96.46779772
 21
-20.01735027
 31
0.0
  0
LINE
  8
0
  6
CENTER
 62
       2
  5
8D
 10
109.64470238
 20
63.48264973
 30
0.0
 11
117.04470238
 21
63.48264973
 31
0.0
  0
LINE
  8
0
  6
CONTINUOUS
 62
       7
  5
8E
 10
127.03220238
 20
49.98264973
 30
0.0
 11
100.03220238
 21
49.98264973
 31
0.0
  0
LINE
  8
0
  6
CONTINUOUS
 62
       7
  5
8F
 10
103.53220238
 20
95.98264973
 30
0.0
 11
103.53220238
 21
96.18264973
 31
0.0
  0
LINE
  8
0
  6
CONTINUOUS
 62
       7
  5
90
 10
103.53220238
 20
96.18264973
 30
0.0
 11
104.33220238
 21
96.98264973
 31
0.0
  0
LINE
  8
0
  6
CONTINUOUS
 62
       7
  5
91
 10
127.03220238
 20
95.98264973
 30
0.0
 11
100.03220238
 21
95.98264973
 31
0.0
  0
LINE
  8
0
  6
CONTINUOUS
 62
       7
  5
92
 10
104.33220238
 20
96.98264973
 30
0.0
 11
122.73220238
 21
96.98264973
 31
0.0
  0
LINE
  8
0
  6
CONTINUOUS
 62
       7
  5
93
 10
123.53220238
 20
96.18264973
 30
0.0
 11
122.73220238
 21
96.98264973
 31
0.0
  0
LINE
  8
0
  6
CONTINUOUS
 62
       7
  5
94
 10
123.53220238
 20
95.98264973
 30
0.0
 11
123.53220238
 21
96.18264973
 31
0.0
  0
LINE
  8
0
  6
CONTINUOUS
 62
       7
  5
95
 10
100.03220238
 20
-19.51735027
 30
0.0
 11
100.03220238
 21
95.98264973
 31
0.0
  0
LINE
  8
0
  6
CONTINUOUS
 62
       7
  5
96
 10
127.03220238
 20
-19.51735027
 30
0.0
 11
127.03220238
 21
95.98264973
 31
0.0
  0
LINE
  8
0
  6
CONTINUOUS
 62
       7
  5
97
 10
100.03220238
 20
66.48264973
 30
0.0
 11
127.03220238
 21
66.48264973
 31
0.0
  0
LINE
  8
0
  6
CENTER
 62
       2
  5
98
 10
113.53220238
 20
-24.01735027
 30
0.0
 11
113.53220238
 21
102.99492348
 31
0.0
  0
LINE
  8
0
  6
CONTINUOUS
 62
       7
  5
99
 10
100.03220238
 20
-14.01735027
 30
0.0
 11
127.03220238
 21
-14.01735027
 31
0.0
  0
LINE
  8
0
  6
CENTER
 62
       2
  5
9A
 10
120.89470238
 20
40.98264973
 30
0.0
 11
104.9541314
 21
40.98264973
 31
0.0
  0
LINE
  8
0
  6
CENTER
 62
       2
  5
9B
 10
123.25720238
 20
17.98264973
 30
0.0
 11
103.08453534
 21
17.98264973
 31
0.0
  0
LINE
  8
0
  6
CENTER
 62
       2
  5
9C
 10
120.83220238
 20
-5.01735027
 30
0.0
 11
104.9541314
 21
-5.01735027
 31
0.0
  0
LINE
  8
0
  6
CENTER
 62
       2
  5
9D
 10
103.03220238
 20
9.3800199
 30
0.0
 11
103.03220238
 21
16.62470463
 31
0.0
  0
LINE
  8
0
  6
CENTER
 62
       2
  5
9E
 10
98.99479396
 20
12.98264973
 30
0.0
 11
106.7068777
 21
12.98264973
 31
0.0
  0
LINE
  8
0
  6
CENTER
 62
       2
  5
9F
 10
120.37829889
 20
22.98264973
 30
0.0
 11
127.50613387
 21
22.98264973
 31
0.0
  0
LINE
  8
0
  6
CENTER
 62
       2
  5
A0
 10
124.03220238
 20
19.66279823
 30
0.0
 11
124.03220238
 21
26.5569337
 31
0.0
  0
LINE
  8
0
  6
CENTER
 62
       2
  5
A1
 10
121.20598465
 20
83.23264973
 30
0.0
 11
105.7117073
 21
83.23264973
 31
0.0
  0
LINE
  8
0
  6
CONTINUOUS
 62
       7
  5
A2
 10
111.03220238
 20
86.73264973
 30
0.0
 11
116.03220238
 21
86.73264973
 31
0.0
  0
LINE
  8
0
  6
CONTINUOUS
 62
       7
  5
A3
 10
111.03220238
 20
79.73264973
 30
0.0
 11
116.03220238
 21
79.73264973
 31
0.0
  0
CIRCLE
  8
0
  6
CONTINUOUS
 62
       7
  5
A4
 10
113.53738884
 20
63.48698246
 30
0.0
 40
2.65000105
  0
CIRCLE
  8
0
  6
CONTINUOUS
 62
       7
  5
A5
 10
113.53738884
 20
40.98698246
 30
0.0
 40
5.49999952
  0
CIRCLE
  8
0
  6
CONTINUOUS
 62
       2
  5
A6
 10
113.53738884
 20
40.98698246
 30
0.0
 40
6.49999976
  0
CIRCLE
  8
0
  6
CONTINUOUS
 62
       7
  5
A7
 10
113.53738884
 20
-5.01300228
 30
0.0
 40
5.49999952
  0
CIRCLE
  8
0
  6
CONTINUOUS
 62
       2
  5
A8
 10
113.53738884
 20
-5.01300228
 30
0.0
 40
6.49999976
  0
CIRCLE
  8
0
  6
CONTINUOUS
 62
       7
  5
A9
 10
103.03739647
 20
12.98697101
 30
0.0
 40
2.19999909
  0
CIRCLE
  8
0
  6
CONTINUOUS
 62
       7
  5
AA
 10
124.03740028
 20
22.98697101
 30
0.0
 40
2.19999909
  0
ARC
  8
0
  6
CONTINUOUS
 62
       7
  5
AB
 10
116.03220238
 20
83.23264973
 30
0.0
 40
3.50000384
 50
270.0
 51
90.0
  0
CIRCLE
  8
0
  6
CONTINUOUS
 62
       7
  5
AC
 10
116.03738884
 20
83.23698627
 30
0.0
 40
1.24999993
  0
CIRCLE
  8
0
  6
CONTINUOUS
 62
       7
  5
AD
 10
111.03738884
 20
83.23698627
 30
0.0
 40
1.24999993
  0
ARC
  8
0
  6
CONTINUOUS
 62
       7
  5
AE
 10
111.03220238
 20
83.23264973
 30
0.0
 40
3.50000384
 50
90.0
 51
270.0
  0
INSERT
  8
0
  6
CONTINUOUS
 62
       7
  5
B8
  2
*X0
 10
0.0
 20
0.0
 30
0.0
  0
INSERT
  8
0
  6
CONTINUOUS
 62
       7
  5
C3
  2
*X1
 10
0.0
 20
0.0
 30
0.0
  0
INSERT
  8
0
  6
CONTINUOUS
 62
       7
  5
CE
  2
*X2
 10
0.0
 20
0.0
 30
0.0
  0
INSERT
  8
0
  6
CONTINUOUS
 62
       7
  5
D9
  2
*X3
 10
0.0
 20
0.0
 30
0.0
  0
LINE
  8
0
  6
CENTER
 62
       2
  5
DA
 10
-8.46779762
 20
-24.01735027
 30
0.0
 11
-8.46779762
 21
99.30765009
 31
0.0
  0
LINE
  8
0
  6
CONTINUOUS
 62
       7
  5
DB
 10
11.53220238
 20
66.48265009
 30
0.0
 11
-28.46779762
 21
66.48265009
 31
0.0
  0
LINE
  8
0
  6
CONTINUOUS
 62
       7
  5
DC
 10
11.53220238
 20
-19.51734991
 30
0.0
 11
11.53220238
 21
81.98265009
 31
0.0
  0
LINE
  8
0
  6
CONTINUOUS
 62
       7
  5
DD
 10
11.53220238
 20
-14.01734991
 30
0.0
 11
-28.46779762
 21
-14.01734991
 31
0.0
  0
LINE
  8
0
  6
CENTER
 62
       2
  5
DE
 10
3.53220238
 20
8.93004425
 30
0.0
 11
3.53220238
 21
3.14515009
 31
0.0
  0
LINE
  8
0
  6
CENTER
 62
       2
  5
DF
 10
6.44470238
 20
5.98265009
 30
0.0
 11
0.50619108
 21
5.98265009
 31
0.0
  0
LINE
  8
0
  6
CENTER
 62
       2
  5
E0
 10
-23.51672174
 20
17.98265009
 30
0.0
 11
-17.63029762
 21
17.98265009
 31
0.0
  0
LINE
  8
0
  6
CENTER
 62
       2
  5
E1
 10
-20.46779762
 20
21.16969758
 30
0.0
 11
-20.46779762
 21
15.09515009
 31
0.0
  0
LINE
  8
0
  6
CONTINUOUS
 62
       7
  5
E2
 10
11.53220238
 20
95.98264973
 30
0.0
 11
-28.46779762
 21
95.98264973
 31
0.0
  0
LINE
  8
0
  6
CONTINUOUS
 62
       7
  5
E3
 10
14.03220238
 20
81.98265009
 30
0.0
 11
11.53220238
 21
81.98265009
 31
0.0
  0
LINE
  8
0
  6
CONTINUOUS
 62
       7
  5
E4
 10
14.53220238
 20
82.48265009
 30
0.0
 11
14.53220238
 21
85.73265009
 31
0.0
  0
LINE
  8
0
  6
CONTINUOUS
 62
       7
  5
E5
 10
11.53220238
 20
81.98265009
 30
0.0
 11
11.53220238
 21
95.98264973
 31
0.0
  0
LINE
  8
0
  6
CONTINUOUS
 62
       7
  5
E6
 10
14.03220238
 20
86.98265009
 30
0.0
 11
11.53220238
 21
86.98265009
 31
0.0
  0
LINE
  8
0
  6
CONTINUOUS
 62
       7
  5
E7
 10
14.53220238
 20
86.48265009
 30
0.0
 11
14.53220238
 21
85.73265009
 31
0.0
  0
LINE
  8
0
  6
CENTER
 62
       2
  5
E8
 10
39.026497
 20
84.48265009
 30
0.0
 11
9.15720238
 21
84.48265009
 31
0.0
  0
LINE
  8
0
  6
CONTINUOUS
 62
       7
  5
E9
 10
30.95720238
 20
83.23265009
 30
0.0
 11
28.55720238
 21
83.23265009
 31
0.0
  0
LINE
  8
0
  6
CONTINUOUS
 62
       7
  5
EA
 10
30.86970238
 20
85.73265009
 30
0.0
 11
28.06970238
 21
85.73265009
 31
0.0
  0
LINE
  8
0
  6
CONTINUOUS
 62
       7
  5
EB
 10
26.55720238
 20
83.23265009
 30
0.0
 11
14.53220238
 21
83.23265009
 31
0.0
  0
LINE
  8
0
  6
CONTINUOUS
 62
       7
  5
EC
 10
26.06970238
 20
85.73265009
 30
0.0
 11
14.53220238
 21
85.73265009
 31
0.0
  0
LINE
  8
0
  6
CONTINUOUS
 62
       7
  5
ED
 10
30.86970238
 20
83.23265009
 30
0.0
 11
30.86970238
 21
85.73265009
 31
0.0
  0
LINE
  8
0
  6
CONTINUOUS
 62
       7
  5
EE
 10
35.86970238
 20
84.98265009
 30
0.0
 11
30.86970238
 21
84.98265009
 31
0.0
  0
LINE
  8
0
  6
CONTINUOUS
 62
       7
  5
EF
 10
35.86970238
 20
83.98265009
 30
0.0
 11
30.86970238
 21
83.98265009
 31
0.0
  0
LINE
  8
0
  6
CONTINUOUS
 62
       7
  5
F0
 10
35.86970238
 20
83.98265009
 30
0.0
 11
35.86970238
 21
84.98265009
 31
0.0
  0
LINE
  8
0
  6
CONTINUOUS
 62
       7
  5
F1
 10
-28.46779762
 20
-19.51734991
 30
0.0
 11
-28.46779762
 21
95.98264973
 31
0.0
  0
LINE
  8
0
  6
CONTINUOUS
 62
       7
  5
F2
 10
-28.46779762
 20
49.98265009
 30
0.0
 11
11.53220238
 21
49.98265009
 31
0.0
  0
LINE
  8
0
  6
CONTINUOUS
 62
       7
  5
F3
 10
-17.66779762
 20
96.98264973
 30
0.0
 11
0.73220238
 21
96.98264973
 31
0.0
  0
LINE
  8
0
  6
CONTINUOUS
 62
       7
  5
F4
 10
-18.46779762
 20
96.18264973
 30
0.0
 11
-17.66779762
 21
96.98264973
 31
0.0
  0
LINE
  8
0
  6
CONTINUOUS
 62
       7
  5
F5
 10
1.53220238
 20
96.18264973
 30
0.0
 11
0.73220238
 21
96.98264973
 31
0.0
  0
LINE
  8
0
  6
CONTINUOUS
 62
       7
  5
F6
 10
-18.46779762
 20
95.98264973
 30
0.0
 11
-18.46779762
 21
96.18264973
 31
0.0
  0
LINE
  8
0
  6
CONTINUOUS
 62
       7
  5
F7
 10
1.53220238
 20
95.98264973
 30
0.0
 11
1.53220238
 21
96.18264973
 31
0.0
  0
LINE
  8
0
  6
CONTINUOUS
 62
       7
  5
F8
 10
-28.46779762
 20
15.63265009
 30
0.0
 11
-25.46779762
 21
15.63265009
 31
0.0
  0
LINE
  8
0
  6
CONTINUOUS
 62
       7
  5
F9
 10
-28.46779762
 20
10.33265009
 30
0.0
 11
-25.46779762
 21
10.33265009
 31
0.0
  0
LINE
  8
0
  6
CONTINUOUS
 62
       7
  5
FA
 10
-25.46779762
 20
10.33265009
 30
0.0
 11
-25.46779762
 21
15.63265009
 31
0.0
  0
LINE
  8
0
  6
CONTINUOUS
 62
       7
  5
FB
 10
-15.46779762
 20
91.48264973
 30
0.0
 11
-22.46779762
 21
91.48264973
 31
0.0
  0
LINE
  8
0
  6
CONTINUOUS
 62
       7
  5
FC
 10
-15.46779762
 20
91.48264973
 30
0.0
 11
-15.46779762
 21
95.98264973
 31
0.0
  0
LINE
  8
0
  6
CONTINUOUS
 62
       7
  5
FD
 10
-22.46779762
 20
91.48264973
 30
0.0
 11
-22.46779762
 21
95.98264973
 31
0.0
  0
LINE
  8
0
  6
CONTINUOUS
 62
       7
  5
FE
 10
-15.46779762
 20
92.48264973
 30
0.0
 11
-22.46779762
 21
92.48264973
 31
0.0
  0
LINE
  8
0
  6
CONTINUOUS
 62
       7
  5
FF
 10
-17.96779762
 20
95.18264973
 30
0.0
 11
-19.96779762
 21
95.18264973
 31
0.0
  0
LINE
  8
0
  6
CENTER
 62
       2
  5
100
 10
-18.96779762
 20
90.04514973
 30
0.0
 11
-18.96779762
 21
96.68264973
 31
0.0
  0
CIRCLE
  8
0
  6
CONTINUOUS
 62
       7
  5
101
 10
3.53740028
 20
5.98698282
 30
0.0
 40
2.19999909
  0
CIRCLE
  8
0
  6
CONTINUOUS
 62
       7
  5
102
 10
-20.4625959
 20
17.98699045
 30
0.0
 40
2.19999909
  0
ARC
  8
0
  6
CONTINUOUS
 62
       7
  5
103
 10
14.03261985
 20
82.48223262
 30
0.0
 40
0.4995827
 50
269.95212145
 51
0.04787855
  0
ARC
  8
0
  6
CONTINUOUS
 62
       7
  5
104
 10
14.03696941
 20
86.48741712
 30
0.0
 40
0.49525591
 50
359.44849721
 51
90.55150279
  0
ARC
  8
0
  6
CONTINUOUS
 62
       7
  5
105
 10
-19.96736355
 20
92.68221565
 30
0.0
 40
2.50043411
 50
90.00994654
 51
179.99005346
  0
ARC
  8
0
  6
CONTINUOUS
 62
       7
  5
106
 10
-17.96303882
 20
92.68740852
 30
0.0
 40
2.49524574
 50
359.89072849
 51
90.10927151
  0
POLYLINE
  8
0
  6
CONTINUOUS
 62
       7
  5
107
 66
       1
 10
0.0
 20
0.0
 30
0.0
  0
VERTEX
  8
0
  6
CONTINUOUS
 62
       7
  5
220
 10
27.78220238
 20
82.64515009
 30
0.0
  0
VERTEX
  8
0
  6
CONTINUOUS
 62
       7
  5
221
 10
27.8747952
 20
82.69972934
 30
0.0
  0
VERTEX
  8
0
  6
CONTINUOUS
 62
       7
  5
222
 10
27.97117635
 20
82.75987758
 30
0.0
  0
VERTEX
  8
0
  6
CONTINUOUS
 62
       7
  5
223
 10
28.06983049
 20
82.82509652
 30
0.0
  0
VERTEX
  8
0
  6
CONTINUOUS
 62
       7
  5
224
 10
28.16924231
 20
82.89488786
 30
0.0
  0
VERTEX
  8
0
  6
CONTINUOUS
 62
       7
  5
225
 10
28.26789646
 20
82.96875329
 30
0.0
  0
VERTEX
  8
0
  6
CONTINUOUS
 62
       7
  5
226
 10
28.36427763
 20
83.04619453
 30
0.0
  0
VERTEX
  8
0
  6
CONTINUOUS
 62
       7
  5
227
 10
28.45687047
 20
83.12671326
 30
0.0
  0
VERTEX
  8
0
  6
CONTINUOUS
 62
       7
  5
228
 10
28.54415967
 20
83.2098112
 30
0.0
  0
VERTEX
  8
0
  6
CONTINUOUS
 62
       7
  5
229
 10
28.62462988
 20
83.29499004
 30
0.0
  0
VERTEX
  8
0
  6
CONTINUOUS
 62
       7
  5
22A
 10
28.69676579
 20
83.38175148
 30
0.0
  0
VERTEX
  8
0
  6
CONTINUOUS
 62
       7
  5
22B
 10
28.75905207
 20
83.46959723
 30
0.0
  0
VERTEX
  8
0
  6
CONTINUOUS
 62
       7
  5
22C
 10
28.80997338
 20
83.55802898
 30
0.0
  0
VERTEX
  8
0
  6
CONTINUOUS
 62
       7
  5
22D
 10
28.84801439
 20
83.64654845
 30
0.0
  0
VERTEX
  8
0
  6
CONTINUOUS
 62
       7
  5
22E
 10
28.87165978
 20
83.73465732
 30
0.0
  0
VERTEX
  8
0
  6
CONTINUOUS
 62
       7
  5
22F
 10
28.87939422
 20
83.8218573
 30
0.0
  0
VERTEX
  8
0
  6
CONTINUOUS
 62
       7
  5
230
 10
28.86970238
 20
83.90765009
 30
0.0
  0
VERTEX
  8
0
  6
CONTINUOUS
 62
       7
  5
231
 10
28.84219071
 20
83.99036913
 30
0.0
  0
VERTEX
  8
0
  6
CONTINUOUS
 62
       7
  5
232
 10
28.79846664
 20
84.07145125
 30
0.0
  0
VERTEX
  8
0
  6
CONTINUOUS
 62
       7
  5
233
 10
28.74089298
 20
84.15111596
 30
0.0
  0
VERTEX
  8
0
  6
CONTINUOUS
 62
       7
  5
234
 10
28.67183253
 20
84.22958277
 30
0.0
  0
VERTEX
  8
0
  6
CONTINUOUS
 62
       7
  5
235
 10
28.59364811
 20
84.30707118
 30
0.0
  0
VERTEX
  8
0
  6
CONTINUOUS
 62
       7
  5
236
 10
28.50870254
 20
84.38380072
 30
0.0
  0
VERTEX
  8
0
  6
CONTINUOUS
 62
       7
  5
237
 10
28.41935863
 20
84.45999089
 30
0.0
  0
VERTEX
  8
0
  6
CONTINUOUS
 62
       7
  5
238
 10
28.3279792
 20
84.5358612
 30
0.0
  0
VERTEX
  8
0
  6
CONTINUOUS
 62
       7
  5
239
 10
28.23692705
 20
84.61163117
 30
0.0
  0
VERTEX
  8
0
  6
CONTINUOUS
 62
       7
  5
23A
 10
28.148565
 20
84.68752029
 30
0.0
  0
VERTEX
  8
0
  6
CONTINUOUS
 62
       7
  5
23B
 10
28.06525587
 20
84.76374809
 30
0.0
  0
VERTEX
  8
0
  6
CONTINUOUS
 62
       7
  5
23C
 10
27.98936246
 20
84.84053408
 30
0.0
  0
VERTEX
  8
0
  6
CONTINUOUS
 62
       7
  5
23D
 10
27.92324759
 20
84.91809776
 30
0.0
  0
VERTEX
  8
0
  6
CONTINUOUS
 62
       7
  5
23E
 10
27.86927408
 20
84.99665865
 30
0.0
  0
VERTEX
  8
0
  6
CONTINUOUS
 62
       7
  5
23F
 10
27.82980474
 20
85.07643626
 30
0.0
  0
VERTEX
  8
0
  6
CONTINUOUS
 62
       7
  5
240
 10
27.80720238
 20
85.15765009
 30
0.0
  0
VERTEX
  8
0
  6
CONTINUOUS
 62
       7
  5
241
 10
27.80287518
 20
85.23662645
 30
0.0
  0
VERTEX
  8
0
  6
CONTINUOUS
 62
       7
  5
242
 10
27.81450303
 20
85.31673206
 30
0.0
  0
VERTEX
  8
0
  6
CONTINUOUS
 62
       7
  5
243
 10
27.84068795
 20
85.39752203
 30
0.0
  0
VERTEX
  8
0
  6
CONTINUOUS
 62
       7
  5
244
 10
27.88003195
 20
85.4785515
 30
0.0
  0
VERTEX
  8
0
  6
CONTINUOUS
 62
       7
  5
245
 10
27.93113705
 20
85.55937558
 30
0.0
  0
VERTEX
  8
0
  6
CONTINUOUS
 62
       7
  5
246
 10
27.99260527
 20
85.6395494
 30
0.0
  0
VERTEX
  8
0
  6
CONTINUOUS
 62
       7
  5
247
 10
28.06303861
 20
85.71862808
 30
0.0
  0
VERTEX
  8
0
  6
CONTINUOUS
 62
       7
  5
248
 10
28.14103911
 20
85.79616673
 30
0.0
  0
VERTEX
  8
0
  6
CONTINUOUS
 62
       7
  5
249
 10
28.22520877
 20
85.8717205
 30
0.0
  0
VERTEX
  8
0
  6
CONTINUOUS
 62
       7
  5
24A
 10
28.31414961
 20
85.94484449
 30
0.0
  0
VERTEX
  8
0
  6
CONTINUOUS
 62
       7
  5
24B
 10
28.40646364
 20
86.01509383
 30
0.0
  0
VERTEX
  8
0
  6
CONTINUOUS
 62
       7
  5
24C
 10
28.5007529
 20
86.08202365
 30
0.0
  0
VERTEX
  8
0
  6
CONTINUOUS
 62
       7
  5
24D
 10
28.59561938
 20
86.14518906
 30
0.0
  0
VERTEX
  8
0
  6
CONTINUOUS
 62
       7
  5
24E
 10
28.68966511
 20
86.20414519
 30
0.0
  0
VERTEX
  8
0
  6
CONTINUOUS
 62
       7
  5
24F
 10
28.7814921
 20
86.25844715
 30
0.0
  0
VERTEX
  8
0
  6
CONTINUOUS
 62
       7
  5
250
 10
28.86970238
 20
86.30765009
 30
0.0
  0
SEQEND
  8
0
  6
CONTINUOUS
 62
       7
  5
251
  0
POLYLINE
  8
0
  6
CONTINUOUS
 62
       7
  5
108
 66
       1
 10
0.0
 20
0.0
 30
0.0
  0
VERTEX
  8
0
  6
CONTINUOUS
 62
       7
  5
252
 10
25.78220238
 20
82.64515009
 30
0.0
  0
VERTEX
  8
0
  6
CONTINUOUS
 62
       7
  5
253
 10
25.87479521
 20
82.69972934
 30
0.0
  0
VERTEX
  8
0
  6
CONTINUOUS
 62
       7
  5
254
 10
25.97117638
 20
82.75987759
 30
0.0
  0
VERTEX
  8
0
  6
CONTINUOUS
 62
       7
  5
255
 10
26.06983053
 20
82.82509653
 30
0.0
  0
VERTEX
  8
0
  6
CONTINUOUS
 62
       7
  5
256
 10
26.16924235
 20
82.89488787
 30
0.0
  0
VERTEX
  8
0
  6
CONTINUOUS
 62
       7
  5
257
 10
26.26789651
 20
82.9687533
 30
0.0
  0
VERTEX
  8
0
  6
CONTINUOUS
 62
       7
  5
258
 10
26.36427768
 20
83.04619453
 30
0.0
  0
VERTEX
  8
0
  6
CONTINUOUS
 62
       7
  5
259
 10
26.45687052
 20
83.12671326
 30
0.0
  0
VERTEX
  8
0
  6
CONTINUOUS
 62
       7
  5
25A
 10
26.54415971
 20
83.20981119
 30
0.0
  0
VERTEX
  8
0
  6
CONTINUOUS
 62
       7
  5
25B
 10
26.62462993
 20
83.29499003
 30
0.0
  0
VERTEX
  8
0
  6
CONTINUOUS
 62
       7
  5
25C
 10
26.69676583
 20
83.38175147
 30
0.0
  0
VERTEX
  8
0
  6
CONTINUOUS
 62
       7
  5
25D
 10
26.7590521
 20
83.46959721
 30
0.0
  0
VERTEX
  8
0
  6
CONTINUOUS
 62
       7
  5
25E
 10
26.80997341
 20
83.55802897
 30
0.0
  0
VERTEX
  8
0
  6
CONTINUOUS
 62
       7
  5
25F
 10
26.84801441
 20
83.64654843
 30
0.0
  0
VERTEX
  8
0
  6
CONTINUOUS
 62
       7
  5
260
 10
26.8716598
 20
83.7346573
 30
0.0
  0
VERTEX
  8
0
  6
CONTINUOUS
 62
       7
  5
261
 10
26.87939423
 20
83.82185729
 30
0.0
  0
VERTEX
  8
0
  6
CONTINUOUS
 62
       7
  5
262
 10
26.86970238
 20
83.90765009
 30
0.0
  0
VERTEX
  8
0
  6
CONTINUOUS
 62
       7
  5
263
 10
26.84219071
 20
83.99036914
 30
0.0
  0
VERTEX
  8
0
  6
CONTINUOUS
 62
       7
  5
264
 10
26.79846663
 20
84.07145127
 30
0.0
  0
VERTEX
  8
0
  6
CONTINUOUS
 62
       7
  5
265
 10
26.74089296
 20
84.15111598
 30
0.0
  0
VERTEX
  8
0
  6
CONTINUOUS
 62
       7
  5
266
 10
26.67183251
 20
84.22958279
 30
0.0
  0
VERTEX
  8
0
  6
CONTINUOUS
 62
       7
  5
267
 10
26.5936481
 20
84.30707121
 30
0.0
  0
VERTEX
  8
0
  6
CONTINUOUS
 62
       7
  5
268
 10
26.50870253
 20
84.38380075
 30
0.0
  0
VERTEX
  8
0
  6
CONTINUOUS
 62
       7
  5
269
 10
26.41935862
 20
84.45999093
 30
0.0
  0
VERTEX
  8
0
  6
CONTINUOUS
 62
       7
  5
26A
 10
26.32797918
 20
84.53586124
 30
0.0
  0
VERTEX
  8
0
  6
CONTINUOUS
 62
       7
  5
26B
 10
26.23692703
 20
84.6116312
 30
0.0
  0
VERTEX
  8
0
  6
CONTINUOUS
 62
       7
  5
26C
 10
26.14856499
 20
84.68752032
 30
0.0
  0
VERTEX
  8
0
  6
CONTINUOUS
 62
       7
  5
26D
 10
26.06525585
 20
84.76374812
 30
0.0
  0
VERTEX
  8
0
  6
CONTINUOUS
 62
       7
  5
26E
 10
25.98936245
 20
84.84053411
 30
0.0
  0
VERTEX
  8
0
  6
CONTINUOUS
 62
       7
  5
26F
 10
25.92324758
 20
84.91809778
 30
0.0
  0
VERTEX
  8
0
  6
CONTINUOUS
 62
       7
  5
270
 10
25.86927408
 20
84.99665866
 30
0.0
  0
VERTEX
  8
0
  6
CONTINUOUS
 62
       7
  5
271
 10
25.82980474
 20
85.07643626
 30
0.0
  0
VERTEX
  8
0
  6
CONTINUOUS
 62
       7
  5
272
 10
25.80720238
 20
85.15765009
 30
0.0
  0
VERTEX
  8
0
  6
CONTINUOUS
 62
       7
  5
273
 10
25.80287518
 20
85.23662644
 30
0.0
  0
VERTEX
  8
0
  6
CONTINUOUS
 62
       7
  5
274
 10
25.81450303
 20
85.31673204
 30
0.0
  0
VERTEX
  8
0
  6
CONTINUOUS
 62
       7
  5
275
 10
25.84068794
 20
85.39752201
 30
0.0
  0
VERTEX
  8
0
  6
CONTINUOUS
 62
       7
  5
276
 10
25.88003194
 20
85.47855147
 30
0.0
  0
VERTEX
  8
0
  6
CONTINUOUS
 62
       7
  5
277
 10
25.93113703
 20
85.55937555
 30
0.0
  0
VERTEX
  8
0
  6
CONTINUOUS
 62
       7
  5
278
 10
25.99260523
 20
85.63954936
 30
0.0
  0
VERTEX
  8
0
  6
CONTINUOUS
 62
       7
  5
279
 10
26.06303857
 20
85.71862803
 30
0.0
  0
VERTEX
  8
0
  6
CONTINUOUS
 62
       7
  5
27A
 10
26.14103906
 20
85.79616669
 30
0.0
  0
VERTEX
  8
0
  6
CONTINUOUS
 62
       7
  5
27B
 10
26.22520871
 20
85.87172045
 30
0.0
  0
VERTEX
  8
0
  6
CONTINUOUS
 62
       7
  5
27C
 10
26.31414955
 20
85.94484445
 30
0.0
  0
VERTEX
  8
0
  6
CONTINUOUS
 62
       7
  5
27D
 10
26.40646358
 20
86.01509379
 30
0.0
  0
VERTEX
  8
0
  6
CONTINUOUS
 62
       7
  5
27E
 10
26.50075284
 20
86.08202361
 30
0.0
  0
VERTEX
  8
0
  6
CONTINUOUS
 62
       7
  5
27F
 10
26.59561933
 20
86.14518902
 30
0.0
  0
VERTEX
  8
0
  6
CONTINUOUS
 62
       7
  5
280
 10
26.68966507
 20
86.20414516
 30
0.0
  0
VERTEX
  8
0
  6
CONTINUOUS
 62
       7
  5
281
 10
26.78149208
 20
86.25844714
 30
0.0
  0
VERTEX
  8
0
  6
CONTINUOUS
 62
       7
  5
282
 10
26.86970238
 20
86.30765009
 30
0.0
  0
SEQEND
  8
0
  6
CONTINUOUS
 62
       7
  5
283
  0
LINE
  8
0
  6
CONTINUOUS
 62
       7
  5
109
 10
-123.96779762
 20
49.98264973
 30
0.0
 11
-96.96779762
 21
49.98264973
 31
0.0
  0
LINE
  8
0
  6
CONTINUOUS
 62
       7
  5
10A
 10
-100.46779762
 20
95.98264973
 30
0.0
 11
-100.46779762
 21
96.18264973
 31
0.0
  0
LINE
  8
0
  6
CONTINUOUS
 62
       7
  5
10B
 10
-100.46779762
 20
96.18264973
 30
0.0
 11
-101.26779762
 21
96.98264973
 31
0.0
  0
LINE
  8
0
  6
CONTINUOUS
 62
       7
  5
10C
 10
-123.96779762
 20
95.98264973
 30
0.0
 11
-96.96779762
 21
95.98264973
 31
0.0
  0
LINE
  8
0
  6
CONTINUOUS
 62
       7
  5
10D
 10
-119.66779762
 20
96.98264973
 30
0.0
 11
-101.26779762
 21
96.98264973
 31
0.0
  0
LINE
  8
0
  6
CONTINUOUS
 62
       7
  5
10E
 10
-120.46779762
 20
96.18264973
 30
0.0
 11
-119.66779762
 21
96.98264973
 31
0.0
  0
LINE
  8
0
  6
CONTINUOUS
 62
       7
  5
10F
 10
-120.46779762
 20
95.98264973
 30
0.0
 11
-120.46779762
 21
96.18264973
 31
0.0
  0
LINE
  8
0
  6
CONTINUOUS
 62
       7
  5
110
 10
-96.96779762
 20
-19.51735027
 30
0.0
 11
-96.96779762
 21
95.98264973
 31
0.0
  0
LINE
  8
0
  6
CONTINUOUS
 62
       7
  5
111
 10
-123.96779762
 20
-19.51735027
 30
0.0
 11
-123.96779762
 21
95.98264973
 31
0.0
  0
LINE
  8
0
  6
CONTINUOUS
 62
       7
  5
112
 10
-96.96779762
 20
-14.01735027
 30
0.0
 11
-123.96779762
 21
-14.01735027
 31
0.0
  0
LINE
  8
0
  6
CONTINUOUS
 62
       7
  5
113
 10
-96.96779762
 20
66.48264973
 30
0.0
 11
-123.96779762
 21
66.48264973
 31
0.0
  0
LINE
  8
0
  6
CENTER
 62
       2
  5
114
 10
-120.55529762
 20
31.48264973
 30
0.0
 11
-100.41779762
 21
31.48264973
 31
0.0
  0
LINE
  8
0
  6
CENTER
 62
       2
  5
115
 10
-120.14279762
 20
4.48264973
 30
0.0
 11
-99.18029762
 21
4.48264973
 31
0.0
  0
LINE
  8
0
  6
CENTER
 62
       2
  5
116
 10
-95.48410795
 20
12.98264973
 30
0.0
 11
-105.06779762
 21
12.98264973
 31
0.0
  0
LINE
  8
0
  6
CENTER
 62
       2
  5
117
 10
-114.98438435
 20
22.98264973
 30
0.0
 11
-123.96779762
 21
22.98264973
 31
0.0
  0
LINE
  8
0
  6
CENTER
 62
       2
  5
118
 10
-99.96779762
 20
8.12014973
 30
0.0
 11
-99.96779762
 21
19.83568022
 31
0.0
  0
LINE
  8
0
  6
CENTER
 62
       2
  5
119
 10
-120.96779762
 20
18.40764973
 30
0.0
 11
-120.96779762
 21
29.07265326
 31
0.0
  0
CIRCLE
  8
0
  6
CONTINUOUS
 62
       7
  5
11A
 10
-120.97508446
 20
22.98697101
 30
0.0
 40
2.19999909
  0
ARC
  8
0
  6
CONTINUOUS
 62
       7
  5
11B
 10
-120.97508271
 20
22.98264973
 30
0.0
 40
3.99735444
 50
221.52436338
 51
138.47563662
  0
ARC
  8
0
  6
CONTINUOUS
 62
       7
  5
11C
 10
-99.97508239
 20
12.98264973
 30
0.0
 40
4.00827415
 50
41.38629506
 51
318.61370494
  0
CIRCLE
  8
0
  6
CONTINUOUS
 62
       7
  5
11D
 10
-99.97508064
 20
12.98697101
 30
0.0
 40
2.19999909
  0
LINE
  8
0
  6
CENTER
 62
       2
  5
11E
 10
-110.46779762
 20
-24.01735027
 30
0.0
 11
-110.46779762
 21
101.98264973
 31
0.0
  0
LINE
  8
0
  6
CENTER
 62
       2
  5
11F
 10
-110.93317519
 20
43.98264973
 30
0.0
 11
-100.53533694
 21
43.98264973
 31
0.0
  0
LINE
  8
0
  6
CENTER
 62
       2
  5
120
 10
-110.36602037
 20
-8.01735027
 30
0.0
 11
-120.10217801
 21
-8.01735027
 31
0.0
  0
LINE
  8
0
  6
CENTER
 62
       2
  5
121
 10
-105.96779762
 20
38.68473038
 30
0.0
 11
-105.96779762
 21
49.27162023
 31
0.0
  0
LINE
  8
0
  6
CENTER
 62
       2
  5
122
 10
-114.96779762
 20
-13.11540925
 30
0.0
 11
-114.96779762
 21
-2.81209681
 31
0.0
  0
CIRCLE
  8
0
  6
CENTER
 62
       2
  5
123
 10
-105.96779762
 20
43.98264973
 30
0.0
 40
3.725
  0
CIRCLE
  8
0
  6
CENTER
 62
       2
  5
124
 10
-114.96779762
 20
-8.01735027
 30
0.0
 40
3.725
  0
CIRCLE
  8
0
  6
CENTER
 62
       2
  5
125
 10
-105.96779762
 20
43.98264973
 30
0.0
 40
2.5
  0
CIRCLE
  8
0
  6
CENTER
 62
       2
  5
126
 10
-114.96779762
 20
-8.01735027
 30
0.0
 40
2.5
  0
CIRCLE
  8
0
  6
CENTER
 62
       2
  5
127
 10
-105.96779762
 20
43.98264973
 30
0.0
 40
1.35
  0
CIRCLE
  8
0
  6
CENTER
 62
       2
  5
128
 10
-114.96779762
 20
-8.01735027
 30
0.0
 40
1.35
  0
LINE
  8
0
  6
CONTINUOUS
 62
       7
  5
129
 10
-26.96779762
 20
-29.00485021
 30
0.0
 11
10.03220238
 21
-29.00485021
 31
0.0
  0
LINE
  8
0
  6
CONTINUOUS
 62
       7
  5
12A
 10
-26.96779762
 20
-27.00485022
 30
0.0
 11
10.03220238
 21
-27.00485022
 31
0.0
  0
LINE
  8
0
  6
CONTINUOUS
 62
       7
  5
12B
 10
-26.96779762
 20
-29.00485023
 30
0.0
 11
-26.96779762
 21
-20.01734992
 31
0.0
  0
LINE
  8
0
  6
CONTINUOUS
 62
       7
  5
12C
 10
10.03220238
 20
-29.00485023
 30
0.0
 11
10.03220238
 21
-20.01734992
 31
0.0
  0
CIRCLE
  8
0
  6
CONTINUOUS
 62
       2
  5
12D
 10
-110.47509209
 20
31.48697483
 30
0.0
 40
8.50000024
  0
CIRCLE
  8
0
  6
CONTINUOUS
 62
       7
  5
12E
 10
-110.47509209
 20
31.48697483
 30
0.0
 40
7.5
  0
CIRCLE
  8
0
  6
CONTINUOUS
 62
       7
  5
12F
 10
-110.47509209
 20
4.48697483
 30
0.0
 40
7.5
  0
CIRCLE
  8
0
  6
CONTINUOUS
 62
       2
  5
130
 10
-110.47509209
 20
4.48697483
 30
0.0
 40
8.50000024
  0
CIRCLE
  8
0
  6
CONTINUOUS
 62
       7
  5
131
 10
113.52490791
 20
17.98697483
 30
0.0
 40
7.5
  0
CIRCLE
  8
0
  6
CONTINUOUS
 62
       2
  5
132
 10
113.52490791
 20
17.98697483
 30
0.0
 40
8.50000024
  0
LINE
  8
0
  6
CENTER
 62
       2
  5
133
 10
-21.96779762
 20
-21.60243522
 30
0.0
 11
-21.96779762
 21
-14.93625747
 31
0.0
  0
LINE
  8
0
  6
CONTINUOUS
 62
       7
  5
134
 10
-25.46779762
 20
-19.51734991
 30
0.0
 11
-25.46779762
 21
-17.51734991
 31
0.0
  0
LINE
  8
0
  6
CONTINUOUS
 62
       7
  5
135
 10
-18.46779762
 20
-19.51734991
 30
0.0
 11
-18.46779762
 21
-17.51734991
 31
0.0
  0
LINE
  8
0
  6
CONTINUOUS
 62
       7
  5
136
 10
-18.46779762
 20
-17.51734991
 30
0.0
 11
-25.46779762
 21
-17.51734991
 31
0.0
  0
ARC
  8
0
  6
CONTINUOUS
 62
       7
  5
137
 10
-25.96779762
 20
-19.51734991
 30
0.0
 40
0.5
 50
-90.0
 51
0.0
  0
ARC
  8
0
  6
CONTINUOUS
 62
       7
  5
138
 10
-17.96779762
 20
-19.51734991
 30
0.0
 40
0.5
 50
180.0
 51
270.0
  0
ARC
  8
0
  6
CONTINUOUS
 62
       7
  5
139
 10
-21.9668158
 20
-14.60857582
 30
0.0
 40
4.90877419
 50
240.51240195
 51
299.48759805
  0
LINE
  8
0
  6
CONTINUOUS
 62
       7
  5
13A
 10
-24.71690751
 20
-18.31005638
 30
0.0
 11
-24.71690751
 21
-17.51734991
 31
0.0
  0
ARC
  8
0
  6
CONTINUOUS
 62
       7
  5
13B
 10
-24.06277487
 20
-18.31113581
 30
0.0
 40
0.65413353
 50
179.90545297
 51
240.6808461
  0
ARC
  8
0
  6
CONTINUOUS
 62
       7
  5
13C
 10
-19.87330132
 20
-18.3119606
 30
0.0
 40
0.65461636
 50
299.54106156
 51
0.16666792
  0
LINE
  8
0
  6
CONTINUOUS
 62
       7
  5
13D
 10
-19.21868773
 20
-18.31005638
 30
0.0
 11
-19.21868773
 21
-17.51734991
 31
0.0
  0
ARC
  8
0
  6
CONTINUOUS
 62
       7
  5
13E
 10
-118.83446442
 20
-23.18917567
 30
0.0
 40
0.66666669
 50
299.49235568
 51
0.00001799
  0
ARC
  8
0
  6
CONTINUOUS
 62
       7
  5
13F
 10
-123.10113083
 20
-23.18917567
 30
0.0
 40
0.66666669
 50
179.99998201
 51
240.50764432
  0
ARC
  8
0
  6
CONTINUOUS
 62
       7
  5
140
 10
-120.96779762
 20
-19.41734988
 30
0.0
 40
5.0
 50
240.50764432
 51
299.49233837
  0
LINE
  8
0
  6
CONTINUOUS
 62
       7
  5
141
 10
-118.16779839
 20
-23.18917567
 30
0.0
 11
-118.16779839
 21
-22.01735026
 31
0.0
  0
LINE
  8
0
  6
CONTINUOUS
 62
       7
  5
142
 10
-123.76779686
 20
-23.18917567
 30
0.0
 11
-123.76779686
 21
-22.01735026
 31
0.0
  0
ARC
  8
0
  6
CONTINUOUS
 62
       7
  5
143
 10
-97.83446442
 20
-23.18917567
 30
0.0
 40
0.66666669
 50
299.49235568
 51
0.00001799
  0
ARC
  8
0
  6
CONTINUOUS
 62
       7
  5
144
 10
-102.10113083
 20
-23.18917567
 30
0.0
 40
0.66666669
 50
179.99998201
 51
240.50764432
  0
ARC
  8
0
  6
CONTINUOUS
 62
       7
  5
145
 10
-99.96779762
 20
-19.41734988
 30
0.0
 40
5.0
 50
240.50764432
 51
299.49233837
  0
LINE
  8
0
  6
CONTINUOUS
 62
       7
  5
146
 10
-97.16779839
 20
-23.18917567
 30
0.0
 11
-97.16779839
 21
-22.01735026
 31
0.0
  0
LINE
  8
0
  6
CONTINUOUS
 62
       7
  5
147
 10
-102.76779686
 20
-23.18917567
 30
0.0
 11
-102.76779686
 21
-22.01735026
 31
0.0
  0
LINE
  8
0
  6
CONTINUOUS
 62
       7
  5
148
 10
105.83220161
 20
-23.18917567
 30
0.0
 11
105.83220161
 21
-22.01735026
 31
0.0
  0
LINE
  8
0
  6
CONTINUOUS
 62
       7
  5
149
 10
100.23220314
 20
-23.18917567
 30
0.0
 11
100.23220314
 21
-22.01735026
 31
0.0
  0
ARC
  8
0
  6
CONTINUOUS
 62
       7
  5
14A
 10
103.03220238
 20
-19.41734988
 30
0.0
 40
5.0
 50
240.50764432
 51
299.49233837
  0
ARC
  8
0
  6
CONTINUOUS
 62
       7
  5
14B
 10
100.89886917
 20
-23.18917567
 30
0.0
 40
0.66666669
 50
179.99998201
 51
240.50764432
  0
ARC
  8
0
  6
CONTINUOUS
 62
       7
  5
14C
 10
105.16553558
 20
-23.18917567
 30
0.0
 40
0.66666669
 50
299.49235568
 51
0.00001799
  0
LINE
  8
0
  6
CONTINUOUS
 62
       7
  5
14D
 10
126.83220161
 20
-23.18917567
 30
0.0
 11
126.83220161
 21
-22.01735026
 31
0.0
  0
LINE
  8
0
  6
CONTINUOUS
 62
       7
  5
14E
 10
121.23220314
 20
-23.18917567
 30
0.0
 11
121.23220314
 21
-22.01735026
 31
0.0
  0
ARC
  8
0
  6
CONTINUOUS
 62
       7
  5
14F
 10
124.03220238
 20
-19.41734988
 30
0.0
 40
5.0
 50
240.50764432
 51
299.49233837
  0
ARC
  8
0
  6
CONTINUOUS
 62
       7
  5
150
 10
121.89886917
 20
-23.18917567
 30
0.0
 40
0.66666669
 50
179.99998201
 51
240.50764432
  0
ARC
  8
0
  6
CONTINUOUS
 62
       7
  5
151
 10
126.16553558
 20
-23.18917567
 30
0.0
 40
0.66666669
 50
299.49235568
 51
0.00001799
  0
TEXT
  8
0
  6
CONTINUOUS
 62
       7
  5
152
 10
-185.66990291
 20
115.3500061
 30
0.0
 40
4.5
  1
MODEL:300-4E1-03-21
 41
1.10679612
  7
MX_NOTE_STANDARD
 11
-185.66990291
 21
117.6000061
 31
0.0
 73
       2
  0
LINE
  8
0
  6
CONTINUOUS
 62
       7
  5
153
 10
-194.25
 20
132.6000061
 30
0.0
 11
194.80000305
 21
132.6000061
 31
0.0
  0
LINE
  8
0
  6
CONTINUOUS
 62
       7
  5
154
 10
194.80000305
 20
132.6000061
 30
0.0
 11
194.80000305
 21
-133.5
 31
0.0
  0
LINE
  8
0
  6
CONTINUOUS
 62
       7
  5
155
 10
-194.25
 20
132.6000061
 30
0.0
 11
-194.25
 21
-133.5
 31
0.0
  0
LINE
  8
0
  6
CONTINUOUS
 62
       7
  5
156
 10
-194.25
 20
-133.5
 30
0.0
 11
194.80000305
 21
-133.5
 31
0.0
  0
ENDSEC
  0
EOF
