  0
SECTION
  2
HEADER
  9
$ACADVER
  1
AC1009
  9
$DWGCODEPAGE
  3
dos932
  9
$INSBASE
 10
0.0
 20
0.0
 30
0.0
  9
$EXTMIN
 10
-138.3999939
 20
-94.80000305
 30
0.0
  9
$EXTMAX
 10
138.3500061
 20
94.5
 30
0.0
  9
$LIMMIN
 10
-138.3999939
 20
-94.80000305
  9
$LIMMAX
 10
138.3500061
 20
94.5
  9
$ORTHOMODE
 70
       0
  9
$REGENMODE
 70
       1
  9
$FILLMODE
 70
       1
  9
$QTEXTMODE
 70
       0
  9
$MIRRTEXT
 70
       1
  9
$DRAGMODE
 70
       2
  9
$LTSCALE
 40
1.0
  9
$OSMODE
 70
       0
  9
$ATTMODE
 70
       1
  9
$TEXTSIZE
 40
3.20000005
  9
$TRACEWID
 40
0.05
  9
$TEXTSTYLE
  7
MX_NOTE_STANDARD
  9
$CLAYER
  8
0
  9
$CELTYPE
  6
CONTINUOUS
  9
$CECOLOR
 62
     256
  9
$DIMSCALE
 40
1.0
  9
$DIMASZ
 40
2.5
  9
$DIMEXO
 40
1.5
  9
$DIMDLI
 40
3.75
  9
$DIMRND
 40
0.0
  9
$DIMDLE
 40
0.0
  9
$DIMEXE
 40
1.5
  9
$DIMTP
 40
0.0
  9
$DIMTM
 40
0.0
  9
$DIMTXT
 40
3.20000005
  9
$DIMCEN
 40
2.5
  9
$DIMTSZ
 40
0.0
  9
$DIMTOL
 70
       0
  9
$DIMLIM
 70
       0
  9
$DIMTIH
 70
       0
  9
$DIMTOH
 70
       0
  9
$DIMSE1
 70
       0
  9
$DIMSE2
 70
       0
  9
$DIMTAD
 70
       1
  9
$DIMZIN
 70
       8
  9
$DIMBLK
  1

  9
$DIMASO
 70
       1
  9
$DIMSHO
 70
       1
  9
$DIMPOST
  1

  9
$DIMAPOST
  1

  9
$DIMALT
 70
       0
  9
$DIMALTD
 70
       4
  9
$DIMALTF
 40
0.03937008
  9
$DIMLFAC
 40
1.0
  9
$DIMTOFL
 70
       1
  9
$DIMTVP
 40
0.0
  9
$DIMTIX
 70
       0
  9
$DIMSOXD
 70
       0
  9
$DIMSAH
 70
       0
  9
$DIMBLK1
  1

  9
$DIMBLK2
  1

  9
$DIMSTYLE
  2
MXDIMSTYLE
  9
$DIMCLRD
 70
       0
  9
$DIMCLRE
 70
       0
  9
$DIMCLRT
 70
       0
  9
$DIMTFAC
 40
1.0
  9
$DIMGAP
 40
1.0
  9
$LUNITS
 70
       2
  9
$LUPREC
 70
       4
  9
$AXISMODE
 70
       0
  9
$AXISUNIT
 10
0.0
 20
0.0
  9
$SKETCHINC
 40
0.1
  9
$FILLETRAD
 40
0.0
  9
$AUNITS
 70
       0
  9
$AUPREC
 70
       0
  9
$MENU
  1
acad
  9
$ELEVATION
 40
0.0
  9
$PELEVATION
 40
0.0
  9
$THICKNESS
 40
0.0
  9
$LIMCHECK
 70
       0
  9
$BLIPMODE
 70
       1
  9
$CHAMFERA
 40
0.0
  9
$CHAMFERB
 40
0.0
  9
$SKPOLY
 70
       0
  9
$TDCREATE
 40
2453453.740833333
  9
$TDUPDATE
 40
2453453.740833333
  9
$TDINDWG
 40
0.0000000000
  9
$TDUSRTIMER
 40
0.0000000000
  9
$USRTIMER
 70
       1
  9
$ANGBASE
 50
0.0
  9
$ANGDIR
 70
       0
  9
$PDMODE
 70
       0
  9
$PDSIZE
 40
0.0
  9
$PLINEWID
 40
0.0
  9
$COORDS
 70
       1
  9
$SPLFRAME
 70
       0
  9
$SPLINETYPE
 70
       6
  9
$SPLINESEGS
 70
       8
  9
$ATTDIA
 70
       0
  9
$ATTREQ
 70
       1
  9
$HANDLING
 70
       1
  9
$HANDSEED
  5
12D
  9
$SURFTAB1
 70
       6
  9
$SURFTAB2
 70
       6
  9
$SURFTYPE
 70
       6
  9
$SURFU
 70
       6
  9
$SURFV
 70
       6
  9
$UCSNAME
  2

  9
$UCSORG
 10
0.0
 20
0.0
 30
0.0
  9
$UCSXDIR
 10
1.0
 20
0.0
 30
0.0
  9
$UCSYDIR
 10
0.0
 20
1.0
 30
0.0
  9
$PUCSNAME
  2

  9
$PUCSORG
 10
0.0
 20
0.0
 30
0.0
  9
$PUCSXDIR
 10
1.0
 20
0.0
 30
0.0
  9
$PUCSYDIR
 10
0.0
 20
1.0
 30
0.0
  9
$USERI1
 70
       0
  9
$USERI2
 70
       0
  9
$USERI3
 70
       0
  9
$USERI4
 70
       0
  9
$USERI5
 70
       0
  9
$USERR1
 40
0.0
  9
$USERR2
 40
0.0
  9
$USERR3
 40
0.0
  9
$USERR4
 40
0.0
  9
$USERR5
 40
0.0
  9
$WORLDVIEW
 70
       1
  9
$SHADEDGE
 70
       3
  9
$SHADEDIF
 70
      70
  9
$TILEMODE
 70
       1
  9
$MAXACTVP
 70
      16
  9
$PINSBASE
 10
0.0
 20
0.0
 30
0.0
  9
$PLIMCHECK
 70
       0
  9
$PEXTMIN
 10
1.00000000E+20
 20
1.00000000E+20
 30
1.00000000E+20
  9
$PEXTMAX
 10
-1.00000000E+20
 20
-1.00000000E+20
 30
-1.00000000E+20
  9
$PLIMMIN
 10
0.0
 20
0.0
  9
$PLIMMAX
 10
12.0
 20
9.0
  9
$UNITMODE
 70
       0
  9
$VISRETAIN
 70
       0
  9
$PLINEGEN
 70
       1
  9
$PSLTSCALE
 70
       0
  9
$TREEDEPTH
 70
    3020
  9
$DWGCODEPAGE
  3
dos932
  0
ENDSEC
  0
SECTION
  2
TABLES
  0
TABLE
  2
VPORT
 70
       1
  0
VPORT
  2
*ACTIVE
 70
       0
 10
0.0
 20
0.0
 11
1.0
 21
1.0
 12
-0.0249939
 22
-0.15000153
 13
0.0
 23
0.0
 14
1.0
 24
1.0
 15
0.0
 25
0.0
 16
0.0
 26
0.0
 36
1.0
 17
0.0
 27
0.0
 37
0.0
 40
191.19300308
 41
1.73205081
 42
50.0
 43
0.0
 44
0.0
 50
0.0
 51
0.0
 71
       0
 72
     100
 73
       1
 74
       1
 75
       0
 76
       0
 77
       0
 78
       0
  0
ENDTAB
  0
TABLE
  2
LTYPE
 70
       2
  0
LTYPE
  2
CONTINUOUS
 70
      64
  3
Solid line
 72
      65
 73
       0
 40
0.0
  0
LTYPE
  2
DASHED
 70
      64
  3
Dashed __ __ __ __ __ __ __ __ __ __ __ __ __ _
 72
      65
 73
       2
 40
4.0
 49
2.0
 49
-2.0
  0
ENDTAB
  0
TABLE
  2
LAYER
 70
       2
  0
LAYER
  2
0
 70
       0
 62
       7
  6
CONTINUOUS
  0
LAYER
  2
DEFPOINTS
 70
       0
 62
       7
  6
CONTINUOUS
  0
ENDTAB
  0
TABLE
  2
STYLE
 70
       1
  0
STYLE
  2
MX_NOTE_STANDARD
 70
       0
 40
0.0
 41
1.0
 50
0.0
 71
       0
 42
3.20000005
  3
txt.shx
  4
extfont.shx
  0
ENDTAB
  0
TABLE
  2
VIEW
 70
       0
  0
ENDTAB
  0
TABLE
  2
UCS
 70
       0
  0
ENDTAB
  0
TABLE
  2
APPID
 70
       1
  0
APPID
  2
ACAD
 70
       0
  0
ENDTAB
  0
TABLE
  2
DIMSTYLE
 70
       1
  0
DIMSTYLE
  2
MXDIMSTYLE
 70
       0
  3

  4

  5

  6

  7

 40
1.0
 41
2.5
 42
1.5
 43
3.75
 44
1.5
 45
0.0
 46
0.0
 47
0.0
 48
0.0
 71
       0
 72
       0
 73
       0
 74
       0
 75
       0
 76
       0
 77
       1
 78
       8
140
3.20000005
141
2.5
142
0.0
143
0.03937008
144
1.0
145
0.0
146
1.0
147
1.0
170
       0
171
       4
172
       1
173
       0
174
       0
175
       0
176
       0
177
       0
178
       0
  0
ENDTAB
  0
ENDSEC
  0
SECTION
  2
BLOCKS
  0
BLOCK
  8
0
  6
BYBLOCK
 62
       0
  5
1F
  2
_OPEN30
 70
       2
 10
0.0
 20
0.0
 30
0.0
  3
_OPEN30
  0
LINE
  8
0
  6
BYBLOCK
 62
       0
  5
20
 10
-1.0
 20
0.267949
 30
0.0
 11
0.0
 21
0.0
 31
0.0
  0
LINE
  8
0
  6
BYBLOCK
 62
       0
  5
21
 10
0.0
 20
0.0
 30
0.0
 11
-1.0
 21
-0.267949
 31
0.0
  0
LINE
  8
0
  6
BYBLOCK
 62
       0
  5
22
 10
0.0
 20
0.0
 30
0.0
 11
-1.0
 21
0.0
 31
0.0
  0
ENDBLK
  8
0
  6
BYBLOCK
 62
       0
  5
23
  0
ENDSEC
  0
SECTION
  2
ENTITIES
  0
POLYLINE
  8
0
  6
CONTINUOUS
 62
       7
  5
24
 66
       1
 10
0.0
 20
0.0
 30
0.0
  0
VERTEX
  8
0
  6
CONTINUOUS
 62
       7
  5
128
 10
-82.8828398
 20
28.75564792
 30
0.0
  0
VERTEX
  8
0
  6
CONTINUOUS
 62
       7
  5
129
 10
-87.05639615
 20
19.17449949
 30
0.0
  0
VERTEX
  8
0
  6
CONTINUOUS
 62
       7
  5
12A
 10
-94.33271649
 20
19.17449949
 30
0.0
  0
SEQEND
  8
0
  6
CONTINUOUS
 62
       7
  5
12B
  0
INSERT
  8
0
  6
CONTINUOUS
 62
       7
  5
25
  2
_OPEN30
 10
-82.8828398
 20
28.75564792
 30
0.0
 41
2.77
 42
2.77
 50
66.46201797
 43
2.77
  0
TEXT
  8
0
  6
CONTINUOUS
 62
       7
  5
26
 10
-93.83271649
 20
21.17449938
 30
0.0
 40
3.20000005
  1
-2
 41
0.93749999
  7
MX_NOTE_STANDARD
 11
-93.83271649
 21
22.7744994
 31
0.0
 73
       2
  0
LINE
  8
0
  6
CONTINUOUS
 62
       7
  5
27
 10
-71.95769027
 20
17.16157574
 30
0.0
 11
-72.95769033
 21
18.16157574
 31
0.0
  0
LINE
  8
0
  6
CONTINUOUS
 62
       7
  5
28
 10
-71.95769027
 20
19.16157574
 30
0.0
 11
-72.95769033
 21
18.16157574
 31
0.0
  0
LINE
  8
0
  6
CONTINUOUS
 62
       7
  5
29
 10
-24.85769039
 20
19.16157574
 30
0.0
 11
-23.85769033
 21
18.16157574
 31
0.0
  0
LINE
  8
0
  6
CONTINUOUS
 62
       7
  5
2A
 10
-24.85769039
 20
17.16157574
 30
0.0
 11
-23.85769033
 21
18.16157574
 31
0.0
  0
LINE
  8
0
  6
CONTINUOUS
 62
       7
  5
2B
 10
-70.35769033
 20
14.66157574
 30
0.0
 11
-70.35769033
 21
21.66157574
 31
0.0
  0
LINE
  8
0
  6
CONTINUOUS
 62
       7
  5
2C
 10
-72.95769033
 20
17.26157574
 30
0.0
 11
-72.95769033
 21
19.06157574
 31
0.0
  0
ARC
  8
0
  6
CONTINUOUS
 62
       7
  5
2D
 10
-70.35769033
 20
19.06157574
 30
0.0
 40
2.6
 50
90.0
 51
180.0
  0
ARC
  8
0
  6
CONTINUOUS
 62
       7
  5
2E
 10
-70.35769033
 20
17.26157574
 30
0.0
 40
2.6
 50
180.0
 51
270.0
  0
LINE
  8
0
  6
CONTINUOUS
 62
       7
  5
2F
 10
-69.3576903
 20
14.66157574
 30
0.0
 11
-70.3576903
 21
14.66157574
 31
0.0
  0
LINE
  8
0
  6
CONTINUOUS
 62
       7
  5
30
 10
-69.3576903
 20
21.66157574
 30
0.0
 11
-70.3576903
 21
21.66157574
 31
0.0
  0
LINE
  8
0
  6
CONTINUOUS
 62
       7
  5
31
 10
-27.45769035
 20
14.66157574
 30
0.0
 11
-26.45769035
 21
14.66157574
 31
0.0
  0
LINE
  8
0
  6
CONTINUOUS
 62
       7
  5
32
 10
-27.45769035
 20
21.66157574
 30
0.0
 11
-26.45769035
 21
21.66157574
 31
0.0
  0
ARC
  8
0
  6
CONTINUOUS
 62
       7
  5
33
 10
-26.45769033
 20
17.26157574
 30
0.0
 40
2.6
 50
270.0
 51
0.0
  0
ARC
  8
0
  6
CONTINUOUS
 62
       7
  5
34
 10
-26.45769033
 20
19.06157574
 30
0.0
 40
2.6
 50
0.0
 51
90.0
  0
LINE
  8
0
  6
CONTINUOUS
 62
       7
  5
35
 10
-23.85769033
 20
17.26157574
 30
0.0
 11
-23.85769033
 21
19.06157574
 31
0.0
  0
LINE
  8
0
  6
CONTINUOUS
 62
       7
  5
36
 10
-26.45769033
 20
14.66157574
 30
0.0
 11
-26.45769033
 21
21.66157574
 31
0.0
  0
ARC
  8
0
  6
CONTINUOUS
 62
       7
  5
37
 10
-71.35769033
 20
12.86157574
 30
0.0
 40
2.0
 50
270.0
 51
0.0
  0
ARC
  8
0
  6
CONTINUOUS
 62
       7
  5
38
 10
-25.45769033
 20
12.86157574
 30
0.0
 40
2.0
 50
180.0
 51
270.0
  0
LINE
  8
0
  6
CONTINUOUS
 62
       7
  5
39
 10
-76.90769033
 20
10.86157574
 30
0.0
 11
-19.90769033
 21
10.86157574
 31
0.0
  0
LINE
  8
0
  6
CONTINUOUS
 62
       7
  5
3A
 10
-19.90769033
 20
9.66157574
 30
0.0
 11
-19.90769033
 21
10.86157574
 31
0.0
  0
LINE
  8
0
  6
CONTINUOUS
 62
       7
  5
3B
 10
-76.90769033
 20
9.66157574
 30
0.0
 11
-76.90769033
 21
10.86157574
 31
0.0
  0
LINE
  8
0
  6
CONTINUOUS
 62
       7
  5
3C
 10
-69.35769033
 20
12.86157574
 30
0.0
 11
-69.35769033
 21
23.66157574
 31
0.0
  0
LINE
  8
0
  6
CONTINUOUS
 62
       7
  5
3D
 10
-27.45769033
 20
12.86157574
 30
0.0
 11
-27.45769033
 21
23.66157574
 31
0.0
  0
LINE
  8
0
  6
CONTINUOUS
 62
       7
  5
3E
 10
-19.90769033
 20
9.66157574
 30
0.0
 11
-76.90769033
 21
9.66157574
 31
0.0
  0
LINE
  8
0
  6
DASHED
 62
       2
  5
40
 10
-69.40769034
 20
28.41157574
 30
0.0
 11
-59.4076904
 21
28.76078343
 31
0.0
  0
LINE
  8
0
  6
DASHED
 62
       2
  5
41
 10
-69.40769034
 20
41.91157574
 30
0.0
 11
-59.4076904
 21
41.56236805
 31
0.0
  0
LINE
  8
0
  6
DASHED
 62
       7
  5
42
 10
-68.40769033
 20
29.41157574
 30
0.0
 11
-68.40769033
 21
40.91157574
 31
0.0
  0
LINE
  8
0
  6
DASHED
 62
       7
  5
43
 10
-68.40769033
 20
29.41157574
 30
0.0
 11
-69.40769033
 21
28.41157574
 31
0.0
  0
LINE
  8
0
  6
DASHED
 62
       7
  5
44
 10
-68.40769033
 20
40.91157574
 30
0.0
 11
-69.40769033
 21
41.91157574
 31
0.0
  0
LINE
  8
0
  6
DASHED
 62
       7
  5
45
 10
-68.40769033
 20
29.41157574
 30
0.0
 11
-59.40769033
 21
29.41157574
 31
0.0
  0
LINE
  8
0
  6
DASHED
 62
       7
  5
46
 10
-68.40769033
 20
40.91157574
 30
0.0
 11
-59.40769033
 21
40.91157574
 31
0.0
  0
LINE
  8
0
  6
CONTINUOUS
 62
       2
  5
47
 10
-74.83419114
 20
18.16157574
 30
0.0
 11
-67.38319082
 21
18.16157574
 31
0.0
  0
LINE
  8
0
  6
CONTINUOUS
 62
       7
  5
48
 10
-69.40769033
 20
23.66157574
 30
0.0
 11
-27.40769033
 21
23.66157574
 31
0.0
  0
LINE
  8
0
  6
CONTINUOUS
 62
       2
  5
49
 10
-91.92961932
 20
35.16157574
 30
0.0
 11
-24.59992321
 21
35.16157574
 31
0.0
  0
LINE
  8
0
  6
CONTINUOUS
 62
       7
  5
4A
 10
-27.40769033
 20
23.66157574
 30
0.0
 11
-27.40769033
 21
46.66157574
 31
0.0
  0
LINE
  8
0
  6
CONTINUOUS
 62
       7
  5
4B
 10
-69.40769033
 20
23.66157574
 30
0.0
 11
-69.40769033
 21
46.66157574
 31
0.0
  0
LINE
  8
0
  6
CONTINUOUS
 62
       2
  5
4C
 10
-48.40769033
 20
6.5993565
 30
0.0
 11
-48.40769033
 21
77.19095074
 31
0.0
  0
LINE
  8
0
  6
CONTINUOUS
 62
       7
  5
4D
 10
-39.65769033
 20
57.66157574
 30
0.0
 11
-39.65769033
 21
59.66157574
 31
0.0
  0
LINE
  8
0
  6
CONTINUOUS
 62
       7
  5
4E
 10
-57.15769033
 20
57.66157574
 30
0.0
 11
-57.15769033
 21
59.58311387
 31
0.0
  0
LINE
  8
0
  6
CONTINUOUS
 62
       7
  5
4F
 10
-59.90769033
 20
59.58311387
 30
0.0
 11
-36.90769033
 21
59.58311387
 31
0.0
  0
LINE
  8
0
  6
CONTINUOUS
 62
       7
  5
50
 10
-59.90769033
 20
59.58311387
 30
0.0
 11
-59.90769033
 21
68.66157574
 31
0.0
  0
LINE
  8
0
  6
CONTINUOUS
 62
       7
  5
51
 10
-36.90769033
 20
59.58311387
 30
0.0
 11
-36.90769033
 21
68.66157574
 31
0.0
  0
LINE
  8
0
  6
CONTINUOUS
 62
       7
  5
52
 10
-67.85769033
 20
57.66157574
 30
0.0
 11
-28.95769033
 21
57.66157574
 31
0.0
  0
LINE
  8
0
  6
CONTINUOUS
 62
       7
  5
53
 10
-69.35769033
 20
46.66157574
 30
0.0
 11
-27.45769033
 21
46.66157574
 31
0.0
  0
LINE
  8
0
  6
CONTINUOUS
 62
       2
  5
54
 10
-26.31727102
 20
52.16157574
 30
0.0
 11
-32.20749479
 21
52.16157574
 31
0.0
  0
LINE
  8
0
  6
CONTINUOUS
 62
       2
  5
55
 10
-43.45249422
 20
52.16157574
 30
0.0
 11
-53.20737346
 21
52.16157574
 31
0.0
  0
CIRCLE
  8
0
  6
CONTINUOUS
 62
       7
  5
56
 10
-48.40769033
 20
18.16157574
 30
0.0
 40
3.5
  0
LINE
  8
0
  6
CONTINUOUS
 62
       7
  5
57
 10
-49.73773287
 20
19.49161828
 30
0.0
 11
-47.07764779
 21
16.8315332
 31
0.0
  0
LINE
  8
0
  6
CONTINUOUS
 62
       7
  5
58
 10
-49.73773287
 20
16.8315332
 30
0.0
 11
-47.07764779
 21
19.49161828
 31
0.0
  0
LINE
  8
0
  6
CONTINUOUS
 62
       2
  5
59
 10
-28.86721181
 20
18.16157574
 30
0.0
 11
-21.98118952
 21
18.16157574
 31
0.0
  0
LINE
  8
0
  6
CONTINUOUS
 62
       2
  5
5A
 10
-53.3934789
 20
18.16157574
 30
0.0
 11
-43.29963613
 21
18.16157574
 31
0.0
  0
CIRCLE
  8
0
  6
CONTINUOUS
 62
       7
  5
5B
 10
-48.40769033
 20
35.16157574
 30
0.0
 40
5.72249985
  0
CIRCLE
  8
0
  6
CONTINUOUS
 62
       2
  5
5C
 10
-48.40769033
 20
35.16157574
 30
0.0
 40
6.57849979
  0
LINE
  8
0
  6
CONTINUOUS
 62
       7
  5
5D
 10
-39.90769033
 20
23.66157574
 30
0.0
 11
-39.90769033
 21
46.66157574
 31
0.0
  0
LINE
  8
0
  6
CONTINUOUS
 62
       7
  5
5E
 10
-56.90769033
 20
23.66157574
 30
0.0
 11
-56.90769033
 21
46.66157574
 31
0.0
  0
LINE
  8
0
  6
CONTINUOUS
 62
       7
  5
5F
 10
-67.60769033
 20
23.66157574
 30
0.0
 11
-67.60769033
 21
46.66157574
 31
0.0
  0
LINE
  8
0
  6
CONTINUOUS
 62
       7
  5
60
 10
-43.90769033
 20
24.56157574
 30
0.0
 11
-43.90769033
 21
27.76157574
 31
0.0
  0
LINE
  8
0
  6
CONTINUOUS
 62
       7
  5
61
 10
-52.90769033
 20
24.56157574
 30
0.0
 11
-52.90769033
 21
27.76157574
 31
0.0
  0
LINE
  8
0
  6
CONTINUOUS
 62
       7
  5
62
 10
-52.90769033
 20
27.76157574
 30
0.0
 11
-43.90769033
 21
27.76157574
 31
0.0
  0
LINE
  8
0
  6
CONTINUOUS
 62
       7
  5
63
 10
-52.90769033
 20
24.56157574
 30
0.0
 11
-43.90769033
 21
24.56157574
 31
0.0
  0
LINE
  8
0
  6
CONTINUOUS
 62
       7
  5
64
 10
-52.90769033
 20
45.76157574
 30
0.0
 11
-52.90769033
 21
42.56157574
 31
0.0
  0
LINE
  8
0
  6
CONTINUOUS
 62
       7
  5
65
 10
-52.90769033
 20
42.56157574
 30
0.0
 11
-43.90769033
 21
42.56157574
 31
0.0
  0
LINE
  8
0
  6
CONTINUOUS
 62
       7
  5
66
 10
-43.90769033
 20
45.76157574
 30
0.0
 11
-43.90769033
 21
42.56157574
 31
0.0
  0
LINE
  8
0
  6
CONTINUOUS
 62
       7
  5
67
 10
-52.90769033
 20
45.76157574
 30
0.0
 11
-43.90769033
 21
45.76157574
 31
0.0
  0
LINE
  8
0
  6
CONTINUOUS
 62
       2
  5
68
 10
-80.18485341
 20
-50.33842426
 30
0.0
 11
-15.80149892
 21
-50.33842426
 31
0.0
  0
LINE
  8
0
  6
CONTINUOUS
 62
       7
  5
69
 10
-68.90769033
 20
-21.83842426
 30
0.0
 11
-27.90769033
 21
-21.83842426
 31
0.0
  0
LINE
  8
0
  6
CONTINUOUS
 62
       7
  5
6A
 10
-68.90769033
 20
-78.83842426
 30
0.0
 11
-27.90769033
 21
-78.83842426
 31
0.0
  0
LINE
  8
0
  6
CONTINUOUS
 62
       7
  5
6B
 10
-19.90769033
 20
-29.83842426
 30
0.0
 11
-19.90769033
 21
-70.83842426
 31
0.0
  0
LINE
  8
0
  6
CONTINUOUS
 62
       2
  5
6C
 10
-48.40769033
 20
-19.55157856
 30
0.0
 11
-48.40769033
 21
-82.67954731
 31
0.0
  0
LINE
  8
0
  6
CONTINUOUS
 62
       7
  5
6D
 10
-76.90769033
 20
-29.83842426
 30
0.0
 11
-76.90769033
 21
-70.83842426
 31
0.0
  0
ARC
  8
0
  6
CONTINUOUS
 62
       7
  5
6E
 10
-27.90769033
 20
-29.83842426
 30
0.0
 40
8.0
 50
0.0
 51
90.0
  0
ARC
  8
0
  6
CONTINUOUS
 62
       7
  5
6F
 10
-68.90769033
 20
-29.83842426
 30
0.0
 40
8.0
 50
90.0
 51
180.0
  0
ARC
  8
0
  6
CONTINUOUS
 62
       7
  5
70
 10
-68.90769033
 20
-70.83842426
 30
0.0
 40
8.0
 50
180.0
 51
270.0
  0
ARC
  8
0
  6
CONTINUOUS
 62
       7
  5
71
 10
-27.90769033
 20
-70.83842426
 30
0.0
 40
8.0
 50
270.0
 51
0.0
  0
CIRCLE
  8
0
  6
CONTINUOUS
 62
       7
  5
72
 10
-48.40769033
 20
-50.33842426
 30
0.0
 40
19.85
  0
LINE
  8
0
  6
CONTINUOUS
 62
       2
  5
73
 10
-33.19740438
 20
-30.33842426
 30
0.0
 11
-23.91524801
 21
-30.33842426
 31
0.0
  0
LINE
  8
0
  6
CONTINUOUS
 62
       2
  5
74
 10
-28.40769033
 20
-26.04211796
 30
0.0
 11
-28.40769033
 21
-34.91716221
 31
0.0
  0
CIRCLE
  8
0
  6
CONTINUOUS
 62
       7
  5
75
 10
-28.40769033
 20
-30.33842426
 30
0.0
 40
2.75
  0
LINE
  8
0
  6
CONTINUOUS
 62
       2
  5
76
 10
-68.40769033
 20
-35.12813831
 30
0.0
 11
-68.40769033
 21
-25.84598194
 31
0.0
  0
LINE
  8
0
  6
CONTINUOUS
 62
       2
  5
77
 10
-72.70399663
 20
-30.33842426
 30
0.0
 11
-63.82895238
 21
-30.33842426
 31
0.0
  0
CIRCLE
  8
0
  6
CONTINUOUS
 62
       7
  5
78
 10
-68.40769033
 20
-30.33842426
 30
0.0
 40
2.75
  0
LINE
  8
0
  6
CONTINUOUS
 62
       2
  5
79
 10
-63.61797628
 20
-70.33842426
 30
0.0
 11
-72.90013265
 21
-70.33842426
 31
0.0
  0
LINE
  8
0
  6
CONTINUOUS
 62
       2
  5
7A
 10
-68.40769033
 20
-74.63473057
 30
0.0
 11
-68.40769033
 21
-65.75968632
 31
0.0
  0
CIRCLE
  8
0
  6
CONTINUOUS
 62
       7
  5
7B
 10
-68.40769033
 20
-70.33842426
 30
0.0
 40
2.75
  0
LINE
  8
0
  6
CONTINUOUS
 62
       2
  5
7C
 10
-28.40769033
 20
-65.54871021
 30
0.0
 11
-28.40769033
 21
-74.83086658
 31
0.0
  0
LINE
  8
0
  6
CONTINUOUS
 62
       2
  5
7D
 10
-24.11138402
 20
-70.33842426
 30
0.0
 11
-32.98642827
 21
-70.33842426
 31
0.0
  0
CIRCLE
  8
0
  6
CONTINUOUS
 62
       7
  5
7E
 10
-28.40769033
 20
-70.33842426
 30
0.0
 40
2.75
  0
CIRCLE
  8
0
  6
CONTINUOUS
 62
       7
  5
7F
 10
-48.40769033
 20
-50.33842426
 30
0.0
 40
15.95
  0
LINE
  8
0
  6
CONTINUOUS
 62
       7
  5
80
 10
-40.36185699
 20
-49.83842426
 30
0.0
 11
-39.861857
 21
-49.33842426
 31
0.0
  0
LINE
  8
0
  6
CONTINUOUS
 62
       7
  5
81
 10
-40.36185699
 20
-49.83842426
 30
0.0
 11
-40.36185699
 21
-50.83842426
 31
0.0
  0
LINE
  8
0
  6
CONTINUOUS
 62
       7
  5
82
 10
-40.36185699
 20
-50.83842426
 30
0.0
 11
-39.86185699
 21
-51.33842426
 31
0.0
  0
LINE
  8
0
  6
CONTINUOUS
 62
       7
  5
83
 10
-40.36185699
 20
-50.83842426
 30
0.0
 11
-34.66678424
 21
-50.83842426
 31
0.0
  0
ARC
  8
0
  6
CONTINUOUS
 62
       7
  5
84
 10
-35.81553007
 20
-52.33842426
 30
0.0
 40
1.0
 50
350.97515463
 51
90.0
  0
LINE
  8
0
  6
CONTINUOUS
 62
       7
  5
85
 10
-35.81553007
 20
-51.33842426
 30
0.0
 11
-39.86185699
 21
-51.33842426
 31
0.0
  0
LINE
  8
0
  6
CONTINUOUS
 62
       7
  5
86
 10
-40.36185699
 20
-49.83842426
 30
0.0
 11
-34.66678424
 21
-49.83842426
 31
0.0
  0
ARC
  8
0
  6
CONTINUOUS
 62
       7
  5
87
 10
-35.81553007
 20
-48.33842426
 30
0.0
 40
1.0
 50
270.0
 51
9.02484537
  0
LINE
  8
0
  6
CONTINUOUS
 62
       7
  5
88
 10
-35.81553007
 20
-49.33842426
 30
0.0
 11
-39.861857
 21
-49.33842426
 31
0.0
  0
LINE
  8
0
  6
CONTINUOUS
 62
       7
  5
89
 10
-47.90769032
 20
-58.38425759
 30
0.0
 11
-47.40769033
 21
-58.88425759
 31
0.0
  0
LINE
  8
0
  6
CONTINUOUS
 62
       7
  5
8A
 10
-47.90769032
 20
-58.38425759
 30
0.0
 11
-48.90769032
 21
-58.38425759
 31
0.0
  0
LINE
  8
0
  6
CONTINUOUS
 62
       7
  5
8B
 10
-48.90769032
 20
-58.38425759
 30
0.0
 11
-49.40769033
 21
-58.8842576
 31
0.0
  0
LINE
  8
0
  6
CONTINUOUS
 62
       7
  5
8C
 10
-48.90769032
 20
-58.38425759
 30
0.0
 11
-48.90769032
 21
-64.07933035
 31
0.0
  0
ARC
  8
0
  6
CONTINUOUS
 62
       7
  5
8D
 10
-50.40769033
 20
-62.93058452
 30
0.0
 40
1.0
 50
260.97515463
 51
0.0
  0
LINE
  8
0
  6
CONTINUOUS
 62
       7
  5
8E
 10
-49.40769033
 20
-62.93058452
 30
0.0
 11
-49.40769033
 21
-58.8842576
 31
0.0
  0
LINE
  8
0
  6
CONTINUOUS
 62
       7
  5
8F
 10
-47.90769032
 20
-58.38425759
 30
0.0
 11
-47.90769032
 21
-64.07933035
 31
0.0
  0
ARC
  8
0
  6
CONTINUOUS
 62
       7
  5
90
 10
-46.40769033
 20
-62.93058452
 30
0.0
 40
1.0
 50
180.0
 51
279.02484537
  0
LINE
  8
0
  6
CONTINUOUS
 62
       7
  5
91
 10
-47.40769033
 20
-62.93058452
 30
0.0
 11
-47.40769033
 21
-58.88425759
 31
0.0
  0
LINE
  8
0
  6
CONTINUOUS
 62
       7
  5
92
 10
-56.45352366
 20
-50.83842427
 30
0.0
 11
-56.95352366
 21
-51.33842426
 31
0.0
  0
LINE
  8
0
  6
CONTINUOUS
 62
       7
  5
93
 10
-56.45352366
 20
-50.83842427
 30
0.0
 11
-56.45352366
 21
-49.83842427
 31
0.0
  0
LINE
  8
0
  6
CONTINUOUS
 62
       7
  5
94
 10
-56.45352366
 20
-49.83842427
 30
0.0
 11
-56.95352367
 21
-49.33842426
 31
0.0
  0
LINE
  8
0
  6
CONTINUOUS
 62
       7
  5
95
 10
-56.45352366
 20
-49.83842427
 30
0.0
 11
-62.14859641
 21
-49.83842427
 31
0.0
  0
ARC
  8
0
  6
CONTINUOUS
 62
       7
  5
96
 10
-60.99985059
 20
-48.33842426
 30
0.0
 40
1.0
 50
170.97515463
 51
270.0
  0
LINE
  8
0
  6
CONTINUOUS
 62
       7
  5
97
 10
-60.99985059
 20
-49.33842426
 30
0.0
 11
-56.95352367
 21
-49.33842426
 31
0.0
  0
LINE
  8
0
  6
CONTINUOUS
 62
       7
  5
98
 10
-56.45352366
 20
-50.83842427
 30
0.0
 11
-62.14859641
 21
-50.83842427
 31
0.0
  0
ARC
  8
0
  6
CONTINUOUS
 62
       7
  5
99
 10
-60.99985059
 20
-52.33842426
 30
0.0
 40
1.0
 50
90.0
 51
189.02484537
  0
LINE
  8
0
  6
CONTINUOUS
 62
       7
  5
9A
 10
-60.99985059
 20
-51.33842426
 30
0.0
 11
-56.95352366
 21
-51.33842426
 31
0.0
  0
LINE
  8
0
  6
CONTINUOUS
 62
       7
  5
9B
 10
-47.90769033
 20
-42.29259093
 30
0.0
 11
-47.90769033
 21
-36.59751818
 31
0.0
  0
LINE
  8
0
  6
CONTINUOUS
 62
       7
  5
9C
 10
-48.90769033
 20
-42.29259093
 30
0.0
 11
-48.90769033
 21
-36.59751818
 31
0.0
  0
ARC
  8
0
  6
CONTINUOUS
 62
       7
  5
9D
 10
-50.40769033
 20
-37.746264
 30
0.0
 40
1.0
 50
0.0
 51
99.02484537
  0
ARC
  8
0
  6
CONTINUOUS
 62
       7
  5
9E
 10
-46.40769033
 20
-37.746264
 30
0.0
 40
1.0
 50
80.97515463
 51
180.0
  0
LINE
  8
0
  6
CONTINUOUS
 62
       7
  5
9F
 10
-48.90769033
 20
-42.29259093
 30
0.0
 11
-49.40769033
 21
-41.79259093
 31
0.0
  0
LINE
  8
0
  6
CONTINUOUS
 62
       7
  5
A0
 10
-47.90769033
 20
-42.29259093
 30
0.0
 11
-47.40769033
 21
-41.79259092
 31
0.0
  0
LINE
  8
0
  6
CONTINUOUS
 62
       7
  5
A1
 10
-49.40769033
 20
-37.746264
 30
0.0
 11
-49.40769033
 21
-41.79259093
 31
0.0
  0
LINE
  8
0
  6
CONTINUOUS
 62
       7
  5
A2
 10
-47.40769033
 20
-37.746264
 30
0.0
 11
-47.40769033
 21
-41.79259092
 31
0.0
  0
LINE
  8
0
  6
CONTINUOUS
 62
       7
  5
A3
 10
-48.90769033
 20
-42.29259093
 30
0.0
 11
-47.90769033
 21
-42.29259093
 31
0.0
  0
CIRCLE
  8
0
  6
CONTINUOUS
 62
       7
  5
A4
 10
-48.40769033
 20
-50.33842426
 30
0.0
 40
6.35
  0
CIRCLE
  8
0
  6
CONTINUOUS
 62
       7
  5
A5
 10
-48.40769033
 20
-50.33842426
 30
0.0
 40
15.8
  0
ARC
  8
0
  6
CONTINUOUS
 62
       7
  5
A6
 10
-48.40769033
 20
-50.33842426
 30
0.0
 40
13.75
 50
310.41148756
 51
229.58851244
  0
ARC
  8
0
  6
CONTINUOUS
 62
       7
  5
A7
 10
-48.40769033
 20
-50.83842426
 30
0.0
 40
14.5
 50
316.03010052
 51
223.96989948
  0
ARC
  8
0
  6
CONTINUOUS
 62
       7
  5
A8
 10
-41.50739137
 20
-62.29009264
 30
0.0
 40
2.5
 50
36.43900503
 51
199.56315723
  0
LINE
  8
0
  6
CONTINUOUS
 62
       7
  5
A9
 10
-43.86307378
 20
-63.12720697
 30
0.0
 11
-43.11712777
 21
-65.22633707
 31
0.0
  0
ARC
  8
0
  6
CONTINUOUS
 62
       7
  5
AA
 10
-38.69167766
 20
-60.21120922
 30
0.0
 40
1.0
 50
216.43900503
 51
316.03010052
  0
CIRCLE
  8
0
  6
CONTINUOUS
 62
       7
  5
AB
 10
-41.50739137
 20
-62.29009264
 30
0.0
 40
1.0
  0
ARC
  8
0
  6
CONTINUOUS
 62
       7
  5
AC
 10
-55.30798929
 20
-62.29009264
 30
0.0
 40
2.5
 50
340.43684277
 51
143.56099497
  0
CIRCLE
  8
0
  6
CONTINUOUS
 62
       7
  5
AD
 10
-55.30798929
 20
-62.29009264
 30
0.0
 40
1.0
  0
ARC
  8
0
  6
CONTINUOUS
 62
       7
  5
AE
 10
-58.123703
 20
-60.21120922
 30
0.0
 40
1.0
 50
223.96989948
 51
323.56099497
  0
LINE
  8
0
  6
CONTINUOUS
 62
       7
  5
AF
 10
-52.95230688
 20
-63.12720697
 30
0.0
 11
-53.69825289
 21
-65.22633707
 31
0.0
  0
ARC
  8
0
  6
CONTINUOUS
 62
       7
  5
B0
 10
-48.40769033
 20
-50.33842426
 30
0.0
 40
13.75
 50
250.43684277
 51
289.56315717
  0
LINE
  8
0
  6
CONTINUOUS
 62
       7
  5
B1
 10
42.39230967
 20
23.66157574
 30
0.0
 11
42.39230967
 21
46.66157574
 31
0.0
  0
CIRCLE
  8
0
  6
DASHED
 62
       2
  5
B2
 10
61.59230967
 20
35.16157574
 30
0.0
 40
6.57849979
  0
CIRCLE
  8
0
  6
DASHED
 62
       7
  5
B3
 10
61.59230967
 20
35.16157574
 30
0.0
 40
5.72249985
  0
LINE
  8
0
  6
CONTINUOUS
 62
       2
  5
B4
 10
56.6065211
 20
18.16157574
 30
0.0
 11
66.70036387
 21
18.16157574
 31
0.0
  0
LINE
  8
0
  6
CONTINUOUS
 62
       2
  5
B5
 10
81.13278819
 20
18.16157574
 30
0.0
 11
88.01881048
 21
18.16157574
 31
0.0
  0
LINE
  8
0
  6
CONTINUOUS
 62
       7
  5
B6
 10
60.26226713
 20
16.8315332
 30
0.0
 11
62.92235221
 21
19.49161828
 31
0.0
  0
LINE
  8
0
  6
CONTINUOUS
 62
       7
  5
B7
 10
60.26226713
 20
19.49161828
 30
0.0
 11
62.92235221
 21
16.8315332
 31
0.0
  0
CIRCLE
  8
0
  6
CONTINUOUS
 62
       7
  5
B8
 10
61.59230967
 20
18.16157574
 30
0.0
 40
3.5
  0
LINE
  8
0
  6
CONTINUOUS
 62
       7
  5
B9
 10
40.59230967
 20
46.66157574
 30
0.0
 11
82.59230967
 21
46.66157574
 31
0.0
  0
LINE
  8
0
  6
CONTINUOUS
 62
       7
  5
BA
 10
52.84230967
 20
57.66157574
 30
0.0
 11
52.84230967
 21
59.58311387
 31
0.0
  0
LINE
  8
0
  6
CONTINUOUS
 62
       7
  5
BB
 10
70.34230967
 20
57.66157574
 30
0.0
 11
70.34230967
 21
59.66157574
 31
0.0
  0
LINE
  8
0
  6
CONTINUOUS
 62
       7
  5
BC
 10
40.59230967
 20
23.66157574
 30
0.0
 11
40.59230967
 21
46.66157574
 31
0.0
  0
LINE
  8
0
  6
CONTINUOUS
 62
       7
  5
BD
 10
82.59230967
 20
23.66157574
 30
0.0
 11
82.59230967
 21
46.66157574
 31
0.0
  0
LINE
  8
0
  6
CONTINUOUS
 62
       2
  5
BE
 10
36.91013374
 20
35.16157574
 30
0.0
 11
85.40007679
 21
35.16157574
 31
0.0
  0
LINE
  8
0
  6
CONTINUOUS
 62
       7
  5
BF
 10
40.59230967
 20
23.66157574
 30
0.0
 11
82.59230967
 21
23.66157574
 31
0.0
  0
LINE
  8
0
  6
CONTINUOUS
 62
       2
  5
C0
 10
35.16580886
 20
18.16157574
 30
0.0
 11
42.61680918
 21
18.16157574
 31
0.0
  0
LINE
  8
0
  6
DASHED
 62
       7
  5
C1
 10
41.59230967
 20
40.91157574
 30
0.0
 11
50.59230967
 21
40.91157574
 31
0.0
  0
LINE
  8
0
  6
DASHED
 62
       7
  5
C2
 10
41.59230967
 20
29.41157574
 30
0.0
 11
50.59230967
 21
29.41157574
 31
0.0
  0
LINE
  8
0
  6
DASHED
 62
       7
  5
C3
 10
41.59230967
 20
40.91157574
 30
0.0
 11
40.59230967
 21
41.91157574
 31
0.0
  0
LINE
  8
0
  6
DASHED
 62
       7
  5
C4
 10
41.59230967
 20
29.41157574
 30
0.0
 11
40.59230967
 21
28.41157574
 31
0.0
  0
LINE
  8
0
  6
DASHED
 62
       7
  5
C5
 10
41.59230967
 20
29.41157574
 30
0.0
 11
41.59230967
 21
40.91157574
 31
0.0
  0
LINE
  8
0
  6
DASHED
 62
       2
  5
C6
 10
40.59230966
 20
41.91157574
 30
0.0
 11
50.5923096
 21
41.56236805
 31
0.0
  0
LINE
  8
0
  6
DASHED
 62
       2
  5
C7
 10
40.59230966
 20
28.41157574
 30
0.0
 11
50.5923096
 21
28.76078343
 31
0.0
  0
LINE
  8
0
  6
CONTINUOUS
 62
       7
  5
C8
 10
90.09230967
 20
9.66157574
 30
0.0
 11
33.09230967
 21
9.66157574
 31
0.0
  0
LINE
  8
0
  6
CONTINUOUS
 62
       7
  5
C9
 10
82.54230967
 20
12.86157574
 30
0.0
 11
82.54230967
 21
23.66157574
 31
0.0
  0
LINE
  8
0
  6
CONTINUOUS
 62
       7
  5
CA
 10
40.64230967
 20
12.86157574
 30
0.0
 11
40.64230967
 21
23.66157574
 31
0.0
  0
LINE
  8
0
  6
CONTINUOUS
 62
       7
  5
CB
 10
33.09230967
 20
9.66157574
 30
0.0
 11
33.09230967
 21
10.86157574
 31
0.0
  0
LINE
  8
0
  6
CONTINUOUS
 62
       7
  5
CC
 10
90.09230967
 20
9.66157574
 30
0.0
 11
90.09230967
 21
10.86157574
 31
0.0
  0
LINE
  8
0
  6
CONTINUOUS
 62
       7
  5
CD
 10
33.09230967
 20
10.86157574
 30
0.0
 11
90.09230967
 21
10.86157574
 31
0.0
  0
ARC
  8
0
  6
CONTINUOUS
 62
       7
  5
CE
 10
84.54230967
 20
12.86157574
 30
0.0
 40
2.0
 50
180.0
 51
270.0
  0
ARC
  8
0
  6
CONTINUOUS
 62
       7
  5
CF
 10
38.64230967
 20
12.86157574
 30
0.0
 40
2.0
 50
270.0
 51
0.0
  0
LINE
  8
0
  6
CONTINUOUS
 62
       7
  5
D0
 10
83.54230967
 20
14.66157574
 30
0.0
 11
83.54230967
 21
21.66157574
 31
0.0
  0
LINE
  8
0
  6
CONTINUOUS
 62
       7
  5
D1
 10
86.14230967
 20
17.26157574
 30
0.0
 11
86.14230967
 21
19.06157574
 31
0.0
  0
ARC
  8
0
  6
CONTINUOUS
 62
       7
  5
D2
 10
83.54230967
 20
19.06157574
 30
0.0
 40
2.6
 50
0.0
 51
90.0
  0
ARC
  8
0
  6
CONTINUOUS
 62
       7
  5
D3
 10
83.54230967
 20
17.26157574
 30
0.0
 40
2.6
 50
270.0
 51
0.0
  0
LINE
  8
0
  6
CONTINUOUS
 62
       7
  5
D4
 10
82.54230965
 20
21.66157574
 30
0.0
 11
83.54230965
 21
21.66157574
 31
0.0
  0
LINE
  8
0
  6
CONTINUOUS
 62
       7
  5
D5
 10
82.54230965
 20
14.66157574
 30
0.0
 11
83.54230965
 21
14.66157574
 31
0.0
  0
LINE
  8
0
  6
CONTINUOUS
 62
       7
  5
D6
 10
40.6423097
 20
21.66157574
 30
0.0
 11
39.6423097
 21
21.66157574
 31
0.0
  0
LINE
  8
0
  6
CONTINUOUS
 62
       7
  5
D7
 10
40.6423097
 20
14.66157574
 30
0.0
 11
39.6423097
 21
14.66157574
 31
0.0
  0
ARC
  8
0
  6
CONTINUOUS
 62
       7
  5
D8
 10
39.64230967
 20
17.26157574
 30
0.0
 40
2.6
 50
180.0
 51
270.0
  0
ARC
  8
0
  6
CONTINUOUS
 62
       7
  5
D9
 10
39.64230967
 20
19.06157574
 30
0.0
 40
2.6
 50
90.0
 51
180.0
  0
LINE
  8
0
  6
CONTINUOUS
 62
       7
  5
DA
 10
37.04230967
 20
17.26157574
 30
0.0
 11
37.04230967
 21
19.06157574
 31
0.0
  0
LINE
  8
0
  6
CONTINUOUS
 62
       7
  5
DB
 10
39.64230967
 20
14.66157574
 30
0.0
 11
39.64230967
 21
21.66157574
 31
0.0
  0
LINE
  8
0
  6
CONTINUOUS
 62
       7
  5
DC
 10
85.14230961
 20
17.16157574
 30
0.0
 11
86.14230967
 21
18.16157574
 31
0.0
  0
LINE
  8
0
  6
CONTINUOUS
 62
       7
  5
DD
 10
85.14230961
 20
19.16157574
 30
0.0
 11
86.14230967
 21
18.16157574
 31
0.0
  0
LINE
  8
0
  6
CONTINUOUS
 62
       7
  5
DE
 10
38.04230973
 20
19.16157574
 30
0.0
 11
37.04230967
 21
18.16157574
 31
0.0
  0
LINE
  8
0
  6
CONTINUOUS
 62
       7
  5
DF
 10
38.04230973
 20
17.16157574
 30
0.0
 11
37.04230967
 21
18.16157574
 31
0.0
  0
LINE
  8
0
  6
CONTINUOUS
 62
       7
  5
E0
 10
80.79230967
 20
23.66157574
 30
0.0
 11
80.79230967
 21
46.66157574
 31
0.0
  0
LINE
  8
0
  6
DASHED
 62
       7
  5
E1
 10
81.59230967
 20
40.91157574
 30
0.0
 11
72.59230967
 21
40.91157574
 31
0.0
  0
LINE
  8
0
  6
DASHED
 62
       7
  5
E2
 10
81.59230967
 20
40.91157574
 30
0.0
 11
82.59230967
 21
41.91157574
 31
0.0
  0
LINE
  8
0
  6
DASHED
 62
       7
  5
E3
 10
81.59230967
 20
29.41157574
 30
0.0
 11
81.59230967
 21
40.91157574
 31
0.0
  0
LINE
  8
0
  6
DASHED
 62
       2
  5
E4
 10
82.59230969
 20
41.91157574
 30
0.0
 11
72.59230975
 21
41.56236805
 31
0.0
  0
LINE
  8
0
  6
DASHED
 62
       7
  5
E5
 10
81.59230967
 20
29.41157574
 30
0.0
 11
72.59230967
 21
29.41157574
 31
0.0
  0
LINE
  8
0
  6
DASHED
 62
       7
  5
E6
 10
81.59230967
 20
29.41157574
 30
0.0
 11
82.59230967
 21
28.41157574
 31
0.0
  0
LINE
  8
0
  6
DASHED
 62
       2
  5
E7
 10
82.59230969
 20
28.41157574
 30
0.0
 11
72.59230975
 21
28.76078343
 31
0.0
  0
LINE
  8
0
  6
CONTINUOUS
 62
       2
  5
E8
 10
61.59230967
 20
6.5993565
 30
0.0
 11
61.59230967
 21
77.19095074
 31
0.0
  0
LINE
  8
0
  6
CONTINUOUS
 62
       7
  5
E9
 10
-89.21347939
 20
41.91157574
 30
0.0
 11
-89.21347939
 21
28.42450677
 31
0.0
  0
LINE
  8
0
  6
CONTINUOUS
 62
       7
  5
EA
 10
-79.28244491
 20
30.39002401
 30
0.0
 11
-80.80830698
 21
28.86416195
 31
0.0
  0
LINE
  8
0
  6
CONTINUOUS
 62
       7
  5
EB
 10
-89.6272725
 20
29.12278263
 30
0.0
 11
-89.21347939
 21
28.42450677
 31
0.0
  0
LINE
  8
0
  6
CONTINUOUS
 62
       7
  5
EC
 10
-89.21347939
 20
28.42450677
 30
0.0
 11
-80.80830698
 21
28.86416195
 31
0.0
  0
LINE
  8
0
  6
CONTINUOUS
 62
       2
  5
ED
 10
-89.6272725
 20
29.47192057
 30
0.0
 11
-80.20054836
 21
29.47192057
 31
0.0
  0
LINE
  8
0
  6
CONTINUOUS
 62
       7
  5
EE
 10
-80.73072077
 20
41.45898953
 30
0.0
 11
-80.73072077
 21
28.86416195
 31
0.0
  0
LINE
  8
0
  6
CONTINUOUS
 62
       7
  5
EF
 10
-89.6272725
 20
41.20036884
 30
0.0
 11
-89.21347939
 21
41.91157574
 31
0.0
  0
LINE
  8
0
  6
CONTINUOUS
 62
       7
  5
F0
 10
-79.28244491
 20
39.93312746
 30
0.0
 11
-80.80830698
 21
41.47192057
 31
0.0
  0
LINE
  8
0
  6
CONTINUOUS
 62
       7
  5
F1
 10
-89.21347939
 20
41.91157574
 30
0.0
 11
-80.80830698
 21
41.47192057
 31
0.0
  0
LINE
  8
0
  6
CONTINUOUS
 62
       2
  5
F2
 10
-89.6272725
 20
40.85123091
 30
0.0
 11
-80.20054836
 21
40.85123091
 31
0.0
  0
LINE
  8
0
  6
CONTINUOUS
 62
       7
  5
F3
 10
-79.28244491
 20
39.93312746
 30
0.0
 11
-79.28244491
 21
30.39002401
 31
0.0
  0
LINE
  8
0
  6
CONTINUOUS
 62
       7
  5
F4
 10
-89.6272725
 20
41.20036884
 30
0.0
 11
-89.6272725
 21
29.12278263
 31
0.0
  0
LINE
  8
0
  6
CONTINUOUS
 62
       7
  5
F5
 10
-27.45769033
 20
46.66157574
 30
0.0
 11
-27.45769033
 21
56.16157574
 31
0.0
  0
LINE
  8
0
  6
CONTINUOUS
 62
       7
  5
F6
 10
-69.35769033
 20
46.66157574
 30
0.0
 11
-69.35769033
 21
56.16157574
 31
0.0
  0
LINE
  8
0
  6
DASHED
 62
       2
  5
F7
 10
-27.45769033
 20
54.16157574
 30
0.0
 11
-31.25769033
 21
54.16157574
 31
0.0
  0
LINE
  8
0
  6
DASHED
 62
       2
  5
F8
 10
-27.45769033
 20
50.16157574
 30
0.0
 11
-31.25769033
 21
50.16157574
 31
0.0
  0
LINE
  8
0
  6
DASHED
 62
       7
  5
F9
 10
-27.45769033
 20
50.56157574
 30
0.0
 11
-31.25769033
 21
50.56157574
 31
0.0
  0
LINE
  8
0
  6
DASHED
 62
       7
  5
FA
 10
-27.45769033
 20
53.76157574
 30
0.0
 11
-31.25769033
 21
53.76157574
 31
0.0
  0
CIRCLE
  8
0
  6
CONTINUOUS
 62
       7
  5
FB
 10
-48.40769033
 20
52.16157574
 30
0.0
 40
1.6
  0
CIRCLE
  8
0
  6
CONTINUOUS
 62
       2
  5
FC
 10
-48.40769033
 20
52.16157574
 30
0.0
 40
2.0
  0
LINE
  8
0
  6
CONTINUOUS
 62
       2
  5
FD
 10
-70.49810964
 20
52.16157574
 30
0.0
 11
-64.60788586
 21
52.16157574
 31
0.0
  0
LINE
  8
0
  6
DASHED
 62
       2
  5
FE
 10
-69.35769033
 20
54.16157574
 30
0.0
 11
-65.55769033
 21
54.16157574
 31
0.0
  0
LINE
  8
0
  6
DASHED
 62
       2
  5
FF
 10
-69.35769033
 20
50.16157574
 30
0.0
 11
-65.55769033
 21
50.16157574
 31
0.0
  0
LINE
  8
0
  6
DASHED
 62
       7
  5
100
 10
-69.35769033
 20
50.56157574
 30
0.0
 11
-65.55769033
 21
50.56157574
 31
0.0
  0
LINE
  8
0
  6
DASHED
 62
       7
  5
101
 10
-69.35769033
 20
53.76157574
 30
0.0
 11
-65.55769033
 21
53.76157574
 31
0.0
  0
LINE
  8
0
  6
CONTINUOUS
 62
       7
  5
102
 10
-28.95769033
 20
57.66157574
 30
0.0
 11
-27.45769033
 21
56.16157574
 31
0.0
  0
LINE
  8
0
  6
CONTINUOUS
 62
       7
  5
103
 10
-67.85769033
 20
57.66157574
 30
0.0
 11
-69.35769033
 21
56.16157574
 31
0.0
  0
LINE
  8
0
  6
CONTINUOUS
 62
       7
  5
104
 10
-69.35769033
 20
56.16157574
 30
0.0
 11
-27.45769033
 21
56.16157574
 31
0.0
  0
LINE
  8
0
  6
CONTINUOUS
 62
       7
  5
105
 10
50.09230967
 20
59.58311387
 30
0.0
 11
50.09230967
 21
68.58311387
 31
0.0
  0
LINE
  8
0
  6
CONTINUOUS
 62
       7
  5
106
 10
61.59230967
 20
72.58311387
 30
0.0
 11
54.09230967
 21
72.58311387
 31
0.0
  0
ARC
  8
0
  6
CONTINUOUS
 62
       7
  5
107
 10
54.09230967
 20
68.58311387
 30
0.0
 40
4.0
 50
90.0
 51
180.0
  0
LINE
  8
0
  6
CONTINUOUS
 62
       7
  5
108
 10
61.59230967
 20
72.58311387
 30
0.0
 11
69.09230967
 21
72.58311387
 31
0.0
  0
LINE
  8
0
  6
CONTINUOUS
 62
       7
  5
109
 10
73.09230967
 20
59.58311387
 30
0.0
 11
73.09230967
 21
68.58311387
 31
0.0
  0
ARC
  8
0
  6
CONTINUOUS
 62
       7
  5
10A
 10
69.09230967
 20
68.58311387
 30
0.0
 40
4.0
 50
0.0
 51
90.0
  0
LINE
  8
0
  6
CONTINUOUS
 62
       7
  5
10B
 10
50.09230967
 20
59.58311387
 30
0.0
 11
73.09230967
 21
59.58311387
 31
0.0
  0
LINE
  8
0
  6
CONTINUOUS
 62
       7
  5
10C
 10
42.14230967
 20
57.66157574
 30
0.0
 11
81.04230967
 21
57.66157574
 31
0.0
  0
LINE
  8
0
  6
CONTINUOUS
 62
       7
  5
10D
 10
40.64230967
 20
46.66157574
 30
0.0
 11
40.64230967
 21
56.16157574
 31
0.0
  0
LINE
  8
0
  6
CONTINUOUS
 62
       7
  5
10E
 10
40.64230967
 20
56.16157574
 30
0.0
 11
82.54230967
 21
56.16157574
 31
0.0
  0
LINE
  8
0
  6
CONTINUOUS
 62
       7
  5
10F
 10
42.14230967
 20
57.66157574
 30
0.0
 11
40.64230967
 21
56.16157574
 31
0.0
  0
LINE
  8
0
  6
DASHED
 62
       7
  5
110
 10
40.64230967
 20
53.76157574
 30
0.0
 11
44.44230967
 21
53.76157574
 31
0.0
  0
LINE
  8
0
  6
DASHED
 62
       7
  5
111
 10
40.64230967
 20
50.56157574
 30
0.0
 11
44.44230967
 21
50.56157574
 31
0.0
  0
LINE
  8
0
  6
DASHED
 62
       2
  5
112
 10
40.64230967
 20
50.16157574
 30
0.0
 11
44.44230967
 21
50.16157574
 31
0.0
  0
LINE
  8
0
  6
DASHED
 62
       2
  5
113
 10
40.64230967
 20
54.16157574
 30
0.0
 11
44.44230967
 21
54.16157574
 31
0.0
  0
LINE
  8
0
  6
CONTINUOUS
 62
       2
  5
114
 10
39.50189036
 20
52.16157574
 30
0.0
 11
45.39211414
 21
52.16157574
 31
0.0
  0
LINE
  8
0
  6
CONTINUOUS
 62
       7
  5
115
 10
82.54230967
 20
46.66157574
 30
0.0
 11
82.54230967
 21
56.16157574
 31
0.0
  0
LINE
  8
0
  6
CONTINUOUS
 62
       7
  5
116
 10
81.04230967
 20
57.66157574
 30
0.0
 11
82.54230967
 21
56.16157574
 31
0.0
  0
LINE
  8
0
  6
DASHED
 62
       7
  5
117
 10
82.54230967
 20
53.76157574
 30
0.0
 11
78.74230967
 21
53.76157574
 31
0.0
  0
LINE
  8
0
  6
DASHED
 62
       7
  5
118
 10
82.54230967
 20
50.56157574
 30
0.0
 11
78.74230967
 21
50.56157574
 31
0.0
  0
LINE
  8
0
  6
DASHED
 62
       2
  5
119
 10
82.54230967
 20
50.16157574
 30
0.0
 11
78.74230967
 21
50.16157574
 31
0.0
  0
LINE
  8
0
  6
DASHED
 62
       2
  5
11A
 10
82.54230967
 20
54.16157574
 30
0.0
 11
78.74230967
 21
54.16157574
 31
0.0
  0
LINE
  8
0
  6
CONTINUOUS
 62
       2
  5
11B
 10
83.68272898
 20
52.16157574
 30
0.0
 11
77.79250521
 21
52.16157574
 31
0.0
  0
LINE
  8
0
  6
CONTINUOUS
 62
       2
  5
11C
 10
66.54750578
 20
52.16157574
 30
0.0
 11
56.79262654
 21
52.16157574
 31
0.0
  0
CIRCLE
  8
0
  6
CONTINUOUS
 62
       7
  5
11D
 10
61.59230967
 20
52.16157574
 30
0.0
 40
1.6
  0
CIRCLE
  8
0
  6
CONTINUOUS
 62
       2
  5
11E
 10
61.59230967
 20
52.16157574
 30
0.0
 40
2.0
  0
LINE
  8
0
  6
CONTINUOUS
 62
       7
  5
11F
 10
-40.90769033
 20
72.66157574
 30
0.0
 11
-55.90769033
 21
72.66157574
 31
0.0
  0
ARC
  8
0
  6
CONTINUOUS
 62
       7
  5
120
 10
-40.90769033
 20
68.66157574
 30
0.0
 40
4.0
 50
0.0
 51
90.0
  0
ARC
  8
0
  6
CONTINUOUS
 62
       7
  5
121
 10
-55.90769033
 20
68.66157574
 30
0.0
 40
4.0
 50
90.0
 51
180.0
  0
LINE
  8
0
  6
CONTINUOUS
 62
       7
  5
122
 10
-138.3999939
 20
94.5
 30
0.0
 11
138.3500061
 21
94.5
 31
0.0
  0
LINE
  8
0
  6
CONTINUOUS
 62
       7
  5
123
 10
138.3500061
 20
94.5
 30
0.0
 11
138.3500061
 21
-94.80000305
 31
0.0
  0
LINE
  8
0
  6
CONTINUOUS
 62
       7
  5
124
 10
-138.3999939
 20
-94.80000305
 30
0.0
 11
138.3500061
 21
-94.80000305
 31
0.0
  0
LINE
  8
0
  6
CONTINUOUS
 62
       7
  5
125
 10
-138.3999939
 20
94.5
 30
0.0
 11
-138.3999939
 21
-94.80000305
 31
0.0
  0
TEXT
  8
0
  6
CONTINUOUS
 62
       7
  5
126
 10
-129.41817573
 20
82.89999998
 30
0.0
 40
3.20000005
  1
MODEL:250P
 41
1.09090909
  7
MX_NOTE_STANDARD
 11
-129.41817573
 21
84.5
 31
0.0
 73
       2
  0
ENDSEC
  0
EOF
