  0
SECTION
  2
HEADER
  9
$ACADVER
  1
AC1009
  9
$DWGCODEPAGE
  3
dos932
  9
$INSBASE
 10
0.0
 20
0.0
 30
0.0
  9
$EXTMIN
 10
-194.25
 20
-133.5
 30
0.0
  9
$EXTMAX
 10
194.80000305
 20
132.6000061
 30
0.0
  9
$LIMMIN
 10
-194.25
 20
-133.5
  9
$LIMMAX
 10
194.80000305
 20
132.6000061
  9
$ORTHOMODE
 70
       0
  9
$REGENMODE
 70
       1
  9
$FILLMODE
 70
       1
  9
$QTEXTMODE
 70
       0
  9
$MIRRTEXT
 70
       1
  9
$DRAGMODE
 70
       2
  9
$LTSCALE
 40
1.0
  9
$OSMODE
 70
       0
  9
$ATTMODE
 70
       1
  9
$TEXTSIZE
 40
3.20000005
  9
$TRACEWID
 40
0.05
  9
$TEXTSTYLE
  7
MX_NOTE_STANDARD
  9
$CLAYER
  8
0
  9
$CELTYPE
  6
CONTINUOUS
  9
$CECOLOR
 62
     256
  9
$DIMSCALE
 40
1.0
  9
$DIMASZ
 40
2.5
  9
$DIMEXO
 40
1.5
  9
$DIMDLI
 40
3.75
  9
$DIMRND
 40
0.0
  9
$DIMDLE
 40
0.0
  9
$DIMEXE
 40
1.5
  9
$DIMTP
 40
0.0
  9
$DIMTM
 40
0.0
  9
$DIMTXT
 40
3.20000005
  9
$DIMCEN
 40
2.5
  9
$DIMTSZ
 40
0.0
  9
$DIMTOL
 70
       0
  9
$DIMLIM
 70
       0
  9
$DIMTIH
 70
       0
  9
$DIMTOH
 70
       0
  9
$DIMSE1
 70
       0
  9
$DIMSE2
 70
       0
  9
$DIMTAD
 70
       1
  9
$DIMZIN
 70
       8
  9
$DIMBLK
  1

  9
$DIMASO
 70
       1
  9
$DIMSHO
 70
       1
  9
$DIMPOST
  1

  9
$DIMAPOST
  1

  9
$DIMALT
 70
       0
  9
$DIMALTD
 70
       4
  9
$DIMALTF
 40
0.03937008
  9
$DIMLFAC
 40
1.0
  9
$DIMTOFL
 70
       1
  9
$DIMTVP
 40
0.0
  9
$DIMTIX
 70
       0
  9
$DIMSOXD
 70
       0
  9
$DIMSAH
 70
       0
  9
$DIMBLK1
  1

  9
$DIMBLK2
  1

  9
$DIMSTYLE
  2
MXDIMSTYLE
  9
$DIMCLRD
 70
       0
  9
$DIMCLRE
 70
       0
  9
$DIMCLRT
 70
       0
  9
$DIMTFAC
 40
1.0
  9
$DIMGAP
 40
1.0
  9
$LUNITS
 70
       2
  9
$LUPREC
 70
       4
  9
$AXISMODE
 70
       0
  9
$AXISUNIT
 10
0.0
 20
0.0
  9
$SKETCHINC
 40
0.1
  9
$FILLETRAD
 40
0.0
  9
$AUNITS
 70
       0
  9
$AUPREC
 70
       0
  9
$MENU
  1
acad
  9
$ELEVATION
 40
0.0
  9
$PELEVATION
 40
0.0
  9
$THICKNESS
 40
0.0
  9
$LIMCHECK
 70
       0
  9
$BLIPMODE
 70
       1
  9
$CHAMFERA
 40
0.0
  9
$CHAMFERB
 40
0.0
  9
$SKPOLY
 70
       0
  9
$TDCREATE
 40
2453510.778819445
  9
$TDUPDATE
 40
2453510.778819445
  9
$TDINDWG
 40
0.0000000000
  9
$TDUSRTIMER
 40
0.0000000000
  9
$USRTIMER
 70
       1
  9
$ANGBASE
 50
0.0
  9
$ANGDIR
 70
       0
  9
$PDMODE
 70
       0
  9
$PDSIZE
 40
0.0
  9
$PLINEWID
 40
0.0
  9
$COORDS
 70
       1
  9
$SPLFRAME
 70
       0
  9
$SPLINETYPE
 70
       6
  9
$SPLINESEGS
 70
       8
  9
$ATTDIA
 70
       0
  9
$ATTREQ
 70
       1
  9
$HANDLING
 70
       1
  9
$HANDSEED
  5
1BE
  9
$SURFTAB1
 70
       6
  9
$SURFTAB2
 70
       6
  9
$SURFTYPE
 70
       6
  9
$SURFU
 70
       6
  9
$SURFV
 70
       6
  9
$UCSNAME
  2

  9
$UCSORG
 10
0.0
 20
0.0
 30
0.0
  9
$UCSXDIR
 10
1.0
 20
0.0
 30
0.0
  9
$UCSYDIR
 10
0.0
 20
1.0
 30
0.0
  9
$PUCSNAME
  2

  9
$PUCSORG
 10
0.0
 20
0.0
 30
0.0
  9
$PUCSXDIR
 10
1.0
 20
0.0
 30
0.0
  9
$PUCSYDIR
 10
0.0
 20
1.0
 30
0.0
  9
$USERI1
 70
       0
  9
$USERI2
 70
       0
  9
$USERI3
 70
       0
  9
$USERI4
 70
       0
  9
$USERI5
 70
       0
  9
$USERR1
 40
0.0
  9
$USERR2
 40
0.0
  9
$USERR3
 40
0.0
  9
$USERR4
 40
0.0
  9
$USERR5
 40
0.0
  9
$WORLDVIEW
 70
       1
  9
$SHADEDGE
 70
       3
  9
$SHADEDIF
 70
      70
  9
$TILEMODE
 70
       1
  9
$MAXACTVP
 70
      16
  9
$PINSBASE
 10
0.0
 20
0.0
 30
0.0
  9
$PLIMCHECK
 70
       0
  9
$PEXTMIN
 10
1.00000000E+20
 20
1.00000000E+20
 30
1.00000000E+20
  9
$PEXTMAX
 10
-1.00000000E+20
 20
-1.00000000E+20
 30
-1.00000000E+20
  9
$PLIMMIN
 10
0.0
 20
0.0
  9
$PLIMMAX
 10
12.0
 20
9.0
  9
$UNITMODE
 70
       0
  9
$VISRETAIN
 70
       0
  9
$PLINEGEN
 70
       1
  9
$PSLTSCALE
 70
       0
  9
$TREEDEPTH
 70
    3020
  9
$DWGCODEPAGE
  3
dos932
  0
ENDSEC
  0
SECTION
  2
TABLES
  0
TABLE
  2
VPORT
 70
       1
  0
VPORT
  2
*ACTIVE
 70
       0
 10
0.0
 20
0.0
 11
1.0
 21
1.0
 12
0.27500153
 22
-0.44999695
 13
0.0
 23
0.0
 14
1.0
 24
1.0
 15
0.0
 25
0.0
 16
0.0
 26
0.0
 36
1.0
 17
0.0
 27
0.0
 37
0.0
 40
268.76100616
 41
1.73205081
 42
50.0
 43
0.0
 44
0.0
 50
0.0
 51
0.0
 71
       0
 72
     100
 73
       1
 74
       1
 75
       0
 76
       0
 77
       0
 78
       0
  0
ENDTAB
  0
TABLE
  2
LTYPE
 70
       2
  0
LTYPE
  2
CONTINUOUS
 70
      64
  3
Solid line
 72
      65
 73
       0
 40
0.0
  0
LTYPE
  2
DASHED
 70
      64
  3
Dashed __ __ __ __ __ __ __ __ __ __ __ __ __ _
 72
      65
 73
       2
 40
4.0
 49
2.0
 49
-2.0
  0
ENDTAB
  0
TABLE
  2
LAYER
 70
       2
  0
LAYER
  2
0
 70
       0
 62
       7
  6
CONTINUOUS
  0
LAYER
  2
DEFPOINTS
 70
       0
 62
       7
  6
CONTINUOUS
  0
ENDTAB
  0
TABLE
  2
STYLE
 70
       1
  0
STYLE
  2
MX_NOTE_STANDARD
 70
       0
 40
0.0
 41
1.0
 50
0.0
 71
       0
 42
3.20000005
  3
txt.shx
  4
extfont.shx
  0
ENDTAB
  0
TABLE
  2
VIEW
 70
       0
  0
ENDTAB
  0
TABLE
  2
UCS
 70
       0
  0
ENDTAB
  0
TABLE
  2
APPID
 70
       1
  0
APPID
  2
ACAD
 70
       0
  0
ENDTAB
  0
TABLE
  2
DIMSTYLE
 70
       1
  0
DIMSTYLE
  2
MXDIMSTYLE
 70
       0
  3

  4

  5

  6

  7

 40
1.0
 41
2.5
 42
1.5
 43
3.75
 44
1.5
 45
0.0
 46
0.0
 47
0.0
 48
0.0
 71
       0
 72
       0
 73
       0
 74
       0
 75
       0
 76
       0
 77
       1
 78
       8
140
3.20000005
141
2.5
142
0.0
143
0.03937008
144
1.0
145
0.0
146
1.0
147
1.0
170
       0
171
       4
172
       1
173
       0
174
       0
175
       0
176
       0
177
       0
178
       0
  0
ENDTAB
  0
ENDSEC
  0
SECTION
  2
BLOCKS
  0
BLOCK
  8
0
  6
BYBLOCK
 62
       0
  5
1F
  2
_OPEN30
 70
       2
 10
0.0
 20
0.0
 30
0.0
  3
_OPEN30
  0
LINE
  8
0
  6
BYBLOCK
 62
       0
  5
20
 10
-1.0
 20
0.267949
 30
0.0
 11
0.0
 21
0.0
 31
0.0
  0
LINE
  8
0
  6
BYBLOCK
 62
       0
  5
21
 10
0.0
 20
0.0
 30
0.0
 11
-1.0
 21
-0.267949
 31
0.0
  0
LINE
  8
0
  6
BYBLOCK
 62
       0
  5
22
 10
0.0
 20
0.0
 30
0.0
 11
-1.0
 21
0.0
 31
0.0
  0
ENDBLK
  8
0
  6
BYBLOCK
 62
       0
  5
23
  0
ENDSEC
  0
SECTION
  2
ENTITIES
  0
POLYLINE
  8
0
  6
CONTINUOUS
 62
       2
  5
24
 66
       1
 10
0.0
 20
0.0
 30
0.0
  0
VERTEX
  8
0
  6
CONTINUOUS
 62
       2
  5
F5
 10
42.40590733
 20
43.84974511
 30
0.0
  0
VERTEX
  8
0
  6
CONTINUOUS
 62
       2
  5
F6
 10
36.70630084
 20
32.66639719
 30
0.0
  0
VERTEX
  8
0
  6
CONTINUOUS
 62
       2
  5
F7
 10
28.61595569
 20
32.66639719
 30
0.0
  0
SEQEND
  8
0
  6
CONTINUOUS
 62
       2
  5
F8
  0
INSERT
  8
0
  6
CONTINUOUS
 62
       2
  5
25
  2
_OPEN30
 10
42.40590733
 20
43.84974511
 30
0.0
 41
2.77
 42
2.77
 50
62.99428112
 43
2.77
  0
TEXT
  8
0
  6
CONTINUOUS
 62
       2
  5
26
 10
29.11595569
 20
34.66639707
 30
0.0
 40
3.20000005
  1
-2
 41
0.93749999
  7
MX_NOTE_STANDARD
 11
29.11595569
 21
36.26639709
 31
0.0
 73
       2
  0
LINE
  8
0
  6
CONTINUOUS
 62
       7
  5
27
 10
-43.0192071
 20
25.87785451
 30
0.0
 11
-43.0192071
 21
24.67785451
 31
0.0
  0
LINE
  8
0
  6
CONTINUOUS
 62
       2
  5
28
 10
-91.5192071
 20
-84.35916065
 30
0.0
 11
-91.5192071
 21
-75.27296402
 31
0.0
  0
LINE
  8
0
  6
CONTINUOUS
 62
       2
  5
29
 10
-86.9817071
 20
-79.82214549
 30
0.0
 11
-96.06790247
 21
-79.82214549
 31
0.0
  0
CIRCLE
  8
0
  6
CONTINUOUS
 62
       7
  5
2A
 10
-91.5192071
 20
-79.82214549
 30
0.0
 40
2.74999976
  0
LINE
  8
0
  6
CONTINUOUS
 62
       2
  5
2B
 10
-51.5192071
 20
-84.35916065
 30
0.0
 11
-51.5192071
 21
-75.27296402
 31
0.0
  0
LINE
  8
0
  6
CONTINUOUS
 62
       2
  5
2C
 10
-56.0567071
 20
-79.82214549
 30
0.0
 11
-46.97051173
 21
-79.82214549
 31
0.0
  0
CIRCLE
  8
0
  6
CONTINUOUS
 62
       7
  5
2D
 10
-51.5192071
 20
-79.82214549
 30
0.0
 40
2.74999976
  0
LINE
  8
0
  6
CONTINUOUS
 62
       2
  5
2E
 10
-51.5192071
 20
-35.28513033
 30
0.0
 11
-51.5192071
 21
-44.37132696
 31
0.0
  0
LINE
  8
0
  6
CONTINUOUS
 62
       2
  5
2F
 10
-56.0567071
 20
-39.82214549
 30
0.0
 11
-46.97051173
 21
-39.82214549
 31
0.0
  0
CIRCLE
  8
0
  6
CONTINUOUS
 62
       7
  5
30
 10
-51.5192071
 20
-39.82214549
 30
0.0
 40
2.74999976
  0
ARC
  8
0
  6
CONTINUOUS
 62
       7
  5
31
 10
-51.0192071
 20
-80.32214549
 30
0.0
 40
8.0
 50
270.0
 51
0.0
  0
ARC
  8
0
  6
CONTINUOUS
 62
       7
  5
32
 10
-92.0192071
 20
-80.32214549
 30
0.0
 40
8.0
 50
180.0
 51
270.0
  0
ARC
  8
0
  6
CONTINUOUS
 62
       7
  5
33
 10
-92.0192071
 20
-39.32214549
 30
0.0
 40
8.0
 50
90.0
 51
180.0
  0
ARC
  8
0
  6
CONTINUOUS
 62
       7
  5
34
 10
-51.0192071
 20
-39.32214549
 30
0.0
 40
8.0
 50
0.0
 51
90.0
  0
LINE
  8
0
  6
CONTINUOUS
 62
       7
  5
35
 10
-92.0192071
 20
-31.32214549
 30
0.0
 11
-51.0192071
 21
-31.32214549
 31
0.0
  0
LINE
  8
0
  6
CONTINUOUS
 62
       7
  5
36
 10
-43.0192071
 20
-39.32214549
 30
0.0
 11
-43.0192071
 21
-80.32214549
 31
0.0
  0
LINE
  8
0
  6
CONTINUOUS
 62
       7
  5
37
 10
99.4807929
 20
61.67785451
 30
0.0
 11
99.4807929
 21
38.67785451
 31
0.0
  0
LINE
  8
0
  6
CONTINUOUS
 62
       2
  5
38
 10
78.4807929
 20
82.31193124
 30
0.0
 11
78.4807929
 21
18.42446065
 31
0.0
  0
LINE
  8
0
  6
CONTINUOUS
 62
       7
  5
39
 10
97.2307929
 20
72.67785451
 30
0.0
 11
59.7307929
 21
72.67785451
 31
0.0
  0
LINE
  8
0
  6
CONTINUOUS
 62
       7
  5
3A
 10
98.2307929
 20
71.67785451
 30
0.0
 11
98.2307929
 21
61.67785451
 31
0.0
  0
LINE
  8
0
  6
CONTINUOUS
 62
       2
  5
3B
 10
101.8307929
 20
50.17785451
 30
0.0
 11
35.9807929
 21
50.17785451
 31
0.0
  0
LINE
  8
0
  6
CONTINUOUS
 62
       7
  5
3C
 10
99.4807929
 20
38.67785451
 30
0.0
 11
57.4807929
 21
38.67785451
 31
0.0
  0
LINE
  8
0
  6
CONTINUOUS
 62
       2
  5
3D
 10
103.3807929
 20
33.17785451
 30
0.0
 11
98.7182929
 21
33.17785451
 31
0.0
  0
LINE
  8
0
  6
CONTINUOUS
 62
       7
  5
3E
 10
99.4807929
 20
61.67785451
 30
0.0
 11
57.4807929
 21
61.67785451
 31
0.0
  0
LINE
  8
0
  6
CONTINUOUS
 62
       7
  5
3F
 10
98.2307929
 20
71.67785451
 30
0.0
 11
97.2307929
 21
72.67785451
 31
0.0
  0
LINE
  8
0
  6
CONTINUOUS
 62
       7
  5
40
 10
57.4807929
 20
61.67785451
 30
0.0
 11
57.4807929
 21
38.67785451
 31
0.0
  0
LINE
  8
0
  6
CONTINUOUS
 62
       7
  5
41
 10
58.7307929
 20
71.67785451
 30
0.0
 11
59.7307929
 21
72.67785451
 31
0.0
  0
LINE
  8
0
  6
CONTINUOUS
 62
       7
  5
42
 10
58.7307929
 20
71.67785451
 30
0.0
 11
58.7307929
 21
38.67785451
 31
0.0
  0
LINE
  8
0
  6
DASHED
 62
       2
  5
44
 10
65.4807929
 20
44.09615516
 30
0.0
 11
57.4807929
 21
43.67785451
 31
0.0
  0
LINE
  8
0
  6
DASHED
 62
       7
  5
45
 10
57.4807929
 20
44.67785451
 30
0.0
 11
65.4807929
 21
44.67785451
 31
0.0
  0
LINE
  8
0
  6
CONTINUOUS
 62
       2
  5
46
 10
53.5807929
 20
33.17785451
 30
0.0
 11
58.1932929
 21
33.17785451
 31
0.0
  0
LINE
  8
0
  6
DASHED
 62
       2
  5
47
 10
65.4807929
 20
56.25955386
 30
0.0
 11
57.4807929
 21
56.67785451
 31
0.0
  0
LINE
  8
0
  6
DASHED
 62
       7
  5
48
 10
57.4807929
 20
55.67785451
 30
0.0
 11
65.4807929
 21
55.67785451
 31
0.0
  0
LINE
  8
0
  6
CONTINUOUS
 62
       7
  5
49
 10
85.4807929
 20
77.97785451
 30
0.0
 11
71.4807929
 21
77.97785451
 31
0.0
  0
LINE
  8
0
  6
DASHED
 62
       7
  5
4A
 10
82.4807929
 20
77.97785451
 30
0.0
 11
82.4807929
 21
73.97785451
 31
0.0
  0
LINE
  8
0
  6
DASHED
 62
       2
  5
4B
 10
83.4807929
 20
77.97785451
 30
0.0
 11
83.26840352
 21
73.97785451
 31
0.0
  0
LINE
  8
0
  6
CONTINUOUS
 62
       7
  5
4C
 10
99.5307929
 20
38.67785451
 30
0.0
 11
99.5307929
 21
27.87785451
 31
0.0
  0
LINE
  8
0
  6
CONTINUOUS
 62
       7
  5
4D
 10
106.9807929
 20
25.87785451
 30
0.0
 11
106.9807929
 21
24.67785451
 31
0.0
  0
LINE
  8
0
  6
CONTINUOUS
 62
       2
  5
4E
 10
99.4807929
 20
67.17785451
 30
0.0
 11
97.0057929
 21
67.17785451
 31
0.0
  0
LINE
  8
0
  6
CONTINUOUS
 62
       2
  5
4F
 10
57.4807929
 20
67.17785451
 30
0.0
 11
60.0171426
 21
67.17785451
 31
0.0
  0
LINE
  8
0
  6
CONTINUOUS
 62
       7
  5
50
 10
57.4307929
 20
38.67785451
 30
0.0
 11
57.4307929
 21
27.87785451
 31
0.0
  0
LINE
  8
0
  6
CONTINUOUS
 62
       7
  5
51
 10
49.9807929
 20
25.87785451
 30
0.0
 11
49.9807929
 21
24.67785451
 31
0.0
  0
LINE
  8
0
  6
CONTINUOUS
 62
       7
  5
52
 10
-92.0192071
 20
-88.32214549
 30
0.0
 11
-51.0192071
 21
-88.32214549
 31
0.0
  0
LINE
  8
0
  6
CONTINUOUS
 62
       7
  5
53
 10
-100.0192071
 20
-39.32214549
 30
0.0
 11
-100.0192071
 21
-80.32214549
 31
0.0
  0
LINE
  8
0
  6
CONTINUOUS
 62
       2
  5
54
 10
-104.42725429
 20
-59.82214549
 30
0.0
 11
-38.61115991
 21
-59.82214549
 31
0.0
  0
LINE
  8
0
  6
CONTINUOUS
 62
       2
  5
55
 10
-71.5192071
 20
-26.9140983
 30
0.0
 11
-71.5192071
 21
-92.73019268
 31
0.0
  0
LINE
  8
0
  6
CONTINUOUS
 62
       2
  5
56
 10
-91.5192071
 20
-35.28513033
 30
0.0
 11
-91.5192071
 21
-44.37132696
 31
0.0
  0
LINE
  8
0
  6
CONTINUOUS
 62
       2
  5
57
 10
-86.9817071
 20
-39.82214549
 30
0.0
 11
-96.06790247
 21
-39.82214549
 31
0.0
  0
LINE
  8
0
  6
CONTINUOUS
 62
       7
  5
58
 10
86.4807929
 20
61.67785451
 30
0.0
 11
86.4807929
 21
38.67785451
 31
0.0
  0
LINE
  8
0
  6
CONTINUOUS
 62
       7
  5
59
 10
70.4807929
 20
61.67785451
 30
0.0
 11
70.4807929
 21
38.67785451
 31
0.0
  0
LINE
  8
0
  6
CONTINUOUS
 62
       7
  5
5A
 10
98.2307929
 20
71.67785451
 30
0.0
 11
58.7307929
 21
71.67785451
 31
0.0
  0
LINE
  8
0
  6
DASHED
 62
       7
  5
5B
 10
74.4807929
 20
77.97785451
 30
0.0
 11
74.4807929
 21
73.97785451
 31
0.0
  0
LINE
  8
0
  6
DASHED
 62
       2
  5
5C
 10
73.4807929
 20
77.97785451
 30
0.0
 11
73.69318228
 21
73.97785451
 31
0.0
  0
LINE
  8
0
  6
CONTINUOUS
 62
       7
  5
5D
 10
56.9807929
 20
36.67785451
 30
0.0
 11
56.9807929
 21
29.67785451
 31
0.0
  0
LINE
  8
0
  6
CONTINUOUS
 62
       7
  5
5E
 10
54.3807929
 20
34.07785451
 30
0.0
 11
54.3807929
 21
32.27785451
 31
0.0
  0
LINE
  8
0
  6
CONTINUOUS
 62
       7
  5
5F
 10
56.9807929
 20
36.67785451
 30
0.0
 11
57.4307929
 21
36.67785451
 31
0.0
  0
LINE
  8
0
  6
CONTINUOUS
 62
       7
  5
60
 10
56.9807929
 20
29.67785451
 30
0.0
 11
57.4307929
 21
29.67785451
 31
0.0
  0
LINE
  8
0
  6
CONTINUOUS
 62
       2
  5
61
 10
82.6182929
 20
33.17785451
 30
0.0
 11
74.2432929
 21
33.17785451
 31
0.0
  0
LINE
  8
0
  6
DASHED
 62
       2
  5
62
 10
77.06297349
 20
31.77406818
 30
0.0
 11
79.89881453
 21
34.59506189
 31
0.0
  0
LINE
  8
0
  6
DASHED
 62
       2
  5
63
 10
77.06283309
 20
34.59512405
 30
0.0
 11
79.8987527
 21
31.77420931
 31
0.0
  0
LINE
  8
0
  6
CONTINUOUS
 62
       7
  5
64
 10
99.9807929
 20
36.67785451
 30
0.0
 11
99.9807929
 21
29.67785451
 31
0.0
  0
LINE
  8
0
  6
CONTINUOUS
 62
       7
  5
65
 10
99.9807929
 20
29.67785451
 30
0.0
 11
99.5307929
 21
29.67785451
 31
0.0
  0
LINE
  8
0
  6
CONTINUOUS
 62
       7
  5
66
 10
99.9807929
 20
36.67785451
 30
0.0
 11
99.5307929
 21
36.67785451
 31
0.0
  0
LINE
  8
0
  6
CONTINUOUS
 62
       7
  5
67
 10
102.5807929
 20
34.07785451
 30
0.0
 11
102.5807929
 21
32.27785451
 31
0.0
  0
LINE
  8
0
  6
CONTINUOUS
 62
       2
  5
68
 10
81.4807929
 20
67.17785451
 30
0.0
 11
75.4807929
 21
67.17785451
 31
0.0
  0
LINE
  8
0
  6
CONTINUOUS
 62
       7
  5
69
 10
-50.5317071
 20
61.67785451
 30
0.0
 11
-50.5317071
 21
38.67785451
 31
0.0
  0
LINE
  8
0
  6
CONTINUOUS
 62
       2
  5
6A
 10
-71.5192071
 20
82.31193124
 30
0.0
 11
-71.5192071
 21
18.42446065
 31
0.0
  0
LINE
  8
0
  6
CONTINUOUS
 62
       7
  5
6B
 10
-52.7817071
 20
72.67785451
 30
0.0
 11
-90.2692071
 21
72.67785451
 31
0.0
  0
LINE
  8
0
  6
CONTINUOUS
 62
       7
  5
6C
 10
-51.7817071
 20
71.67785451
 30
0.0
 11
-51.7817071
 21
38.67785451
 31
0.0
  0
LINE
  8
0
  6
CONTINUOUS
 62
       2
  5
6D
 10
-45.14184726
 20
50.17785451
 30
0.0
 11
-97.89656694
 21
50.17785451
 31
0.0
  0
LINE
  8
0
  6
CONTINUOUS
 62
       7
  5
6E
 10
-50.5317071
 20
38.67785451
 30
0.0
 11
-92.5192071
 21
38.67785451
 31
0.0
  0
LINE
  8
0
  6
CONTINUOUS
 62
       2
  5
6F
 10
-46.6317071
 20
33.17785451
 30
0.0
 11
-51.2942071
 21
33.17785451
 31
0.0
  0
LINE
  8
0
  6
DASHED
 62
       7
  5
70
 10
-50.5317071
 20
55.67785451
 30
0.0
 11
-58.5317071
 21
55.67785451
 31
0.0
  0
LINE
  8
0
  6
DASHED
 62
       2
  5
71
 10
-58.5317071
 20
56.25955386
 30
0.0
 11
-50.5317071
 21
56.67785451
 31
0.0
  0
LINE
  8
0
  6
DASHED
 62
       7
  5
72
 10
-50.5317071
 20
44.67785451
 30
0.0
 11
-58.5317071
 21
44.67785451
 31
0.0
  0
LINE
  8
0
  6
DASHED
 62
       2
  5
73
 10
-58.5317071
 20
44.09615516
 30
0.0
 11
-50.5317071
 21
43.67785451
 31
0.0
  0
LINE
  8
0
  6
CONTINUOUS
 62
       7
  5
74
 10
-50.5317071
 20
61.67785451
 30
0.0
 11
-92.5192071
 21
61.67785451
 31
0.0
  0
LINE
  8
0
  6
CONTINUOUS
 62
       7
  5
75
 10
-51.7817071
 20
71.67785451
 30
0.0
 11
-52.7817071
 21
72.67785451
 31
0.0
  0
LINE
  8
0
  6
CONTINUOUS
 62
       7
  5
76
 10
-92.5192071
 20
61.67785451
 30
0.0
 11
-92.5192071
 21
38.67785451
 31
0.0
  0
LINE
  8
0
  6
CONTINUOUS
 62
       7
  5
77
 10
-91.2692071
 20
71.67785451
 30
0.0
 11
-90.2692071
 21
72.67785451
 31
0.0
  0
LINE
  8
0
  6
CONTINUOUS
 62
       7
  5
78
 10
-91.2692071
 20
71.67785451
 30
0.0
 11
-91.2692071
 21
38.67785451
 31
0.0
  0
LINE
  8
0
  6
DASHED
 62
       2
  5
79
 10
-84.5192071
 20
44.09615516
 30
0.0
 11
-92.5192071
 21
43.67785451
 31
0.0
  0
LINE
  8
0
  6
DASHED
 62
       7
  5
7A
 10
-92.5192071
 20
44.67785451
 30
0.0
 11
-84.5192071
 21
44.67785451
 31
0.0
  0
LINE
  8
0
  6
CONTINUOUS
 62
       2
  5
7B
 10
-96.4192071
 20
33.17785451
 30
0.0
 11
-91.8067071
 21
33.17785451
 31
0.0
  0
LINE
  8
0
  6
DASHED
 62
       2
  5
7C
 10
-84.5192071
 20
56.25955386
 30
0.0
 11
-92.5192071
 21
56.67785451
 31
0.0
  0
LINE
  8
0
  6
DASHED
 62
       7
  5
7D
 10
-92.5192071
 20
55.67785451
 30
0.0
 11
-84.5192071
 21
55.67785451
 31
0.0
  0
LINE
  8
0
  6
CONTINUOUS
 62
       7
  5
7E
 10
-62.7817071
 20
77.97785451
 30
0.0
 11
-80.2692071
 21
77.97785451
 31
0.0
  0
LINE
  8
0
  6
CONTINUOUS
 62
       7
  5
7F
 10
-62.7817071
 20
77.97785451
 30
0.0
 11
-62.7817071
 21
72.67785451
 31
0.0
  0
LINE
  8
0
  6
DASHED
 62
       7
  5
80
 10
-67.5192071
 20
77.97785451
 30
0.0
 11
-67.5192071
 21
73.97785451
 31
0.0
  0
LINE
  8
0
  6
DASHED
 62
       2
  5
81
 10
-66.5192071
 20
77.97785451
 30
0.0
 11
-66.73159648
 21
73.97785451
 31
0.0
  0
LINE
  8
0
  6
CONTINUOUS
 62
       7
  5
82
 10
-80.2692071
 20
77.97785451
 30
0.0
 11
-80.2692071
 21
72.67785451
 31
0.0
  0
LINE
  8
0
  6
CONTINUOUS
 62
       7
  5
83
 10
-66.2692071
 20
77.97785451
 30
0.0
 11
-66.2692071
 21
72.67785451
 31
0.0
  0
LINE
  8
0
  6
CONTINUOUS
 62
       7
  5
84
 10
-76.7692071
 20
77.97785451
 30
0.0
 11
-76.7692071
 21
72.67785451
 31
0.0
  0
LINE
  8
0
  6
CONTINUOUS
 62
       7
  5
85
 10
-50.4817071
 20
38.67785451
 30
0.0
 11
-50.4817071
 21
27.87785451
 31
0.0
  0
LINE
  8
0
  6
CONTINUOUS
 62
       7
  5
86
 10
-43.0192071
 20
24.67785451
 30
0.0
 11
-100.0192071
 21
24.67785451
 31
0.0
  0
LINE
  8
0
  6
CONTINUOUS
 62
       7
  5
87
 10
-43.0192071
 20
25.87785451
 30
0.0
 11
-100.0192071
 21
25.87785451
 31
0.0
  0
LINE
  8
0
  6
CONTINUOUS
 62
       2
  5
88
 10
-50.5317071
 20
67.17785451
 30
0.0
 11
-53.0192071
 21
67.17785451
 31
0.0
  0
LINE
  8
0
  6
CONTINUOUS
 62
       2
  5
89
 10
-92.5192071
 20
67.17785451
 30
0.0
 11
-89.0067071
 21
67.17785451
 31
0.0
  0
LINE
  8
0
  6
CONTINUOUS
 62
       7
  5
8A
 10
-92.5692071
 20
38.67785451
 30
0.0
 11
-92.5692071
 21
27.87785451
 31
0.0
  0
LINE
  8
0
  6
CONTINUOUS
 62
       7
  5
8B
 10
-100.0192071
 20
25.87785451
 30
0.0
 11
-100.0192071
 21
24.67785451
 31
0.0
  0
LINE
  8
0
  6
CONTINUOUS
 62
       7
  5
8C
 10
-63.5317071
 20
61.67785451
 30
0.0
 11
-63.5317071
 21
38.67785451
 31
0.0
  0
LINE
  8
0
  6
CONTINUOUS
 62
       7
  5
8D
 10
-79.5192071
 20
61.67785451
 30
0.0
 11
-79.5192071
 21
38.67785451
 31
0.0
  0
LINE
  8
0
  6
CONTINUOUS
 62
       7
  5
8E
 10
-74.8317071
 20
72.67785451
 30
0.0
 11
-66.2692071
 21
77.97785451
 31
0.0
  0
LINE
  8
0
  6
CONTINUOUS
 62
       7
  5
8F
 10
-68.2067071
 20
72.67785451
 30
0.0
 11
-76.7692071
 21
77.97785451
 31
0.0
  0
LINE
  8
0
  6
CONTINUOUS
 62
       7
  5
90
 10
-51.7817071
 20
71.67785451
 30
0.0
 11
-91.2692071
 21
71.67785451
 31
0.0
  0
LINE
  8
0
  6
DASHED
 62
       7
  5
91
 10
-75.5192071
 20
77.97785451
 30
0.0
 11
-75.5192071
 21
73.97785451
 31
0.0
  0
LINE
  8
0
  6
DASHED
 62
       2
  5
92
 10
-76.5192071
 20
77.97785451
 30
0.0
 11
-76.30681772
 21
73.97785451
 31
0.0
  0
LINE
  8
0
  6
CONTINUOUS
 62
       7
  5
93
 10
-93.0192071
 20
36.67785451
 30
0.0
 11
-93.0192071
 21
29.67785451
 31
0.0
  0
LINE
  8
0
  6
CONTINUOUS
 62
       7
  5
94
 10
-95.6192071
 20
34.07785451
 30
0.0
 11
-95.6192071
 21
32.27785451
 31
0.0
  0
LINE
  8
0
  6
CONTINUOUS
 62
       7
  5
95
 10
-93.0192071
 20
36.67785451
 30
0.0
 11
-92.5692071
 21
36.67785451
 31
0.0
  0
LINE
  8
0
  6
CONTINUOUS
 62
       7
  5
96
 10
-93.0192071
 20
29.67785451
 30
0.0
 11
-92.5692071
 21
29.67785451
 31
0.0
  0
LINE
  8
0
  6
CONTINUOUS
 62
       2
  5
97
 10
-67.3942071
 20
33.17785451
 30
0.0
 11
-75.7567071
 21
33.17785451
 31
0.0
  0
LINE
  8
0
  6
CONTINUOUS
 62
       7
  5
98
 10
-72.94044127
 20
31.7706713
 30
0.0
 11
-70.10460022
 21
34.59166502
 31
0.0
  0
LINE
  8
0
  6
CONTINUOUS
 62
       7
  5
99
 10
-72.93673431
 20
34.59538172
 30
0.0
 11
-70.10830719
 21
31.7669546
 31
0.0
  0
LINE
  8
0
  6
CONTINUOUS
 62
       7
  5
9A
 10
-50.0317071
 20
36.67785451
 30
0.0
 11
-50.0317071
 21
29.67785451
 31
0.0
  0
LINE
  8
0
  6
CONTINUOUS
 62
       7
  5
9B
 10
-50.0317071
 20
29.67785451
 30
0.0
 11
-50.4817071
 21
29.67785451
 31
0.0
  0
LINE
  8
0
  6
CONTINUOUS
 62
       7
  5
9C
 10
-50.0317071
 20
36.67785451
 30
0.0
 11
-50.4817071
 21
36.67785451
 31
0.0
  0
LINE
  8
0
  6
CONTINUOUS
 62
       7
  5
9D
 10
-47.4317071
 20
34.07785451
 30
0.0
 11
-47.4317071
 21
32.27785451
 31
0.0
  0
LINE
  8
0
  6
CONTINUOUS
 62
       2
  5
9E
 10
-69.0692071
 20
67.17785451
 30
0.0
 11
-74.5192071
 21
67.17785451
 31
0.0
  0
LINE
  8
0
  6
CONTINUOUS
 62
       7
  5
9F
 10
85.4807929
 20
77.97785451
 30
0.0
 11
85.4807929
 21
72.67785451
 31
0.0
  0
LINE
  8
0
  6
CONTINUOUS
 62
       7
  5
A0
 10
71.4807929
 20
77.97785451
 30
0.0
 11
71.4807929
 21
72.67785451
 31
0.0
  0
LINE
  8
0
  6
CONTINUOUS
 62
       7
  5
A1
 10
38.4807929
 20
56.01535451
 30
0.0
 11
38.4807929
 21
44.34035451
 31
0.0
  0
LINE
  8
0
  6
CONTINUOUS
 62
       7
  5
A2
 10
48.4807929
 20
54.79035451
 30
0.0
 11
48.4807929
 21
45.56535451
 31
0.0
  0
LINE
  8
0
  6
CONTINUOUS
 62
       2
  5
A3
 10
38.4807929
 20
55.67785451
 30
0.0
 11
47.5932929
 21
55.67785451
 31
0.0
  0
LINE
  8
0
  6
CONTINUOUS
 62
       7
  5
A4
 10
38.8807929
 20
56.70285451
 30
0.0
 11
47.0057929
 21
56.27785451
 31
0.0
  0
LINE
  8
0
  6
CONTINUOUS
 62
       7
  5
A5
 10
48.4807929
 20
54.79035451
 30
0.0
 11
47.0057929
 21
56.27785451
 31
0.0
  0
LINE
  8
0
  6
CONTINUOUS
 62
       7
  5
A6
 10
38.4807929
 20
56.01535451
 30
0.0
 11
38.8807929
 21
56.70285451
 31
0.0
  0
LINE
  8
0
  6
CONTINUOUS
 62
       7
  5
A7
 10
47.0807929
 20
56.26535451
 30
0.0
 11
47.0807929
 21
44.09035451
 31
0.0
  0
LINE
  8
0
  6
CONTINUOUS
 62
       2
  5
A8
 10
38.4807929
 20
44.67785451
 30
0.0
 11
47.5932929
 21
44.67785451
 31
0.0
  0
LINE
  8
0
  6
CONTINUOUS
 62
       7
  5
A9
 10
38.8807929
 20
43.66535451
 30
0.0
 11
47.0057929
 21
44.09035451
 31
0.0
  0
LINE
  8
0
  6
CONTINUOUS
 62
       7
  5
AA
 10
38.4807929
 20
44.34035451
 30
0.0
 11
38.8807929
 21
43.66535451
 31
0.0
  0
LINE
  8
0
  6
CONTINUOUS
 62
       7
  5
AB
 10
48.4807929
 20
45.56535451
 30
0.0
 11
47.0057929
 21
44.09035451
 31
0.0
  0
LINE
  8
0
  6
DASHED
 62
       2
  5
AC
 10
-76.5192071
 20
22.37785451
 30
0.0
 11
-76.3018158
 21
26.37785451
 31
0.0
  0
LINE
  8
0
  6
CONTINUOUS
 62
       7
  5
AD
 10
-62.7817071
 20
22.37785451
 30
0.0
 11
-80.2692071
 21
22.37785451
 31
0.0
  0
LINE
  8
0
  6
CONTINUOUS
 62
       7
  5
AE
 10
-62.7817071
 20
22.37785451
 30
0.0
 11
-62.7817071
 21
24.67785451
 31
0.0
  0
LINE
  8
0
  6
DASHED
 62
       7
  5
AF
 10
-67.5192071
 20
22.37785451
 30
0.0
 11
-67.5192071
 21
26.37785451
 31
0.0
  0
LINE
  8
0
  6
DASHED
 62
       2
  5
B0
 10
-66.5192071
 20
22.37785451
 30
0.0
 11
-66.73659841
 21
26.37785451
 31
0.0
  0
LINE
  8
0
  6
CONTINUOUS
 62
       7
  5
B1
 10
-80.2692071
 20
22.37785451
 30
0.0
 11
-80.2692071
 21
24.67785451
 31
0.0
  0
LINE
  8
0
  6
CONTINUOUS
 62
       7
  5
B2
 10
-66.2692071
 20
22.37785451
 30
0.0
 11
-66.2692071
 21
24.67785451
 31
0.0
  0
LINE
  8
0
  6
CONTINUOUS
 62
       7
  5
B3
 10
-76.7692071
 20
22.37785451
 30
0.0
 11
-76.7692071
 21
24.67785451
 31
0.0
  0
LINE
  8
0
  6
CONTINUOUS
 62
       7
  5
B4
 10
-69.9817071
 20
24.67785451
 30
0.0
 11
-66.2692071
 21
22.37785451
 31
0.0
  0
LINE
  8
0
  6
CONTINUOUS
 62
       7
  5
B5
 10
-73.0567071
 20
24.67785451
 30
0.0
 11
-76.7692071
 21
22.37785451
 31
0.0
  0
LINE
  8
0
  6
DASHED
 62
       7
  5
B6
 10
-75.5192071
 20
22.37785451
 30
0.0
 11
-75.5192071
 21
26.37785451
 31
0.0
  0
LINE
  8
0
  6
CONTINUOUS
 62
       7
  5
B7
 10
-76.76360465
 20
-52.81607783
 30
0.0
 11
-66.26360465
 21
-52.81607783
 31
0.0
  0
LINE
  8
0
  6
CONTINUOUS
 62
       7
  5
B8
 10
-76.76360465
 20
-66.81607783
 30
0.0
 11
-66.26360465
 21
-66.81607783
 31
0.0
  0
CIRCLE
  8
0
  6
CONTINUOUS
 62
       7
  5
B9
 10
78.4807929
 20
50.17785451
 30
0.0
 40
5.49999952
  0
CIRCLE
  8
0
  6
CONTINUOUS
 62
       2
  5
BA
 10
78.4807929
 20
50.17785451
 30
0.0
 40
6.49999976
  0
ARC
  8
0
  6
CONTINUOUS
 62
       7
  5
BB
 10
101.53912853
 20
27.88619014
 30
0.0
 40
2.00835293
 50
180.23780571
 51
269.76219429
  0
ARC
  8
0
  6
CONTINUOUS
 62
       7
  5
BC
 10
55.42932554
 20
27.87932187
 30
0.0
 40
2.0014679
 50
270.042006
 51
359.957994
  0
CIRCLE
  8
0
  6
CONTINUOUS
 62
       7
  5
BD
 10
-91.5192071
 20
-39.82214549
 30
0.0
 40
2.74999976
  0
CIRCLE
  8
0
  6
CONTINUOUS
 62
       7
  5
BE
 10
-71.5192071
 20
-59.82214549
 30
0.0
 40
19.85000014
  0
CIRCLE
  8
0
  6
CONTINUOUS
 62
       7
  5
BF
 10
-71.5192071
 20
-59.82214549
 30
0.0
 40
15.95000029
  0
CIRCLE
  8
0
  6
CONTINUOUS
 62
       7
  5
C0
 10
-71.5192071
 20
-59.82214549
 30
0.0
 40
18.75
  0
ARC
  8
0
  6
CONTINUOUS
 62
       7
  5
C1
 10
-71.52466891
 20
-61.32822833
 30
0.0
 40
14.74121134
 50
318.88241072
 51
221.18211155
  0
CIRCLE
  8
0
  6
CONTINUOUS
 62
       7
  5
C2
 10
-65.64065363
 20
-72.54263728
 30
0.0
 40
1.25
  0
CIRCLE
  8
0
  6
CONTINUOUS
 62
       7
  5
C3
 10
-77.40896578
 20
-72.54263728
 30
0.0
 40
1.25
  0
ARC
  8
0
  6
CONTINUOUS
 62
       7
  5
C4
 10
56.98763545
 20
32.28469707
 30
0.0
 40
2.60685154
 50
180.15039214
 51
269.84960786
  0
ARC
  8
0
  6
CONTINUOUS
 62
       7
  5
C5
 10
56.97786344
 20
34.08078397
 30
0.0
 40
2.59707219
 50
89.93537122
 51
180.06462878
  0
CIRCLE
  8
0
  6
DASHED
 62
       2
  5
C6
 10
78.48768758
 20
33.18763387
 30
0.0
 40
3.49999905
  0
ARC
  8
0
  6
CONTINUOUS
 62
       7
  5
C7
 10
99.9808281
 20
32.27781931
 30
0.0
 40
2.5999648
 50
269.99922433
 51
0.00077567
  0
ARC
  8
0
  6
CONTINUOUS
 62
       7
  5
C8
 10
99.99062604
 20
34.08768765
 30
0.0
 40
2.59018552
 50
359.78248699
 51
90.21751301
  0
CIRCLE
  8
0
  6
CONTINUOUS
 62
       2
  5
C9
 10
78.4807929
 20
67.17785451
 30
0.0
 40
1.99999928
  0
CIRCLE
  8
0
  6
CONTINUOUS
 62
       7
  5
CA
 10
78.4807929
 20
67.17785451
 30
0.0
 40
1.49999976
  0
CIRCLE
  8
0
  6
CONTINUOUS
 62
       7
  5
CB
 10
-71.52480956
 20
50.1876415
 30
0.0
 40
5.49999952
  0
CIRCLE
  8
0
  6
CONTINUOUS
 62
       2
  5
CC
 10
-71.52480956
 20
50.1876415
 30
0.0
 40
6.49999976
  0
ARC
  8
0
  6
CONTINUOUS
 62
       7
  5
CD
 10
-48.47337362
 20
27.886188
 30
0.0
 40
2.00835078
 50
180.23774479
 51
269.76225521
  0
ARC
  8
0
  6
CONTINUOUS
 62
       7
  5
CE
 10
-94.57690435
 20
27.88555176
 30
0.0
 40
2.007712
 50
270.21966347
 51
359.78033653
  0
ARC
  8
0
  6
CONTINUOUS
 62
       7
  5
CF
 10
-93.01859617
 20
32.27846544
 30
0.0
 40
2.600611
 50
180.01345977
 51
269.98654023
  0
ARC
  8
0
  6
CONTINUOUS
 62
       7
  5
D0
 10
-93.02839168
 20
34.08703909
 30
0.0
 40
2.5908317
 50
89.79688427
 51
180.20311573
  0
CIRCLE
  8
0
  6
CONTINUOUS
 62
       7
  5
D1
 10
-71.52480956
 20
33.18763387
 30
0.0
 40
3.49999905
  0
ARC
  8
0
  6
CONTINUOUS
 62
       7
  5
D2
 10
-50.03166692
 20
32.27781432
 30
0.0
 40
2.59995981
 50
269.99911441
 51
0.00088559
  0
ARC
  8
0
  6
CONTINUOUS
 62
       7
  5
D3
 10
-50.02186895
 20
34.08769266
 30
0.0
 40
2.59018053
 50
359.78237582
 51
90.21762418
  0
CIRCLE
  8
0
  6
CONTINUOUS
 62
       2
  5
D4
 10
-71.52480956
 20
67.18764913
 30
0.0
 40
1.99999928
  0
CIRCLE
  8
0
  6
CONTINUOUS
 62
       7
  5
D5
 10
-71.52480956
 20
67.18764913
 30
0.0
 40
1.49999976
  0
CIRCLE
  8
0
  6
CONTINUOUS
 62
       7
  5
D6
 10
-71.5192071
 20
-59.82214549
 30
0.0
 40
8.75
  0
CIRCLE
  8
0
  6
CONTINUOUS
 62
       7
  5
D7
 10
-71.5192071
 20
-59.82214549
 30
0.0
 40
3.99999976
  0
CIRCLE
  8
0
  6
CONTINUOUS
 62
       2
  5
D8
 10
-71.5192071
 20
-59.82214549
 30
0.0
 40
5.0
  0
POLYLINE
  8
0
  6
CONTINUOUS
 62
       7
  5
D9
 66
       1
 10
0.0
 20
0.0
 30
0.0
  0
VERTEX
  8
0
  6
CONTINUOUS
 62
       7
  5
F9
 10
-60.40567321
 20
-71.02459186
 30
0.0
  0
VERTEX
  8
0
  6
CONTINUOUS
 62
       7
  5
FA
 10
-60.48626839
 20
-71.05643872
 30
0.0
  0
VERTEX
  8
0
  6
CONTINUOUS
 62
       7
  5
FB
 10
-60.56793869
 20
-71.08699898
 30
0.0
  0
VERTEX
  8
0
  6
CONTINUOUS
 62
       7
  5
FC
 10
-60.65056357
 20
-71.11610281
 30
0.0
  0
VERTEX
  8
0
  6
CONTINUOUS
 62
       7
  5
FD
 10
-60.73402249
 20
-71.14358039
 30
0.0
  0
VERTEX
  8
0
  6
CONTINUOUS
 62
       7
  5
FE
 10
-60.8181949
 20
-71.16926188
 30
0.0
  0
VERTEX
  8
0
  6
CONTINUOUS
 62
       7
  5
FF
 10
-60.90296027
 20
-71.19297746
 30
0.0
  0
VERTEX
  8
0
  6
CONTINUOUS
 62
       7
  5
100
 10
-60.98819805
 20
-71.21455729
 30
0.0
  0
VERTEX
  8
0
  6
CONTINUOUS
 62
       7
  5
101
 10
-61.0737877
 20
-71.23383155
 30
0.0
  0
VERTEX
  8
0
  6
CONTINUOUS
 62
       7
  5
102
 10
-61.15960867
 20
-71.25063041
 30
0.0
  0
VERTEX
  8
0
  6
CONTINUOUS
 62
       7
  5
103
 10
-61.24554043
 20
-71.26478404
 30
0.0
  0
VERTEX
  8
0
  6
CONTINUOUS
 62
       7
  5
104
 10
-61.33146243
 20
-71.2761226
 30
0.0
  0
VERTEX
  8
0
  6
CONTINUOUS
 62
       7
  5
105
 10
-61.41725413
 20
-71.28447628
 30
0.0
  0
VERTEX
  8
0
  6
CONTINUOUS
 62
       7
  5
106
 10
-61.50279499
 20
-71.28967523
 30
0.0
  0
VERTEX
  8
0
  6
CONTINUOUS
 62
       7
  5
107
 10
-61.58796447
 20
-71.29154964
 30
0.0
  0
VERTEX
  8
0
  6
CONTINUOUS
 62
       7
  5
108
 10
-61.67264202
 20
-71.28992967
 30
0.0
  0
VERTEX
  8
0
  6
CONTINUOUS
 62
       7
  5
109
 10
-61.7567071
 20
-71.28464549
 30
0.0
  0
VERTEX
  8
0
  6
CONTINUOUS
 62
       7
  5
10A
 10
-61.90317635
 20
-71.26628291
 30
0.0
  0
VERTEX
  8
0
  6
CONTINUOUS
 62
       7
  5
10B
 10
-62.04757064
 20
-71.23721769
 30
0.0
  0
VERTEX
  8
0
  6
CONTINUOUS
 62
       7
  5
10C
 10
-62.19012298
 20
-71.19854915
 30
0.0
  0
VERTEX
  8
0
  6
CONTINUOUS
 62
       7
  5
10D
 10
-62.33106638
 20
-71.15137661
 30
0.0
  0
VERTEX
  8
0
  6
CONTINUOUS
 62
       7
  5
10E
 10
-62.47063386
 20
-71.09679937
 30
0.0
  0
VERTEX
  8
0
  6
CONTINUOUS
 62
       7
  5
10F
 10
-62.60905844
 20
-71.03591677
 30
0.0
  0
VERTEX
  8
0
  6
CONTINUOUS
 62
       7
  5
110
 10
-62.74657311
 20
-70.96982812
 30
0.0
  0
VERTEX
  8
0
  6
CONTINUOUS
 62
       7
  5
111
 10
-62.88341091
 20
-70.89963273
 30
0.0
  0
VERTEX
  8
0
  6
CONTINUOUS
 62
       7
  5
112
 10
-63.01980484
 20
-70.82642993
 30
0.0
  0
VERTEX
  8
0
  6
CONTINUOUS
 62
       7
  5
113
 10
-63.15598791
 20
-70.75131904
 30
0.0
  0
VERTEX
  8
0
  6
CONTINUOUS
 62
       7
  5
114
 10
-63.29219313
 20
-70.67539937
 30
0.0
  0
VERTEX
  8
0
  6
CONTINUOUS
 62
       7
  5
115
 10
-63.42865353
 20
-70.59977024
 30
0.0
  0
VERTEX
  8
0
  6
CONTINUOUS
 62
       7
  5
116
 10
-63.56560212
 20
-70.52553096
 30
0.0
  0
VERTEX
  8
0
  6
CONTINUOUS
 62
       7
  5
117
 10
-63.7032719
 20
-70.45378087
 30
0.0
  0
VERTEX
  8
0
  6
CONTINUOUS
 62
       7
  5
118
 10
-63.84189589
 20
-70.38561927
 30
0.0
  0
VERTEX
  8
0
  6
CONTINUOUS
 62
       7
  5
119
 10
-63.9817071
 20
-70.32214549
 30
0.0
  0
VERTEX
  8
0
  6
CONTINUOUS
 62
       7
  5
11A
 10
-64.08685542
 20
-70.27840007
 30
0.0
  0
VERTEX
  8
0
  6
CONTINUOUS
 62
       7
  5
11B
 10
-64.19252252
 20
-70.2379431
 30
0.0
  0
VERTEX
  8
0
  6
CONTINUOUS
 62
       7
  5
11C
 10
-64.29878497
 20
-70.2008064
 30
0.0
  0
VERTEX
  8
0
  6
CONTINUOUS
 62
       7
  5
11D
 10
-64.40571932
 20
-70.16702176
 30
0.0
  0
VERTEX
  8
0
  6
CONTINUOUS
 62
       7
  5
11E
 10
-64.51340213
 20
-70.136621
 30
0.0
  0
VERTEX
  8
0
  6
CONTINUOUS
 62
       7
  5
11F
 10
-64.62190997
 20
-70.10963593
 30
0.0
  0
VERTEX
  8
0
  6
CONTINUOUS
 62
       7
  5
120
 10
-64.73131937
 20
-70.08609835
 30
0.0
  0
VERTEX
  8
0
  6
CONTINUOUS
 62
       7
  5
121
 10
-64.84170692
 20
-70.06604007
 30
0.0
  0
VERTEX
  8
0
  6
CONTINUOUS
 62
       7
  5
122
 10
-64.95314916
 20
-70.0494929
 30
0.0
  0
VERTEX
  8
0
  6
CONTINUOUS
 62
       7
  5
123
 10
-65.06572265
 20
-70.03648864
 30
0.0
  0
VERTEX
  8
0
  6
CONTINUOUS
 62
       7
  5
124
 10
-65.17950394
 20
-70.0270591
 30
0.0
  0
VERTEX
  8
0
  6
CONTINUOUS
 62
       7
  5
125
 10
-65.29456961
 20
-70.02123609
 30
0.0
  0
VERTEX
  8
0
  6
CONTINUOUS
 62
       7
  5
126
 10
-65.4109962
 20
-70.01905142
 30
0.0
  0
VERTEX
  8
0
  6
CONTINUOUS
 62
       7
  5
127
 10
-65.52886027
 20
-70.02053689
 30
0.0
  0
VERTEX
  8
0
  6
CONTINUOUS
 62
       7
  5
128
 10
-65.64823839
 20
-70.02572431
 30
0.0
  0
VERTEX
  8
0
  6
CONTINUOUS
 62
       7
  5
129
 10
-65.7692071
 20
-70.03464549
 30
0.0
  0
VERTEX
  8
0
  6
CONTINUOUS
 62
       7
  5
12A
 10
-65.95048604
 20
-70.05443469
 30
0.0
  0
VERTEX
  8
0
  6
CONTINUOUS
 62
       7
  5
12B
 10
-66.13379557
 20
-70.08192857
 30
0.0
  0
VERTEX
  8
0
  6
CONTINUOUS
 62
       7
  5
12C
 10
-66.31773992
 20
-70.11714285
 30
0.0
  0
VERTEX
  8
0
  6
CONTINUOUS
 62
       7
  5
12D
 10
-66.50092331
 20
-70.16009329
 30
0.0
  0
VERTEX
  8
0
  6
CONTINUOUS
 62
       7
  5
12E
 10
-66.68194996
 20
-70.2107956
 30
0.0
  0
VERTEX
  8
0
  6
CONTINUOUS
 62
       7
  5
12F
 10
-66.85942411
 20
-70.26926553
 30
0.0
  0
VERTEX
  8
0
  6
CONTINUOUS
 62
       7
  5
130
 10
-67.03194998
 20
-70.33551881
 30
0.0
  0
VERTEX
  8
0
  6
CONTINUOUS
 62
       7
  5
131
 10
-67.19813178
 20
-70.40957118
 30
0.0
  0
VERTEX
  8
0
  6
CONTINUOUS
 62
       7
  5
132
 10
-67.35657375
 20
-70.49143837
 30
0.0
  0
VERTEX
  8
0
  6
CONTINUOUS
 62
       7
  5
133
 10
-67.50588012
 20
-70.58113612
 30
0.0
  0
VERTEX
  8
0
  6
CONTINUOUS
 62
       7
  5
134
 10
-67.6446551
 20
-70.67868016
 30
0.0
  0
VERTEX
  8
0
  6
CONTINUOUS
 62
       7
  5
135
 10
-67.77150292
 20
-70.78408623
 30
0.0
  0
VERTEX
  8
0
  6
CONTINUOUS
 62
       7
  5
136
 10
-67.8850278
 20
-70.89737006
 30
0.0
  0
VERTEX
  8
0
  6
CONTINUOUS
 62
       7
  5
137
 10
-67.98383398
 20
-71.01854739
 30
0.0
  0
VERTEX
  8
0
  6
CONTINUOUS
 62
       7
  5
138
 10
-68.06652567
 20
-71.14763396
 30
0.0
  0
VERTEX
  8
0
  6
CONTINUOUS
 62
       7
  5
139
 10
-68.1317071
 20
-71.28464549
 30
0.0
  0
VERTEX
  8
0
  6
CONTINUOUS
 62
       7
  5
13A
 10
-68.16555919
 20
-71.38238393
 30
0.0
  0
VERTEX
  8
0
  6
CONTINUOUS
 62
       7
  5
13B
 10
-68.1913441
 20
-71.48364006
 30
0.0
  0
VERTEX
  8
0
  6
CONTINUOUS
 62
       7
  5
13C
 10
-68.20957777
 20
-71.58810419
 30
0.0
  0
VERTEX
  8
0
  6
CONTINUOUS
 62
       7
  5
13D
 10
-68.22077615
 20
-71.69546659
 30
0.0
  0
VERTEX
  8
0
  6
CONTINUOUS
 62
       7
  5
13E
 10
-68.22545518
 20
-71.80541756
 30
0.0
  0
VERTEX
  8
0
  6
CONTINUOUS
 62
       7
  5
13F
 10
-68.2241308
 20
-71.91764737
 30
0.0
  0
VERTEX
  8
0
  6
CONTINUOUS
 62
       7
  5
140
 10
-68.21731896
 20
-72.03184632
 30
0.0
  0
VERTEX
  8
0
  6
CONTINUOUS
 62
       7
  5
141
 10
-68.2055356
 20
-72.1477047
 30
0.0
  0
VERTEX
  8
0
  6
CONTINUOUS
 62
       7
  5
142
 10
-68.18929666
 20
-72.26491279
 30
0.0
  0
VERTEX
  8
0
  6
CONTINUOUS
 62
       7
  5
143
 10
-68.16911809
 20
-72.38316088
 30
0.0
  0
VERTEX
  8
0
  6
CONTINUOUS
 62
       7
  5
144
 10
-68.14551582
 20
-72.50213925
 30
0.0
  0
VERTEX
  8
0
  6
CONTINUOUS
 62
       7
  5
145
 10
-68.1190058
 20
-72.6215382
 30
0.0
  0
VERTEX
  8
0
  6
CONTINUOUS
 62
       7
  5
146
 10
-68.09010398
 20
-72.74104802
 30
0.0
  0
VERTEX
  8
0
  6
CONTINUOUS
 62
       7
  5
147
 10
-68.05932629
 20
-72.86035898
 30
0.0
  0
VERTEX
  8
0
  6
CONTINUOUS
 62
       7
  5
148
 10
-68.02718869
 20
-72.97916137
 30
0.0
  0
VERTEX
  8
0
  6
CONTINUOUS
 62
       7
  5
149
 10
-67.9942071
 20
-73.09714549
 30
0.0
  0
VERTEX
  8
0
  6
CONTINUOUS
 62
       7
  5
14A
 10
-67.95375719
 20
-73.23857334
 30
0.0
  0
VERTEX
  8
0
  6
CONTINUOUS
 62
       7
  5
14B
 10
-67.91281086
 20
-73.37840373
 30
0.0
  0
VERTEX
  8
0
  6
CONTINUOUS
 62
       7
  5
14C
 10
-67.87126033
 20
-73.51667011
 30
0.0
  0
VERTEX
  8
0
  6
CONTINUOUS
 62
       7
  5
14D
 10
-67.82899779
 20
-73.6534059
 30
0.0
  0
VERTEX
  8
0
  6
CONTINUOUS
 62
       7
  5
14E
 10
-67.78591545
 20
-73.78864455
 30
0.0
  0
VERTEX
  8
0
  6
CONTINUOUS
 62
       7
  5
14F
 10
-67.74190551
 20
-73.92241947
 30
0.0
  0
VERTEX
  8
0
  6
CONTINUOUS
 62
       7
  5
150
 10
-67.69686018
 20
-74.05476411
 30
0.0
  0
VERTEX
  8
0
  6
CONTINUOUS
 62
       7
  5
151
 10
-67.65067166
 20
-74.1857119
 30
0.0
  0
VERTEX
  8
0
  6
CONTINUOUS
 62
       7
  5
152
 10
-67.60323216
 20
-74.31529627
 30
0.0
  0
VERTEX
  8
0
  6
CONTINUOUS
 62
       7
  5
153
 10
-67.55443387
 20
-74.44355065
 30
0.0
  0
VERTEX
  8
0
  6
CONTINUOUS
 62
       7
  5
154
 10
-67.50416901
 20
-74.57050848
 30
0.0
  0
VERTEX
  8
0
  6
CONTINUOUS
 62
       7
  5
155
 10
-67.45232977
 20
-74.69620318
 30
0.0
  0
VERTEX
  8
0
  6
CONTINUOUS
 62
       7
  5
156
 10
-67.39880836
 20
-74.8206682
 30
0.0
  0
VERTEX
  8
0
  6
CONTINUOUS
 62
       7
  5
157
 10
-67.34349699
 20
-74.94393697
 30
0.0
  0
VERTEX
  8
0
  6
CONTINUOUS
 62
       7
  5
158
 10
-67.28628785
 20
-75.06604292
 30
0.0
  0
VERTEX
  8
0
  6
CONTINUOUS
 62
       7
  5
159
 10
-67.22707315
 20
-75.18701947
 30
0.0
  0
SEQEND
  8
0
  6
CONTINUOUS
 62
       7
  5
15A
  0
POLYLINE
  8
0
  6
CONTINUOUS
 62
       7
  5
DA
 66
       1
 10
0.0
 20
0.0
 30
0.0
  0
VERTEX
  8
0
  6
CONTINUOUS
 62
       7
  5
15B
 10
-82.64524099
 20
-71.02459186
 30
0.0
  0
VERTEX
  8
0
  6
CONTINUOUS
 62
       7
  5
15C
 10
-82.56464581
 20
-71.05643872
 30
0.0
  0
VERTEX
  8
0
  6
CONTINUOUS
 62
       7
  5
15D
 10
-82.48297551
 20
-71.08699898
 30
0.0
  0
VERTEX
  8
0
  6
CONTINUOUS
 62
       7
  5
15E
 10
-82.40035063
 20
-71.11610281
 30
0.0
  0
VERTEX
  8
0
  6
CONTINUOUS
 62
       7
  5
15F
 10
-82.31689171
 20
-71.14358039
 30
0.0
  0
VERTEX
  8
0
  6
CONTINUOUS
 62
       7
  5
160
 10
-82.2327193
 20
-71.16926188
 30
0.0
  0
VERTEX
  8
0
  6
CONTINUOUS
 62
       7
  5
161
 10
-82.14795393
 20
-71.19297746
 30
0.0
  0
VERTEX
  8
0
  6
CONTINUOUS
 62
       7
  5
162
 10
-82.06271615
 20
-71.21455729
 30
0.0
  0
VERTEX
  8
0
  6
CONTINUOUS
 62
       7
  5
163
 10
-81.9771265
 20
-71.23383155
 30
0.0
  0
VERTEX
  8
0
  6
CONTINUOUS
 62
       7
  5
164
 10
-81.89130553
 20
-71.25063041
 30
0.0
  0
VERTEX
  8
0
  6
CONTINUOUS
 62
       7
  5
165
 10
-81.80537377
 20
-71.26478404
 30
0.0
  0
VERTEX
  8
0
  6
CONTINUOUS
 62
       7
  5
166
 10
-81.71945177
 20
-71.2761226
 30
0.0
  0
VERTEX
  8
0
  6
CONTINUOUS
 62
       7
  5
167
 10
-81.63366007
 20
-71.28447628
 30
0.0
  0
VERTEX
  8
0
  6
CONTINUOUS
 62
       7
  5
168
 10
-81.54811921
 20
-71.28967523
 30
0.0
  0
VERTEX
  8
0
  6
CONTINUOUS
 62
       7
  5
169
 10
-81.46294973
 20
-71.29154964
 30
0.0
  0
VERTEX
  8
0
  6
CONTINUOUS
 62
       7
  5
16A
 10
-81.37827218
 20
-71.28992967
 30
0.0
  0
VERTEX
  8
0
  6
CONTINUOUS
 62
       7
  5
16B
 10
-81.2942071
 20
-71.28464549
 30
0.0
  0
VERTEX
  8
0
  6
CONTINUOUS
 62
       7
  5
16C
 10
-81.14768212
 20
-71.26625881
 30
0.0
  0
VERTEX
  8
0
  6
CONTINUOUS
 62
       7
  5
16D
 10
-81.00313548
 20
-71.23712769
 30
0.0
  0
VERTEX
  8
0
  6
CONTINUOUS
 62
       7
  5
16E
 10
-80.86035649
 20
-71.19836111
 30
0.0
  0
VERTEX
  8
0
  6
CONTINUOUS
 62
       7
  5
16F
 10
-80.71913441
 20
-71.15106803
 30
0.0
  0
VERTEX
  8
0
  6
CONTINUOUS
 62
       7
  5
170
 10
-80.57925852
 20
-71.0963574
 30
0.0
  0
VERTEX
  8
0
  6
CONTINUOUS
 62
       7
  5
171
 10
-80.44051811
 20
-71.03533819
 30
0.0
  0
VERTEX
  8
0
  6
CONTINUOUS
 62
       7
  5
172
 10
-80.30270246
 20
-70.96911935
 30
0.0
  0
VERTEX
  8
0
  6
CONTINUOUS
 62
       7
  5
173
 10
-80.16560085
 20
-70.89880986
 30
0.0
  0
VERTEX
  8
0
  6
CONTINUOUS
 62
       7
  5
174
 10
-80.02900256
 20
-70.82551867
 30
0.0
  0
VERTEX
  8
0
  6
CONTINUOUS
 62
       7
  5
175
 10
-79.89269687
 20
-70.75035474
 30
0.0
  0
VERTEX
  8
0
  6
CONTINUOUS
 62
       7
  5
176
 10
-79.75647307
 20
-70.67442703
 30
0.0
  0
VERTEX
  8
0
  6
CONTINUOUS
 62
       7
  5
177
 10
-79.62012042
 20
-70.59884451
 30
0.0
  0
VERTEX
  8
0
  6
CONTINUOUS
 62
       7
  5
178
 10
-79.48342822
 20
-70.52471613
 30
0.0
  0
VERTEX
  8
0
  6
CONTINUOUS
 62
       7
  5
179
 10
-79.34618575
 20
-70.45315086
 30
0.0
  0
VERTEX
  8
0
  6
CONTINUOUS
 62
       7
  5
17A
 10
-79.20818228
 20
-70.38525766
 30
0.0
  0
VERTEX
  8
0
  6
CONTINUOUS
 62
       7
  5
17B
 10
-79.0692071
 20
-70.32214549
 30
0.0
  0
VERTEX
  8
0
  6
CONTINUOUS
 62
       7
  5
17C
 10
-78.96396705
 20
-70.27839575
 30
0.0
  0
VERTEX
  8
0
  6
CONTINUOUS
 62
       7
  5
17D
 10
-78.8580362
 20
-70.237927
 30
0.0
  0
VERTEX
  8
0
  6
CONTINUOUS
 62
       7
  5
17E
 10
-78.75135513
 20
-70.20077275
 30
0.0
  0
VERTEX
  8
0
  6
CONTINUOUS
 62
       7
  5
17F
 10
-78.64386446
 20
-70.16696655
 30
0.0
  0
VERTEX
  8
0
  6
CONTINUOUS
 62
       7
  5
180
 10
-78.53550479
 20
-70.13654192
 30
0.0
  0
VERTEX
  8
0
  6
CONTINUOUS
 62
       7
  5
181
 10
-78.42621673
 20
-70.10953241
 30
0.0
  0
VERTEX
  8
0
  6
CONTINUOUS
 62
       7
  5
182
 10
-78.31594087
 20
-70.08597153
 30
0.0
  0
VERTEX
  8
0
  6
CONTINUOUS
 62
       7
  5
183
 10
-78.20461783
 20
-70.06589284
 30
0.0
  0
VERTEX
  8
0
  6
CONTINUOUS
 62
       7
  5
184
 10
-78.0921882
 20
-70.04932985
 30
0.0
  0
VERTEX
  8
0
  6
CONTINUOUS
 62
       7
  5
185
 10
-77.97859258
 20
-70.0363161
 30
0.0
  0
VERTEX
  8
0
  6
CONTINUOUS
 62
       7
  5
186
 10
-77.86377159
 20
-70.02688512
 30
0.0
  0
VERTEX
  8
0
  6
CONTINUOUS
 62
       7
  5
187
 10
-77.74766583
 20
-70.02107045
 30
0.0
  0
VERTEX
  8
0
  6
CONTINUOUS
 62
       7
  5
188
 10
-77.63021589
 20
-70.01890562
 30
0.0
  0
VERTEX
  8
0
  6
CONTINUOUS
 62
       7
  5
189
 10
-77.51136239
 20
-70.02042416
 30
0.0
  0
VERTEX
  8
0
  6
CONTINUOUS
 62
       7
  5
18A
 10
-77.39104593
 20
-70.02565961
 30
0.0
  0
VERTEX
  8
0
  6
CONTINUOUS
 62
       7
  5
18B
 10
-77.2692071
 20
-70.03464549
 30
0.0
  0
VERTEX
  8
0
  6
CONTINUOUS
 62
       7
  5
18C
 10
-77.08792816
 20
-70.05443469
 30
0.0
  0
VERTEX
  8
0
  6
CONTINUOUS
 62
       7
  5
18D
 10
-76.90461863
 20
-70.08192857
 30
0.0
  0
VERTEX
  8
0
  6
CONTINUOUS
 62
       7
  5
18E
 10
-76.72067428
 20
-70.11714285
 30
0.0
  0
VERTEX
  8
0
  6
CONTINUOUS
 62
       7
  5
18F
 10
-76.5374909
 20
-70.16009329
 30
0.0
  0
VERTEX
  8
0
  6
CONTINUOUS
 62
       7
  5
190
 10
-76.35646424
 20
-70.2107956
 30
0.0
  0
VERTEX
  8
0
  6
CONTINUOUS
 62
       7
  5
191
 10
-76.17899009
 20
-70.26926553
 30
0.0
  0
VERTEX
  8
0
  6
CONTINUOUS
 62
       7
  5
192
 10
-76.00646423
 20
-70.33551881
 30
0.0
  0
VERTEX
  8
0
  6
CONTINUOUS
 62
       7
  5
193
 10
-75.84028242
 20
-70.40957118
 30
0.0
  0
VERTEX
  8
0
  6
CONTINUOUS
 62
       7
  5
194
 10
-75.68184045
 20
-70.49143837
 30
0.0
  0
VERTEX
  8
0
  6
CONTINUOUS
 62
       7
  5
195
 10
-75.53253409
 20
-70.58113612
 30
0.0
  0
VERTEX
  8
0
  6
CONTINUOUS
 62
       7
  5
196
 10
-75.39375911
 20
-70.67868016
 30
0.0
  0
VERTEX
  8
0
  6
CONTINUOUS
 62
       7
  5
197
 10
-75.26691129
 20
-70.78408623
 30
0.0
  0
VERTEX
  8
0
  6
CONTINUOUS
 62
       7
  5
198
 10
-75.1533864
 20
-70.89737006
 30
0.0
  0
VERTEX
  8
0
  6
CONTINUOUS
 62
       7
  5
199
 10
-75.05458023
 20
-71.01854739
 30
0.0
  0
VERTEX
  8
0
  6
CONTINUOUS
 62
       7
  5
19A
 10
-74.97188853
 20
-71.14763396
 30
0.0
  0
VERTEX
  8
0
  6
CONTINUOUS
 62
       7
  5
19B
 10
-74.9067071
 20
-71.28464549
 30
0.0
  0
VERTEX
  8
0
  6
CONTINUOUS
 62
       7
  5
19C
 10
-74.87285501
 20
-71.38238393
 30
0.0
  0
VERTEX
  8
0
  6
CONTINUOUS
 62
       7
  5
19D
 10
-74.8470701
 20
-71.48364006
 30
0.0
  0
VERTEX
  8
0
  6
CONTINUOUS
 62
       7
  5
19E
 10
-74.82883643
 20
-71.58810419
 30
0.0
  0
VERTEX
  8
0
  6
CONTINUOUS
 62
       7
  5
19F
 10
-74.81763805
 20
-71.69546659
 30
0.0
  0
VERTEX
  8
0
  6
CONTINUOUS
 62
       7
  5
1A0
 10
-74.81295902
 20
-71.80541756
 30
0.0
  0
VERTEX
  8
0
  6
CONTINUOUS
 62
       7
  5
1A1
 10
-74.8142834
 20
-71.91764737
 30
0.0
  0
VERTEX
  8
0
  6
CONTINUOUS
 62
       7
  5
1A2
 10
-74.82109524
 20
-72.03184632
 30
0.0
  0
VERTEX
  8
0
  6
CONTINUOUS
 62
       7
  5
1A3
 10
-74.8328786
 20
-72.1477047
 30
0.0
  0
VERTEX
  8
0
  6
CONTINUOUS
 62
       7
  5
1A4
 10
-74.84911754
 20
-72.26491279
 30
0.0
  0
VERTEX
  8
0
  6
CONTINUOUS
 62
       7
  5
1A5
 10
-74.86929612
 20
-72.38316088
 30
0.0
  0
VERTEX
  8
0
  6
CONTINUOUS
 62
       7
  5
1A6
 10
-74.89289838
 20
-72.50213925
 30
0.0
  0
VERTEX
  8
0
  6
CONTINUOUS
 62
       7
  5
1A7
 10
-74.9194084
 20
-72.6215382
 30
0.0
  0
VERTEX
  8
0
  6
CONTINUOUS
 62
       7
  5
1A8
 10
-74.94831022
 20
-72.74104802
 30
0.0
  0
VERTEX
  8
0
  6
CONTINUOUS
 62
       7
  5
1A9
 10
-74.97908791
 20
-72.86035898
 30
0.0
  0
VERTEX
  8
0
  6
CONTINUOUS
 62
       7
  5
1AA
 10
-75.01122552
 20
-72.97916137
 30
0.0
  0
VERTEX
  8
0
  6
CONTINUOUS
 62
       7
  5
1AB
 10
-75.0442071
 20
-73.09714549
 30
0.0
  0
VERTEX
  8
0
  6
CONTINUOUS
 62
       7
  5
1AC
 10
-75.08465702
 20
-73.23857334
 30
0.0
  0
VERTEX
  8
0
  6
CONTINUOUS
 62
       7
  5
1AD
 10
-75.12560334
 20
-73.37840373
 30
0.0
  0
VERTEX
  8
0
  6
CONTINUOUS
 62
       7
  5
1AE
 10
-75.16715388
 20
-73.51667011
 30
0.0
  0
VERTEX
  8
0
  6
CONTINUOUS
 62
       7
  5
1AF
 10
-75.20941641
 20
-73.6534059
 30
0.0
  0
VERTEX
  8
0
  6
CONTINUOUS
 62
       7
  5
1B0
 10
-75.25249875
 20
-73.78864455
 30
0.0
  0
VERTEX
  8
0
  6
CONTINUOUS
 62
       7
  5
1B1
 10
-75.29650869
 20
-73.92241947
 30
0.0
  0
VERTEX
  8
0
  6
CONTINUOUS
 62
       7
  5
1B2
 10
-75.34155402
 20
-74.05476411
 30
0.0
  0
VERTEX
  8
0
  6
CONTINUOUS
 62
       7
  5
1B3
 10
-75.38774254
 20
-74.1857119
 30
0.0
  0
VERTEX
  8
0
  6
CONTINUOUS
 62
       7
  5
1B4
 10
-75.43518204
 20
-74.31529627
 30
0.0
  0
VERTEX
  8
0
  6
CONTINUOUS
 62
       7
  5
1B5
 10
-75.48398033
 20
-74.44355065
 30
0.0
  0
VERTEX
  8
0
  6
CONTINUOUS
 62
       7
  5
1B6
 10
-75.53424519
 20
-74.57050848
 30
0.0
  0
VERTEX
  8
0
  6
CONTINUOUS
 62
       7
  5
1B7
 10
-75.58608443
 20
-74.69620318
 30
0.0
  0
VERTEX
  8
0
  6
CONTINUOUS
 62
       7
  5
1B8
 10
-75.63960584
 20
-74.8206682
 30
0.0
  0
VERTEX
  8
0
  6
CONTINUOUS
 62
       7
  5
1B9
 10
-75.69491721
 20
-74.94393697
 30
0.0
  0
VERTEX
  8
0
  6
CONTINUOUS
 62
       7
  5
1BA
 10
-75.75212635
 20
-75.06604292
 30
0.0
  0
VERTEX
  8
0
  6
CONTINUOUS
 62
       7
  5
1BB
 10
-75.81134105
 20
-75.18701947
 30
0.0
  0
SEQEND
  8
0
  6
CONTINUOUS
 62
       7
  5
1BC
  0
LINE
  8
0
  6
CONTINUOUS
 62
       7
  5
DB
 10
38.8807929
 20
56.70285451
 30
0.0
 11
38.8807929
 21
43.66535451
 31
0.0
  0
LINE
  8
0
  6
CONTINUOUS
 62
       7
  5
DC
 10
-95.61920699
 20
33.17785448
 30
0.0
 11
-94.31920716
 21
34.47785443
 31
0.0
  0
LINE
  8
0
  6
CONTINUOUS
 62
       7
  5
DD
 10
-95.61920699
 20
33.17785448
 30
0.0
 11
-94.31920716
 21
31.87785452
 31
0.0
  0
LINE
  8
0
  6
CONTINUOUS
 62
       7
  5
DE
 10
-48.73170718
 20
31.87785441
 30
0.0
 11
-47.43170711
 21
33.17785448
 31
0.0
  0
LINE
  8
0
  6
CONTINUOUS
 62
       7
  5
DF
 10
-48.73170706
 20
34.47785443
 30
0.0
 11
-47.4317071
 21
33.17785447
 31
0.0
  0
LINE
  8
0
  6
CONTINUOUS
 62
       7
  5
E0
 10
54.38079284
 20
33.17785448
 30
0.0
 11
55.68079291
 21
31.87785441
 31
0.0
  0
LINE
  8
0
  6
CONTINUOUS
 62
       7
  5
E1
 10
54.38079284
 20
33.17785448
 30
0.0
 11
55.68079291
 21
34.47785455
 31
0.0
  0
LINE
  8
0
  6
CONTINUOUS
 62
       7
  5
E2
 10
101.28079294
 20
31.87785452
 30
0.0
 11
102.58079289
 21
33.17785448
 31
0.0
  0
LINE
  8
0
  6
CONTINUOUS
 62
       7
  5
E3
 10
101.28079294
 20
34.47785443
 30
0.0
 11
102.58079289
 21
33.17785448
 31
0.0
  0
LINE
  8
0
  6
CONTINUOUS
 62
       7
  5
E4
 10
85.4807929
 20
22.37785451
 30
0.0
 11
71.4807929
 21
22.37785451
 31
0.0
  0
LINE
  8
0
  6
DASHED
 62
       7
  5
E5
 10
74.4807929
 20
22.37785451
 30
0.0
 11
74.4807929
 21
26.37785451
 31
0.0
  0
LINE
  8
0
  6
DASHED
 62
       2
  5
E6
 10
73.4807929
 20
22.37785451
 30
0.0
 11
73.69318228
 21
26.37785451
 31
0.0
  0
LINE
  8
0
  6
CONTINUOUS
 62
       7
  5
E7
 10
71.4807929
 20
22.37785451
 30
0.0
 11
71.4807929
 21
24.67785451
 31
0.0
  0
LINE
  8
0
  6
DASHED
 62
       7
  5
E8
 10
82.4807929
 20
22.37785451
 30
0.0
 11
82.4807929
 21
26.37785451
 31
0.0
  0
LINE
  8
0
  6
DASHED
 62
       2
  5
E9
 10
83.4807929
 20
22.37785451
 30
0.0
 11
83.26840352
 21
26.37785451
 31
0.0
  0
LINE
  8
0
  6
CONTINUOUS
 62
       7
  5
EA
 10
85.4807929
 20
22.37785451
 30
0.0
 11
85.4807929
 21
24.67785451
 31
0.0
  0
LINE
  8
0
  6
CONTINUOUS
 62
       7
  5
EB
 10
49.9807929
 20
25.87785451
 30
0.0
 11
106.9807929
 21
25.87785451
 31
0.0
  0
LINE
  8
0
  6
CONTINUOUS
 62
       7
  5
EC
 10
49.9807929
 20
24.67785451
 30
0.0
 11
106.9807929
 21
24.67785451
 31
0.0
  0
CIRCLE
  8
0
  6
DASHED
 62
       7
  5
ED
 10
78.48768758
 20
33.18764913
 30
0.0
 40
1.49999976
  0
CIRCLE
  8
0
  6
DASHED
 62
       2
  5
EE
 10
78.48768758
 20
33.18764913
 30
0.0
 40
1.99999928
  0
TEXT
  8
0
  6
CONTINUOUS
 62
       7
  5
EF
 10
-185.68852459
 20
115.3500061
 30
0.0
 40
4.5
  1
MODEL:250A2
 41
1.08196721
  7
MX_NOTE_STANDARD
 11
-185.68852459
 21
117.6000061
 31
0.0
 73
       2
  0
LINE
  8
0
  6
CONTINUOUS
 62
       7
  5
F0
 10
-194.25
 20
132.6000061
 30
0.0
 11
194.80000305
 21
132.6000061
 31
0.0
  0
LINE
  8
0
  6
CONTINUOUS
 62
       7
  5
F1
 10
194.80000305
 20
132.6000061
 30
0.0
 11
194.80000305
 21
-133.5
 31
0.0
  0
LINE
  8
0
  6
CONTINUOUS
 62
       7
  5
F2
 10
-194.25
 20
132.6000061
 30
0.0
 11
-194.25
 21
-133.5
 31
0.0
  0
LINE
  8
0
  6
CONTINUOUS
 62
       7
  5
F3
 10
-194.25
 20
-133.5
 30
0.0
 11
194.80000305
 21
-133.5
 31
0.0
  0
ENDSEC
  0
EOF
