  0
SECTION
  2
HEADER
  9
$ACADVER
  1
AC1009
  9
$DWGCODEPAGE
  3
dos932
  9
$INSBASE
 10
0.0
 20
0.0
 30
0.0
  9
$EXTMIN
 10
-194.25
 20
-133.5
 30
0.0
  9
$EXTMAX
 10
194.80000305
 20
132.6000061
 30
0.0
  9
$LIMMIN
 10
-194.25
 20
-133.5
  9
$LIMMAX
 10
194.80000305
 20
132.6000061
  9
$ORTHOMODE
 70
       0
  9
$REGENMODE
 70
       1
  9
$FILLMODE
 70
       1
  9
$QTEXTMODE
 70
       0
  9
$MIRRTEXT
 70
       1
  9
$DRAGMODE
 70
       2
  9
$LTSCALE
 40
1.0
  9
$OSMODE
 70
       0
  9
$ATTMODE
 70
       1
  9
$TEXTSIZE
 40
3.20000005
  9
$TRACEWID
 40
0.05
  9
$TEXTSTYLE
  7
MX_NOTE_STANDARD
  9
$CLAYER
  8
0
  9
$CELTYPE
  6
CONTINUOUS
  9
$CECOLOR
 62
     256
  9
$DIMSCALE
 40
1.0
  9
$DIMASZ
 40
2.5
  9
$DIMEXO
 40
1.5
  9
$DIMDLI
 40
3.75
  9
$DIMRND
 40
0.0
  9
$DIMDLE
 40
0.0
  9
$DIMEXE
 40
1.5
  9
$DIMTP
 40
0.0
  9
$DIMTM
 40
0.0
  9
$DIMTXT
 40
3.20000005
  9
$DIMCEN
 40
2.5
  9
$DIMTSZ
 40
0.0
  9
$DIMTOL
 70
       0
  9
$DIMLIM
 70
       0
  9
$DIMTIH
 70
       0
  9
$DIMTOH
 70
       0
  9
$DIMSE1
 70
       0
  9
$DIMSE2
 70
       0
  9
$DIMTAD
 70
       1
  9
$DIMZIN
 70
       8
  9
$DIMBLK
  1

  9
$DIMASO
 70
       1
  9
$DIMSHO
 70
       1
  9
$DIMPOST
  1

  9
$DIMAPOST
  1

  9
$DIMALT
 70
       0
  9
$DIMALTD
 70
       4
  9
$DIMALTF
 40
0.03937008
  9
$DIMLFAC
 40
1.0
  9
$DIMTOFL
 70
       1
  9
$DIMTVP
 40
0.0
  9
$DIMTIX
 70
       0
  9
$DIMSOXD
 70
       0
  9
$DIMSAH
 70
       0
  9
$DIMBLK1
  1

  9
$DIMBLK2
  1

  9
$DIMSTYLE
  2
MXDIMSTYLE
  9
$DIMCLRD
 70
       0
  9
$DIMCLRE
 70
       0
  9
$DIMCLRT
 70
       0
  9
$DIMTFAC
 40
1.0
  9
$DIMGAP
 40
1.0
  9
$LUNITS
 70
       2
  9
$LUPREC
 70
       4
  9
$AXISMODE
 70
       0
  9
$AXISUNIT
 10
0.0
 20
0.0
  9
$SKETCHINC
 40
0.1
  9
$FILLETRAD
 40
0.0
  9
$AUNITS
 70
       0
  9
$AUPREC
 70
       0
  9
$MENU
  1
acad
  9
$ELEVATION
 40
0.0
  9
$PELEVATION
 40
0.0
  9
$THICKNESS
 40
0.0
  9
$LIMCHECK
 70
       0
  9
$BLIPMODE
 70
       1
  9
$CHAMFERA
 40
0.0
  9
$CHAMFERB
 40
0.0
  9
$SKPOLY
 70
       0
  9
$TDCREATE
 40
2453566.569930556
  9
$TDUPDATE
 40
2453566.569930556
  9
$TDINDWG
 40
0.0000000000
  9
$TDUSRTIMER
 40
0.0000000000
  9
$USRTIMER
 70
       1
  9
$ANGBASE
 50
0.0
  9
$ANGDIR
 70
       0
  9
$PDMODE
 70
       0
  9
$PDSIZE
 40
0.0
  9
$PLINEWID
 40
0.0
  9
$COORDS
 70
       1
  9
$SPLFRAME
 70
       0
  9
$SPLINETYPE
 70
       6
  9
$SPLINESEGS
 70
       8
  9
$ATTDIA
 70
       0
  9
$ATTREQ
 70
       1
  9
$HANDLING
 70
       1
  9
$HANDSEED
  5
139
  9
$SURFTAB1
 70
       6
  9
$SURFTAB2
 70
       6
  9
$SURFTYPE
 70
       6
  9
$SURFU
 70
       6
  9
$SURFV
 70
       6
  9
$UCSNAME
  2

  9
$UCSORG
 10
0.0
 20
0.0
 30
0.0
  9
$UCSXDIR
 10
1.0
 20
0.0
 30
0.0
  9
$UCSYDIR
 10
0.0
 20
1.0
 30
0.0
  9
$PUCSNAME
  2

  9
$PUCSORG
 10
0.0
 20
0.0
 30
0.0
  9
$PUCSXDIR
 10
1.0
 20
0.0
 30
0.0
  9
$PUCSYDIR
 10
0.0
 20
1.0
 30
0.0
  9
$USERI1
 70
       0
  9
$USERI2
 70
       0
  9
$USERI3
 70
       0
  9
$USERI4
 70
       0
  9
$USERI5
 70
       0
  9
$USERR1
 40
0.0
  9
$USERR2
 40
0.0
  9
$USERR3
 40
0.0
  9
$USERR4
 40
0.0
  9
$USERR5
 40
0.0
  9
$WORLDVIEW
 70
       1
  9
$SHADEDGE
 70
       3
  9
$SHADEDIF
 70
      70
  9
$TILEMODE
 70
       1
  9
$MAXACTVP
 70
      16
  9
$PINSBASE
 10
0.0
 20
0.0
 30
0.0
  9
$PLIMCHECK
 70
       0
  9
$PEXTMIN
 10
1.00000000E+20
 20
1.00000000E+20
 30
1.00000000E+20
  9
$PEXTMAX
 10
-1.00000000E+20
 20
-1.00000000E+20
 30
-1.00000000E+20
  9
$PLIMMIN
 10
0.0
 20
0.0
  9
$PLIMMAX
 10
12.0
 20
9.0
  9
$UNITMODE
 70
       0
  9
$VISRETAIN
 70
       0
  9
$PLINEGEN
 70
       1
  9
$PSLTSCALE
 70
       0
  9
$TREEDEPTH
 70
    3020
  9
$DWGCODEPAGE
  3
dos932
  0
ENDSEC
  0
SECTION
  2
TABLES
  0
TABLE
  2
VPORT
 70
       1
  0
VPORT
  2
*ACTIVE
 70
       0
 10
0.0
 20
0.0
 11
1.0
 21
1.0
 12
0.27500153
 22
-0.44999695
 13
0.0
 23
0.0
 14
1.0
 24
1.0
 15
0.0
 25
0.0
 16
0.0
 26
0.0
 36
1.0
 17
0.0
 27
0.0
 37
0.0
 40
268.76100616
 41
1.73205081
 42
50.0
 43
0.0
 44
0.0
 50
0.0
 51
0.0
 71
       0
 72
     100
 73
       1
 74
       1
 75
       0
 76
       0
 77
       0
 78
       0
  0
ENDTAB
  0
TABLE
  2
LTYPE
 70
       2
  0
LTYPE
  2
CONTINUOUS
 70
      64
  3
Solid line
 72
      65
 73
       0
 40
0.0
  0
LTYPE
  2
DASHED
 70
      64
  3
Dashed __ __ __ __ __ __ __ __ __ __ __ __ __ _
 72
      65
 73
       2
 40
4.0
 49
2.0
 49
-2.0
  0
ENDTAB
  0
TABLE
  2
LAYER
 70
       2
  0
LAYER
  2
0
 70
       0
 62
       7
  6
CONTINUOUS
  0
LAYER
  2
DEFPOINTS
 70
       0
 62
       7
  6
CONTINUOUS
  0
ENDTAB
  0
TABLE
  2
STYLE
 70
       1
  0
STYLE
  2
MX_NOTE_STANDARD
 70
       0
 40
0.0
 41
1.0
 50
0.0
 71
       0
 42
3.20000005
  3
txt.shx
  4
extfont.shx
  0
ENDTAB
  0
TABLE
  2
VIEW
 70
       0
  0
ENDTAB
  0
TABLE
  2
UCS
 70
       0
  0
ENDTAB
  0
TABLE
  2
APPID
 70
       1
  0
APPID
  2
ACAD
 70
       0
  0
ENDTAB
  0
TABLE
  2
DIMSTYLE
 70
       1
  0
DIMSTYLE
  2
MXDIMSTYLE
 70
       0
  3

  4

  5

  6

  7

 40
1.0
 41
2.5
 42
1.5
 43
3.75
 44
1.5
 45
0.0
 46
0.0
 47
0.0
 48
0.0
 71
       0
 72
       0
 73
       0
 74
       0
 75
       0
 76
       0
 77
       1
 78
       8
140
3.20000005
141
2.5
142
0.0
143
0.03937008
144
1.0
145
0.0
146
1.0
147
1.0
170
       0
171
       4
172
       1
173
       0
174
       0
175
       0
176
       0
177
       0
178
       0
  0
ENDTAB
  0
ENDSEC
  0
SECTION
  2
BLOCKS
  0
BLOCK
  8
0
  6
BYBLOCK
 62
       0
  5
5C
  2
_OPEN30
 70
       2
 10
0.0
 20
0.0
 30
0.0
  3
_OPEN30
  0
LINE
  8
0
  6
BYBLOCK
 62
       0
  5
5D
 10
-1.0
 20
0.267949
 30
0.0
 11
0.0
 21
0.0
 31
0.0
  0
LINE
  8
0
  6
BYBLOCK
 62
       0
  5
5E
 10
0.0
 20
0.0
 30
0.0
 11
-1.0
 21
-0.267949
 31
0.0
  0
LINE
  8
0
  6
BYBLOCK
 62
       0
  5
5F
 10
0.0
 20
0.0
 30
0.0
 11
-1.0
 21
0.0
 31
0.0
  0
ENDBLK
  8
0
  6
BYBLOCK
 62
       0
  5
60
  0
ENDSEC
  0
SECTION
  2
ENTITIES
  0
ARC
  8
0
  6
CONTINUOUS
 62
       7
  5
1E
 10
-57.40993155
 20
25.75979171
 30
0.0
 40
2.19720036
 50
269.92694786
 51
334.50311062
  0
LINE
  8
0
  6
CONTINUOUS
 62
       7
  5
1F
 10
-57.41273298
 20
23.56259314
 30
0.0
 11
-60.01273298
 21
23.56259314
 31
0.0
  0
ARC
  8
0
  6
CONTINUOUS
 62
       7
  5
20
 10
-60.02329068
 20
25.75203545
 30
0.0
 40
2.18946776
 50
205.41818636
 51
270.27628344
  0
ARC
  8
0
  6
CONTINUOUS
 62
       7
  5
21
 10
-60.01704309
 20
69.35261754
 30
0.0
 40
2.19569412
 50
89.88752926
 51
154.0232796
  0
LINE
  8
0
  6
CONTINUOUS
 62
       7
  5
22
 10
-60.01273298
 20
71.54830743
 30
0.0
 11
-57.41273298
 21
71.54830743
 31
0.0
  0
ARC
  8
0
  6
CONTINUOUS
 62
       7
  5
23
 10
-57.41615718
 20
69.34488323
 30
0.0
 40
2.20342686
 50
26.05312857
 51
89.91096048
  0
CIRCLE
  8
0
  6
CONTINUOUS
 62
       7
  5
24
 10
-58.71969269
 20
47.56259314
 30
0.0
 40
22.98571429
  0
LINE
  8
0
  6
CONTINUOUS
 62
       7
  5
25
 10
-82.71969269
 20
46.25563344
 30
0.0
 11
-82.71969269
 21
48.85563344
 31
0.0
  0
ARC
  8
0
  6
CONTINUOUS
 62
       7
  5
26
 10
-80.52249412
 20
46.25283201
 30
0.0
 40
2.19720036
 50
179.92694786
 51
244.50311062
  0
ARC
  8
0
  6
CONTINUOUS
 62
       7
  5
27
 10
-80.53025039
 20
48.86619113
 30
0.0
 40
2.18946776
 50
115.41818636
 51
180.27628344
  0
LINE
  8
0
  6
CONTINUOUS
 62
       7
  5
28
 10
-85.94826412
 20
47.55563344
 30
0.0
 11
-77.47683555
 21
47.55563344
 31
0.0
  0
LINE
  8
0
  6
CONTINUOUS
 62
       7
  5
29
 10
-34.7339784
 20
48.85563344
 30
0.0
 11
-34.7339784
 21
46.25563344
 31
0.0
  0
ARC
  8
0
  6
CONTINUOUS
 62
       7
  5
2A
 10
-36.92966829
 20
48.85994355
 30
0.0
 40
2.19569412
 50
359.88752926
 51
64.0232796
  0
ARC
  8
0
  6
CONTINUOUS
 62
       7
  5
2B
 10
-36.9374026
 20
46.25905763
 30
0.0
 40
2.20342686
 50
296.05312857
 51
359.91096048
  0
LINE
  8
0
  6
CONTINUOUS
 62
       7
  5
2C
 10
-38.89112126
 20
47.55563344
 30
0.0
 11
-32.71969269
 21
47.55563344
 31
0.0
  0
LINE
  8
0
  6
CONTINUOUS
 62
       7
  5
2D
 10
-92.56635062
 20
47.56259314
 30
0.0
 11
-25.21664003
 21
47.56259314
 31
0.0
  0
LINE
  8
0
  6
CONTINUOUS
 62
       7
  5
2E
 10
-63.95205498
 20
54.56259314
 30
0.0
 11
-53.74269435
 21
54.56259314
 31
0.0
  0
LINE
  8
0
  6
CONTINUOUS
 62
       7
  5
2F
 10
-64.25872069
 20
40.56259314
 30
0.0
 11
-53.43602864
 21
40.56259314
 31
0.0
  0
LINE
  8
0
  6
CONTINUOUS
 62
       7
  5
30
 10
-30.2339784
 20
71.06259314
 30
0.0
 11
-30.2339784
 21
24.06259314
 31
0.0
  0
LINE
  8
0
  6
CONTINUOUS
 62
       7
  5
31
 10
-87.21969269
 20
71.06259314
 30
0.0
 11
-87.21969269
 21
24.06259314
 31
0.0
  0
LINE
  8
0
  6
CONTINUOUS
 62
       7
  5
32
 10
-82.21969269
 20
76.06259314
 30
0.0
 11
-35.2339784
 21
76.06259314
 31
0.0
  0
LINE
  8
0
  6
CONTINUOUS
 62
       7
  5
33
 10
-82.21969269
 20
19.06259314
 30
0.0
 11
-35.2339784
 21
19.06259314
 31
0.0
  0
LINE
  8
0
  6
CONTINUOUS
 62
       7
  5
34
 10
-78.71969269
 20
72.84830743
 30
0.0
 11
-78.71969269
 21
62.94830743
 31
0.0
  0
LINE
  8
0
  6
CONTINUOUS
 62
       7
  5
35
 10
-38.7339784
 20
72.84830743
 30
0.0
 11
-38.7339784
 21
62.619736
 31
0.0
  0
LINE
  8
0
  6
CONTINUOUS
 62
       7
  5
36
 10
-84.3339784
 20
67.56259314
 30
0.0
 11
-72.29112126
 21
67.56259314
 31
0.0
  0
LINE
  8
0
  6
CONTINUOUS
 62
       7
  5
37
 10
-84.3339784
 20
27.56259314
 30
0.0
 11
-73.46254983
 21
27.56259314
 31
0.0
  0
LINE
  8
0
  6
CONTINUOUS
 62
       7
  5
38
 10
-43.76254983
 20
67.56259314
 30
0.0
 11
-33.60540698
 21
67.56259314
 31
0.0
  0
LINE
  8
0
  6
CONTINUOUS
 62
       7
  5
39
 10
-78.71969269
 20
32.76259314
 30
0.0
 11
-78.71969269
 21
22.23402172
 31
0.0
  0
LINE
  8
0
  6
CONTINUOUS
 62
       7
  5
3A
 10
-43.9339784
 20
27.56259314
 30
0.0
 11
-33.60540698
 21
27.56259314
 31
0.0
  0
LINE
  8
0
  6
CONTINUOUS
 62
       7
  5
3B
 10
-38.7339784
 20
32.76259314
 30
0.0
 11
-38.7339784
 21
22.23402172
 31
0.0
  0
ARC
  8
0
  6
CONTINUOUS
 62
       7
  5
3C
 10
-58.77150377
 20
47.68633553
 30
0.0
 40
19.85352797
 50
16.91445856
 51
16.48402991
  0
ARC
  8
0
  6
CONTINUOUS
 62
       7
  5
3D
 10
-58.8548935
 20
47.85565568
 30
0.0
 40
15.96266042
 50
21.93947612
 51
21.66334285
  0
ARC
  8
0
  6
CONTINUOUS
 62
       7
  5
3E
 10
-64.98401137
 20
34.02420473
 30
0.0
 40
0.99921165
 50
280.54403121
 51
211.6569211
  0
ARC
  8
0
  6
CONTINUOUS
 62
       7
  5
3F
 10
-52.47159537
 20
34.02870951
 30
0.0
 40
0.99966707
 50
338.85244946
 51
250.70897218
  0
ARC
  8
0
  6
CONTINUOUS
 62
       7
  5
40
 10
-64.97953615
 20
34.02218246
 30
0.0
 40
2.25399947
 50
318.31786019
 51
132.18485365
  0
ARC
  8
0
  6
CONTINUOUS
 62
       7
  5
41
 10
-52.47596867
 20
34.02716945
 30
0.0
 40
2.25317888
 50
47.56833558
 51
219.80667072
  0
ARC
  8
0
  6
CONTINUOUS
 62
       7
  5
42
 10
-58.84737467
 20
47.44741798
 30
0.0
 40
8.75691034
 50
315.33046929
 51
314.66953071
  0
CIRCLE
  8
0
  6
CONTINUOUS
 62
       7
  5
43
 10
-38.73304484
 20
67.55966389
 30
0.0
 40
2.74999891
  0
CIRCLE
  8
0
  6
CONTINUOUS
 62
       7
  5
44
 10
-38.73304484
 20
27.55967479
 30
0.0
 40
2.74999891
  0
CIRCLE
  8
0
  6
CONTINUOUS
 62
       7
  5
45
 10
-78.73302713
 20
27.55967479
 30
0.0
 40
2.74999891
  0
CIRCLE
  8
0
  6
CONTINUOUS
 62
       7
  5
46
 10
-78.73302713
 20
67.55966389
 30
0.0
 40
2.74999891
  0
CIRCLE
  8
0
  6
CONTINUOUS
 62
       7
  5
47
 10
-58.73304484
 20
47.55967479
 30
0.0
 40
5.0
  0
CIRCLE
  8
0
  6
CONTINUOUS
 62
       7
  5
48
 10
-58.73304484
 20
47.55967479
 30
0.0
 40
3.99999891
  0
ARC
  8
0
  6
CONTINUOUS
 62
       7
  5
49
 10
-82.22489519
 20
71.06779565
 30
0.0
 40
4.99480021
 50
89.94032164
 51
180.05967836
  0
ARC
  8
0
  6
CONTINUOUS
 62
       7
  5
4A
 10
-82.2278229
 20
24.05446293
 30
0.0
 40
4.99187641
 50
179.90668299
 51
270.09331701
  0
ARC
  8
0
  6
CONTINUOUS
 62
       7
  5
4B
 10
-35.23205554
 20
24.06067028
 30
0.0
 40
4.99807751
 50
269.97795713
 51
0.02204287
  0
ARC
  8
0
  6
CONTINUOUS
 62
       7
  5
4C
 10
-35.23497962
 20
71.06159193
 30
0.0
 40
5.00100131
 50
0.01147077
 51
89.98852923
  0
TEXT
  8
0
  6
CONTINUOUS
 62
       7
  5
4D
 10
-20.81395268
 20
45.61574385
 30
0.0
 40
3.19999981
  1
P
 41
0.91428611
  7
MX_NOTE_STANDARD
 11
-20.81395268
 21
47.21574375
 31
0.0
 73
       2
  0
TEXT
  8
0
  6
CONTINUOUS
 62
       7
  5
4E
 10
-99.1514078
 20
46.0848304
 30
0.0
 40
3.19999981
  1
A
 41
0.91428611
  7
MX_NOTE_STANDARD
 11
-99.1514078
 21
47.68483031
 31
0.0
 73
       2
  0
ARC
  8
0
  6
CONTINUOUS
 62
       7
  5
4F
 10
-58.71969269
 20
46.96577526
 30
0.0
 40
14.5
 50
308.68859025
 51
231.27710853
  0
ARC
  8
0
  6
CONTINUOUS
 62
       7
  5
50
 10
-50.28101508
 20
36.42828409
 30
0.0
 40
1.0
 50
227.56833558
 51
308.68859025
  0
ARC
  8
0
  6
CONTINUOUS
 62
       7
  5
51
 10
-67.16467727
 20
36.43333796
 30
0.0
 40
1.0
 50
231.27710853
 51
312.18485365
  0
TEXT
  8
0
  6
CONTINUOUS
 62
       7
  5
52
 10
-59.34931269
 20
9.73657969
 30
0.0
 40
3.19999981
  1
R
 41
0.91428611
  7
MX_NOTE_STANDARD
 11
-59.34931269
 21
11.33657959
 31
0.0
 73
       2
  0
LINE
  8
0
  6
CONTINUOUS
 62
       7
  5
53
 10
-58.71969269
 20
81.43207668
 30
0.0
 11
-58.71969269
 21
13.39576237
 31
0.0
  0
TEXT
  8
0
  6
CONTINUOUS
 62
       7
  5
54
 10
86.27958043
 20
-39.20887999
 30
0.0
 40
2.44999981
  1
P
 50
180.0
 41
0.9142858
  7
MX_NOTE_STANDARD
 11
86.27958043
 21
-40.4338799
 31
0.0
 73
       2
  0
LINE
  8
0
  6
CONTINUOUS
 62
       7
  5
55
 10
85.00887874
 20
-66.87294129
 30
0.0
 11
85.00887874
 21
-91.56758779
 31
0.0
  0
LINE
  8
0
  6
CONTINUOUS
 62
       7
  5
56
 10
85.00887874
 20
-42.32440443
 30
0.0
 11
85.00887874
 21
-61.87294129
 31
0.0
  0
LINE
  8
0
  6
CONTINUOUS
 62
       7
  5
57
 10
-58.71969269
 20
-66.98021758
 30
0.0
 11
-58.71969269
 21
-87.56597828
 31
0.0
  0
LINE
  8
0
  6
CONTINUOUS
 62
       7
  5
58
 10
-58.71969269
 20
-43.35870847
 30
0.0
 11
-58.71969269
 21
-61.70982711
 31
0.0
  0
TEXT
  8
0
  6
CONTINUOUS
 62
       7
  5
59
 10
20.4773678
 20
-29.69742341
 30
0.0
 40
3.19999981
  1
-2
  7
MX_NOTE_STANDARD
  0
LINE
  8
0
  6
CONTINUOUS
 62
       7
  5
5A
 10
28.09459302
 20
-30.50883543
 30
0.0
 11
19.02316445
 21
-30.50883543
 31
0.0
  0
POLYLINE
  8
0
  6
CONTINUOUS
 62
       7
  5
61
 66
       1
 10
0.0
 20
0.0
 30
0.0
  0
VERTEX
  8
0
  6
CONTINUOUS
 62
       7
  5
135
 10
35.22326741
 20
-44.09055195
 30
0.0
  0
VERTEX
  8
0
  6
CONTINUOUS
 62
       7
  5
136
 10
28.09397159
 20
-30.49741837
 30
0.0
  0
SEQEND
  8
0
  6
CONTINUOUS
 62
       7
  5
137
  0
INSERT
  8
0
  6
CONTINUOUS
 62
       7
  5
62
  2
_OPEN30
 10
35.22326741
 20
-44.09055195
 30
0.0
 41
2.77
 42
2.77
 50
297.6760095
 43
2.77
  0
TEXT
  8
0
  6
CONTINUOUS
 62
       7
  5
63
 10
-57.45304006
 20
-39.18272633
 30
0.0
 40
2.5
  1
R
 50
180.0
 41
0.91428615
  7
MX_NOTE_STANDARD
 11
-57.45304006
 21
-40.43272633
 31
0.0
 73
       2
  0
TEXT
  8
0
  6
CONTINUOUS
 62
       7
  5
64
 10
-61.87490403
 20
-92.20231678
 30
0.0
 40
3.19999981
  1
PB
  7
MX_NOTE_STANDARD
 11
-61.87490403
 21
-90.60231687
 31
0.0
 73
       2
  0
TEXT
  8
0
  6
CONTINUOUS
 62
       7
  5
65
 10
-62.32764593
 20
-16.07992385
 30
0.0
 40
3.19999981
  1
PA
  7
MX_NOTE_STANDARD
 11
-62.32764593
 21
-14.47992395
 31
0.0
 73
       2
  0
TEXT
  8
0
  6
CONTINUOUS
 62
       7
  5
66
 10
-92.00637528
 20
-49.81787125
 30
0.0
 40
3.19999981
  1
A
 41
0.91428611
  7
MX_NOTE_STANDARD
 11
-92.00637528
 21
-48.21787134
 31
0.0
 73
       2
  0
TEXT
  8
0
  6
CONTINUOUS
 62
       7
  5
67
 10
-59.14686927
 20
-65.75376905
 30
0.0
 40
2.5
  1
R
 41
0.91428615
  7
MX_NOTE_STANDARD
 11
-59.14686927
 21
-64.50376905
 31
0.0
 73
       2
  0
TEXT
  8
0
  6
CONTINUOUS
 62
       7
  5
68
 10
-30.53129022
 20
-49.06203004
 30
0.0
 40
3.19999981
  1
P
 41
0.91428611
  7
MX_NOTE_STANDARD
 11
-30.53129022
 21
-47.46203013
 31
0.0
 73
       2
  0
TEXT
  8
0
  6
CONTINUOUS
 62
       7
  5
69
 10
53.97856738
 20
-47.12154359
 30
0.0
 40
3.19999981
  1
R
 41
0.91428611
  7
MX_NOTE_STANDARD
 11
53.97856738
 21
-45.52154368
 31
0.0
 73
       2
  0
TEXT
  8
0
  6
CONTINUOUS
 62
       7
  5
6A
 10
84.57624729
 20
-65.49450515
 30
0.0
 40
2.44999981
  1
P
 41
0.9142858
  7
MX_NOTE_STANDARD
 11
84.57624729
 21
-64.26950525
 31
0.0
 73
       2
  0
ARC
  8
0
  6
CONTINUOUS
 62
       7
  5
6B
 10
-80.52249412
 20
-75.41163686
 30
0.0
 40
2.19720036
 50
179.92694786
 51
270.07305214
  0
CIRCLE
  8
0
  6
CONTINUOUS
 62
       7
  5
6C
 10
-58.73304484
 20
-74.10111361
 30
0.0
 40
3.49999973
  0
ARC
  8
0
  6
CONTINUOUS
 62
       7
  5
6D
 10
-36.92966829
 20
-72.80452532
 30
0.0
 40
2.19569412
 50
359.88752926
 51
90.11247074
  0
ARC
  8
0
  6
CONTINUOUS
 62
       7
  5
6E
 10
-80.53025039
 20
-72.79827773
 30
0.0
 40
2.18946776
 50
89.72371656
 51
180.27628344
  0
ARC
  8
0
  6
CONTINUOUS
 62
       7
  5
6F
 10
-81.68381114
 20
-79.40185984
 30
0.0
 40
2.00698771
 50
270.19914058
 51
359.80085942
  0
ARC
  8
0
  6
CONTINUOUS
 62
       7
  5
70
 10
-36.9374026
 20
-75.40541123
 30
0.0
 40
2.20342686
 50
270.08903952
 51
359.91096048
  0
ARC
  8
0
  6
CONTINUOUS
 62
       7
  5
71
 10
-35.78322519
 20
-79.40093935
 30
0.0
 40
2.0079116
 50
180.22531519
 51
269.77468481
  0
CIRCLE
  8
0
  6
CONTINUOUS
 62
       7
  5
72
 10
-58.73304484
 20
-74.10111361
 30
0.0
 40
3.75
  0
CIRCLE
  8
0
  6
CONTINUOUS
 62
       7
  5
73
 10
85.01692928
 20
-74.10111361
 30
0.0
 40
3.75
  0
ARC
  8
0
  6
CONTINUOUS
 62
       7
  5
74
 10
63.21676623
 20
-75.40094794
 30
0.0
 40
2.20790158
 50
180.20468345
 51
269.79531655
  0
CIRCLE
  8
0
  6
CONTINUOUS
 62
       7
  5
75
 10
85.01692928
 20
-74.10111361
 30
0.0
 40
3.49999973
  0
ARC
  8
0
  6
CONTINUOUS
 62
       7
  5
76
 10
106.8167636
 20
-72.80095056
 30
0.0
 40
2.19212932
 50
359.79391251
 51
90.20608749
  0
ARC
  8
0
  6
CONTINUOUS
 62
       7
  5
77
 10
63.20904762
 20
-72.80900431
 30
0.0
 40
2.20016889
 50
90.00439807
 51
179.99560193
  0
ARC
  8
0
  6
CONTINUOUS
 62
       7
  5
78
 10
62.06260201
 20
-79.40541585
 30
0.0
 40
2.0034225
 50
270.09779646
 51
359.90220354
  0
ARC
  8
0
  6
CONTINUOUS
 62
       7
  5
79
 10
106.80901674
 20
-75.40897343
 30
0.0
 40
2.199862
 50
269.99640572
 51
0.00359428
  0
ARC
  8
0
  6
CONTINUOUS
 62
       7
  5
7A
 10
107.9703471
 20
-79.40450992
 30
0.0
 40
2.00433017
 50
180.12364902
 51
269.87635098
  0
CIRCLE
  8
0
  6
CONTINUOUS
 62
       7
  5
7B
 10
-58.73304484
 20
-52.35110489
 30
0.0
 40
7.5
  0
CIRCLE
  8
0
  6
CONTINUOUS
 62
       7
  5
7C
 10
-58.73304484
 20
-52.35110489
 30
0.0
 40
8.49999973
  0
CIRCLE
  8
0
  6
CONTINUOUS
 62
       7
  5
7D
 10
-58.73304484
 20
-30.60111797
 30
0.0
 40
1.64999962
  0
CIRCLE
  8
0
  6
CONTINUOUS
 62
       7
  5
7E
 10
-58.73304484
 20
-30.60111797
 30
0.0
 40
1.99999946
  0
CIRCLE
  8
0
  6
CONTINUOUS
 62
       7
  5
7F
 10
85.01692928
 20
-52.35110489
 30
0.0
 40
7.5
  0
CIRCLE
  8
0
  6
CONTINUOUS
 62
       7
  5
80
 10
85.01692928
 20
-52.35110489
 30
0.0
 40
8.49999973
  0
CIRCLE
  8
0
  6
CONTINUOUS
 62
       7
  5
81
 10
85.01692928
 20
-30.60109617
 30
0.0
 40
1.64999962
  0
CIRCLE
  8
0
  6
CONTINUOUS
 62
       7
  5
82
 10
85.01692928
 20
-30.60109617
 30
0.0
 40
1.99999946
  0
LINE
  8
0
  6
CONTINUOUS
 62
       7
  5
83
 10
92.00887874
 20
-84.90883543
 30
0.0
 11
92.00887874
 21
-82.60883543
 31
0.0
  0
LINE
  8
0
  6
DASHED
 62
       7
  5
85
 10
89.89459302
 20
-82.59454971
 30
0.0
 11
90.00887874
 21
-84.90883543
 31
0.0
  0
LINE
  8
0
  6
DASHED
 62
       7
  5
86
 10
89.00887874
 20
-84.90883543
 30
0.0
 11
89.00887874
 21
-82.60883543
 31
0.0
  0
LINE
  8
0
  6
CONTINUOUS
 62
       7
  5
87
 10
85.00887874
 20
-84.90883543
 30
0.0
 11
92.00887874
 21
-84.90883543
 31
0.0
  0
LINE
  8
0
  6
DASHED
 62
       7
  5
88
 10
81.00887874
 20
-84.90883543
 30
0.0
 11
81.00887874
 21
-82.59454971
 31
0.0
  0
LINE
  8
0
  6
DASHED
 62
       7
  5
89
 10
80.13745017
 20
-82.59454971
 30
0.0
 11
80.00887874
 21
-84.90883543
 31
0.0
  0
LINE
  8
0
  6
CONTINUOUS
 62
       7
  5
8A
 10
85.00887874
 20
-84.90883543
 30
0.0
 11
78.00887874
 21
-84.90883543
 31
0.0
  0
LINE
  8
0
  6
CONTINUOUS
 62
       7
  5
8B
 10
78.00887874
 20
-84.90883543
 30
0.0
 11
78.00887874
 21
-82.59454971
 31
0.0
  0
LINE
  8
0
  6
CONTINUOUS
 62
       7
  5
8C
 10
-49.97683555
 20
-83.90883543
 30
0.0
 11
-49.97683555
 21
-82.60883543
 31
0.0
  0
LINE
  8
0
  6
CONTINUOUS
 62
       7
  5
8D
 10
-50.97683555
 20
-84.90883543
 30
0.0
 11
-49.97683555
 21
-83.90883543
 31
0.0
  0
LINE
  8
0
  6
CONTINUOUS
 62
       7
  5
8E
 10
-53.47683555
 20
-83.90883543
 30
0.0
 11
-49.97683555
 21
-83.90883543
 31
0.0
  0
LINE
  8
0
  6
CONTINUOUS
 62
       7
  5
8F
 10
-53.47683555
 20
-84.90883543
 30
0.0
 11
-53.47683555
 21
-82.60883543
 31
0.0
  0
LINE
  8
0
  6
CONTINUOUS
 62
       7
  5
90
 10
-58.71969269
 20
-84.90883543
 30
0.0
 11
-50.97683555
 21
-84.90883543
 31
0.0
  0
LINE
  8
0
  6
CONTINUOUS
 62
       7
  5
91
 10
-58.71969269
 20
-82.25169257
 30
0.0
 11
-53.47683555
 21
-84.90883543
 31
0.0
  0
LINE
  8
0
  6
CONTINUOUS
 62
       7
  5
92
 10
-58.70540698
 20
-82.26597828
 30
0.0
 11
-58.71969269
 21
-82.25169257
 31
0.0
  0
LINE
  8
0
  6
CONTINUOUS
 62
       7
  5
93
 10
-59.47683555
 20
-82.63740686
 30
0.0
 11
-63.97683555
 21
-84.90883543
 31
0.0
  0
LINE
  8
0
  6
CONTINUOUS
 62
       7
  5
94
 10
-63.97683555
 20
-84.90883543
 30
0.0
 11
-63.97683555
 21
-82.60883543
 31
0.0
  0
LINE
  8
0
  6
CONTINUOUS
 62
       7
  5
95
 10
-63.97683555
 20
-83.90883543
 30
0.0
 11
-67.47683555
 21
-83.90883543
 31
0.0
  0
LINE
  8
0
  6
CONTINUOUS
 62
       7
  5
96
 10
-58.71969269
 20
-84.90883543
 30
0.0
 11
-66.47683555
 21
-84.90883543
 31
0.0
  0
LINE
  8
0
  6
CONTINUOUS
 62
       7
  5
97
 10
-66.47683555
 20
-84.90883543
 30
0.0
 11
-67.47683555
 21
-83.90883543
 31
0.0
  0
LINE
  8
0
  6
CONTINUOUS
 62
       7
  5
98
 10
-67.47683555
 20
-83.90883543
 30
0.0
 11
-67.47683555
 21
-82.60883543
 31
0.0
  0
LINE
  8
0
  6
CONTINUOUS
 62
       7
  5
99
 10
41.65173588
 20
-44.42312114
 30
0.0
 11
41.65173588
 21
-60.33740686
 31
0.0
  0
LINE
  8
0
  6
CONTINUOUS
 62
       7
  5
9A
 10
42.90887874
 20
-59.02312114
 30
0.0
 11
41.59459302
 21
-60.35169257
 31
0.0
  0
LINE
  8
0
  6
CONTINUOUS
 62
       7
  5
9B
 10
42.90887874
 20
-45.75169257
 30
0.0
 11
41.59459302
 21
-44.42312114
 31
0.0
  0
LINE
  8
0
  6
CONTINUOUS
 62
       7
  5
9C
 10
42.90887874
 20
-45.75169257
 30
0.0
 11
42.90887874
 21
-59.02312114
 31
0.0
  0
LINE
  8
0
  6
CONTINUOUS
 62
       7
  5
9D
 10
31.19459302
 20
-43.880264
 30
0.0
 11
31.19459302
 21
-60.89454971
 31
0.0
  0
LINE
  8
0
  6
CONTINUOUS
 62
       7
  5
9E
 10
30.40887874
 20
-44.880264
 30
0.0
 11
31.19459302
 21
-43.880264
 31
0.0
  0
LINE
  8
0
  6
CONTINUOUS
 62
       7
  5
9F
 10
30.40887874
 20
-44.880264
 30
0.0
 11
30.40887874
 21
-59.880264
 31
0.0
  0
LINE
  8
0
  6
CONTINUOUS
 62
       7
  5
A0
 10
30.40887874
 20
-59.880264
 30
0.0
 11
42.05173588
 21
-59.880264
 31
0.0
  0
LINE
  8
0
  6
CONTINUOUS
 62
       7
  5
A1
 10
31.19459302
 20
-60.89454971
 30
0.0
 11
41.59459302
 21
-60.35169257
 31
0.0
  0
LINE
  8
0
  6
CONTINUOUS
 62
       7
  5
A2
 10
30.40887874
 20
-44.880264
 30
0.0
 11
42.05173588
 21
-44.880264
 31
0.0
  0
LINE
  8
0
  6
CONTINUOUS
 62
       7
  5
A3
 10
31.19459302
 20
-43.880264
 30
0.0
 11
41.59459302
 21
-44.42312114
 31
0.0
  0
LINE
  8
0
  6
CONTINUOUS
 62
       7
  5
A4
 10
30.40887874
 20
-59.880264
 30
0.0
 11
31.19459302
 21
-60.89454971
 31
0.0
  0
LINE
  8
0
  6
DASHED
 62
       7
  5
A5
 10
62.00887874
 20
-60.85169257
 30
0.0
 11
71.39459302
 21
-60.36597828
 31
0.0
  0
LINE
  8
0
  6
DASHED
 62
       7
  5
A6
 10
62.00887874
 20
-59.85169257
 30
0.0
 11
71.43745017
 21
-59.85169257
 31
0.0
  0
LINE
  8
0
  6
DASHED
 62
       7
  5
A7
 10
62.00887874
 20
-44.85169257
 30
0.0
 11
71.43745017
 21
-44.85169257
 31
0.0
  0
LINE
  8
0
  6
DASHED
 62
       7
  5
A8
 10
62.00887874
 20
-43.85169257
 30
0.0
 11
71.39459302
 21
-44.35169257
 31
0.0
  0
LINE
  8
0
  6
DASHED
 62
       7
  5
A9
 10
-63.51969269
 20
-23.73740686
 30
0.0
 11
-63.71969269
 21
-19.80883543
 31
0.0
  0
LINE
  8
0
  6
DASHED
 62
       7
  5
AA
 10
-62.71969269
 20
-19.80883543
 30
0.0
 11
-62.71969269
 21
-24.13740686
 31
0.0
  0
LINE
  8
0
  6
DASHED
 62
       7
  5
AB
 10
-54.71969269
 20
-19.80883543
 30
0.0
 11
-54.71969269
 21
-24.13740686
 31
0.0
  0
LINE
  8
0
  6
DASHED
 62
       7
  5
AC
 10
-53.9339784
 20
-23.73740686
 30
0.0
 11
-53.71969269
 21
-19.80883543
 31
0.0
  0
LINE
  8
0
  6
CONTINUOUS
 62
       7
  5
AD
 10
92.00887874
 20
-19.80883543
 30
0.0
 11
92.00887874
 21
-24.880264
 31
0.0
  0
LINE
  8
0
  6
CONTINUOUS
 62
       7
  5
AE
 10
78.00887874
 20
-19.80883543
 30
0.0
 11
78.00887874
 21
-25.10883543
 31
0.0
  0
LINE
  8
0
  6
CONTINUOUS
 62
       7
  5
AF
 10
-66.47683555
 20
-19.80883543
 30
0.0
 11
-67.47683555
 21
-20.80883543
 31
0.0
  0
LINE
  8
0
  6
CONTINUOUS
 62
       7
  5
B0
 10
-50.97683555
 20
-19.80883543
 30
0.0
 11
-49.97683555
 21
-20.80883543
 31
0.0
  0
LINE
  8
0
  6
CONTINUOUS
 62
       7
  5
B1
 10
-63.97683555
 20
-20.80883543
 30
0.0
 11
-67.47683555
 21
-20.80883543
 31
0.0
  0
LINE
  8
0
  6
CONTINUOUS
 62
       7
  5
B2
 10
-53.47683555
 20
-20.80883543
 30
0.0
 11
-49.97683555
 21
-20.80883543
 31
0.0
  0
LINE
  8
0
  6
DASHED
 62
       7
  5
B3
 10
80.22316445
 20
-23.73740686
 30
0.0
 11
80.00887874
 21
-19.80883543
 31
0.0
  0
LINE
  8
0
  6
DASHED
 62
       7
  5
B4
 10
81.00887874
 20
-19.80883543
 30
0.0
 11
81.00887874
 21
-24.13740686
 31
0.0
  0
LINE
  8
0
  6
DASHED
 62
       7
  5
B5
 10
89.80887874
 20
-23.73740686
 30
0.0
 11
90.00887874
 21
-19.80883543
 31
0.0
  0
LINE
  8
0
  6
DASHED
 62
       7
  5
B6
 10
89.00887874
 20
-19.80883543
 30
0.0
 11
89.00887874
 21
-24.13740686
 31
0.0
  0
LINE
  8
0
  6
CONTINUOUS
 62
       7
  5
B7
 10
85.00887874
 20
-19.80883543
 30
0.0
 11
78.00887874
 21
-19.80883543
 31
0.0
  0
LINE
  8
0
  6
CONTINUOUS
 62
       7
  5
B8
 10
85.00887874
 20
-19.80883543
 30
0.0
 11
92.00887874
 21
-19.80883543
 31
0.0
  0
LINE
  8
0
  6
CONTINUOUS
 62
       7
  5
B9
 10
-58.71969269
 20
-19.80883543
 30
0.0
 11
-66.47683555
 21
-19.80883543
 31
0.0
  0
LINE
  8
0
  6
CONTINUOUS
 62
       7
  5
BA
 10
-58.71969269
 20
-19.80883543
 30
0.0
 11
-50.97683555
 21
-19.80883543
 31
0.0
  0
LINE
  8
0
  6
CONTINUOUS
 62
       7
  5
BB
 10
-53.47683555
 20
-19.80883543
 30
0.0
 11
-53.47683555
 21
-25.10883543
 31
0.0
  0
LINE
  8
0
  6
CONTINUOUS
 62
       7
  5
BC
 10
-58.71969269
 20
-22.45169257
 30
0.0
 11
-63.97683555
 21
-25.10883543
 31
0.0
  0
LINE
  8
0
  6
CONTINUOUS
 62
       7
  5
BD
 10
-58.71969269
 20
-22.45169257
 30
0.0
 11
-63.97683555
 21
-19.80883543
 31
0.0
  0
LINE
  8
0
  6
CONTINUOUS
 62
       7
  5
BE
 10
-63.97683555
 20
-19.80883543
 30
0.0
 11
-63.97683555
 21
-25.10883543
 31
0.0
  0
LINE
  8
0
  6
CONTINUOUS
 62
       7
  5
BF
 10
-67.47683555
 20
-20.80883543
 30
0.0
 11
-67.47683555
 21
-25.10883543
 31
0.0
  0
LINE
  8
0
  6
CONTINUOUS
 62
       7
  5
C0
 10
-58.71969269
 20
-22.45169257
 30
0.0
 11
-53.47683555
 21
-25.10883543
 31
0.0
  0
LINE
  8
0
  6
CONTINUOUS
 62
       7
  5
C1
 10
-58.71969269
 20
-22.45169257
 30
0.0
 11
-53.47683555
 21
-19.80883543
 31
0.0
  0
LINE
  8
0
  6
CONTINUOUS
 62
       7
  5
C2
 10
-49.97683555
 20
-20.80883543
 30
0.0
 11
-49.97683555
 21
-25.10883543
 31
0.0
  0
LINE
  8
0
  6
CONTINUOUS
 62
       7
  5
C3
 10
-87.21969269
 20
-81.40883543
 30
0.0
 11
-87.21969269
 21
-82.60883543
 31
0.0
  0
LINE
  8
0
  6
CONTINUOUS
 62
       7
  5
C4
 10
-58.71969269
 20
-82.60883543
 30
0.0
 11
-30.2339784
 21
-82.60883543
 31
0.0
  0
LINE
  8
0
  6
CONTINUOUS
 62
       7
  5
C5
 10
-38.89112126
 20
-74.10883543
 30
0.0
 11
-32.71969269
 21
-74.10883543
 31
0.0
  0
LINE
  8
0
  6
CONTINUOUS
 62
       7
  5
C6
 10
-60.17683555
 20
-72.65169257
 30
0.0
 11
-57.34826412
 21
-75.480264
 31
0.0
  0
LINE
  8
0
  6
CONTINUOUS
 62
       7
  5
C7
 10
-60.07683555
 20
-75.46597828
 30
0.0
 11
-57.29112126
 21
-72.66597828
 31
0.0
  0
LINE
  8
0
  6
CONTINUOUS
 62
       7
  5
C8
 10
-82.71969269
 20
-74.10883543
 30
0.0
 11
-82.71969269
 21
-75.40883543
 31
0.0
  0
LINE
  8
0
  6
CONTINUOUS
 62
       7
  5
C9
 10
-80.11969269
 20
-77.60883543
 30
0.0
 11
-80.51969269
 21
-77.60883543
 31
0.0
  0
LINE
  8
0
  6
CONTINUOUS
 62
       7
  5
CA
 10
-79.67683555
 20
-77.85169257
 30
0.0
 11
-80.11969269
 21
-77.85169257
 31
0.0
  0
LINE
  8
0
  6
CONTINUOUS
 62
       7
  5
CB
 10
-80.11969269
 20
-74.10883543
 30
0.0
 11
-80.11969269
 21
-77.85169257
 31
0.0
  0
LINE
  8
0
  6
CONTINUOUS
 62
       7
  5
CC
 10
-82.71969269
 20
-74.10883543
 30
0.0
 11
-82.71969269
 21
-72.80883543
 31
0.0
  0
LINE
  8
0
  6
CONTINUOUS
 62
       7
  5
CD
 10
-80.11969269
 20
-70.60883543
 30
0.0
 11
-80.51969269
 21
-70.60883543
 31
0.0
  0
LINE
  8
0
  6
CONTINUOUS
 62
       7
  5
CE
 10
-79.67683555
 20
-70.35169257
 30
0.0
 11
-80.11969269
 21
-70.35169257
 31
0.0
  0
LINE
  8
0
  6
CONTINUOUS
 62
       7
  5
CF
 10
-80.11969269
 20
-74.10883543
 30
0.0
 11
-80.11969269
 21
-70.35169257
 31
0.0
  0
LINE
  8
0
  6
CONTINUOUS
 62
       7
  5
D0
 10
-58.71969269
 20
-81.40883543
 30
0.0
 11
-87.21969269
 21
-81.40883543
 31
0.0
  0
LINE
  8
0
  6
CONTINUOUS
 62
       7
  5
D1
 10
-79.67683555
 20
-79.40883543
 30
0.0
 11
-79.67683555
 21
-68.60883543
 31
0.0
  0
LINE
  8
0
  6
CONTINUOUS
 62
       7
  5
D2
 10
-34.7339784
 20
-74.10883543
 30
0.0
 11
-34.7339784
 21
-75.40883543
 31
0.0
  0
LINE
  8
0
  6
CONTINUOUS
 62
       7
  5
D3
 10
-37.3339784
 20
-77.60883543
 30
0.0
 11
-36.9339784
 21
-77.60883543
 31
0.0
  0
LINE
  8
0
  6
CONTINUOUS
 62
       7
  5
D4
 10
-37.79112126
 20
-77.85169257
 30
0.0
 11
-37.3339784
 21
-77.85169257
 31
0.0
  0
LINE
  8
0
  6
CONTINUOUS
 62
       7
  5
D5
 10
-37.3339784
 20
-74.10883543
 30
0.0
 11
-37.3339784
 21
-77.85169257
 31
0.0
  0
LINE
  8
0
  6
CONTINUOUS
 62
       7
  5
D6
 10
-34.7339784
 20
-74.10883543
 30
0.0
 11
-34.7339784
 21
-72.80883543
 31
0.0
  0
LINE
  8
0
  6
CONTINUOUS
 62
       7
  5
D7
 10
-37.3339784
 20
-70.60883543
 30
0.0
 11
-36.9339784
 21
-70.60883543
 31
0.0
  0
LINE
  8
0
  6
CONTINUOUS
 62
       7
  5
D8
 10
-37.79112126
 20
-70.35169257
 30
0.0
 11
-37.3339784
 21
-70.35169257
 31
0.0
  0
LINE
  8
0
  6
CONTINUOUS
 62
       7
  5
D9
 10
-37.3339784
 20
-74.10883543
 30
0.0
 11
-37.3339784
 21
-70.35169257
 31
0.0
  0
LINE
  8
0
  6
CONTINUOUS
 62
       7
  5
DA
 10
-58.71969269
 20
-81.40883543
 30
0.0
 11
-30.2339784
 21
-81.40883543
 31
0.0
  0
LINE
  8
0
  6
CONTINUOUS
 62
       7
  5
DB
 10
-30.2339784
 20
-81.40883543
 30
0.0
 11
-30.2339784
 21
-82.60883543
 31
0.0
  0
LINE
  8
0
  6
CONTINUOUS
 62
       7
  5
DC
 10
-37.79112126
 20
-79.40883543
 30
0.0
 11
-37.79112126
 21
-68.60883543
 31
0.0
  0
LINE
  8
0
  6
CONTINUOUS
 62
       7
  5
DD
 10
-85.94826412
 20
-74.10883543
 30
0.0
 11
-77.47683555
 21
-74.10883543
 31
0.0
  0
LINE
  8
0
  6
CONTINUOUS
 62
       7
  5
DE
 10
-58.71969269
 20
-82.60883543
 30
0.0
 11
-87.21969269
 21
-82.60883543
 31
0.0
  0
LINE
  8
0
  6
CONTINUOUS
 62
       7
  5
DF
 10
-62.91969269
 20
-74.10883543
 30
0.0
 11
-53.84826412
 21
-74.10883543
 31
0.0
  0
LINE
  8
0
  6
CONTINUOUS
 62
       7
  5
E0
 10
56.50887874
 20
-81.40883543
 30
0.0
 11
56.50887874
 21
-82.60883543
 31
0.0
  0
LINE
  8
0
  6
CONTINUOUS
 62
       7
  5
E1
 10
85.00887874
 20
-82.60883543
 30
0.0
 11
113.50887874
 21
-82.60883543
 31
0.0
  0
LINE
  8
0
  6
CONTINUOUS
 62
       7
  5
E2
 10
104.85173588
 20
-74.10883543
 30
0.0
 11
111.03745017
 21
-74.10883543
 31
0.0
  0
LINE
  8
0
  6
CONTINUOUS
 62
       7
  5
E3
 10
83.55173588
 20
-72.65169257
 30
0.0
 11
86.39459302
 21
-75.480264
 31
0.0
  0
LINE
  8
0
  6
CONTINUOUS
 62
       7
  5
E4
 10
83.65173588
 20
-75.46597828
 30
0.0
 11
86.45173588
 21
-72.66597828
 31
0.0
  0
LINE
  8
0
  6
CONTINUOUS
 62
       7
  5
E5
 10
61.00887874
 20
-74.10883543
 30
0.0
 11
61.00887874
 21
-75.40883543
 31
0.0
  0
LINE
  8
0
  6
CONTINUOUS
 62
       7
  5
E6
 10
63.60887874
 20
-77.60883543
 30
0.0
 11
63.20887874
 21
-77.60883543
 31
0.0
  0
LINE
  8
0
  6
CONTINUOUS
 62
       7
  5
E7
 10
64.0660216
 20
-77.85169257
 30
0.0
 11
63.60887874
 21
-77.85169257
 31
0.0
  0
LINE
  8
0
  6
CONTINUOUS
 62
       7
  5
E8
 10
63.60887874
 20
-74.10883543
 30
0.0
 11
63.60887874
 21
-77.85169257
 31
0.0
  0
LINE
  8
0
  6
CONTINUOUS
 62
       7
  5
E9
 10
61.00887874
 20
-74.10883543
 30
0.0
 11
61.00887874
 21
-72.80883543
 31
0.0
  0
LINE
  8
0
  6
CONTINUOUS
 62
       7
  5
EA
 10
63.60887874
 20
-70.60883543
 30
0.0
 11
63.20887874
 21
-70.60883543
 31
0.0
  0
LINE
  8
0
  6
CONTINUOUS
 62
       7
  5
EB
 10
64.0660216
 20
-70.35169257
 30
0.0
 11
63.60887874
 21
-70.35169257
 31
0.0
  0
LINE
  8
0
  6
CONTINUOUS
 62
       7
  5
EC
 10
63.60887874
 20
-74.10883543
 30
0.0
 11
63.60887874
 21
-70.35169257
 31
0.0
  0
LINE
  8
0
  6
CONTINUOUS
 62
       7
  5
ED
 10
85.00887874
 20
-81.40883543
 30
0.0
 11
56.50887874
 21
-81.40883543
 31
0.0
  0
LINE
  8
0
  6
CONTINUOUS
 62
       7
  5
EE
 10
64.0660216
 20
-79.40883543
 30
0.0
 11
64.0660216
 21
-68.60883543
 31
0.0
  0
LINE
  8
0
  6
CONTINUOUS
 62
       7
  5
EF
 10
109.00887874
 20
-74.10883543
 30
0.0
 11
109.00887874
 21
-75.40883543
 31
0.0
  0
LINE
  8
0
  6
CONTINUOUS
 62
       7
  5
F0
 10
106.40887874
 20
-77.60883543
 30
0.0
 11
106.80887874
 21
-77.60883543
 31
0.0
  0
LINE
  8
0
  6
CONTINUOUS
 62
       7
  5
F1
 10
105.9660216
 20
-77.85169257
 30
0.0
 11
106.40887874
 21
-77.85169257
 31
0.0
  0
LINE
  8
0
  6
CONTINUOUS
 62
       7
  5
F2
 10
106.40887874
 20
-74.10883543
 30
0.0
 11
106.40887874
 21
-77.85169257
 31
0.0
  0
LINE
  8
0
  6
CONTINUOUS
 62
       7
  5
F3
 10
109.00887874
 20
-74.10883543
 30
0.0
 11
109.00887874
 21
-72.80883543
 31
0.0
  0
LINE
  8
0
  6
CONTINUOUS
 62
       7
  5
F4
 10
106.40887874
 20
-70.60883543
 30
0.0
 11
106.80887874
 21
-70.60883543
 31
0.0
  0
LINE
  8
0
  6
CONTINUOUS
 62
       7
  5
F5
 10
105.9660216
 20
-70.35169257
 30
0.0
 11
106.40887874
 21
-70.35169257
 31
0.0
  0
LINE
  8
0
  6
CONTINUOUS
 62
       7
  5
F6
 10
106.40887874
 20
-74.10883543
 30
0.0
 11
106.40887874
 21
-70.35169257
 31
0.0
  0
LINE
  8
0
  6
CONTINUOUS
 62
       7
  5
F7
 10
85.00887874
 20
-81.40883543
 30
0.0
 11
113.50887874
 21
-81.40883543
 31
0.0
  0
LINE
  8
0
  6
CONTINUOUS
 62
       7
  5
F8
 10
113.50887874
 20
-81.40883543
 30
0.0
 11
113.50887874
 21
-82.60883543
 31
0.0
  0
LINE
  8
0
  6
CONTINUOUS
 62
       7
  5
F9
 10
105.9660216
 20
-79.40883543
 30
0.0
 11
105.9660216
 21
-68.60883543
 31
0.0
  0
LINE
  8
0
  6
CONTINUOUS
 62
       7
  5
FA
 10
58.50250808
 20
-74.10883543
 30
0.0
 11
66.25173588
 21
-74.10883543
 31
0.0
  0
LINE
  8
0
  6
CONTINUOUS
 62
       7
  5
FB
 10
85.00887874
 20
-82.60883543
 30
0.0
 11
56.50887874
 21
-82.60883543
 31
0.0
  0
LINE
  8
0
  6
CONTINUOUS
 62
       7
  5
FC
 10
78.64713343
 20
-74.10883543
 30
0.0
 11
91.54207061
 21
-74.10883543
 31
0.0
  0
LINE
  8
0
  6
DASHED
 62
       7
  5
FD
 10
-81.71969269
 20
-59.85169257
 30
0.0
 11
-72.29112126
 21
-59.85169257
 31
0.0
  0
LINE
  8
0
  6
DASHED
 62
       7
  5
FE
 10
-81.71969269
 20
-60.85169257
 30
0.0
 11
-72.34826412
 21
-60.36597828
 31
0.0
  0
LINE
  8
0
  6
DASHED
 62
       7
  5
FF
 10
-81.71969269
 20
-44.85169257
 30
0.0
 11
-72.29112126
 21
-44.85169257
 31
0.0
  0
LINE
  8
0
  6
DASHED
 62
       7
  5
100
 10
-81.71969269
 20
-43.85169257
 30
0.0
 11
-72.34826412
 21
-44.35169257
 31
0.0
  0
LINE
  8
0
  6
CONTINUOUS
 62
       7
  5
101
 10
-81.71969269
 20
-67.60883543
 30
0.0
 11
-35.7339784
 21
-67.60883543
 31
0.0
  0
LINE
  8
0
  6
CONTINUOUS
 62
       7
  5
102
 10
-80.71969269
 20
-68.60883543
 30
0.0
 11
-81.71969269
 21
-67.60883543
 31
0.0
  0
LINE
  8
0
  6
CONTINUOUS
 62
       7
  5
103
 10
-35.7339784
 20
-67.60883543
 30
0.0
 11
-36.7339784
 21
-68.60883543
 31
0.0
  0
LINE
  8
0
  6
CONTINUOUS
 62
       7
  5
104
 10
-35.7339784
 20
-67.60883543
 30
0.0
 11
-35.7339784
 21
-52.35169257
 31
0.0
  0
LINE
  8
0
  6
CONTINUOUS
 62
       7
  5
105
 10
-81.71969269
 20
-67.60883543
 30
0.0
 11
-81.71969269
 21
-52.35169257
 31
0.0
  0
LINE
  8
0
  6
CONTINUOUS
 62
       7
  5
106
 10
-80.71969269
 20
-68.60883543
 30
0.0
 11
-36.7339784
 21
-68.60883543
 31
0.0
  0
LINE
  8
0
  6
CONTINUOUS
 62
       7
  5
107
 10
-78.47683555
 20
-26.10883543
 30
0.0
 11
-38.97683555
 21
-26.10883543
 31
0.0
  0
LINE
  8
0
  6
CONTINUOUS
 62
       7
  5
108
 10
-81.71969269
 20
-37.10883543
 30
0.0
 11
-35.7339784
 21
-37.10883543
 31
0.0
  0
LINE
  8
0
  6
CONTINUOUS
 62
       7
  5
109
 10
-80.71969269
 20
-36.10883543
 30
0.0
 11
-81.71969269
 21
-37.10883543
 31
0.0
  0
LINE
  8
0
  6
CONTINUOUS
 62
       7
  5
10A
 10
-78.47683555
 20
-26.10883543
 30
0.0
 11
-77.47683555
 21
-25.10883543
 31
0.0
  0
LINE
  8
0
  6
CONTINUOUS
 62
       7
  5
10B
 10
-35.7339784
 20
-37.10883543
 30
0.0
 11
-36.7339784
 21
-36.10883543
 31
0.0
  0
LINE
  8
0
  6
CONTINUOUS
 62
       7
  5
10C
 10
-39.97683555
 20
-25.10883543
 30
0.0
 11
-38.97683555
 21
-26.10883543
 31
0.0
  0
LINE
  8
0
  6
CONTINUOUS
 62
       7
  5
10D
 10
-35.7339784
 20
-37.10883543
 30
0.0
 11
-35.7339784
 21
-52.35169257
 31
0.0
  0
LINE
  8
0
  6
CONTINUOUS
 62
       7
  5
10E
 10
-38.97683555
 20
-26.10883543
 30
0.0
 11
-38.97683555
 21
-36.10883543
 31
0.0
  0
LINE
  8
0
  6
CONTINUOUS
 62
       7
  5
10F
 10
-78.47683555
 20
-26.10883543
 30
0.0
 11
-78.47683555
 21
-36.10883543
 31
0.0
  0
LINE
  8
0
  6
CONTINUOUS
 62
       7
  5
110
 10
-81.71969269
 20
-37.10883543
 30
0.0
 11
-81.71969269
 21
-52.35169257
 31
0.0
  0
LINE
  8
0
  6
CONTINUOUS
 62
       7
  5
111
 10
-58.71969269
 20
-17.580264
 30
0.0
 11
-58.71969269
 21
-37.58032856
 31
0.0
  0
LINE
  8
0
  6
CONTINUOUS
 62
       7
  5
112
 10
-62.91969269
 20
-30.60883543
 30
0.0
 11
-53.84826412
 21
-30.60883543
 31
0.0
  0
LINE
  8
0
  6
CONTINUOUS
 62
       7
  5
113
 10
-80.71969269
 20
-36.10883543
 30
0.0
 11
-36.7339784
 21
-36.10883543
 31
0.0
  0
LINE
  8
0
  6
CONTINUOUS
 62
       7
  5
114
 10
-77.47683555
 20
-25.10883543
 30
0.0
 11
-39.97683555
 21
-25.10883543
 31
0.0
  0
LINE
  8
0
  6
CONTINUOUS
 62
       7
  5
115
 10
-87.11478856
 20
-52.35169257
 30
0.0
 11
-32.04826412
 21
-52.35169257
 31
0.0
  0
LINE
  8
0
  6
DASHED
 62
       7
  5
116
 10
-35.7339784
 20
-44.85169257
 30
0.0
 11
-45.16254983
 21
-44.85169257
 31
0.0
  0
LINE
  8
0
  6
DASHED
 62
       7
  5
117
 10
-35.7339784
 20
-43.85169257
 30
0.0
 11
-45.10540698
 21
-44.35169257
 31
0.0
  0
LINE
  8
0
  6
DASHED
 62
       7
  5
118
 10
-35.7339784
 20
-60.85169257
 30
0.0
 11
-45.10540698
 21
-60.36597828
 31
0.0
  0
LINE
  8
0
  6
DASHED
 62
       7
  5
119
 10
-35.7339784
 20
-59.85169257
 30
0.0
 11
-45.16254983
 21
-59.85169257
 31
0.0
  0
LINE
  8
0
  6
CONTINUOUS
 62
       7
  5
11A
 10
62.00887874
 20
-67.60883543
 30
0.0
 11
108.00887874
 21
-67.60883543
 31
0.0
  0
LINE
  8
0
  6
CONTINUOUS
 62
       7
  5
11B
 10
63.00887874
 20
-68.60883543
 30
0.0
 11
62.00887874
 21
-67.60883543
 31
0.0
  0
LINE
  8
0
  6
CONTINUOUS
 62
       7
  5
11C
 10
108.00887874
 20
-67.60883543
 30
0.0
 11
107.00887874
 21
-68.60883543
 31
0.0
  0
LINE
  8
0
  6
CONTINUOUS
 62
       7
  5
11D
 10
108.00887874
 20
-67.60883543
 30
0.0
 11
108.00887874
 21
-52.35169257
 31
0.0
  0
LINE
  8
0
  6
CONTINUOUS
 62
       7
  5
11E
 10
62.00887874
 20
-67.60883543
 30
0.0
 11
62.00887874
 21
-52.35169257
 31
0.0
  0
LINE
  8
0
  6
CONTINUOUS
 62
       7
  5
11F
 10
63.00887874
 20
-68.60883543
 30
0.0
 11
107.00887874
 21
-68.60883543
 31
0.0
  0
LINE
  8
0
  6
CONTINUOUS
 62
       7
  5
120
 10
65.2660216
 20
-26.10883543
 30
0.0
 11
104.7660216
 21
-26.10883543
 31
0.0
  0
LINE
  8
0
  6
CONTINUOUS
 62
       7
  5
121
 10
62.00887874
 20
-37.10883543
 30
0.0
 11
108.00887874
 21
-37.10883543
 31
0.0
  0
LINE
  8
0
  6
CONTINUOUS
 62
       7
  5
122
 10
63.00887874
 20
-36.10883543
 30
0.0
 11
62.00887874
 21
-37.10883543
 31
0.0
  0
LINE
  8
0
  6
CONTINUOUS
 62
       7
  5
123
 10
65.2660216
 20
-26.10883543
 30
0.0
 11
66.2660216
 21
-25.10883543
 31
0.0
  0
LINE
  8
0
  6
CONTINUOUS
 62
       7
  5
124
 10
108.00887874
 20
-37.10883543
 30
0.0
 11
107.00887874
 21
-36.10883543
 31
0.0
  0
LINE
  8
0
  6
CONTINUOUS
 62
       7
  5
125
 10
103.7660216
 20
-25.10883543
 30
0.0
 11
104.7660216
 21
-26.10883543
 31
0.0
  0
LINE
  8
0
  6
CONTINUOUS
 62
       7
  5
126
 10
108.00887874
 20
-37.10883543
 30
0.0
 11
108.00887874
 21
-52.35169257
 31
0.0
  0
LINE
  8
0
  6
CONTINUOUS
 62
       7
  5
127
 10
104.7660216
 20
-26.10883543
 30
0.0
 11
104.7660216
 21
-36.10883543
 31
0.0
  0
LINE
  8
0
  6
CONTINUOUS
 62
       7
  5
128
 10
65.2660216
 20
-26.10883543
 30
0.0
 11
65.2660216
 21
-36.10883543
 31
0.0
  0
LINE
  8
0
  6
CONTINUOUS
 62
       7
  5
129
 10
62.00887874
 20
-37.10883543
 30
0.0
 11
62.00887874
 21
-52.35169257
 31
0.0
  0
LINE
  8
0
  6
CONTINUOUS
 62
       7
  5
12A
 10
85.00887874
 20
-12.87792427
 30
0.0
 11
85.00887874
 21
-37.32440443
 31
0.0
  0
LINE
  8
0
  6
CONTINUOUS
 62
       7
  5
12B
 10
80.82316445
 20
-30.60883543
 30
0.0
 11
89.89459302
 21
-30.60883543
 31
0.0
  0
LINE
  8
0
  6
CONTINUOUS
 62
       7
  5
12C
 10
63.00887874
 20
-36.10883543
 30
0.0
 11
107.00887874
 21
-36.10883543
 31
0.0
  0
LINE
  8
0
  6
CONTINUOUS
 62
       7
  5
12D
 10
66.2660216
 20
-25.10883543
 30
0.0
 11
103.7660216
 21
-25.10883543
 31
0.0
  0
LINE
  8
0
  6
CONTINUOUS
 62
       7
  5
12E
 10
25.34538535
 20
-52.35169257
 30
0.0
 11
112.83721648
 21
-52.35169257
 31
0.0
  0
TEXT
  8
0
  6
CONTINUOUS
 62
       7
  5
12F
 10
-185.69402985
 20
105.3500061
 30
0.0
 40
4.5
  1
MODEL:2503A2
 41
1.07462687
  7
MX_NOTE_STANDARD
 11
-185.69402985
 21
107.6000061
 31
0.0
 73
       2
  0
LINE
  8
0
  6
CONTINUOUS
 62
       7
  5
130
 10
-194.25
 20
132.6000061
 30
0.0
 11
194.80000305
 21
132.6000061
 31
0.0
  0
LINE
  8
0
  6
CONTINUOUS
 62
       7
  5
131
 10
194.80000305
 20
132.6000061
 30
0.0
 11
194.80000305
 21
-133.5
 31
0.0
  0
LINE
  8
0
  6
CONTINUOUS
 62
       7
  5
132
 10
-194.25
 20
132.6000061
 30
0.0
 11
-194.25
 21
-133.5
 31
0.0
  0
LINE
  8
0
  6
CONTINUOUS
 62
       7
  5
133
 10
-194.25
 20
-133.5
 30
0.0
 11
194.80000305
 21
-133.5
 31
0.0
  0
ENDSEC
  0
EOF
