  0
SECTION
  2
HEADER
  9
$ACADVER
  1
AC1009
  9
$INSBASE
 10
0.0
 20
0.0
 30
0.0
  9
$EXTMIN
 10
-281.25
 20
-195.0
 30
0.0
  9
$EXTMAX
 10
282.09985352
 20
195.5
 30
0.0
  9
$LIMMIN
 10
-281.25
 20
-195.0
  9
$LIMMAX
 10
282.09985352
 20
195.5
  9
$ORTHOMODE
 70
       0
  9
$REGENMODE
 70
       1
  9
$FILLMODE
 70
       1
  9
$QTEXTMODE
 70
       0
  9
$MIRRTEXT
 70
       1
  9
$DRAGMODE
 70
       2
  9
$LTSCALE
 40
1.0
  9
$OSMODE
 70
       0
  9
$ATTMODE
 70
       1
  9
$TEXTSIZE
 40
3.20000005
  9
$TRACEWID
 40
0.05
  9
$TEXTSTYLE
  7
MX_NOTE_STANDARD
  9
$CLAYER
  8
0
  9
$CELTYPE
  6
CONTINUOUS
  9
$CECOLOR
 62
     256
  9
$DIMSCALE
 40
1.0
  9
$DIMASZ
 40
2.5
  9
$DIMEXO
 40
1.5
  9
$DIMDLI
 40
3.75
  9
$DIMRND
 40
0.0
  9
$DIMDLE
 40
0.0
  9
$DIMEXE
 40
1.5
  9
$DIMTP
 40
0.0
  9
$DIMTM
 40
0.0
  9
$DIMTXT
 40
3.20000005
  9
$DIMCEN
 40
2.5
  9
$DIMTSZ
 40
0.0
  9
$DIMTOL
 70
       0
  9
$DIMLIM
 70
       0
  9
$DIMTIH
 70
       0
  9
$DIMTOH
 70
       0
  9
$DIMSE1
 70
       0
  9
$DIMSE2
 70
       0
  9
$DIMTAD
 70
       1
  9
$DIMZIN
 70
       8
  9
$DIMBLK
  1

  9
$DIMASO
 70
       1
  9
$DIMSHO
 70
       1
  9
$DIMPOST
  1

  9
$DIMAPOST
  1

  9
$DIMALT
 70
       0
  9
$DIMALTD
 70
       4
  9
$DIMALTF
 40
0.0394
  9
$DIMLFAC
 40
1.0
  9
$DIMTOFL
 70
       1
  9
$DIMTVP
 40
0.0
  9
$DIMTIX
 70
       0
  9
$DIMSOXD
 70
       0
  9
$DIMSAH
 70
       0
  9
$DIMBLK1
  1

  9
$DIMBLK2
  1

  9
$DIMSTYLE
  2
MXDIMSTYLE
  9
$DIMCLRD
 70
       0
  9
$DIMCLRE
 70
       0
  9
$DIMCLRT
 70
       0
  9
$DIMTFAC
 40
1.0
  9
$DIMGAP
 40
1.0
  9
$LUNITS
 70
       2
  9
$LUPREC
 70
       4
  9
$AXISMODE
 70
       0
  9
$AXISUNIT
 10
0.0
 20
0.0
  9
$SKETCHINC
 40
0.1
  9
$FILLETRAD
 40
0.0
  9
$AUNITS
 70
       0
  9
$AUPREC
 70
       0
  9
$MENU
  1
acad
  9
$ELEVATION
 40
0.0
  9
$PELEVATION
 40
0.0
  9
$THICKNESS
 40
0.0
  9
$LIMCHECK
 70
       0
  9
$BLIPMODE
 70
       1
  9
$CHAMFERA
 40
0.0
  9
$CHAMFERB
 40
0.0
  9
$SKPOLY
 70
       0
  9
$TDCREATE
 40
2452727.841956019
  9
$TDUPDATE
 40
2452727.841956019
  9
$TDINDWG
 40
0.0000000000
  9
$TDUSRTIMER
 40
0.0000000000
  9
$USRTIMER
 70
       1
  9
$ANGBASE
 50
0.0
  9
$ANGDIR
 70
       0
  9
$PDMODE
 70
       0
  9
$PDSIZE
 40
0.0
  9
$PLINEWID
 40
0.0
  9
$COORDS
 70
       1
  9
$SPLFRAME
 70
       0
  9
$SPLINETYPE
 70
       6
  9
$SPLINESEGS
 70
       8
  9
$ATTDIA
 70
       0
  9
$ATTREQ
 70
       1
  9
$HANDLING
 70
       1
  9
$HANDSEED
  5
30B
  9
$SURFTAB1
 70
       6
  9
$SURFTAB2
 70
       6
  9
$SURFTYPE
 70
       6
  9
$SURFU
 70
       6
  9
$SURFV
 70
       6
  9
$UCSNAME
  2

  9
$UCSORG
 10
0.0
 20
0.0
 30
0.0
  9
$UCSXDIR
 10
1.0
 20
0.0
 30
0.0
  9
$UCSYDIR
 10
0.0
 20
1.0
 30
0.0
  9
$PUCSNAME
  2

  9
$PUCSORG
 10
0.0
 20
0.0
 30
0.0
  9
$PUCSXDIR
 10
1.0
 20
0.0
 30
0.0
  9
$PUCSYDIR
 10
0.0
 20
1.0
 30
0.0
  9
$USERI1
 70
       0
  9
$USERI2
 70
       0
  9
$USERI3
 70
       0
  9
$USERI4
 70
       0
  9
$USERI5
 70
       0
  9
$USERR1
 40
0.0
  9
$USERR2
 40
0.0
  9
$USERR3
 40
0.0
  9
$USERR4
 40
0.0
  9
$USERR5
 40
0.0
  9
$WORLDVIEW
 70
       1
  9
$SHADEDGE
 70
       3
  9
$SHADEDIF
 70
      70
  9
$TILEMODE
 70
       1
  9
$MAXACTVP
 70
      16
  9
$PINSBASE
 10
0.0
 20
0.0
 30
0.0
  9
$PLIMCHECK
 70
       0
  9
$PEXTMIN
 10
1.00000000E+20
 20
1.00000000E+20
 30
1.00000000E+20
  9
$PEXTMAX
 10
-1.00000000E+20
 20
-1.00000000E+20
 30
-1.00000000E+20
  9
$PLIMMIN
 10
0.0
 20
0.0
  9
$PLIMMAX
 10
12.0
 20
9.0
  9
$UNITMODE
 70
       0
  9
$VISRETAIN
 70
       0
  9
$PLINEGEN
 70
       1
  9
$PSLTSCALE
 70
       0
  9
$TREEDEPTH
 70
    3020
  9
$DWGCODEPAGE
  3
dos932
  0
ENDSEC
  0
SECTION
  2
TABLES
  0
TABLE
  2
VPORT
 70
       1
  0
VPORT
  2
*ACTIVE
 70
       0
 10
0.0
 20
0.0
 11
1.0
 21
1.0
 12
0.42492676
 22
0.25
 13
0.0
 23
0.0
 14
1.0
 24
1.0
 15
0.0
 25
0.0
 16
0.0
 26
0.0
 36
1.0
 17
0.0
 27
0.0
 37
0.0
 40
394.405
 41
1.73205081
 42
50.0
 43
0.0
 44
0.0
 50
0.0
 51
0.0
 71
       0
 72
     100
 73
       1
 74
       1
 75
       0
 76
       0
 77
       0
 78
       0
  0
ENDTAB
  0
TABLE
  2
LTYPE
 70
       4
  0
LTYPE
  2
CONTINUOUS
 70
      64
  3
Solid line
 72
      65
 73
       0
 40
0.0
  0
LTYPE
  2
CENTER
 70
      64
  3
Center ____ _ ____ _ ____ _ ____ _ ____ _ ____
 72
      65
 73
       4
 40
50.8
 49
31.75
 49
-6.35
 49
6.35
 49
-6.35
  0
LTYPE
  2
DASHED
 70
      64
  3
Dashed __ __ __ __ __ __ __ __ __ __ __ __ __ _
 72
      65
 73
       2
 40
19.05
 49
12.7
 49
-6.35
  0
LTYPE
  2
PHANTOM
 70
      64
  3
Phantom ______  __  __  ______  __  __  ______
 72
      65
 73
       6
 40
63.5
 49
31.75
 49
-6.35
 49
6.35
 49
-6.35
 49
6.35
 49
-6.35
  0
ENDTAB
  0
TABLE
  2
LAYER
 70
       2
  0
LAYER
  2
0
 70
       0
 62
       7
  6
CONTINUOUS
  0
LAYER
  2
DEFPOINTS
 70
       0
 62
       7
  6
CONTINUOUS
  0
ENDTAB
  0
TABLE
  2
STYLE
 70
       1
  0
STYLE
  2
MX_NOTE_STANDARD
 70
       0
 40
3.20000005
 41
1.0
 50
0.0
 71
       0
 42
3.20000005
  3
txt.shx
  4
extfont.shx
  0
ENDTAB
  0
TABLE
  2
VIEW
 70
       0
  0
ENDTAB
  0
TABLE
  2
UCS
 70
       0
  0
ENDTAB
  0
TABLE
  2
APPID
 70
       1
  0
APPID
  2
ACAD
 70
       0
  0
ENDTAB
  0
TABLE
  2
DIMSTYLE
 70
       1
  0
DIMSTYLE
  2
MXDIMSTYLE
 70
       0
  3

  4

  5

  6

  7

 40
1.0
 41
2.5
 42
1.5
 43
3.75
 44
1.5
 45
0.0
 46
0.0
 47
0.0
 48
0.0
 71
       0
 72
       0
 73
       0
 74
       0
 75
       0
 76
       0
 77
       1
 78
       8
140
3.20000005
141
2.5
142
0.0
143
0.0394
144
1.0
145
0.0
146
1.0
147
1.0
170
       0
171
       4
172
       1
173
       0
174
       0
175
       0
176
       0
177
       0
178
       0
  0
ENDTAB
  0
ENDSEC
  0
SECTION
  2
BLOCKS
  0
ENDSEC
  0
SECTION
  2
ENTITIES
  0
POLYLINE
  8
0
  6
CONTINUOUS
 62
       7
  5
1E
 66
       1
 10
0.0
 20
0.0
 30
0.0
  0
VERTEX
  8
0
  6
CONTINUOUS
 62
       7
  5
282
 10
-119.65514951
 20
-119.65327852
 30
0.0
  0
VERTEX
  8
0
  6
CONTINUOUS
 62
       7
  5
283
 10
-119.46163363
 20
-119.77729419
 30
0.0
  0
VERTEX
  8
0
  6
CONTINUOUS
 62
       7
  5
284
 10
-119.27030403
 20
-119.90510091
 30
0.0
  0
VERTEX
  8
0
  6
CONTINUOUS
 62
       7
  5
285
 10
-119.08127611
 20
-120.03665822
 30
0.0
  0
VERTEX
  8
0
  6
CONTINUOUS
 62
       7
  5
286
 10
-118.89466523
 20
-120.17192569
 30
0.0
  0
VERTEX
  8
0
  6
CONTINUOUS
 62
       7
  5
287
 10
-118.71058679
 20
-120.31086286
 30
0.0
  0
VERTEX
  8
0
  6
CONTINUOUS
 62
       7
  5
288
 10
-118.52915616
 20
-120.45342929
 30
0.0
  0
VERTEX
  8
0
  6
CONTINUOUS
 62
       7
  5
289
 10
-118.35048873
 20
-120.59958454
 30
0.0
  0
VERTEX
  8
0
  6
CONTINUOUS
 62
       7
  5
28A
 10
-118.17469989
 20
-120.74928815
 30
0.0
  0
VERTEX
  8
0
  6
CONTINUOUS
 62
       7
  5
28B
 10
-118.001905
 20
-120.90249969
 30
0.0
  0
VERTEX
  8
0
  6
CONTINUOUS
 62
       7
  5
28C
 10
-117.83221946
 20
-121.0591787
 30
0.0
  0
VERTEX
  8
0
  6
CONTINUOUS
 62
       7
  5
28D
 10
-117.66575865
 20
-121.21928474
 30
0.0
  0
VERTEX
  8
0
  6
CONTINUOUS
 62
       7
  5
28E
 10
-117.50263794
 20
-121.38277737
 30
0.0
  0
VERTEX
  8
0
  6
CONTINUOUS
 62
       7
  5
28F
 10
-117.34297273
 20
-121.54961613
 30
0.0
  0
VERTEX
  8
0
  6
CONTINUOUS
 62
       7
  5
290
 10
-117.1868784
 20
-121.71976059
 30
0.0
  0
VERTEX
  8
0
  6
CONTINUOUS
 62
       7
  5
291
 10
-117.03447032
 20
-121.89317029
 30
0.0
  0
VERTEX
  8
0
  6
CONTINUOUS
 62
       7
  5
292
 10
-116.88586388
 20
-122.06980479
 30
0.0
  0
VERTEX
  8
0
  6
CONTINUOUS
 62
       7
  5
293
 10
-116.75609446
 20
-122.23067667
 30
0.0
  0
VERTEX
  8
0
  6
CONTINUOUS
 62
       7
  5
294
 10
-116.62947502
 20
-122.39401677
 30
0.0
  0
VERTEX
  8
0
  6
CONTINUOUS
 62
       7
  5
295
 10
-116.50601439
 20
-122.55973968
 30
0.0
  0
VERTEX
  8
0
  6
CONTINUOUS
 62
       7
  5
296
 10
-116.38572134
 20
-122.72775998
 30
0.0
  0
VERTEX
  8
0
  6
CONTINUOUS
 62
       7
  5
297
 10
-116.2686047
 20
-122.89799226
 30
0.0
  0
VERTEX
  8
0
  6
CONTINUOUS
 62
       7
  5
298
 10
-116.15467326
 20
-123.0703511
 30
0.0
  0
VERTEX
  8
0
  6
CONTINUOUS
 62
       7
  5
299
 10
-116.04393582
 20
-123.24475108
 30
0.0
  0
VERTEX
  8
0
  6
CONTINUOUS
 62
       7
  5
29A
 10
-115.93640118
 20
-123.4211068
 30
0.0
  0
VERTEX
  8
0
  6
CONTINUOUS
 62
       7
  5
29B
 10
-115.83207815
 20
-123.59933284
 30
0.0
  0
VERTEX
  8
0
  6
CONTINUOUS
 62
       7
  5
29C
 10
-115.73097553
 20
-123.77934377
 30
0.0
  0
VERTEX
  8
0
  6
CONTINUOUS
 62
       7
  5
29D
 10
-115.63310212
 20
-123.96105419
 30
0.0
  0
VERTEX
  8
0
  6
CONTINUOUS
 62
       7
  5
29E
 10
-115.53846673
 20
-124.14437868
 30
0.0
  0
VERTEX
  8
0
  6
CONTINUOUS
 62
       7
  5
29F
 10
-115.44707815
 20
-124.32923182
 30
0.0
  0
VERTEX
  8
0
  6
CONTINUOUS
 62
       7
  5
2A0
 10
-115.35894519
 20
-124.5155282
 30
0.0
  0
VERTEX
  8
0
  6
CONTINUOUS
 62
       7
  5
2A1
 10
-115.27407665
 20
-124.70318241
 30
0.0
  0
VERTEX
  8
0
  6
CONTINUOUS
 62
       7
  5
2A2
 10
-115.19248134
 20
-124.89210902
 30
0.0
  0
SEQEND
  8
0
  6
CONTINUOUS
 62
       7
  5
2A3
  0
POLYLINE
  8
0
  6
CONTINUOUS
 62
       7
  5
1F
 66
       1
 10
0.0
 20
0.0
 30
0.0
  0
VERTEX
  8
0
  6
CONTINUOUS
 62
       7
  5
2A4
 10
-78.17625919
 20
-120.95608339
 30
0.0
  0
VERTEX
  8
0
  6
CONTINUOUS
 62
       7
  5
2A5
 10
-78.0515393
 20
-121.1161378
 30
0.0
  0
VERTEX
  8
0
  6
CONTINUOUS
 62
       7
  5
2A6
 10
-77.92871566
 20
-121.27772708
 30
0.0
  0
VERTEX
  8
0
  6
CONTINUOUS
 62
       7
  5
2A7
 10
-77.80781715
 20
-121.44082933
 30
0.0
  0
VERTEX
  8
0
  6
CONTINUOUS
 62
       7
  5
2A8
 10
-77.68887266
 20
-121.60542269
 30
0.0
  0
VERTEX
  8
0
  6
CONTINUOUS
 62
       7
  5
2A9
 10
-77.57191106
 20
-121.77148525
 30
0.0
  0
VERTEX
  8
0
  6
CONTINUOUS
 62
       7
  5
2AA
 10
-77.45696123
 20
-121.93899514
 30
0.0
  0
VERTEX
  8
0
  6
CONTINUOUS
 62
       7
  5
2AB
 10
-77.34405207
 20
-122.10793047
 30
0.0
  0
VERTEX
  8
0
  6
CONTINUOUS
 62
       7
  5
2AC
 10
-77.23321245
 20
-122.27826935
 30
0.0
  0
VERTEX
  8
0
  6
CONTINUOUS
 62
       7
  5
2AD
 10
-77.12447126
 20
-122.44998991
 30
0.0
  0
VERTEX
  8
0
  6
CONTINUOUS
 62
       7
  5
2AE
 10
-77.01785738
 20
-122.62307024
 30
0.0
  0
VERTEX
  8
0
  6
CONTINUOUS
 62
       7
  5
2AF
 10
-76.9133997
 20
-122.79748848
 30
0.0
  0
VERTEX
  8
0
  6
CONTINUOUS
 62
       7
  5
2B0
 10
-76.81112709
 20
-122.97322274
 30
0.0
  0
VERTEX
  8
0
  6
CONTINUOUS
 62
       7
  5
2B1
 10
-76.71106844
 20
-123.15025112
 30
0.0
  0
VERTEX
  8
0
  6
CONTINUOUS
 62
       7
  5
2B2
 10
-76.61325263
 20
-123.32855175
 30
0.0
  0
VERTEX
  8
0
  6
CONTINUOUS
 62
       7
  5
2B3
 10
-76.51770855
 20
-123.50810274
 30
0.0
  0
VERTEX
  8
0
  6
CONTINUOUS
 62
       7
  5
2B4
 10
-76.42446507
 20
-123.68888221
 30
0.0
  0
VERTEX
  8
0
  6
CONTINUOUS
 62
       7
  5
2B5
 10
-76.3420521
 20
-123.8535905
 30
0.0
  0
VERTEX
  8
0
  6
CONTINUOUS
 62
       7
  5
2B6
 10
-76.26155079
 20
-124.01925899
 30
0.0
  0
VERTEX
  8
0
  6
CONTINUOUS
 62
       7
  5
2B7
 10
-76.18296338
 20
-124.18585889
 30
0.0
  0
VERTEX
  8
0
  6
CONTINUOUS
 62
       7
  5
2B8
 10
-76.10629213
 20
-124.35336138
 30
0.0
  0
VERTEX
  8
0
  6
CONTINUOUS
 62
       7
  5
2B9
 10
-76.03153929
 20
-124.52173769
 30
0.0
  0
VERTEX
  8
0
  6
CONTINUOUS
 62
       7
  5
2BA
 10
-75.95870713
 20
-124.69095901
 30
0.0
  0
VERTEX
  8
0
  6
CONTINUOUS
 62
       7
  5
2BB
 10
-75.8877979
 20
-124.86099653
 30
0.0
  0
VERTEX
  8
0
  6
CONTINUOUS
 62
       7
  5
2BC
 10
-75.81881384
 20
-125.03182148
 30
0.0
  0
VERTEX
  8
0
  6
CONTINUOUS
 62
       7
  5
2BD
 10
-75.75175723
 20
-125.20340504
 30
0.0
  0
VERTEX
  8
0
  6
CONTINUOUS
 62
       7
  5
2BE
 10
-75.6866303
 20
-125.37571842
 30
0.0
  0
VERTEX
  8
0
  6
CONTINUOUS
 62
       7
  5
2BF
 10
-75.62343532
 20
-125.54873282
 30
0.0
  0
VERTEX
  8
0
  6
CONTINUOUS
 62
       7
  5
2C0
 10
-75.56217454
 20
-125.72241945
 30
0.0
  0
VERTEX
  8
0
  6
CONTINUOUS
 62
       7
  5
2C1
 10
-75.50285021
 20
-125.89674951
 30
0.0
  0
VERTEX
  8
0
  6
CONTINUOUS
 62
       7
  5
2C2
 10
-75.4454646
 20
-126.0716942
 30
0.0
  0
VERTEX
  8
0
  6
CONTINUOUS
 62
       7
  5
2C3
 10
-75.39001995
 20
-126.24722472
 30
0.0
  0
VERTEX
  8
0
  6
CONTINUOUS
 62
       7
  5
2C4
 10
-75.33651852
 20
-126.42331228
 30
0.0
  0
SEQEND
  8
0
  6
CONTINUOUS
 62
       7
  5
2C5
  0
POLYLINE
  8
0
  6
CONTINUOUS
 62
       7
  5
20
 66
       1
 10
0.0
 20
0.0
 30
0.0
  0
VERTEX
  8
0
  6
CONTINUOUS
 62
       7
  5
2C6
 10
-91.13403983
 20
-120.95608339
 30
0.0
  0
VERTEX
  8
0
  6
CONTINUOUS
 62
       7
  5
2C7
 10
-91.25875972
 20
-121.1161378
 30
0.0
  0
VERTEX
  8
0
  6
CONTINUOUS
 62
       7
  5
2C8
 10
-91.38158336
 20
-121.27772708
 30
0.0
  0
VERTEX
  8
0
  6
CONTINUOUS
 62
       7
  5
2C9
 10
-91.50248187
 20
-121.44082933
 30
0.0
  0
VERTEX
  8
0
  6
CONTINUOUS
 62
       7
  5
2CA
 10
-91.62142636
 20
-121.60542269
 30
0.0
  0
VERTEX
  8
0
  6
CONTINUOUS
 62
       7
  5
2CB
 10
-91.73838796
 20
-121.77148525
 30
0.0
  0
VERTEX
  8
0
  6
CONTINUOUS
 62
       7
  5
2CC
 10
-91.85333779
 20
-121.93899514
 30
0.0
  0
VERTEX
  8
0
  6
CONTINUOUS
 62
       7
  5
2CD
 10
-91.96624695
 20
-122.10793047
 30
0.0
  0
VERTEX
  8
0
  6
CONTINUOUS
 62
       7
  5
2CE
 10
-92.07708657
 20
-122.27826935
 30
0.0
  0
VERTEX
  8
0
  6
CONTINUOUS
 62
       7
  5
2CF
 10
-92.18582776
 20
-122.44998991
 30
0.0
  0
VERTEX
  8
0
  6
CONTINUOUS
 62
       7
  5
2D0
 10
-92.29244163
 20
-122.62307024
 30
0.0
  0
VERTEX
  8
0
  6
CONTINUOUS
 62
       7
  5
2D1
 10
-92.39689932
 20
-122.79748848
 30
0.0
  0
VERTEX
  8
0
  6
CONTINUOUS
 62
       7
  5
2D2
 10
-92.49917193
 20
-122.97322274
 30
0.0
  0
VERTEX
  8
0
  6
CONTINUOUS
 62
       7
  5
2D3
 10
-92.59923058
 20
-123.15025112
 30
0.0
  0
VERTEX
  8
0
  6
CONTINUOUS
 62
       7
  5
2D4
 10
-92.69704639
 20
-123.32855175
 30
0.0
  0
VERTEX
  8
0
  6
CONTINUOUS
 62
       7
  5
2D5
 10
-92.79259047
 20
-123.50810274
 30
0.0
  0
VERTEX
  8
0
  6
CONTINUOUS
 62
       7
  5
2D6
 10
-92.88583395
 20
-123.68888221
 30
0.0
  0
VERTEX
  8
0
  6
CONTINUOUS
 62
       7
  5
2D7
 10
-92.96824692
 20
-123.8535905
 30
0.0
  0
VERTEX
  8
0
  6
CONTINUOUS
 62
       7
  5
2D8
 10
-93.04874823
 20
-124.01925899
 30
0.0
  0
VERTEX
  8
0
  6
CONTINUOUS
 62
       7
  5
2D9
 10
-93.12733564
 20
-124.18585889
 30
0.0
  0
VERTEX
  8
0
  6
CONTINUOUS
 62
       7
  5
2DA
 10
-93.20400689
 20
-124.35336138
 30
0.0
  0
VERTEX
  8
0
  6
CONTINUOUS
 62
       7
  5
2DB
 10
-93.27875973
 20
-124.52173769
 30
0.0
  0
VERTEX
  8
0
  6
CONTINUOUS
 62
       7
  5
2DC
 10
-93.35159189
 20
-124.69095901
 30
0.0
  0
VERTEX
  8
0
  6
CONTINUOUS
 62
       7
  5
2DD
 10
-93.42250112
 20
-124.86099653
 30
0.0
  0
VERTEX
  8
0
  6
CONTINUOUS
 62
       7
  5
2DE
 10
-93.49148518
 20
-125.03182148
 30
0.0
  0
VERTEX
  8
0
  6
CONTINUOUS
 62
       7
  5
2DF
 10
-93.55854179
 20
-125.20340504
 30
0.0
  0
VERTEX
  8
0
  6
CONTINUOUS
 62
       7
  5
2E0
 10
-93.62366872
 20
-125.37571842
 30
0.0
  0
VERTEX
  8
0
  6
CONTINUOUS
 62
       7
  5
2E1
 10
-93.6868637
 20
-125.54873282
 30
0.0
  0
VERTEX
  8
0
  6
CONTINUOUS
 62
       7
  5
2E2
 10
-93.74812448
 20
-125.72241945
 30
0.0
  0
VERTEX
  8
0
  6
CONTINUOUS
 62
       7
  5
2E3
 10
-93.80744881
 20
-125.89674951
 30
0.0
  0
VERTEX
  8
0
  6
CONTINUOUS
 62
       7
  5
2E4
 10
-93.86483442
 20
-126.0716942
 30
0.0
  0
VERTEX
  8
0
  6
CONTINUOUS
 62
       7
  5
2E5
 10
-93.92027907
 20
-126.24722472
 30
0.0
  0
VERTEX
  8
0
  6
CONTINUOUS
 62
       7
  5
2E6
 10
-93.9737805
 20
-126.42331228
 30
0.0
  0
SEQEND
  8
0
  6
CONTINUOUS
 62
       7
  5
2E7
  0
POLYLINE
  8
0
  6
CONTINUOUS
 62
       7
  5
21
 66
       1
 10
0.0
 20
0.0
 30
0.0
  0
VERTEX
  8
0
  6
CONTINUOUS
 62
       7
  5
2E8
 10
180.44977588
 20
-37.18178723
 30
0.0
  0
VERTEX
  8
0
  6
CONTINUOUS
 62
       7
  5
2E9
 10
180.50434889
 20
-37.72964031
 30
0.0
  0
VERTEX
  8
0
  6
CONTINUOUS
 62
       7
  5
2EA
 10
180.57132654
 20
-38.27707499
 30
0.0
  0
VERTEX
  8
0
  6
CONTINUOUS
 62
       7
  5
2EB
 10
180.65076545
 20
-38.82365131
 30
0.0
  0
VERTEX
  8
0
  6
CONTINUOUS
 62
       7
  5
2EC
 10
180.74272224
 20
-39.36892931
 30
0.0
  0
VERTEX
  8
0
  6
CONTINUOUS
 62
       7
  5
2ED
 10
180.84725352
 20
-39.91246904
 30
0.0
  0
VERTEX
  8
0
  6
CONTINUOUS
 62
       7
  5
2EE
 10
180.96441592
 20
-40.45383054
 30
0.0
  0
VERTEX
  8
0
  6
CONTINUOUS
 62
       7
  5
2EF
 10
181.09426605
 20
-40.99257387
 30
0.0
  0
VERTEX
  8
0
  6
CONTINUOUS
 62
       7
  5
2F0
 10
181.23686053
 20
-41.52825906
 30
0.0
  0
VERTEX
  8
0
  6
CONTINUOUS
 62
       7
  5
2F1
 10
181.39225599
 20
-42.06044615
 30
0.0
  0
VERTEX
  8
0
  6
CONTINUOUS
 62
       7
  5
2F2
 10
181.56050905
 20
-42.58869521
 30
0.0
  0
VERTEX
  8
0
  6
CONTINUOUS
 62
       7
  5
2F3
 10
181.74167631
 20
-43.11256626
 30
0.0
  0
VERTEX
  8
0
  6
CONTINUOUS
 62
       7
  5
2F4
 10
181.93581441
 20
-43.63161935
 30
0.0
  0
VERTEX
  8
0
  6
CONTINUOUS
 62
       7
  5
2F5
 10
182.14297996
 20
-44.14541453
 30
0.0
  0
VERTEX
  8
0
  6
CONTINUOUS
 62
       7
  5
2F6
 10
182.36322959
 20
-44.65351185
 30
0.0
  0
VERTEX
  8
0
  6
CONTINUOUS
 62
       7
  5
2F7
 10
182.5966199
 20
-45.15547135
 30
0.0
  0
VERTEX
  8
0
  6
CONTINUOUS
 62
       7
  5
2F8
 10
182.84320753
 20
-45.65085306
 30
0.0
  0
VERTEX
  8
0
  6
CONTINUOUS
 62
       7
  5
2F9
 10
183.05196056
 20
-46.04580305
 30
0.0
  0
VERTEX
  8
0
  6
CONTINUOUS
 62
       7
  5
2FA
 10
183.26914646
 20
-46.43608479
 30
0.0
  0
VERTEX
  8
0
  6
CONTINUOUS
 62
       7
  5
2FB
 10
183.49455547
 20
-46.82160614
 30
0.0
  0
VERTEX
  8
0
  6
CONTINUOUS
 62
       7
  5
2FC
 10
183.72797784
 20
-47.20227497
 30
0.0
  0
VERTEX
  8
0
  6
CONTINUOUS
 62
       7
  5
2FD
 10
183.96920383
 20
-47.57799915
 30
0.0
  0
VERTEX
  8
0
  6
CONTINUOUS
 62
       7
  5
2FE
 10
184.21802368
 20
-47.94868653
 30
0.0
  0
VERTEX
  8
0
  6
CONTINUOUS
 62
       7
  5
2FF
 10
184.47422766
 20
-48.31424499
 30
0.0
  0
VERTEX
  8
0
  6
CONTINUOUS
 62
       7
  5
300
 10
184.737606
 20
-48.67458238
 30
0.0
  0
VERTEX
  8
0
  6
CONTINUOUS
 62
       7
  5
301
 10
185.00794897
 20
-49.02960658
 30
0.0
  0
VERTEX
  8
0
  6
CONTINUOUS
 62
       7
  5
302
 10
185.28504682
 20
-49.37922544
 30
0.0
  0
VERTEX
  8
0
  6
CONTINUOUS
 62
       7
  5
303
 10
185.5686898
 20
-49.72334683
 30
0.0
  0
VERTEX
  8
0
  6
CONTINUOUS
 62
       7
  5
304
 10
185.85866816
 20
-50.06187861
 30
0.0
  0
VERTEX
  8
0
  6
CONTINUOUS
 62
       7
  5
305
 10
186.15477215
 20
-50.39472866
 30
0.0
  0
VERTEX
  8
0
  6
CONTINUOUS
 62
       7
  5
306
 10
186.45679202
 20
-50.72180483
 30
0.0
  0
VERTEX
  8
0
  6
CONTINUOUS
 62
       7
  5
307
 10
186.76451804
 20
-51.04301498
 30
0.0
  0
VERTEX
  8
0
  6
CONTINUOUS
 62
       7
  5
308
 10
187.07774044
 20
-51.35826699
 30
0.0
  0
SEQEND
  8
0
  6
CONTINUOUS
 62
       7
  5
309
  0
LINE
  8
0
  6
CONTINUOUS
 62
       7
  5
22
 10
-132.65514951
 20
-175.65327852
 30
0.0
 11
-93.65514951
 21
-175.65327852
 31
0.0
  0
LINE
  8
0
  6
CONTINUOUS
 62
       7
  5
23
 10
-117.65514951
 20
-111.65327852
 30
0.0
 11
-93.65514951
 21
-111.65327852
 31
0.0
  0
LINE
  8
0
  6
CONTINUOUS
 62
       7
  5
24
 10
-134.65514951
 20
-59.85755986
 30
0.0
 11
-34.65514951
 21
-59.85755986
 31
0.0
  0
LINE
  8
0
  6
CENTER
 62
       2
  5
26
 10
-84.65514951
 20
-184.28447118
 30
0.0
 11
-84.65514951
 21
-105.64471583
 31
0.0
  0
LINE
  8
0
  6
CONTINUOUS
 62
       7
  5
27
 10
-126.15514951
 20
-14.85755986
 30
0.0
 11
-43.15514951
 21
-14.85755986
 31
0.0
  0
LINE
  8
0
  6
CONTINUOUS
 62
       7
  5
28
 10
-134.65514951
 20
-173.65327852
 30
0.0
 11
-134.65514951
 21
-170.65327852
 31
0.0
  0
LINE
  8
0
  6
CONTINUOUS
 62
       7
  5
29
 10
-34.65514951
 20
-155.65327852
 30
0.0
 11
-34.65514951
 21
-127.65327852
 31
0.0
  0
LINE
  8
0
  6
CONTINUOUS
 62
       7
  5
2A
 10
-34.65514951
 20
-59.85755986
 30
0.0
 11
-34.65514951
 21
-25.35755986
 31
0.0
  0
LINE
  8
0
  6
CONTINUOUS
 62
       7
  5
2B
 10
-134.65514951
 20
-59.85755986
 30
0.0
 11
-134.65514951
 21
-25.35755986
 31
0.0
  0
LINE
  8
0
  6
CONTINUOUS
 62
       7
  5
2C
 10
-50.65514951
 20
-47.85755986
 30
0.0
 11
-36.65514951
 21
-47.85755986
 31
0.0
  0
LINE
  8
0
  6
CENTER
 62
       2
  5
2D
 10
-141.47743019
 20
-37.35755986
 30
0.0
 11
-24.71631159
 21
-37.35755986
 31
0.0
  0
LINE
  8
0
  6
CENTER
 62
       2
  5
2E
 10
-63.65514951
 20
-63.04981799
 30
0.0
 11
-63.65514951
 21
23.47244612
 31
0.0
  0
CIRCLE
  8
0
  6
CONTINUOUS
 62
       7
  5
2F
 10
-63.65514951
 20
-37.35755986
 30
0.0
 40
14.0
  0
CIRCLE
  8
0
  6
CONTINUOUS
 62
       7
  5
30
 10
-105.65514951
 20
-37.35755986
 30
0.0
 40
14.0
  0
LINE
  8
0
  6
CONTINUOUS
 62
       7
  5
31
 10
-52.65514951
 20
-59.85755986
 30
0.0
 11
-52.65514951
 21
-49.85755986
 31
0.0
  0
LINE
  8
0
  6
CONTINUOUS
 62
       7
  5
32
 10
-109.15514951
 20
-59.85755986
 30
0.0
 11
-109.15514951
 21
-52.38253906
 31
0.0
  0
LINE
  8
0
  6
CONTINUOUS
 62
       7
  5
33
 10
-102.15514951
 20
-59.85755986
 30
0.0
 11
-102.15514951
 21
-52.38253906
 31
0.0
  0
LINE
  8
0
  6
CONTINUOUS
 62
       7
  5
34
 10
-132.65514951
 20
-28.35755986
 30
0.0
 11
-117.27409955
 21
-28.35755986
 31
0.0
  0
LINE
  8
0
  6
CONTINUOUS
 62
       7
  5
35
 10
-132.65514951
 20
-46.35755986
 30
0.0
 11
-119.65514951
 21
-46.35755986
 31
0.0
  0
LINE
  8
0
  6
CONTINUOUS
 62
       7
  5
36
 10
-132.65514951
 20
-51.35755986
 30
0.0
 11
-126.15514951
 21
-51.35755986
 31
0.0
  0
LINE
  8
0
  6
CONTINUOUS
 62
       7
  5
37
 10
-132.65514951
 20
-23.35755986
 30
0.0
 11
-128.15514951
 21
-23.35755986
 31
0.0
  0
LINE
  8
0
  6
CONTINUOUS
 62
       7
  5
38
 10
-126.15514951
 20
-59.85755986
 30
0.0
 11
-126.15514951
 21
-48.35755986
 31
0.0
  0
LINE
  8
0
  6
CONTINUOUS
 62
       7
  5
39
 10
-93.25555274
 20
-43.85755986
 30
0.0
 11
-76.05474628
 21
-43.85755986
 31
0.0
  0
LINE
  8
0
  6
CONTINUOUS
 62
       7
  5
3A
 10
-124.15514951
 20
-20.85755986
 30
0.0
 11
-116.15514951
 21
-20.85755986
 31
0.0
  0
LINE
  8
0
  6
CONTINUOUS
 62
       7
  5
3B
 10
-71.15514951
 20
-25.53596945
 30
0.0
 11
-71.15514951
 21
-23.85755986
 31
0.0
  0
LINE
  8
0
  6
CONTINUOUS
 62
       7
  5
3C
 10
-56.15514951
 20
-25.53596945
 30
0.0
 11
-56.15514951
 21
-23.85755986
 31
0.0
  0
LINE
  8
0
  6
CONTINUOUS
 62
       7
  5
3D
 10
-113.15514951
 20
-25.53596945
 30
0.0
 11
-113.15514951
 21
-23.85755986
 31
0.0
  0
LINE
  8
0
  6
CONTINUOUS
 62
       7
  5
3E
 10
-98.15514951
 20
-25.53596945
 30
0.0
 11
-98.15514951
 21
-23.85755986
 31
0.0
  0
LINE
  8
0
  6
CONTINUOUS
 62
       7
  5
3F
 10
-88.40514951
 20
-59.85755986
 30
0.0
 11
-88.40514951
 21
-46.85755986
 31
0.0
  0
LINE
  8
0
  6
CONTINUOUS
 62
       7
  5
40
 10
-80.90514951
 20
-59.85755986
 30
0.0
 11
-80.90514951
 21
-46.85755986
 31
0.0
  0
LINE
  8
0
  6
CONTINUOUS
 62
       7
  5
41
 10
-121.65514951
 20
-59.85755986
 30
0.0
 11
-121.65514951
 21
-48.35755986
 31
0.0
  0
LINE
  8
0
  6
CONTINUOUS
 62
       7
  5
42
 10
-126.15514951
 20
-28.35755986
 30
0.0
 11
-126.15514951
 21
-14.85755986
 31
0.0
  0
LINE
  8
0
  6
CONTINUOUS
 62
       7
  5
43
 10
-121.65514951
 20
-20.85755986
 30
0.0
 11
-121.65514951
 21
-14.85755986
 31
0.0
  0
LINE
  8
0
  6
CONTINUOUS
 62
       7
  5
44
 10
-43.15514951
 20
-47.85755986
 30
0.0
 11
-43.15514951
 21
-14.85755986
 31
0.0
  0
LINE
  8
0
  6
CONTINUOUS
 62
       7
  5
45
 10
-46.04874582
 20
-29.85755986
 30
0.0
 11
-46.15514951
 21
-29.85755986
 31
0.0
  0
LINE
  8
0
  6
CONTINUOUS
 62
       7
  5
46
 10
-46.04874582
 20
-44.85755986
 30
0.0
 11
-46.15514951
 21
-44.85755986
 31
0.0
  0
ARC
  8
0
  6
CONTINUOUS
 62
       7
  5
47
 10
-132.65514951
 20
-25.35755986
 30
0.0
 40
2.0
 50
90.0
 51
180.0
  0
ARC
  8
0
  6
CONTINUOUS
 62
       7
  5
48
 10
-36.65514951
 20
-49.85755986
 30
0.0
 40
2.0
 50
0.0
 51
90.0
  0
ARC
  8
0
  6
CONTINUOUS
 62
       7
  5
49
 10
-132.65514951
 20
-44.35755986
 30
0.0
 40
2.0
 50
180.0
 51
270.0
  0
ARC
  8
0
  6
CONTINUOUS
 62
       7
  5
4A
 10
-132.65514951
 20
-30.35755986
 30
0.0
 40
2.0
 50
90.0
 51
180.0
  0
ARC
  8
0
  6
CONTINUOUS
 62
       7
  5
4B
 10
-132.65514951
 20
-49.35755986
 30
0.0
 40
2.0
 50
180.0
 51
270.0
  0
LINE
  8
0
  6
CONTINUOUS
 62
       7
  5
4C
 10
-41.15514951
 20
-23.35755986
 30
0.0
 11
-36.65514951
 21
-23.35755986
 31
0.0
  0
ARC
  8
0
  6
CONTINUOUS
 62
       7
  5
4D
 10
-36.65514951
 20
-25.35755986
 30
0.0
 40
2.0
 50
0.0
 51
90.0
  0
ARC
  8
0
  6
CONTINUOUS
 62
       7
  5
4E
 10
-45.15514951
 20
-18.85755986
 30
0.0
 40
2.0
 50
270.0
 51
0.0
  0
ARC
  8
0
  6
CONTINUOUS
 62
       7
  5
4F
 10
-124.15514951
 20
-18.85755986
 30
0.0
 40
2.0
 50
180.0
 51
270.0
  0
LINE
  8
0
  6
CONTINUOUS
 62
       7
  5
50
 10
-53.15514951
 20
-20.85755986
 30
0.0
 11
-45.15514951
 21
-20.85755986
 31
0.0
  0
LINE
  8
0
  6
CONTINUOUS
 62
       7
  5
51
 10
-95.15514951
 20
-20.85755986
 30
0.0
 11
-74.15514951
 21
-20.85755986
 31
0.0
  0
ARC
  8
0
  6
CONTINUOUS
 62
       7
  5
52
 10
-53.15514951
 20
-23.85755986
 30
0.0
 40
3.0
 50
90.0
 51
180.0
  0
ARC
  8
0
  6
CONTINUOUS
 62
       7
  5
53
 10
-74.15514951
 20
-23.85755986
 30
0.0
 40
3.0
 50
0.0
 51
90.0
  0
ARC
  8
0
  6
CONTINUOUS
 62
       7
  5
54
 10
-95.15514951
 20
-23.85755986
 30
0.0
 40
3.0
 50
90.0
 51
180.0
  0
ARC
  8
0
  6
CONTINUOUS
 62
       7
  5
55
 10
-116.15514951
 20
-23.85755986
 30
0.0
 40
3.0
 50
0.0
 51
90.0
  0
ARC
  8
0
  6
CONTINUOUS
 62
       7
  5
56
 10
-77.90514951
 20
-46.85755986
 30
0.0
 40
3.0
 50
90.0
 51
180.0
  0
ARC
  8
0
  6
CONTINUOUS
 62
       7
  5
57
 10
-91.40514951
 20
-46.85755986
 30
0.0
 40
3.0
 50
0.0
 51
90.0
  0
ARC
  8
0
  6
CONTINUOUS
 62
       7
  5
58
 10
-29.65514951
 20
-37.35755986
 30
0.0
 40
20.0
 50
164.65052298
 51
195.34947702
  0
ARC
  8
0
  6
CONTINUOUS
 62
       7
  5
59
 10
-46.04874582
 20
-32.85755986
 30
0.0
 40
3.0
 50
90.0
 51
164.65052298
  0
ARC
  8
0
  6
CONTINUOUS
 62
       7
  5
5A
 10
-46.04874582
 20
-41.85755986
 30
0.0
 40
3.0
 50
195.34947702
 51
270.0
  0
ARC
  8
0
  6
CONTINUOUS
 62
       7
  5
5B
 10
-46.15514951
 20
-26.85755986
 30
0.0
 40
3.0
 50
270.0
 51
0.0
  0
ARC
  8
0
  6
CONTINUOUS
 62
       7
  5
5C
 10
-46.15514951
 20
-47.85755986
 30
0.0
 40
3.0
 50
0.0
 51
90.0
  0
ARC
  8
0
  6
CONTINUOUS
 62
       7
  5
5D
 10
-100.15514951
 20
-52.38253906
 30
0.0
 40
2.0
 50
110.10550979
 51
180.0
  0
ARC
  8
0
  6
CONTINUOUS
 62
       7
  5
5E
 10
-111.15514951
 20
-52.38253906
 30
0.0
 40
2.0
 50
0.0
 51
69.89449021
  0
ARC
  8
0
  6
CONTINUOUS
 62
       7
  5
5F
 10
-117.27409955
 20
-26.35755986
 30
0.0
 40
2.0
 50
270.0
 51
316.56746344
  0
ARC
  8
0
  6
CONTINUOUS
 62
       7
  5
60
 10
-117.27409955
 20
-48.35755986
 30
0.0
 40
2.0
 50
43.43253656
 51
90.0
  0
ARC
  8
0
  6
CONTINUOUS
 62
       7
  5
61
 10
-128.15514951
 20
-21.35755986
 30
0.0
 40
2.0
 50
270.0
 51
0.0
  0
ARC
  8
0
  6
CONTINUOUS
 62
       7
  5
62
 10
-41.15514951
 20
-21.35755986
 30
0.0
 40
2.0
 50
180.0
 51
270.0
  0
ARC
  8
0
  6
CONTINUOUS
 62
       7
  5
63
 10
-50.65514951
 20
-49.85755986
 30
0.0
 40
2.0
 50
90.0
 51
180.0
  0
ARC
  8
0
  6
CONTINUOUS
 62
       7
  5
64
 10
-128.15514951
 20
-48.35755986
 30
0.0
 40
2.0
 50
0.0
 51
90.0
  0
ARC
  8
0
  6
CONTINUOUS
 62
       7
  5
65
 10
-119.65514951
 20
-48.35755986
 30
0.0
 40
2.0
 50
90.0
 51
180.0
  0
ARC
  8
0
  6
CONTINUOUS
 62
       7
  5
66
 10
-123.65514951
 20
-48.35755986
 30
0.0
 40
2.0
 50
0.0
 51
90.0
  0
LINE
  8
0
  6
CONTINUOUS
 62
       7
  5
67
 10
-119.65514951
 20
-46.35755986
 30
0.0
 11
-117.27409955
 21
-46.35755986
 31
0.0
  0
TEXT
  8
0
  6
CONTINUOUS
 62
       7
  5
68
 10
-107.94218782
 20
-21.70428289
 30
0.0
 40
6.39999962
  1
P
  7
MX_NOTE_STANDARD
 11
-107.94218782
 21
-18.50428308
 31
0.0
 73
       2
  0
LINE
  8
0
  6
CENTER
 62
       2
  5
69
 10
-141.16929453
 20
-143.65327852
 30
0.0
 11
-27.95732293
 21
-143.65327852
 31
0.0
  0
LINE
  8
0
  6
CONTINUOUS
 62
       7
  5
6A
 10
-41.15514951
 20
-134.15327852
 30
0.0
 11
-36.65514951
 21
-134.15327852
 31
0.0
  0
LINE
  8
0
  6
CONTINUOUS
 62
       7
  5
6B
 10
-126.15514951
 20
-151.65327852
 30
0.0
 11
-126.15514951
 21
-135.65327852
 31
0.0
  0
LINE
  8
0
  6
CONTINUOUS
 62
       7
  5
6C
 10
-43.15514951
 20
-151.65327852
 30
0.0
 11
-43.15514951
 21
-136.15327852
 31
0.0
  0
LINE
  8
0
  6
CENTER
 62
       2
  5
6D
 10
-51.89933833
 20
-122.15327852
 30
0.0
 11
-32.04925713
 21
-122.15327852
 31
0.0
  0
LINE
  8
0
  6
CENTER
 62
       2
  5
6E
 10
-137.38070493
 20
-165.15327852
 30
0.0
 11
-116.79996336
 21
-165.15327852
 31
0.0
  0
LINE
  8
0
  6
CONTINUOUS
 62
       7
  5
6F
 10
-132.65514951
 20
-153.65327852
 30
0.0
 11
-128.15514951
 21
-153.65327852
 31
0.0
  0
LINE
  8
0
  6
CENTER
 62
       2
  5
70
 10
-43.65514951
 20
-129.03124957
 30
0.0
 11
-43.65514951
 21
-116.75753524
 31
0.0
  0
ARC
  8
0
  6
CONTINUOUS
 62
       7
  5
71
 10
-43.65514951
 20
-122.15327852
 30
0.0
 40
3.5
 50
90.0
 51
270.0
  0
LINE
  8
0
  6
CONTINUOUS
 62
       7
  5
72
 10
-43.65514951
 20
-118.65327852
 30
0.0
 11
-36.65514951
 21
-118.65327852
 31
0.0
  0
LINE
  8
0
  6
CONTINUOUS
 62
       7
  5
73
 10
-43.65514951
 20
-125.65327852
 30
0.0
 11
-36.65514951
 21
-125.65327852
 31
0.0
  0
LINE
  8
0
  6
CENTER
 62
       2
  5
74
 10
-125.65514951
 20
-171.30737672
 30
0.0
 11
-125.65514951
 21
-158.57908037
 31
0.0
  0
ARC
  8
0
  6
CONTINUOUS
 62
       7
  5
75
 10
-125.65514951
 20
-165.15327852
 30
0.0
 40
3.5
 50
270.0
 51
90.0
  0
LINE
  8
0
  6
CONTINUOUS
 62
       7
  5
76
 10
-132.65514951
 20
-161.65327852
 30
0.0
 11
-125.65514951
 21
-161.65327852
 31
0.0
  0
LINE
  8
0
  6
CONTINUOUS
 62
       7
  5
77
 10
-132.65514951
 20
-168.65327852
 30
0.0
 11
-125.65514951
 21
-168.65327852
 31
0.0
  0
LINE
  8
0
  6
CONTINUOUS
 62
       7
  5
78
 10
-124.15514951
 20
-133.65327852
 30
0.0
 11
-122.97565759
 21
-133.65327852
 31
0.0
  0
LINE
  8
0
  6
CONTINUOUS
 62
       7
  5
79
 10
-87.2160606
 20
-153.65327852
 30
0.0
 11
-82.09423842
 21
-153.65327852
 31
0.0
  0
LINE
  8
0
  6
CENTER
 62
       2
  5
7A
 10
-105.65514951
 20
-179.17216683
 30
0.0
 11
-105.65514951
 21
-105.64471583
 31
0.0
  0
LINE
  8
0
  6
CENTER
 62
       2
  5
7B
 10
-63.65514951
 20
-179.17216683
 30
0.0
 11
-63.65514951
 21
-105.64471583
 31
0.0
  0
CIRCLE
  8
0
  6
CONTINUOUS
 62
       7
  5
7C
 10
-63.65514951
 20
-143.65327852
 30
0.0
 40
15.95
  0
CIRCLE
  8
0
  6
CONTINUOUS
 62
       7
  5
7D
 10
-105.65514951
 20
-143.65327852
 30
0.0
 40
15.95
  0
ARC
  8
0
  6
CONTINUOUS
 62
       7
  5
7E
 10
-63.65514951
 20
-143.65327852
 30
0.0
 40
20.0
 50
286.17738576
 51
330.0
  0
ARC
  8
0
  6
CONTINUOUS
 62
       7
  5
7F
 10
-105.65514951
 20
-143.65327852
 30
0.0
 40
20.0
 50
106.17738576
 51
150.0
  0
LINE
  8
0
  6
CONTINUOUS
 62
       7
  5
80
 10
-46.33464143
 20
-153.65327852
 30
0.0
 11
-45.15514951
 21
-153.65327852
 31
0.0
  0
ARC
  8
0
  6
CONTINUOUS
 62
       7
  5
81
 10
-63.65514951
 20
-164.65327852
 30
0.0
 40
3.5
 50
189.64728535
 51
350.35271465
  0
ARC
  8
0
  6
CONTINUOUS
 62
       7
  5
82
 10
-57.24707206
 20
-165.74256423
 30
0.0
 40
3.0
 50
106.17738576
 51
170.35271465
  0
ARC
  8
0
  6
CONTINUOUS
 62
       7
  5
83
 10
-70.06322696
 20
-165.74256423
 30
0.0
 40
3.0
 50
9.64728535
 51
73.82261424
  0
ARC
  8
0
  6
CONTINUOUS
 62
       7
  5
84
 10
-105.65514951
 20
-122.65327852
 30
0.0
 40
3.5
 50
9.64728535
 51
170.35271465
  0
ARC
  8
0
  6
CONTINUOUS
 62
       7
  5
85
 10
-99.24707206
 20
-121.5639928
 30
0.0
 40
3.0
 50
189.64728535
 51
253.82261424
  0
ARC
  8
0
  6
CONTINUOUS
 62
       7
  5
86
 10
-112.06322696
 20
-121.5639928
 30
0.0
 40
3.0
 50
286.17738576
 51
350.35271465
  0
LINE
  8
0
  6
CONTINUOUS
 62
       7
  5
87
 10
-116.06936306
 20
-175.06749208
 30
0.0
 11
-105.15772492
 21
-164.15585394
 31
0.0
  0
ARC
  8
0
  6
CONTINUOUS
 62
       7
  5
88
 10
-105.65514951
 20
-143.65327852
 30
0.0
 40
20.0
 50
274.9848681
 51
326.94426885
  0
LINE
  8
0
  6
CONTINUOUS
 62
       7
  5
89
 10
-119.65514951
 20
-117.65327852
 30
0.0
 11
-119.65514951
 21
-113.65327852
 31
0.0
  0
LINE
  8
0
  6
CONTINUOUS
 62
       7
  5
8A
 10
-91.65514951
 20
-119.65327852
 30
0.0
 11
-91.65514951
 21
-113.65327852
 31
0.0
  0
LINE
  8
0
  6
CONTINUOUS
 62
       7
  5
8B
 10
-47.65514951
 20
-157.65327852
 30
0.0
 11
-36.65514951
 21
-157.65327852
 31
0.0
  0
LINE
  8
0
  6
CONTINUOUS
 62
       7
  5
8C
 10
-132.65514951
 20
-119.65327852
 30
0.0
 11
-121.65514951
 21
-119.65327852
 31
0.0
  0
LINE
  8
0
  6
CONTINUOUS
 62
       7
  5
8D
 10
-132.65514951
 20
-135.65327852
 30
0.0
 11
-126.15514951
 21
-135.65327852
 31
0.0
  0
LINE
  8
0
  6
CONTINUOUS
 62
       7
  5
8E
 10
-89.65514951
 20
-121.65327852
 30
0.0
 11
-79.65514951
 21
-121.65327852
 31
0.0
  0
LINE
  8
0
  6
CONTINUOUS
 62
       7
  5
8F
 10
-77.65514951
 20
-119.65327852
 30
0.0
 11
-77.65514951
 21
-113.65327852
 31
0.0
  0
LINE
  8
0
  6
CONTINUOUS
 62
       7
  5
90
 10
-75.65514951
 20
-111.65327852
 30
0.0
 11
-36.65514951
 21
-111.65327852
 31
0.0
  0
LINE
  8
0
  6
CONTINUOUS
 62
       7
  5
91
 10
-91.65514951
 20
-117.65327852
 30
0.0
 11
-77.65514951
 21
-117.65327852
 31
0.0
  0
ARC
  8
0
  6
CONTINUOUS
 62
       7
  5
92
 10
-118.15514951
 20
-125.65327852
 30
0.0
 40
8.0
 50
100.80692287
 51
131.40962211
  0
LINE
  8
0
  6
CONTINUOUS
 62
       7
  5
93
 10
-64.6815018
 20
-123.67963082
 30
0.0
 11
-53.24093593
 21
-112.23906496
 31
0.0
  0
LINE
  8
0
  6
CONTINUOUS
 62
       7
  5
94
 10
-49.65514951
 20
-173.65327852
 30
0.0
 11
-49.65514951
 21
-159.65327852
 31
0.0
  0
ARC
  8
0
  6
CONTINUOUS
 62
       7
  5
95
 10
-47.65514951
 20
-159.65327852
 30
0.0
 40
2.0
 50
90.0
 51
180.0
  0
LINE
  8
0
  6
CONTINUOUS
 62
       7
  5
96
 10
-43.15514951
 20
-161.65327852
 30
0.0
 11
-43.15514951
 21
-157.65327852
 31
0.0
  0
ARC
  8
0
  6
CONTINUOUS
 62
       7
  5
97
 10
-51.15514951
 20
-161.65327852
 30
0.0
 40
8.0
 50
280.80692287
 51
0.0
  0
ARC
  8
0
  6
CONTINUOUS
 62
       7
  5
98
 10
-63.65514951
 20
-143.65327852
 30
0.0
 40
20.0
 50
92.94157489
 51
146.94426885
  0
LINE
  8
0
  6
CONTINUOUS
 62
       7
  5
99
 10
-87.2160606
 20
-133.65327852
 30
0.0
 11
-82.09423842
 21
-133.65327852
 31
0.0
  0
ARC
  8
0
  6
CONTINUOUS
 62
       7
  5
9A
 10
-63.65514951
 20
-143.65327852
 30
0.0
 40
20.0
 50
213.05573115
 51
253.82261424
  0
ARC
  8
0
  6
CONTINUOUS
 62
       7
  5
9B
 10
-105.65514951
 20
-143.65327852
 30
0.0
 40
20.0
 50
33.05573115
 51
73.82261424
  0
ARC
  8
0
  6
CONTINUOUS
 62
       7
  5
9C
 10
-36.65514951
 20
-113.65327852
 30
0.0
 40
2.0
 50
0.0
 51
90.0
  0
ARC
  8
0
  6
CONTINUOUS
 62
       7
  5
9D
 10
-36.65514951
 20
-155.65327852
 30
0.0
 40
2.0
 50
270.0
 51
0.0
  0
ARC
  8
0
  6
CONTINUOUS
 62
       7
  5
9E
 10
-41.15514951
 20
-136.15327852
 30
0.0
 40
2.0
 50
90.0
 51
180.0
  0
ARC
  8
0
  6
CONTINUOUS
 62
       7
  5
9F
 10
-51.65514951
 20
-173.65327852
 30
0.0
 40
2.0
 50
-90.0
 51
0.0
  0
LINE
  8
0
  6
CONTINUOUS
 62
       7
  5
A0
 10
-77.65514951
 20
-173.65327852
 30
0.0
 11
-77.65514951
 21
-158.75294739
 31
0.0
  0
LINE
  8
0
  6
CONTINUOUS
 62
       7
  5
A1
 10
-91.65514951
 20
-173.65327852
 30
0.0
 11
-91.65514951
 21
-158.75294739
 31
0.0
  0
LINE
  8
0
  6
CONTINUOUS
 62
       7
  5
A2
 10
-91.65514951
 20
-169.65327852
 30
0.0
 11
-77.65514951
 21
-169.65327852
 31
0.0
  0
LINE
  8
0
  6
CONTINUOUS
 62
       7
  5
A3
 10
-75.65514951
 20
-175.65327852
 30
0.0
 11
-51.65514951
 21
-175.65327852
 31
0.0
  0
ARC
  8
0
  6
CONTINUOUS
 62
       7
  5
A4
 10
-75.65514951
 20
-173.65327852
 30
0.0
 40
2.0
 50
180.0
 51
270.0
  0
ARC
  8
0
  6
CONTINUOUS
 62
       7
  5
A5
 10
-93.65514951
 20
-173.65327852
 30
0.0
 40
2.0
 50
-90.0
 51
0.0
  0
ARC
  8
0
  6
CONTINUOUS
 62
       7
  5
A6
 10
-79.65514951
 20
-158.75294739
 30
0.0
 40
2.0
 50
0.0
 51
43.34175823
  0
ARC
  8
0
  6
CONTINUOUS
 62
       7
  5
A7
 10
-89.65514951
 20
-158.75294739
 30
0.0
 40
2.0
 50
136.65824177
 51
180.0
  0
ARC
  8
0
  6
CONTINUOUS
 62
       7
  5
A8
 10
-82.09423842
 20
-155.65327852
 30
0.0
 40
2.0
 50
33.05573115
 51
90.0
  0
ARC
  8
0
  6
CONTINUOUS
 62
       7
  5
A9
 10
-87.2160606
 20
-155.65327852
 30
0.0
 40
2.0
 50
90.0
 51
146.94426885
  0
ARC
  8
0
  6
CONTINUOUS
 62
       7
  5
AA
 10
-103.74351136
 20
-165.57006751
 30
0.0
 40
2.0
 50
94.9848681
 51
135.0
  0
ARC
  8
0
  6
CONTINUOUS
 62
       7
  5
AB
 10
-117.48357662
 20
-173.65327852
 30
0.0
 40
2.0
 50
270.0
 51
315.0
  0
ARC
  8
0
  6
CONTINUOUS
 62
       7
  5
AC
 10
-132.65514951
 20
-173.65327852
 30
0.0
 40
2.0
 50
180.0
 51
270.0
  0
ARC
  8
0
  6
CONTINUOUS
 62
       7
  5
AD
 10
-132.65514951
 20
-155.65327852
 30
0.0
 40
2.0
 50
90.0
 51
180.0
  0
ARC
  8
0
  6
CONTINUOUS
 62
       7
  5
AE
 10
-124.15514951
 20
-135.65327852
 30
0.0
 40
2.0
 50
90.0
 51
180.0
  0
ARC
  8
0
  6
CONTINUOUS
 62
       7
  5
AF
 10
-132.65514951
 20
-137.65327852
 30
0.0
 40
2.0
 50
90.0
 51
180.0
  0
ARC
  8
0
  6
CONTINUOUS
 62
       7
  5
B0
 10
-132.65514951
 20
-133.65327852
 30
0.0
 40
2.0
 50
180.0
 51
270.0
  0
ARC
  8
0
  6
CONTINUOUS
 62
       7
  5
B1
 10
-128.15514951
 20
-151.65327852
 30
0.0
 40
2.0
 50
270.0
 51
0.0
  0
ARC
  8
0
  6
CONTINUOUS
 62
       7
  5
B2
 10
-132.65514951
 20
-121.65327852
 30
0.0
 40
2.0
 50
90.0
 51
180.0
  0
ARC
  8
0
  6
CONTINUOUS
 62
       7
  5
B3
 10
-121.65514951
 20
-117.65327852
 30
0.0
 40
2.0
 50
270.0
 51
0.0
  0
ARC
  8
0
  6
CONTINUOUS
 62
       7
  5
B4
 10
-117.65514951
 20
-113.65327852
 30
0.0
 40
2.0
 50
90.0
 51
180.0
  0
ARC
  8
0
  6
CONTINUOUS
 62
       7
  5
B5
 10
-93.65514951
 20
-113.65327852
 30
0.0
 40
2.0
 50
0.0
 51
90.0
  0
ARC
  8
0
  6
CONTINUOUS
 62
       7
  5
B6
 10
-75.65514951
 20
-113.65327852
 30
0.0
 40
2.0
 50
90.0
 51
180.0
  0
ARC
  8
0
  6
CONTINUOUS
 62
       7
  5
B7
 10
-79.65514951
 20
-119.65327852
 30
0.0
 40
2.0
 50
270.0
 51
0.0
  0
ARC
  8
0
  6
CONTINUOUS
 62
       7
  5
B8
 10
-89.65514951
 20
-119.65327852
 30
0.0
 40
2.0
 50
180.0
 51
270.0
  0
ARC
  8
0
  6
CONTINUOUS
 62
       7
  5
B9
 10
-82.09423842
 20
-131.65327852
 30
0.0
 40
2.0
 50
270.0
 51
326.94426885
  0
ARC
  8
0
  6
CONTINUOUS
 62
       7
  5
BA
 10
-87.2160606
 20
-131.65327852
 30
0.0
 40
2.0
 50
213.05573115
 51
270.0
  0
ARC
  8
0
  6
CONTINUOUS
 62
       7
  5
BB
 10
-51.82672237
 20
-113.65327852
 30
0.0
 40
2.0
 50
90.0
 51
135.0
  0
LINE
  8
0
  6
CONTINUOUS
 62
       7
  5
BC
 10
-34.65514951
 20
-116.65327852
 30
0.0
 11
-34.65514951
 21
-113.65327852
 31
0.0
  0
LINE
  8
0
  6
CONTINUOUS
 62
       7
  5
BD
 10
-134.65514951
 20
-159.65327852
 30
0.0
 11
-134.65514951
 21
-121.65327852
 31
0.0
  0
ARC
  8
0
  6
CONTINUOUS
 62
       7
  5
BE
 10
-36.65514951
 20
-116.65327852
 30
0.0
 40
2.0
 50
270.0
 51
0.0
  0
ARC
  8
0
  6
CONTINUOUS
 62
       7
  5
BF
 10
-36.65514951
 20
-127.65327852
 30
0.0
 40
2.0
 50
0.0
 51
90.0
  0
ARC
  8
0
  6
CONTINUOUS
 62
       7
  5
C0
 10
-132.65514951
 20
-159.65327852
 30
0.0
 40
2.0
 50
180.0
 51
270.0
  0
ARC
  8
0
  6
CONTINUOUS
 62
       7
  5
C1
 10
-132.65514951
 20
-170.65327852
 30
0.0
 40
2.0
 50
90.0
 51
180.0
  0
ARC
  8
0
  6
CONTINUOUS
 62
       7
  5
C2
 10
-36.65514951
 20
-132.15327852
 30
0.0
 40
2.0
 50
270.0
 51
0.0
  0
ARC
  8
0
  6
CONTINUOUS
 62
       7
  5
C3
 10
-45.15514951
 20
-151.65327852
 30
0.0
 40
2.0
 50
270.0
 51
0.0
  0
LINE
  8
0
  6
CENTER
 62
       2
  5
C4
 10
-84.65514951
 20
-63.68823882
 30
0.0
 11
-84.65514951
 21
80.10652255
 31
0.0
  0
LINE
  8
0
  6
CENTER
 62
       2
  5
C5
 10
-79.08711756
 20
-5.05755986
 30
0.0
 11
-47.95964422
 21
-5.05755986
 31
0.0
  0
LINE
  8
0
  6
CONTINUOUS
 62
       7
  5
C6
 10
-52.25349303
 20
-14.85755986
 30
0.0
 11
-50.89716255
 21
-7.55755986
 31
0.0
  0
LINE
  8
0
  6
CONTINUOUS
 62
       7
  5
C7
 10
-75.05680599
 20
-14.85755986
 30
0.0
 11
-76.41313647
 21
-7.55755986
 31
0.0
  0
LINE
  8
0
  6
CONTINUOUS
 62
       7
  5
C8
 10
-67.75514951
 20
-13.55755986
 30
0.0
 11
-67.75514951
 21
5.94244014
 31
0.0
  0
LINE
  8
0
  6
CONTINUOUS
 62
       7
  5
C9
 10
-59.55514951
 20
-13.55755986
 30
0.0
 11
-59.55514951
 21
5.94244014
 31
0.0
  0
LINE
  8
0
  6
CONTINUOUS
 62
       7
  5
CA
 10
-67.75514951
 20
-13.55755986
 30
0.0
 11
-59.55514951
 21
-13.55755986
 31
0.0
  0
LINE
  8
0
  6
CONTINUOUS
 62
       7
  5
CB
 10
-70.58335274
 20
5.94244014
 30
0.0
 11
-67.75514951
 21
5.94244014
 31
0.0
  0
ARC
  8
0
  6
CONTINUOUS
 62
       7
  5
CC
 10
-63.65514951
 20
-5.05755986
 30
0.0
 40
13.0
 50
122.2042275
 51
168.91251079
  0
LINE
  8
0
  6
CONTINUOUS
 62
       7
  5
CD
 10
-59.55514951
 20
5.94244014
 30
0.0
 11
-56.72694628
 21
5.94244014
 31
0.0
  0
LINE
  8
0
  6
CONTINUOUS
 62
       7
  5
CE
 10
-76.15514951
 20
19.94244014
 30
0.0
 11
-61.70514951
 21
19.94244014
 31
0.0
  0
LINE
  8
0
  6
CONTINUOUS
 62
       7
  5
CF
 10
-67.60514951
 20
-10.55755986
 30
0.0
 11
-67.60514951
 21
7.94244014
 31
0.0
  0
LINE
  8
0
  6
CONTINUOUS
 62
       7
  5
D0
 10
-59.70514951
 20
-10.55755986
 30
0.0
 11
-59.70514951
 21
17.94244014
 31
0.0
  0
LINE
  8
0
  6
CONTINUOUS
 62
       7
  5
D1
 10
-67.60514951
 20
-10.55755986
 30
0.0
 11
-59.70514951
 21
-10.55755986
 31
0.0
  0
LINE
  8
0
  6
CONTINUOUS
 62
       7
  5
D2
 10
-78.15514951
 20
21.94244014
 30
0.0
 11
-78.15514951
 21
41.43416206
 31
0.0
  0
ARC
  8
0
  6
CONTINUOUS
 62
       7
  5
D3
 10
-76.15514951
 20
21.94244014
 30
0.0
 40
2.0
 50
180.0
 51
270.0
  0
ARC
  8
0
  6
CONTINUOUS
 62
       7
  5
D4
 10
-61.70514951
 20
17.94244014
 30
0.0
 40
2.0
 50
0.0
 51
90.0
  0
ARC
  8
0
  6
CONTINUOUS
 62
       7
  5
D5
 10
-69.60514951
 20
7.94244014
 30
0.0
 40
2.0
 50
0.0
 51
90.0
  0
LINE
  8
0
  6
CONTINUOUS
 62
       7
  5
D6
 10
-91.15514951
 20
21.94244014
 30
0.0
 11
-91.15514951
 21
41.43416206
 31
0.0
  0
LINE
  8
0
  6
CONTINUOUS
 62
       7
  5
D7
 10
-93.15514951
 20
19.94244014
 30
0.0
 11
-107.60514951
 21
19.94244014
 31
0.0
  0
ARC
  8
0
  6
CONTINUOUS
 62
       7
  5
D8
 10
-93.15514951
 20
21.94244014
 30
0.0
 40
2.0
 50
-90.0
 51
0.0
  0
LINE
  8
0
  6
CONTINUOUS
 62
       7
  5
D9
 10
-99.70514951
 20
9.94244014
 30
0.0
 11
-69.60514951
 21
9.94244014
 31
0.0
  0
LINE
  8
0
  6
CONTINUOUS
 62
       7
  5
DA
 10
-101.70514951
 20
-10.55755986
 30
0.0
 11
-101.70514951
 21
7.94244014
 31
0.0
  0
ARC
  8
0
  6
CONTINUOUS
 62
       7
  5
DB
 10
-99.70514951
 20
7.94244014
 30
0.0
 40
2.0
 50
90.0
 51
180.0
  0
ARC
  8
0
  6
CONTINUOUS
 62
       7
  5
DC
 10
-105.65514951
 20
-5.05755986
 30
0.0
 40
13.0
 50
122.2042275
 51
168.91251079
  0
LINE
  8
0
  6
CONTINUOUS
 62
       7
  5
DD
 10
-101.55514951
 20
-13.55755986
 30
0.0
 11
-101.55514951
 21
5.94244014
 31
0.0
  0
LINE
  8
0
  6
CONTINUOUS
 62
       7
  5
DE
 10
-109.75514951
 20
-13.55755986
 30
0.0
 11
-109.75514951
 21
5.94244014
 31
0.0
  0
ARC
  8
0
  6
CONTINUOUS
 62
       7
  5
DF
 10
-105.65514951
 20
-5.05755986
 30
0.0
 40
13.0
 50
11.08748921
 51
57.7957725
  0
LINE
  8
0
  6
CONTINUOUS
 62
       7
  5
E0
 10
-109.60514951
 20
-10.55755986
 30
0.0
 11
-109.60514951
 21
17.94244014
 31
0.0
  0
LINE
  8
0
  6
CONTINUOUS
 62
       7
  5
E1
 10
-109.75514951
 20
5.94244014
 30
0.0
 11
-112.58335274
 21
5.94244014
 31
0.0
  0
LINE
  8
0
  6
CONTINUOUS
 62
       7
  5
E2
 10
-98.72694628
 20
5.94244014
 30
0.0
 11
-101.55514951
 21
5.94244014
 31
0.0
  0
LINE
  8
0
  6
CONTINUOUS
 62
       7
  5
E3
 10
-117.05680599
 20
-14.85755986
 30
0.0
 11
-118.41313647
 21
-7.55755986
 31
0.0
  0
LINE
  8
0
  6
CONTINUOUS
 62
       7
  5
E4
 10
-94.25349303
 20
-14.85755986
 30
0.0
 11
-92.89716255
 21
-7.55755986
 31
0.0
  0
LINE
  8
0
  6
CONTINUOUS
 62
       7
  5
E5
 10
-101.70514951
 20
-10.55755986
 30
0.0
 11
-109.60514951
 21
-10.55755986
 31
0.0
  0
LINE
  8
0
  6
CENTER
 62
       2
  5
E6
 10
-90.22318145
 20
-5.05755986
 30
0.0
 11
-121.3506548
 21
-5.05755986
 31
0.0
  0
LINE
  8
0
  6
CONTINUOUS
 62
       7
  5
E7
 10
-101.55514951
 20
-13.55755986
 30
0.0
 11
-109.75514951
 21
-13.55755986
 31
0.0
  0
ARC
  8
0
  6
CONTINUOUS
 62
       7
  5
E8
 10
-107.60514951
 20
17.94244014
 30
0.0
 40
2.0
 50
90.0
 51
180.0
  0
LINE
  8
0
  6
CONTINUOUS
 62
       7
  5
E9
 10
-50.65514951
 20
-1.05755986
 30
0.0
 11
-49.23874164
 21
-1.05755986
 31
0.0
  0
LINE
  8
0
  6
CONTINUOUS
 62
       7
  5
EA
 10
-50.65514951
 20
-9.05755986
 30
0.0
 11
-49.23874164
 21
-9.05755986
 31
0.0
  0
ARC
  8
0
  6
CONTINUOUS
 62
       7
  5
EB
 10
-62.65514951
 20
-5.05755986
 30
0.0
 40
14.0
 50
343.3984504
 51
16.6015496
  0
LINE
  8
0
  6
CONTINUOUS
 62
       7
  5
EC
 10
-76.65514951
 20
-2.55755986
 30
0.0
 11
-76.41250033
 21
-2.55755986
 31
0.0
  0
LINE
  8
0
  6
CONTINUOUS
 62
       7
  5
ED
 10
-76.65514951
 20
-7.55755986
 30
0.0
 11
-76.41313647
 21
-7.55755986
 31
0.0
  0
LINE
  8
0
  6
CONTINUOUS
 62
       7
  5
EE
 10
-77.25514951
 20
-0.55755986
 30
0.0
 11
-76.65514951
 21
-0.55755986
 31
0.0
  0
LINE
  8
0
  6
CONTINUOUS
 62
       7
  5
EF
 10
-77.25514951
 20
-9.55755986
 30
0.0
 11
-76.65514951
 21
-9.55755986
 31
0.0
  0
LINE
  8
0
  6
CONTINUOUS
 62
       7
  5
F0
 10
-76.65514951
 20
-9.55755991
 30
0.0
 11
-76.65514951
 21
-0.55755991
 31
0.0
  0
LINE
  8
0
  6
CONTINUOUS
 62
       7
  5
F1
 10
-77.25514951
 20
-9.55755991
 30
0.0
 11
-77.25514951
 21
-0.55755991
 31
0.0
  0
LINE
  8
0
  6
CONTINUOUS
 62
       7
  5
F2
 10
-78.65514951
 20
-7.55755991
 30
0.0
 11
-78.65514951
 21
-2.55755991
 31
0.0
  0
LINE
  8
0
  6
CONTINUOUS
 62
       7
  5
F3
 10
-78.6551495
 20
-2.55755986
 30
0.0
 11
-77.25514952
 21
-2.55755986
 31
0.0
  0
LINE
  8
0
  6
CONTINUOUS
 62
       7
  5
F4
 10
-78.6551495
 20
-7.55755986
 30
0.0
 11
-77.25514952
 21
-7.55755986
 31
0.0
  0
LINE
  8
0
  6
CENTER
 62
       2
  5
F5
 10
-141.16929453
 20
141.22185959
 30
0.0
 11
-27.95732293
 21
141.22185959
 31
0.0
  0
ARC
  8
0
  6
CONTINUOUS
 62
       7
  5
F6
 10
-36.65514951
 20
129.72185959
 30
0.0
 40
2.0
 50
0.0
 51
90.0
  0
ARC
  8
0
  6
CONTINUOUS
 62
       7
  5
F7
 10
-132.65514951
 20
168.22185959
 30
0.0
 40
2.0
 50
180.0
 51
270.0
  0
ARC
  8
0
  6
CONTINUOUS
 62
       7
  5
F8
 10
-132.65514951
 20
157.22185959
 30
0.0
 40
2.0
 50
90.0
 51
180.0
  0
ARC
  8
0
  6
CONTINUOUS
 62
       7
  5
F9
 10
-36.65514951
 20
125.22185959
 30
0.0
 40
2.0
 50
270.0
 51
0.0
  0
ARC
  8
0
  6
CONTINUOUS
 62
       7
  5
FA
 10
-36.65514951
 20
114.22185959
 30
0.0
 40
2.0
 50
0.0
 51
90.0
  0
LINE
  8
0
  6
CONTINUOUS
 62
       7
  5
FB
 10
-134.65514951
 20
157.22185959
 30
0.0
 11
-134.65514951
 21
119.22185959
 31
0.0
  0
LINE
  8
0
  6
CONTINUOUS
 62
       7
  5
FC
 10
-34.65514951
 20
114.22185959
 30
0.0
 11
-34.65514951
 21
111.22185959
 31
0.0
  0
ARC
  8
0
  6
CONTINUOUS
 62
       7
  5
FD
 10
-75.65514951
 20
111.22185959
 30
0.0
 40
2.0
 50
180.0
 51
270.0
  0
ARC
  8
0
  6
CONTINUOUS
 62
       7
  5
FE
 10
-93.65514951
 20
111.22185959
 30
0.0
 40
2.0
 50
270.0
 51
0.0
  0
ARC
  8
0
  6
CONTINUOUS
 62
       7
  5
FF
 10
-117.65514951
 20
111.22185959
 30
0.0
 40
2.0
 50
180.0
 51
270.0
  0
ARC
  8
0
  6
CONTINUOUS
 62
       7
  5
100
 10
-132.65514951
 20
119.22185959
 30
0.0
 40
2.0
 50
180.0
 51
270.0
  0
ARC
  8
0
  6
CONTINUOUS
 62
       7
  5
101
 10
-128.15514951
 20
149.22185959
 30
0.0
 40
2.0
 50
0.0
 51
90.0
  0
ARC
  8
0
  6
CONTINUOUS
 62
       7
  5
102
 10
-132.65514951
 20
131.22185959
 30
0.0
 40
2.0
 50
90.0
 51
180.0
  0
ARC
  8
0
  6
CONTINUOUS
 62
       7
  5
103
 10
-132.65514951
 20
135.22185959
 30
0.0
 40
2.0
 50
180.0
 51
270.0
  0
ARC
  8
0
  6
CONTINUOUS
 62
       7
  5
104
 10
-132.65514951
 20
153.22185959
 30
0.0
 40
2.0
 50
180.0
 51
270.0
  0
ARC
  8
0
  6
CONTINUOUS
 62
       7
  5
105
 10
-132.65514951
 20
171.22185959
 30
0.0
 40
2.0
 50
90.0
 51
180.0
  0
ARC
  8
0
  6
CONTINUOUS
 62
       7
  5
106
 10
-93.65514951
 20
171.22185959
 30
0.0
 40
2.0
 50
0.0
 51
90.0
  0
ARC
  8
0
  6
CONTINUOUS
 62
       7
  5
107
 10
-75.65514951
 20
171.22185959
 30
0.0
 40
2.0
 50
90.0
 51
180.0
  0
LINE
  8
0
  6
CONTINUOUS
 62
       7
  5
108
 10
-75.65514951
 20
173.22185959
 30
0.0
 11
-51.65514951
 21
173.22185959
 31
0.0
  0
LINE
  8
0
  6
CONTINUOUS
 62
       7
  5
109
 10
-118.15514951
 20
166.72185959
 30
0.0
 11
-49.65514951
 21
166.72185959
 31
0.0
  0
LINE
  8
0
  6
CONTINUOUS
 62
       7
  5
10A
 10
-91.65514951
 20
171.22185959
 30
0.0
 11
-91.65514951
 21
166.72185959
 31
0.0
  0
LINE
  8
0
  6
CONTINUOUS
 62
       7
  5
10B
 10
-77.65514951
 20
171.22185959
 30
0.0
 11
-77.65514951
 21
166.72185959
 31
0.0
  0
ARC
  8
0
  6
CONTINUOUS
 62
       7
  5
10C
 10
-51.65514951
 20
171.22185959
 30
0.0
 40
2.0
 50
0.0
 51
90.0
  0
ARC
  8
0
  6
CONTINUOUS
 62
       7
  5
10D
 10
-41.15514951
 20
133.72185959
 30
0.0
 40
2.0
 50
180.0
 51
270.0
  0
ARC
  8
0
  6
CONTINUOUS
 62
       7
  5
10E
 10
-36.65514951
 20
153.22185959
 30
0.0
 40
2.0
 50
0.0
 51
90.0
  0
ARC
  8
0
  6
CONTINUOUS
 62
       7
  5
10F
 10
-36.65514951
 20
111.22185959
 30
0.0
 40
2.0
 50
270.0
 51
0.0
  0
ARC
  8
0
  6
CONTINUOUS
 62
       7
  5
110
 10
-51.15514951
 20
158.72185959
 30
0.0
 40
8.0
 50
0.0
 51
79.19307713
  0
LINE
  8
0
  6
CONTINUOUS
 62
       7
  5
111
 10
-43.15514951
 20
159.22185959
 30
0.0
 11
-43.15514951
 21
123.22185959
 31
0.0
  0
LINE
  8
0
  6
CONTINUOUS
 62
       7
  5
112
 10
-49.65514951
 20
171.22185959
 30
0.0
 11
-49.65514951
 21
166.72185959
 31
0.0
  0
ARC
  8
0
  6
CONTINUOUS
 62
       7
  5
113
 10
-118.15514951
 20
123.72185959
 30
0.0
 40
8.0
 50
180.0
 51
270.0
  0
LINE
  8
0
  6
CONTINUOUS
 62
       7
  5
114
 10
-118.15514951
 20
115.72185959
 30
0.0
 11
-51.15514951
 21
115.72185959
 31
0.0
  0
LINE
  8
0
  6
CONTINUOUS
 62
       7
  5
115
 10
-75.65514951
 20
109.22185959
 30
0.0
 11
-36.65514951
 21
109.22185959
 31
0.0
  0
LINE
  8
0
  6
CONTINUOUS
 62
       7
  5
116
 10
-77.65514951
 20
115.72185959
 30
0.0
 11
-77.65514951
 21
111.22185959
 31
0.0
  0
LINE
  8
0
  6
CONTINUOUS
 62
       7
  5
117
 10
-132.65514951
 20
133.22185959
 30
0.0
 11
-126.15514951
 21
133.22185959
 31
0.0
  0
LINE
  8
0
  6
CONTINUOUS
 62
       7
  5
118
 10
-132.65514951
 20
117.22185959
 30
0.0
 11
-122.81883904
 21
117.22185959
 31
0.0
  0
LINE
  8
0
  6
CONTINUOUS
 62
       7
  5
119
 10
-43.15514951
 20
155.22185959
 30
0.0
 11
-36.65514951
 21
155.22185959
 31
0.0
  0
LINE
  8
0
  6
CONTINUOUS
 62
       7
  5
11A
 10
-91.65514951
 20
115.72185959
 30
0.0
 11
-91.65514951
 21
111.22185959
 31
0.0
  0
LINE
  8
0
  6
CONTINUOUS
 62
       7
  5
11B
 10
-119.65514951
 20
115.86374276
 30
0.0
 11
-119.65514951
 21
111.22185959
 31
0.0
  0
ARC
  8
0
  6
CONTINUOUS
 62
       7
  5
11C
 10
-63.65514951
 20
141.22185959
 30
0.0
 40
15.95
 50
210.10375252
 51
149.89624748
  0
LINE
  8
0
  6
CENTER
 62
       2
  5
11D
 10
-63.65514951
 20
176.74074789
 30
0.0
 11
-63.65514951
 21
105.09589492
 31
0.0
  0
LINE
  8
0
  6
CENTER
 62
       2
  5
11E
 10
-105.65514951
 20
176.74074789
 30
0.0
 11
-105.65514951
 21
105.09589492
 31
0.0
  0
LINE
  8
0
  6
CONTINUOUS
 62
       7
  5
11F
 10
-132.65514951
 20
166.22185959
 30
0.0
 11
-125.65514951
 21
166.22185959
 31
0.0
  0
LINE
  8
0
  6
CONTINUOUS
 62
       7
  5
120
 10
-132.65514951
 20
159.22185959
 30
0.0
 11
-126.15514951
 21
159.22185959
 31
0.0
  0
ARC
  8
0
  6
CONTINUOUS
 62
       7
  5
121
 10
-125.65514951
 20
162.72185959
 30
0.0
 40
3.5
 50
41.77392822
 51
90.0
  0
LINE
  8
0
  6
CONTINUOUS
 62
       7
  5
122
 10
-43.15514951
 20
123.22185959
 30
0.0
 11
-36.65514951
 21
123.22185959
 31
0.0
  0
LINE
  8
0
  6
CONTINUOUS
 62
       7
  5
123
 10
-43.65514951
 20
116.22185959
 30
0.0
 11
-36.65514951
 21
116.22185959
 31
0.0
  0
ARC
  8
0
  6
CONTINUOUS
 62
       7
  5
124
 10
-43.65514951
 20
119.72185959
 30
0.0
 40
3.5
 50
228.17809243
 51
270.0
  0
LINE
  8
0
  6
CONTINUOUS
 62
       7
  5
125
 10
-132.65514951
 20
151.22185959
 30
0.0
 11
-128.15514951
 21
151.22185959
 31
0.0
  0
LINE
  8
0
  6
CONTINUOUS
 62
       7
  5
126
 10
-126.15514951
 20
159.22185959
 30
0.0
 11
-126.15514951
 21
123.22185959
 31
0.0
  0
LINE
  8
0
  6
CONTINUOUS
 62
       7
  5
127
 10
-41.15514951
 20
131.72185959
 30
0.0
 11
-36.65514951
 21
131.72185959
 31
0.0
  0
LINE
  8
0
  6
CONTINUOUS
 62
       7
  5
128
 10
-34.65514951
 20
153.22185959
 30
0.0
 11
-34.65514951
 21
125.22185959
 31
0.0
  0
LINE
  8
0
  6
CONTINUOUS
 62
       7
  5
129
 10
-134.65514951
 20
171.22185959
 30
0.0
 11
-134.65514951
 21
168.22185959
 31
0.0
  0
LINE
  8
0
  6
CONTINUOUS
 62
       7
  5
12A
 10
-117.65514951
 20
109.22185959
 30
0.0
 11
-93.65514951
 21
109.22185959
 31
0.0
  0
LINE
  8
0
  6
CONTINUOUS
 62
       7
  5
12B
 10
-132.65514951
 20
173.22185959
 30
0.0
 11
-93.65514951
 21
173.22185959
 31
0.0
  0
ARC
  8
0
  6
CONTINUOUS
 62
       7
  5
12C
 10
-63.65514951
 20
140.22185959
 30
0.0
 40
14.0
 50
307.41150325
 51
347.62637488
  0
CIRCLE
  8
0
  6
CONTINUOUS
 62
       7
  5
12D
 10
-57.65514951
 20
127.57274894
 30
0.0
 40
1.0
  0
ARC
  8
0
  6
CONTINUOUS
 62
       7
  5
12E
 10
-57.65514951
 20
127.57274894
 30
0.0
 40
2.0
 50
50.75386705
 51
97.62500593
  0
LINE
  8
0
  6
CONTINUOUS
 62
       7
  5
12F
 10
-59.57747258
 20
127.0207761
 30
0.0
 11
-59.25316608
 21
125.89133311
 31
0.0
  0
ARC
  8
0
  6
CONTINUOUS
 62
       7
  5
130
 10
-55.75719033
 20
129.89605498
 30
0.0
 40
1.0
 50
230.75386705
 51
307.41150325
  0
ARC
  8
0
  6
CONTINUOUS
 62
       7
  5
131
 10
-69.65514951
 20
127.57274894
 30
0.0
 40
2.0
 50
82.37499407
 51
129.24613295
  0
CIRCLE
  8
0
  6
CONTINUOUS
 62
       7
  5
132
 10
-69.65514951
 20
127.57274894
 30
0.0
 40
1.0
  0
LINE
  8
0
  6
CONTINUOUS
 62
       7
  5
133
 10
-67.73282644
 20
127.0207761
 30
0.0
 11
-68.05713294
 21
125.89133311
 31
0.0
  0
ARC
  8
0
  6
CONTINUOUS
 62
       7
  5
134
 10
-71.55310869
 20
129.89605498
 30
0.0
 40
1.0
 50
232.58849675
 51
309.24613295
  0
ARC
  8
0
  6
CONTINUOUS
 62
       7
  5
135
 10
-63.65514951
 20
-144.65327852
 30
0.0
 40
14.0
 50
307.41150325
 51
232.58849675
  0
ARC
  8
0
  6
CONTINUOUS
 62
       7
  5
136
 10
-69.65514951
 20
-157.30238916
 30
0.0
 40
2.0
 50
-16.02080708
 51
129.24613295
  0
CIRCLE
  8
0
  6
CONTINUOUS
 62
       7
  5
137
 10
-69.65514951
 20
-157.30238916
 30
0.0
 40
1.0
  0
ARC
  8
0
  6
CONTINUOUS
 62
       7
  5
138
 10
-71.55310869
 20
-154.97908312
 30
0.0
 40
1.0
 50
232.58849675
 51
309.24613295
  0
LINE
  8
0
  6
CONTINUOUS
 62
       7
  5
139
 10
-67.73282644
 20
-157.854362
 30
0.0
 11
-68.05713294
 21
-158.98380499
 31
0.0
  0
CIRCLE
  8
0
  6
CONTINUOUS
 62
       7
  5
13A
 10
-57.65514951
 20
-157.30238916
 30
0.0
 40
1.0
  0
ARC
  8
0
  6
CONTINUOUS
 62
       7
  5
13B
 10
-57.65514951
 20
-157.30238916
 30
0.0
 40
2.0
 50
50.75386705
 51
196.02080708
  0
ARC
  8
0
  6
CONTINUOUS
 62
       7
  5
13C
 10
-55.75719033
 20
-154.97908312
 30
0.0
 40
1.0
 50
230.75386705
 51
307.41150325
  0
LINE
  8
0
  6
CONTINUOUS
 62
       7
  5
13D
 10
-59.57747258
 20
-157.854362
 30
0.0
 11
-59.25316608
 21
-158.98380499
 31
0.0
  0
ARC
  8
0
  6
CONTINUOUS
 62
       7
  5
13E
 10
-63.65514951
 20
-143.65327852
 30
0.0
 40
13.75
 50
167.53113287
 51
239.74617326
  0
ARC
  8
0
  6
CONTINUOUS
 62
       7
  5
13F
 10
-63.65514951
 20
-143.65327852
 30
0.0
 40
13.75
 50
300.25382674
 51
12.46886713
  0
ARC
  8
0
  6
CONTINUOUS
 62
       7
  5
140
 10
-63.65514951
 20
-143.65327852
 30
0.0
 40
13.75
 50
252.79429402
 51
287.20570598
  0
CIRCLE
  8
0
  6
CONTINUOUS
 62
       7
  5
141
 10
-63.65514951
 20
-143.65327852
 30
0.0
 40
6.35
  0
LINE
  8
0
  6
CONTINUOUS
 62
       7
  5
142
 10
-54.96597983
 20
-142.65327852
 30
0.0
 11
-51.06298925
 21
-142.65327852
 31
0.0
  0
LINE
  8
0
  6
CONTINUOUS
 62
       7
  5
143
 10
-54.96597983
 20
-144.65327852
 30
0.0
 11
-51.06298925
 21
-144.65327852
 31
0.0
  0
LINE
  8
0
  6
CONTINUOUS
 62
       7
  5
144
 10
-54.96597983
 20
-142.65327852
 30
0.0
 11
-55.40514951
 21
-143.09244819
 31
0.0
  0
LINE
  8
0
  6
CONTINUOUS
 62
       7
  5
145
 10
-54.96597983
 20
-144.65327852
 30
0.0
 11
-55.40514951
 21
-144.21410884
 31
0.0
  0
LINE
  8
0
  6
CONTINUOUS
 62
       7
  5
146
 10
-55.40514951
 20
-144.21410889
 30
0.0
 11
-55.40514951
 21
-143.09244818
 31
0.0
  0
ARC
  8
0
  6
CONTINUOUS
 62
       7
  5
147
 10
-51.06298925
 20
-141.65327852
 30
0.0
 40
1.0
 50
270.0
 51
9.02484537
  0
ARC
  8
0
  6
CONTINUOUS
 62
       7
  5
148
 10
-51.06298925
 20
-145.65327852
 30
0.0
 40
1.0
 50
-9.02484537
 51
90.0
  0
LINE
  8
0
  6
CONTINUOUS
 62
       7
  5
149
 10
-55.40514951
 20
-143.09244818
 30
0.0
 11
-49.91659175
 21
-143.09244818
 31
0.0
  0
LINE
  8
0
  6
CONTINUOUS
 62
       7
  5
14A
 10
-55.40514951
 20
-144.21410884
 30
0.0
 11
-49.91659175
 21
-144.21410884
 31
0.0
  0
LINE
  8
0
  6
CONTINUOUS
 62
       7
  5
14B
 10
-64.65514951
 20
-134.96410884
 30
0.0
 11
-64.65514951
 21
-131.06111826
 31
0.0
  0
LINE
  8
0
  6
CONTINUOUS
 62
       7
  5
14C
 10
-63.09431914
 20
-135.40327852
 30
0.0
 11
-64.21597985
 21
-135.40327852
 31
0.0
  0
LINE
  8
0
  6
CONTINUOUS
 62
       7
  5
14D
 10
-64.21597985
 20
-135.40327852
 30
0.0
 11
-64.21597985
 21
-130.66451627
 31
0.0
  0
LINE
  8
0
  6
CONTINUOUS
 62
       7
  5
14E
 10
-64.65514951
 20
-134.96410884
 30
0.0
 11
-64.21597983
 21
-135.40327852
 31
0.0
  0
ARC
  8
0
  6
CONTINUOUS
 62
       7
  5
14F
 10
-65.65514951
 20
-131.06111826
 30
0.0
 40
1.0
 50
0.0
 51
21.52518804
  0
LINE
  8
0
  6
CONTINUOUS
 62
       7
  5
150
 10
-62.65514951
 20
-134.96410884
 30
0.0
 11
-62.65514951
 21
-131.06111826
 31
0.0
  0
LINE
  8
0
  6
CONTINUOUS
 62
       7
  5
151
 10
-62.65514951
 20
-134.96410884
 30
0.0
 11
-63.09431919
 21
-135.40327852
 31
0.0
  0
LINE
  8
0
  6
CONTINUOUS
 62
       7
  5
152
 10
-63.09431919
 20
-135.40327852
 30
0.0
 11
-63.09431919
 21
-130.66451627
 31
0.0
  0
ARC
  8
0
  6
CONTINUOUS
 62
       7
  5
153
 10
-61.65514951
 20
-131.06111826
 30
0.0
 40
1.0
 50
158.47481196
 51
180.0
  0
LINE
  8
0
  6
CONTINUOUS
 62
       7
  5
154
 10
-72.34431919
 20
-144.65327852
 30
0.0
 11
-76.24730977
 21
-144.65327852
 31
0.0
  0
LINE
  8
0
  6
CONTINUOUS
 62
       7
  5
155
 10
-71.90514951
 20
-143.09244815
 30
0.0
 11
-71.90514951
 21
-144.21410886
 31
0.0
  0
LINE
  8
0
  6
CONTINUOUS
 62
       7
  5
156
 10
-71.90514951
 20
-144.21410886
 30
0.0
 11
-77.39370727
 21
-144.21410886
 31
0.0
  0
LINE
  8
0
  6
CONTINUOUS
 62
       7
  5
157
 10
-72.34431919
 20
-144.65327852
 30
0.0
 11
-71.90514951
 21
-144.21410884
 31
0.0
  0
ARC
  8
0
  6
CONTINUOUS
 62
       7
  5
158
 10
-76.24730977
 20
-145.65327852
 30
0.0
 40
1.0
 50
90.0
 51
189.02484537
  0
LINE
  8
0
  6
CONTINUOUS
 62
       7
  5
159
 10
-72.34431919
 20
-142.65327852
 30
0.0
 11
-76.24730977
 21
-142.65327852
 31
0.0
  0
LINE
  8
0
  6
CONTINUOUS
 62
       7
  5
15A
 10
-72.34431919
 20
-142.65327852
 30
0.0
 11
-71.90514951
 21
-143.09244819
 31
0.0
  0
LINE
  8
0
  6
CONTINUOUS
 62
       7
  5
15B
 10
-71.90514951
 20
-143.09244819
 30
0.0
 11
-77.39370727
 21
-143.09244819
 31
0.0
  0
ARC
  8
0
  6
CONTINUOUS
 62
       7
  5
15C
 10
-76.24730977
 20
-141.65327852
 30
0.0
 40
1.0
 50
170.97515463
 51
270.0
  0
LINE
  8
0
  6
CONTINUOUS
 62
       7
  5
15D
 10
-62.65514951
 20
-152.34244819
 30
0.0
 11
-62.65514951
 21
-156.24543878
 31
0.0
  0
LINE
  8
0
  6
CONTINUOUS
 62
       7
  5
15E
 10
-64.21597988
 20
-151.90327852
 30
0.0
 11
-63.09431917
 21
-151.90327852
 31
0.0
  0
LINE
  8
0
  6
CONTINUOUS
 62
       7
  5
15F
 10
-63.09431917
 20
-151.90327852
 30
0.0
 11
-63.09431917
 21
-157.39183628
 31
0.0
  0
LINE
  8
0
  6
CONTINUOUS
 62
       2
  5
160
 10
-62.65514951
 20
-152.34244819
 30
0.0
 11
-63.09431919
 21
-151.90327852
 31
0.0
  0
ARC
  8
0
  6
CONTINUOUS
 62
       7
  5
161
 10
-61.65514951
 20
-156.24543878
 30
0.0
 40
1.0
 50
180.0
 51
279.02484537
  0
LINE
  8
0
  6
CONTINUOUS
 62
       7
  5
162
 10
-64.65514951
 20
-152.34244819
 30
0.0
 11
-64.65514951
 21
-156.24543878
 31
0.0
  0
LINE
  8
0
  6
CONTINUOUS
 62
       7
  5
163
 10
-64.65514951
 20
-152.34244819
 30
0.0
 11
-64.21597983
 21
-151.90327852
 31
0.0
  0
LINE
  8
0
  6
CONTINUOUS
 62
       7
  5
164
 10
-64.21597983
 20
-151.90327852
 30
0.0
 11
-64.21597983
 21
-157.39183628
 31
0.0
  0
ARC
  8
0
  6
CONTINUOUS
 62
       7
  5
165
 10
-65.65514951
 20
-156.24543878
 30
0.0
 40
1.0
 50
260.97515463
 51
0.0
  0
ARC
  8
0
  6
CONTINUOUS
 62
       7
  5
166
 10
-105.65514951
 20
-144.65327852
 30
0.0
 40
14.0
 50
-52.58849675
 51
232.58849675
  0
LINE
  8
0
  6
CONTINUOUS
 62
       7
  5
167
 10
-104.65514951
 20
-134.96410884
 30
0.0
 11
-104.65514951
 21
-131.06111826
 31
0.0
  0
LINE
  8
0
  6
CONTINUOUS
 62
       7
  5
168
 10
-105.09431917
 20
-135.40327852
 30
0.0
 11
-105.09431917
 21
-130.66451627
 31
0.0
  0
LINE
  8
0
  6
CONTINUOUS
 62
       7
  5
169
 10
-106.65514951
 20
-134.96410884
 30
0.0
 11
-106.65514951
 21
-131.06111826
 31
0.0
  0
LINE
  8
0
  6
CONTINUOUS
 62
       7
  5
16A
 10
-106.21597983
 20
-135.40327852
 30
0.0
 11
-106.21597983
 21
-130.66451627
 31
0.0
  0
ARC
  8
0
  6
CONTINUOUS
 62
       7
  5
16B
 10
-107.65514951
 20
-131.06111826
 30
0.0
 40
1.0
 50
0.0
 51
21.52518804
  0
ARC
  8
0
  6
CONTINUOUS
 62
       7
  5
16C
 10
-103.65514951
 20
-131.06111826
 30
0.0
 40
1.0
 50
158.47481196
 51
180.0
  0
LINE
  8
0
  6
CONTINUOUS
 62
       7
  5
16D
 10
-106.21597988
 20
-135.40327852
 30
0.0
 11
-105.09431917
 21
-135.40327852
 31
0.0
  0
LINE
  8
0
  6
CONTINUOUS
 62
       7
  5
16E
 10
-106.65514951
 20
-134.96410884
 30
0.0
 11
-106.21597983
 21
-135.40327852
 31
0.0
  0
LINE
  8
0
  6
CONTINUOUS
 62
       7
  5
16F
 10
-104.65514951
 20
-134.96410884
 30
0.0
 11
-105.09431919
 21
-135.40327852
 31
0.0
  0
ARC
  8
0
  6
CONTINUOUS
 62
       7
  5
170
 10
-105.65514951
 20
-143.65327852
 30
0.0
 40
13.75
 50
-59.74617326
 51
12.46886713
  0
CIRCLE
  8
0
  6
CONTINUOUS
 62
       7
  5
171
 10
-105.65514951
 20
-143.65327852
 30
0.0
 40
6.35
  0
LINE
  8
0
  6
CONTINUOUS
 62
       7
  5
172
 10
-97.40514951
 20
-143.09244815
 30
0.0
 11
-97.40514951
 21
-144.21410886
 31
0.0
  0
ARC
  8
0
  6
CONTINUOUS
 62
       7
  5
173
 10
-93.06298925
 20
-141.65327852
 30
0.0
 40
1.0
 50
270.0
 51
9.02484537
  0
LINE
  8
0
  6
CONTINUOUS
 62
       7
  5
174
 10
-97.40514951
 20
-143.09244819
 30
0.0
 11
-91.91659175
 21
-143.09244819
 31
0.0
  0
LINE
  8
0
  6
CONTINUOUS
 62
       7
  5
175
 10
-96.96597983
 20
-142.65327852
 30
0.0
 11
-97.40514951
 21
-143.09244819
 31
0.0
  0
LINE
  8
0
  6
CONTINUOUS
 62
       7
  5
176
 10
-96.96597983
 20
-142.65327852
 30
0.0
 11
-93.06298925
 21
-142.65327852
 31
0.0
  0
ARC
  8
0
  6
CONTINUOUS
 62
       7
  5
177
 10
-93.06298925
 20
-145.65327852
 30
0.0
 40
1.0
 50
-9.02484537
 51
90.0
  0
LINE
  8
0
  6
CONTINUOUS
 62
       7
  5
178
 10
-96.96597983
 20
-144.65327852
 30
0.0
 11
-97.40514951
 21
-144.21410884
 31
0.0
  0
LINE
  8
0
  6
CONTINUOUS
 62
       7
  5
179
 10
-97.40514951
 20
-144.21410886
 30
0.0
 11
-91.91659175
 21
-144.21410886
 31
0.0
  0
LINE
  8
0
  6
CONTINUOUS
 62
       7
  5
17A
 10
-96.96597983
 20
-144.65327852
 30
0.0
 11
-93.06298925
 21
-144.65327852
 31
0.0
  0
ARC
  8
0
  6
CONTINUOUS
 62
       7
  5
17B
 10
-99.65514951
 20
-157.30238916
 30
0.0
 40
2.0
 50
50.75386705
 51
196.02080708
  0
CIRCLE
  8
0
  6
CONTINUOUS
 62
       7
  5
17C
 10
-99.65514951
 20
-157.30238916
 30
0.0
 40
1.0
  0
ARC
  8
0
  6
CONTINUOUS
 62
       7
  5
17D
 10
-97.75719033
 20
-154.97908312
 30
0.0
 40
1.0
 50
230.75386705
 51
307.41150325
  0
LINE
  8
0
  6
CONTINUOUS
 62
       7
  5
17E
 10
-101.57747258
 20
-157.854362
 30
0.0
 11
-101.25316608
 21
-158.98380499
 31
0.0
  0
ARC
  8
0
  6
CONTINUOUS
 62
       7
  5
17F
 10
-105.65514951
 20
-143.65327852
 30
0.0
 40
13.75
 50
252.79429402
 51
287.20570598
  0
LINE
  8
0
  6
CONTINUOUS
 62
       7
  5
180
 10
-105.09431914
 20
-151.90327852
 30
0.0
 11
-106.21597985
 21
-151.90327852
 31
0.0
  0
LINE
  8
0
  6
CONTINUOUS
 62
       7
  5
181
 10
-104.65514951
 20
-152.34244819
 30
0.0
 11
-104.65514951
 21
-156.24543878
 31
0.0
  0
LINE
  8
0
  6
CONTINUOUS
 62
       7
  5
182
 10
-105.09431919
 20
-151.90327852
 30
0.0
 11
-105.09431919
 21
-157.39183628
 31
0.0
  0
LINE
  8
0
  6
CONTINUOUS
 62
       7
  5
183
 10
-104.65514951
 20
-152.34244819
 30
0.0
 11
-105.09431919
 21
-151.90327852
 31
0.0
  0
CIRCLE
  8
0
  6
CONTINUOUS
 62
       7
  5
184
 10
-111.65514951
 20
-157.30238916
 30
0.0
 40
1.0
  0
ARC
  8
0
  6
CONTINUOUS
 62
       7
  5
185
 10
-111.65514951
 20
-157.30238916
 30
0.0
 40
2.0
 50
-16.02080708
 51
129.24613295
  0
LINE
  8
0
  6
CONTINUOUS
 62
       7
  5
186
 10
-106.65514951
 20
-152.34244819
 30
0.0
 11
-106.65514951
 21
-156.24543878
 31
0.0
  0
LINE
  8
0
  6
CONTINUOUS
 62
       7
  5
187
 10
-106.21597985
 20
-151.90327852
 30
0.0
 11
-106.21597985
 21
-157.39183628
 31
0.0
  0
ARC
  8
0
  6
CONTINUOUS
 62
       7
  5
188
 10
-103.65514951
 20
-156.24543878
 30
0.0
 40
1.0
 50
180.0
 51
279.02484537
  0
ARC
  8
0
  6
CONTINUOUS
 62
       7
  5
189
 10
-107.65514951
 20
-156.24543878
 30
0.0
 40
1.0
 50
-99.02484537
 51
0.0
  0
ARC
  8
0
  6
CONTINUOUS
 62
       7
  5
18A
 10
-105.65514951
 20
-143.65327852
 30
0.0
 40
13.75
 50
167.53113287
 51
239.74617326
  0
ARC
  8
0
  6
CONTINUOUS
 62
       7
  5
18B
 10
-113.55310869
 20
-154.97908312
 30
0.0
 40
1.0
 50
232.58849675
 51
309.24613295
  0
LINE
  8
0
  6
CONTINUOUS
 62
       7
  5
18C
 10
-109.73282644
 20
-157.854362
 30
0.0
 11
-110.05713294
 21
-158.98380499
 31
0.0
  0
LINE
  8
0
  6
CONTINUOUS
 62
       7
  5
18D
 10
-106.65514951
 20
-152.34244819
 30
0.0
 11
-106.21597983
 21
-151.90327852
 31
0.0
  0
LINE
  8
0
  6
CONTINUOUS
 62
       7
  5
18E
 10
-114.34431919
 20
-142.65327852
 30
0.0
 11
-118.24730977
 21
-142.65327852
 31
0.0
  0
LINE
  8
0
  6
CONTINUOUS
 62
       7
  5
18F
 10
-114.34431919
 20
-144.65327852
 30
0.0
 11
-118.24730977
 21
-144.65327852
 31
0.0
  0
LINE
  8
0
  6
CONTINUOUS
 62
       7
  5
190
 10
-113.90514951
 20
-143.09244818
 30
0.0
 11
-119.39370727
 21
-143.09244818
 31
0.0
  0
LINE
  8
0
  6
CONTINUOUS
 62
       7
  5
191
 10
-113.90514951
 20
-144.21410884
 30
0.0
 11
-119.39370727
 21
-144.21410884
 31
0.0
  0
LINE
  8
0
  6
CONTINUOUS
 62
       7
  5
192
 10
-113.90514951
 20
-144.21410889
 30
0.0
 11
-113.90514951
 21
-143.09244818
 31
0.0
  0
LINE
  8
0
  6
CONTINUOUS
 62
       7
  5
193
 10
-114.34431919
 20
-144.65327852
 30
0.0
 11
-113.90514951
 21
-144.21410884
 31
0.0
  0
LINE
  8
0
  6
CONTINUOUS
 62
       7
  5
194
 10
-114.34431919
 20
-142.65327852
 30
0.0
 11
-113.90514951
 21
-143.09244819
 31
0.0
  0
ARC
  8
0
  6
CONTINUOUS
 62
       7
  5
195
 10
-118.24730977
 20
-141.65327852
 30
0.0
 40
1.0
 50
170.97515463
 51
270.0
  0
ARC
  8
0
  6
CONTINUOUS
 62
       7
  5
196
 10
-118.24730977
 20
-145.65327852
 30
0.0
 40
1.0
 50
90.0
 51
189.02484537
  0
ARC
  8
0
  6
CONTINUOUS
 62
       7
  5
197
 10
-51.15514951
 20
123.72185959
 30
0.0
 40
8.0
 50
270.0
 51
0.0
  0
ARC
  8
0
  6
CONTINUOUS
 62
       7
  5
198
 10
-118.15514951
 20
158.72185959
 30
0.0
 40
8.0
 50
90.0
 51
180.0
  0
ARC
  8
0
  6
CONTINUOUS
 62
       7
  5
199
 10
-63.65514951
 20
141.22185959
 30
0.0
 40
13.0
 50
217.97987244
 51
348.91251079
  0
LINE
  8
0
  6
CONTINUOUS
 62
       7
  5
19A
 10
-67.75514951
 20
128.88532847
 30
0.0
 11
-67.75514951
 21
133.22185959
 31
0.0
  0
LINE
  8
0
  6
CONTINUOUS
 62
       7
  5
19B
 10
-59.55514951
 20
128.88532847
 30
0.0
 11
-59.55514951
 21
153.6080465
 31
0.0
  0
LINE
  8
0
  6
CONTINUOUS
 62
       7
  5
19C
 10
-59.70514951
 20
134.22185959
 30
0.0
 11
-59.70514951
 21
148.22185959
 31
0.0
  0
ARC
  8
0
  6
CONTINUOUS
 62
       7
  5
19D
 10
-60.70514951
 20
148.22185959
 30
0.0
 40
1.0
 50
0.0
 51
90.0
  0
ARC
  8
0
  6
CONTINUOUS
 62
       7
  5
19E
 10
-60.70514951
 20
134.22185959
 30
0.0
 40
1.0
 50
270.0
 51
0.0
  0
LINE
  8
0
  6
CONTINUOUS
 62
       7
  5
19F
 10
-67.75514951
 20
149.22185959
 30
0.0
 11
-67.75514951
 21
153.55839067
 31
0.0
  0
ARC
  8
0
  6
CONTINUOUS
 62
       7
  5
1A0
 10
-63.65514951
 20
140.22185959
 30
0.0
 40
14.0
 50
230.91306346
 51
232.58849675
  0
ARC
  8
0
  6
CONTINUOUS
 62
       7
  5
1A1
 10
-105.65514951
 20
141.22185959
 30
0.0
 40
15.95
 50
30.10375252
 51
329.89624748
  0
ARC
  8
0
  6
CONTINUOUS
 62
       7
  5
1A2
 10
-105.65514951
 20
140.22185959
 30
0.0
 40
14.0
 50
192.37362512
 51
232.58849675
  0
ARC
  8
0
  6
CONTINUOUS
 62
       7
  5
1A3
 10
-105.65514951
 20
141.22185959
 30
0.0
 40
13.0
 50
191.08748921
 51
322.02012756
  0
LINE
  8
0
  6
CONTINUOUS
 62
       7
  5
1A4
 10
-101.55514951
 20
149.22185959
 30
0.0
 11
-101.55514951
 21
153.55839067
 31
0.0
  0
LINE
  8
0
  6
CONTINUOUS
 62
       7
  5
1A5
 10
-109.75514951
 20
128.88532847
 30
0.0
 11
-109.75514951
 21
153.6080465
 31
0.0
  0
LINE
  8
0
  6
CONTINUOUS
 62
       7
  5
1A6
 10
-109.60514951
 20
134.22185959
 30
0.0
 11
-109.60514951
 21
148.22185959
 31
0.0
  0
LINE
  8
0
  6
CONTINUOUS
 62
       7
  5
1A7
 10
-108.60514951
 20
149.22185959
 30
0.0
 11
-60.70514951
 21
149.22185959
 31
0.0
  0
ARC
  8
0
  6
CONTINUOUS
 62
       7
  5
1A8
 10
-108.60514951
 20
148.22185959
 30
0.0
 40
1.0
 50
90.0
 51
180.0
  0
LINE
  8
0
  6
CONTINUOUS
 62
       7
  5
1A9
 10
-101.55514951
 20
128.88532847
 30
0.0
 11
-101.55514951
 21
133.22185959
 31
0.0
  0
LINE
  8
0
  6
CONTINUOUS
 62
       7
  5
1AA
 10
-108.60514951
 20
133.22185959
 30
0.0
 11
-60.70514951
 21
133.22185959
 31
0.0
  0
LINE
  8
0
  6
CONTINUOUS
 62
       7
  5
1AB
 10
-101.57747258
 20
127.0207761
 30
0.0
 11
-101.25316608
 21
125.89133311
 31
0.0
  0
ARC
  8
0
  6
CONTINUOUS
 62
       7
  5
1AC
 10
-97.75719033
 20
129.89605498
 30
0.0
 40
1.0
 50
230.75386705
 51
307.41150325
  0
CIRCLE
  8
0
  6
CONTINUOUS
 62
       7
  5
1AD
 10
-99.65514951
 20
127.57274894
 30
0.0
 40
1.0
  0
ARC
  8
0
  6
CONTINUOUS
 62
       7
  5
1AE
 10
-99.65514951
 20
127.57274894
 30
0.0
 40
2.0
 50
50.75386705
 51
196.02080708
  0
ARC
  8
0
  6
CONTINUOUS
 62
       7
  5
1AF
 10
-105.65514951
 20
140.22185959
 30
0.0
 40
14.0
 50
307.41150325
 51
309.08693654
  0
ARC
  8
0
  6
CONTINUOUS
 62
       7
  5
1B0
 10
-108.60514951
 20
134.22185959
 30
0.0
 40
1.0
 50
180.0
 51
270.0
  0
ARC
  8
0
  6
CONTINUOUS
 62
       7
  5
1B1
 10
-113.55310869
 20
129.89605498
 30
0.0
 40
1.0
 50
232.58849675
 51
309.24613295
  0
LINE
  8
0
  6
CONTINUOUS
 62
       7
  5
1B2
 10
-109.73282644
 20
127.0207761
 30
0.0
 11
-110.05713294
 21
125.89133311
 31
0.0
  0
ARC
  8
0
  6
CONTINUOUS
 62
       7
  5
1B3
 10
-111.65514951
 20
127.57274894
 30
0.0
 40
2.0
 50
-16.02080708
 51
129.24613295
  0
CIRCLE
  8
0
  6
CONTINUOUS
 62
       7
  5
1B4
 10
-111.65514951
 20
127.57274894
 30
0.0
 40
1.0
  0
LINE
  8
0
  6
CONTINUOUS
 62
       7
  5
1B5
 10
-50.65514951
 20
-9.05755991
 30
0.0
 11
-50.65514951
 21
-1.05755991
 31
0.0
  0
LINE
  8
0
  6
CENTER
 62
       2
  5
1B6
 10
-105.65514951
 20
-63.68823882
 30
0.0
 11
-105.65514951
 21
-21.4480392
 31
0.0
  0
LINE
  8
0
  6
CONTINUOUS
 62
       7
  5
1B7
 10
-76.41250033
 20
-7.56098372
 30
0.0
 11
-76.41250033
 21
-2.55755991
 31
0.0
  0
LINE
  8
0
  6
CONTINUOUS
 62
       7
  5
1B8
 10
-50.89779869
 20
-2.55755986
 30
0.0
 11
-50.65514951
 21
-2.55755986
 31
0.0
  0
LINE
  8
0
  6
CONTINUOUS
 62
       7
  5
1B9
 10
-50.89716255
 20
-7.55755986
 30
0.0
 11
-50.65514951
 21
-7.55755986
 31
0.0
  0
LINE
  8
0
  6
CONTINUOUS
 62
       7
  5
1BA
 10
-50.89779869
 20
-7.56098372
 30
0.0
 11
-50.89779869
 21
-2.55755991
 31
0.0
  0
LINE
  8
0
  6
CONTINUOUS
 62
       7
  5
1BB
 10
-92.05514951
 20
-0.55755986
 30
0.0
 11
-92.65514951
 21
-0.55755986
 31
0.0
  0
LINE
  8
0
  6
CONTINUOUS
 62
       7
  5
1BC
 10
-92.05514951
 20
-9.55755991
 30
0.0
 11
-92.05514951
 21
-0.55755991
 31
0.0
  0
LINE
  8
0
  6
CONTINUOUS
 62
       7
  5
1BD
 10
-90.65514951
 20
-7.55755991
 30
0.0
 11
-90.65514951
 21
-2.55755991
 31
0.0
  0
LINE
  8
0
  6
CONTINUOUS
 62
       7
  5
1BE
 10
-90.65514952
 20
-2.55755986
 30
0.0
 11
-92.0551495
 21
-2.55755986
 31
0.0
  0
LINE
  8
0
  6
CONTINUOUS
 62
       7
  5
1BF
 10
-92.65514951
 20
-9.55755991
 30
0.0
 11
-92.65514951
 21
-0.55755991
 31
0.0
  0
LINE
  8
0
  6
CONTINUOUS
 62
       7
  5
1C0
 10
-92.65514951
 20
-2.55755986
 30
0.0
 11
-92.89779869
 21
-2.55755986
 31
0.0
  0
LINE
  8
0
  6
CONTINUOUS
 62
       7
  5
1C1
 10
-90.65514952
 20
-7.55755986
 30
0.0
 11
-92.0551495
 21
-7.55755986
 31
0.0
  0
LINE
  8
0
  6
CONTINUOUS
 62
       7
  5
1C2
 10
-92.05514951
 20
-9.55755986
 30
0.0
 11
-92.65514951
 21
-9.55755986
 31
0.0
  0
LINE
  8
0
  6
CONTINUOUS
 62
       7
  5
1C3
 10
-92.65514951
 20
-7.55755986
 30
0.0
 11
-92.89716255
 21
-7.55755986
 31
0.0
  0
LINE
  8
0
  6
CONTINUOUS
 62
       7
  5
1C4
 10
-92.89779869
 20
-7.56098372
 30
0.0
 11
-92.89779869
 21
-2.55755991
 31
0.0
  0
LINE
  8
0
  6
CONTINUOUS
 62
       7
  5
1C5
 10
-118.41250033
 20
-7.56098372
 30
0.0
 11
-118.41250033
 21
-2.55755991
 31
0.0
  0
LINE
  8
0
  6
CONTINUOUS
 62
       7
  5
1C6
 10
-118.65514951
 20
-9.05755991
 30
0.0
 11
-118.65514951
 21
-1.05755991
 31
0.0
  0
LINE
  8
0
  6
CONTINUOUS
 62
       7
  5
1C7
 10
-118.41250033
 20
-2.55755986
 30
0.0
 11
-118.65514951
 21
-2.55755986
 31
0.0
  0
LINE
  8
0
  6
CONTINUOUS
 62
       7
  5
1C8
 10
-118.41313647
 20
-7.55755986
 30
0.0
 11
-118.65514951
 21
-7.55755986
 31
0.0
  0
LINE
  8
0
  6
CONTINUOUS
 62
       7
  5
1C9
 10
-118.65514951
 20
-9.05755986
 30
0.0
 11
-120.07155737
 21
-9.05755986
 31
0.0
  0
ARC
  8
0
  6
CONTINUOUS
 62
       7
  5
1CA
 10
-106.65514951
 20
-5.05755986
 30
0.0
 40
14.0
 50
163.3984504
 51
196.6015496
  0
LINE
  8
0
  6
CONTINUOUS
 62
       7
  5
1CB
 10
-118.65514951
 20
-1.05755986
 30
0.0
 11
-120.07155737
 21
-1.05755986
 31
0.0
  0
ARC
  8
0
  6
CONTINUOUS
 62
       7
  5
1CC
 10
-63.65514951
 20
-5.05755986
 30
0.0
 40
13.0
 50
11.087489
 51
57.7957725
  0
CIRCLE
  8
0
  6
CONTINUOUS
 62
       7
  5
1CD
 10
-84.65514951
 20
141.22185959
 30
0.0
 40
4.0
  0
LINE
  8
0
  6
CONTINUOUS
 62
       7
  5
1CE
 10
-78.15514951
 20
148.22185959
 30
0.0
 11
-78.15514951
 21
134.22185959
 31
0.0
  0
LINE
  8
0
  6
CONTINUOUS
 62
       7
  5
1CF
 10
-91.15514951
 20
148.22185959
 30
0.0
 11
-91.15514951
 21
134.22185959
 31
0.0
  0
LINE
  8
0
  6
CONTINUOUS
 62
       7
  5
1D0
 10
-90.15514951
 20
147.72185959
 30
0.0
 11
-79.15514951
 21
147.72185959
 31
0.0
  0
LINE
  8
0
  6
CONTINUOUS
 62
       7
  5
1D1
 10
-90.15514951
 20
134.72185959
 30
0.0
 11
-79.15514951
 21
134.72185959
 31
0.0
  0
ARC
  8
0
  6
CONTINUOUS
 62
       7
  5
1D2
 10
-79.15514951
 20
146.72185959
 30
0.0
 40
1.0
 50
0.0
 51
90.0
  0
ARC
  8
0
  6
CONTINUOUS
 62
       7
  5
1D3
 10
-90.15514951
 20
146.72185959
 30
0.0
 40
1.0
 50
90.0
 51
180.0
  0
ARC
  8
0
  6
CONTINUOUS
 62
       7
  5
1D4
 10
-90.15514951
 20
135.72185959
 30
0.0
 40
1.0
 50
180.0
 51
270.0
  0
ARC
  8
0
  6
CONTINUOUS
 62
       7
  5
1D5
 10
-79.15514951
 20
135.72185959
 30
0.0
 40
1.0
 50
270.0
 51
0.0
  0
ARC
  8
0
  6
CONTINUOUS
 62
       7
  5
1D6
 10
-90.15514951
 20
134.22185959
 30
0.0
 40
1.0
 50
180.0
 51
270.0
  0
ARC
  8
0
  6
CONTINUOUS
 62
       7
  5
1D7
 10
-79.15514951
 20
134.22185959
 30
0.0
 40
1.0
 50
-90.0
 51
0.0
  0
ARC
  8
0
  6
CONTINUOUS
 62
       7
  5
1D8
 10
-79.15514951
 20
148.22185959
 30
0.0
 40
1.0
 50
0.0
 51
90.0
  0
ARC
  8
0
  6
CONTINUOUS
 62
       7
  5
1D9
 10
-90.15514951
 20
148.22185959
 30
0.0
 40
1.0
 50
90.0
 51
180.0
  0
ARC
  8
0
  6
CONTINUOUS
 62
       7
  5
1DA
 10
-63.65514951
 20
140.22185959
 30
0.0
 40
14.0
 50
210.0
 51
230.91306346
  0
ARC
  8
0
  6
CONTINUOUS
 62
       7
  5
1DB
 10
-57.65514951
 20
127.57274894
 30
0.0
 40
2.0
 50
129.83452679
 51
196.02080708
  0
ARC
  8
0
  6
CONTINUOUS
 62
       7
  5
1DC
 10
-69.65514951
 20
127.57274894
 30
0.0
 40
2.0
 50
-16.02080708
 51
50.16547321
  0
ARC
  8
0
  6
CONTINUOUS
 62
       7
  5
1DD
 10
-105.65514951
 20
140.22185959
 30
0.0
 40
14.0
 50
309.08693654
 51
330.0
  0
LINE
  8
0
  6
CONTINUOUS
 62
       7
  5
1DE
 10
-50.65514951
 20
145.22185959
 30
0.0
 11
-49.23874164
 21
145.22185959
 31
0.0
  0
LINE
  8
0
  6
CONTINUOUS
 62
       7
  5
1DF
 10
-50.65514951
 20
137.22185954
 30
0.0
 11
-50.65514951
 21
145.22185954
 31
0.0
  0
ARC
  8
0
  6
CONTINUOUS
 62
       7
  5
1E0
 10
-62.65514951
 20
141.22185959
 30
0.0
 40
14.0
 50
343.3984504
 51
16.6015496
  0
LINE
  8
0
  6
CONTINUOUS
 62
       7
  5
1E1
 10
-50.65514951
 20
137.22185959
 30
0.0
 11
-49.23874164
 21
137.22185959
 31
0.0
  0
LINE
  8
0
  6
CONTINUOUS
 62
       7
  5
1E2
 10
-50.89716255
 20
138.72185959
 30
0.0
 11
-50.65514951
 21
138.72185959
 31
0.0
  0
LINE
  8
0
  6
CONTINUOUS
 62
       7
  5
1E3
 10
-50.89779869
 20
138.71843573
 30
0.0
 11
-50.89779869
 21
143.72185954
 31
0.0
  0
LINE
  8
0
  6
CONTINUOUS
 62
       7
  5
1E4
 10
-50.89779869
 20
143.72185959
 30
0.0
 11
-50.65514951
 21
143.72185959
 31
0.0
  0
ARC
  8
0
  6
CONTINUOUS
 62
       7
  5
1E5
 10
-63.65514951
 20
140.22185959
 30
0.0
 40
14.0
 50
20.92483243
 51
139.99479912
  0
ARC
  8
0
  6
CONTINUOUS
 62
       7
  5
1E6
 10
-63.65514951
 20
141.22185959
 30
0.0
 40
13.0
 50
11.08748921
 51
142.02012756
  0
LINE
  8
0
  6
CONTINUOUS
 62
       7
  5
1E7
 10
-118.65514951
 20
145.22185959
 30
0.0
 11
-120.07155737
 21
145.22185959
 31
0.0
  0
ARC
  8
0
  6
CONTINUOUS
 62
       7
  5
1E8
 10
-106.65514951
 20
141.22185959
 30
0.0
 40
14.0
 50
163.3984504
 51
196.6015496
  0
LINE
  8
0
  6
CONTINUOUS
 62
       7
  5
1E9
 10
-118.65514951
 20
137.22185954
 30
0.0
 11
-118.65514951
 21
145.22185954
 31
0.0
  0
LINE
  8
0
  6
CONTINUOUS
 62
       7
  5
1EA
 10
-118.41250033
 20
143.72185959
 30
0.0
 11
-118.65514951
 21
143.72185959
 31
0.0
  0
LINE
  8
0
  6
CONTINUOUS
 62
       7
  5
1EB
 10
-118.41313647
 20
138.72185959
 30
0.0
 11
-118.65514951
 21
138.72185959
 31
0.0
  0
LINE
  8
0
  6
CONTINUOUS
 62
       7
  5
1EC
 10
-118.65514951
 20
137.22185959
 30
0.0
 11
-120.07155737
 21
137.22185959
 31
0.0
  0
LINE
  8
0
  6
CONTINUOUS
 62
       7
  5
1ED
 10
-118.41250033
 20
138.71843573
 30
0.0
 11
-118.41250033
 21
143.72185954
 31
0.0
  0
ARC
  8
0
  6
CONTINUOUS
 62
       7
  5
1EE
 10
-105.65514951
 20
140.22185959
 30
0.0
 40
14.0
 50
40.00520088
 51
159.07516757
  0
ARC
  8
0
  6
CONTINUOUS
 62
       7
  5
1EF
 10
-105.65514951
 20
141.22185959
 30
0.0
 40
13.0
 50
37.97987244
 51
168.91251079
  0
CIRCLE
  8
0
  6
CONTINUOUS
 62
       2
  5
1F0
 10
-84.65514951
 20
141.22185959
 30
0.0
 40
3.0
  0
LINE
  8
0
  6
CENTER
 62
       2
  5
1F1
 10
-51.15514951
 20
163.34320736
 30
0.0
 11
-51.15514951
 21
154.83898388
 31
0.0
  0
LINE
  8
0
  6
CENTER
 62
       2
  5
1F2
 10
-118.15514951
 20
164.2936297
 30
0.0
 11
-118.15514951
 21
154.24630775
 31
0.0
  0
LINE
  8
0
  6
CENTER
 62
       2
  5
1F3
 10
-122.88362193
 20
158.72185959
 30
0.0
 11
-112.83629997
 21
158.72185959
 31
0.0
  0
LINE
  8
0
  6
CENTER
 62
       2
  5
1F4
 10
-123.29094579
 20
123.72185959
 30
0.0
 11
-113.6509477
 21
123.72185959
 31
0.0
  0
CIRCLE
  8
0
  6
CONTINUOUS
 62
       2
  5
1F5
 10
-51.15514951
 20
158.72185959
 30
0.0
 40
2.5
  0
CIRCLE
  8
0
  6
CONTINUOUS
 62
       2
  5
1F6
 10
-51.15514951
 20
123.72185959
 30
0.0
 40
2.5
  0
CIRCLE
  8
0
  6
CONTINUOUS
 62
       2
  5
1F7
 10
-118.15514951
 20
123.72185959
 30
0.0
 40
2.5
  0
CIRCLE
  8
0
  6
CONTINUOUS
 62
       2
  5
1F8
 10
-118.15514951
 20
158.72185959
 30
0.0
 40
2.5
  0
CIRCLE
  8
0
  6
CONTINUOUS
 62
       7
  5
1F9
 10
-118.15514951
 20
158.72185959
 30
0.0
 40
2.0
  0
CIRCLE
  8
0
  6
CONTINUOUS
 62
       7
  5
1FA
 10
-51.15514951
 20
158.72185959
 30
0.0
 40
2.0
  0
CIRCLE
  8
0
  6
CONTINUOUS
 62
       7
  5
1FB
 10
-51.15514951
 20
123.72185959
 30
0.0
 40
2.0
  0
CIRCLE
  8
0
  6
CONTINUOUS
 62
       7
  5
1FC
 10
-118.15514951
 20
123.72185959
 30
0.0
 40
2.0
  0
LINE
  8
0
  6
CENTER
 62
       2
  5
1FD
 10
-55.13208601
 20
158.72185959
 30
0.0
 11
-46.71405951
 21
158.72185959
 31
0.0
  0
LINE
  8
0
  6
CENTER
 62
       2
  5
1FE
 10
-55.94673374
 20
123.72185959
 30
0.0
 11
-45.89941178
 21
123.72185959
 31
0.0
  0
LINE
  8
0
  6
CENTER
 62
       2
  5
1FF
 10
-51.15514951
 20
128.72067898
 30
0.0
 11
-51.15514951
 21
118.67335702
 31
0.0
  0
LINE
  8
0
  6
CENTER
 62
       2
  5
200
 10
-118.15514951
 20
128.53532671
 30
0.0
 11
-118.15514951
 21
118.67335702
 31
0.0
  0
LINE
  8
0
  6
CENTER
 62
       2
  5
201
 10
-84.65514951
 20
171.48968462
 30
0.0
 11
-84.65514951
 21
105.32917999
 31
0.0
  0
LINE
  8
0
  6
CENTER
 62
       2
  5
202
 10
-105.65514951
 20
-12.22205143
 30
0.0
 11
-105.65514951
 21
23.47244612
 31
0.0
  0
ARC
  8
0
  6
CONTINUOUS
 62
       7
  5
203
 10
-51.65514951
 20
111.22185959
 30
0.0
 40
2.0
 50
-90.0
 51
0.0
  0
LINE
  8
0
  6
CONTINUOUS
 62
       7
  5
204
 10
-49.65514951
 20
111.22185959
 30
0.0
 11
-49.65514951
 21
115.72185959
 31
0.0
  0
LINE
  8
0
  6
CONTINUOUS
 62
       7
  5
205
 10
-119.65514951
 20
166.57997641
 30
0.0
 11
-119.65514951
 21
171.22185959
 31
0.0
  0
ARC
  8
0
  6
CONTINUOUS
 62
       7
  5
206
 10
-117.65514951
 20
171.22185959
 30
0.0
 40
2.0
 50
90.0
 51
180.0
  0
LINE
  8
0
  6
DASHED
 62
       7
  5
208
 10
-134.65514951
 20
-29.85755986
 30
0.0
 11
-124.65514951
 21
-29.85755986
 31
0.0
  0
LINE
  8
0
  6
DASHED
 62
       2
  5
209
 10
-134.65514963
 20
-28.85755986
 30
0.0
 11
-124.65514951
 21
-29.20676755
 31
0.0
  0
ARC
  8
0
  6
CONTINUOUS
 62
       7
  5
20A
 10
-84.65514951
 20
57.14244014
 30
0.0
 40
17.0
 50
292.47950561
 51
247.52049439
  0
LINE
  8
0
  6
CONTINUOUS
 62
       7
  5
20B
 10
-91.15514951
 20
41.43416206
 30
0.0
 11
-78.15514951
 21
41.43416206
 31
0.0
  0
ARC
  8
0
  6
CONTINUOUS
 62
       7
  5
20C
 10
-98.15514951
 20
14.94244014
 30
0.0
 40
3.50000358
 50
90.0
 51
270.0
  0
LINE
  8
0
  6
CONTINUOUS
 62
       7
  5
20D
 10
-98.15514951
 20
18.44244014
 30
0.0
 11
-71.15514951
 21
18.44244014
 31
0.0
  0
LINE
  8
0
  6
CONTINUOUS
 62
       7
  5
20E
 10
-98.15514951
 20
11.44244014
 30
0.0
 11
-71.15514951
 21
11.44244014
 31
0.0
  0
ARC
  8
0
  6
CONTINUOUS
 62
       7
  5
20F
 10
-71.15514951
 20
14.94244014
 30
0.0
 40
3.50000358
 50
270.0
 51
90.0
  0
CIRCLE
  8
0
  6
CONTINUOUS
 62
       7
  5
210
 10
-105.65514951
 20
-37.35755986
 30
0.0
 40
7.5
  0
CIRCLE
  8
0
  6
CONTINUOUS
 62
       2
  5
211
 10
-105.65514951
 20
-37.35755986
 30
0.0
 40
8.35
  0
LINE
  8
0
  6
DASHED
 62
       7
  5
212
 10
-134.65514951
 20
-44.85755986
 30
0.0
 11
-124.65514951
 21
-44.85755986
 31
0.0
  0
LINE
  8
0
  6
DASHED
 62
       2
  5
213
 10
-134.65514963
 20
-45.85755987
 30
0.0
 11
-124.65514951
 21
-45.50835217
 31
0.0
  0
LINE
  8
0
  6
DASHED
 62
       2
  5
214
 10
-34.65514939
 20
-28.85755986
 30
0.0
 11
-44.65514951
 21
-29.20676755
 31
0.0
  0
LINE
  8
0
  6
DASHED
 62
       7
  5
215
 10
-34.65514951
 20
-29.85755986
 30
0.0
 11
-44.65514951
 21
-29.85755986
 31
0.0
  0
LINE
  8
0
  6
DASHED
 62
       7
  5
216
 10
-34.65514951
 20
-44.85755986
 30
0.0
 11
-44.65514951
 21
-44.85755986
 31
0.0
  0
LINE
  8
0
  6
DASHED
 62
       2
  5
217
 10
-34.65514939
 20
-45.85755987
 30
0.0
 11
-44.65514951
 21
-45.50835217
 31
0.0
  0
LINE
  8
0
  6
DASHED
 62
       2
  5
218
 10
197.31732767
 20
-45.85755987
 30
0.0
 11
187.81732755
 21
-45.50835217
 31
0.0
  0
LINE
  8
0
  6
DASHED
 62
       7
  5
219
 10
197.31732755
 20
-44.85755986
 30
0.0
 11
187.81732755
 21
-44.85755986
 31
0.0
  0
LINE
  8
0
  6
DASHED
 62
       7
  5
21A
 10
197.31732755
 20
-29.85755986
 30
0.0
 11
187.81732755
 21
-29.85755986
 31
0.0
  0
LINE
  8
0
  6
DASHED
 62
       2
  5
21B
 10
197.31732767
 20
-28.85755986
 30
0.0
 11
187.81732755
 21
-29.20676755
 31
0.0
  0
LINE
  8
0
  6
DASHED
 62
       2
  5
21C
 10
133.31732744
 20
-45.85755987
 30
0.0
 11
143.31732755
 21
-45.50835217
 31
0.0
  0
LINE
  8
0
  6
DASHED
 62
       7
  5
21D
 10
133.31732755
 20
-44.85755986
 30
0.0
 11
143.31732755
 21
-44.85755986
 31
0.0
  0
LINE
  8
0
  6
DASHED
 62
       7
  5
21E
 10
133.31732755
 20
-29.85755986
 30
0.0
 11
143.31732755
 21
-29.85755986
 31
0.0
  0
LINE
  8
0
  6
DASHED
 62
       2
  5
21F
 10
133.31732744
 20
-28.85755986
 30
0.0
 11
143.31732755
 21
-29.20676755
 31
0.0
  0
CIRCLE
  8
0
  6
CONTINUOUS
 62
       2
  5
220
 10
165.31732755
 20
-37.35755986
 30
0.0
 40
8.35
  0
CIRCLE
  8
0
  6
CONTINUOUS
 62
       7
  5
221
 10
165.31732755
 20
-37.35755986
 30
0.0
 40
7.5
  0
LINE
  8
0
  6
PHANTOM
 62
       2
  5
223
 10
121.7480373
 20
12.51610647
 30
0.0
 11
128.31344095
 21
23.88771915
 31
0.0
  0
LINE
  8
0
  6
PHANTOM
 62
       2
  5
224
 10
202.32121416
 20
23.88771915
 30
0.0
 11
208.8866178
 21
12.51610647
 31
0.0
  0
ARC
  8
0
  6
PHANTOM
 62
       2
  5
225
 10
111.45054744
 20
26.04244014
 30
0.0
 40
17.0
 50
352.71827127
 51
307.28172873
  0
ARC
  8
0
  6
CONTINUOUS
 62
       7
  5
226
 10
165.31732755
 20
57.14244014
 30
0.0
 40
17.0
 50
292.71827127
 51
247.28172873
  0
ARC
  8
0
  6
PHANTOM
 62
       2
  5
227
 10
219.18410767
 20
26.04244014
 30
0.0
 40
17.0
 50
232.71827127
 51
187.28172873
  0
LINE
  8
0
  6
CONTINUOUS
 62
       7
  5
228
 10
158.75192391
 20
41.46138548
 30
0.0
 11
171.8827312
 21
41.46138548
 31
0.0
  0
LINE
  8
0
  6
CENTER
 62
       2
  5
229
 10
165.31732755
 20
-13.26610383
 30
0.0
 11
165.31732755
 21
81.35867606
 31
0.0
  0
ARC
  8
0
  6
PHANTOM
 62
       2
  5
22A
 10
165.31732755
 20
-5.05755986
 30
0.0
 40
12.0
 50
86.44269024
 51
113.55646431
  0
ARC
  8
0
  6
PHANTOM
 62
       2
  5
22B
 10
143.82820226
 20
-15.74481836
 30
0.0
 40
12.0
 50
43.38528185
 51
60.0
  0
LINE
  8
0
  6
PHANTOM
 62
       2
  5
22C
 10
139.66669247
 20
0.51423692
 30
0.0
 11
147.66669246
 21
14.37064337
 31
0.0
  0
LINE
  8
0
  6
PHANTOM
 62
       2
  5
22D
 10
139.66669246
 20
0.51423691
 30
0.0
 11
121.7480373
 21
12.51610647
 31
0.0
  0
LINE
  8
0
  6
PHANTOM
 62
       2
  5
22E
 10
147.66669246
 20
14.37064337
 30
0.0
 11
128.31344095
 21
23.88771915
 31
0.0
  0
ARC
  8
0
  6
PHANTOM
 62
       2
  5
22F
 10
141.03271786
 20
0.88026231
 30
0.0
 40
1.0
 50
150.0
 51
240.0
  0
ARC
  8
0
  6
PHANTOM
 62
       2
  5
230
 10
148.03271786
 20
13.00461796
 30
0.0
 40
1.0
 50
60.0
 51
150.0
  0
LINE
  8
0
  6
PHANTOM
 62
       2
  5
231
 10
162.26476867
 20
5.94244014
 30
0.0
 11
147.66669246
 21
14.37064337
 31
0.0
  0
LINE
  8
0
  6
PHANTOM
 62
       2
  5
232
 10
149.82820226
 20
-5.35251351
 30
0.0
 11
139.66669246
 21
0.51423691
 31
0.0
  0
LINE
  8
0
  6
CENTER
 62
       2
  5
233
 10
169.70855721
 20
-7.59283749
 30
0.0
 11
94.14671235
 21
36.03281398
 31
0.0
  0
ARC
  8
0
  6
PHANTOM
 62
       2
  5
234
 10
166.80645285
 20
18.89619779
 30
0.0
 40
12.0
 50
266.44269024
 51
300.0
  0
LINE
  8
0
  6
PHANTOM
 62
       2
  5
235
 10
182.96796266
 20
14.37064335
 30
0.0
 11
190.96796265
 21
0.51423691
 31
0.0
  0
LINE
  8
0
  6
PHANTOM
 62
       2
  5
236
 10
182.96796265
 20
14.37064337
 30
0.0
 11
202.32121416
 21
23.88771915
 31
0.0
  0
LINE
  8
0
  6
PHANTOM
 62
       2
  5
237
 10
190.96796265
 20
0.51423691
 30
0.0
 11
208.8866178
 21
12.51610647
 31
0.0
  0
ARC
  8
0
  6
PHANTOM
 62
       2
  5
238
 10
182.60193725
 20
13.00461796
 30
0.0
 40
1.0
 50
30.0
 51
120.0
  0
ARC
  8
0
  6
PHANTOM
 62
       2
  5
239
 10
189.60193725
 20
0.88026231
 30
0.0
 40
1.0
 50
300.0
 51
30.0
  0
LINE
  8
0
  6
PHANTOM
 62
       2
  5
23A
 10
178.19144723
 20
-6.86228771
 30
0.0
 11
190.96796265
 21
0.51423691
 31
0.0
  0
LINE
  8
0
  6
PHANTOM
 62
       2
  5
23B
 10
172.80645285
 20
8.50389295
 30
0.0
 11
182.96796265
 21
14.37064337
 31
0.0
  0
LINE
  8
0
  6
CENTER
 62
       2
  5
23C
 10
160.85554071
 20
-7.6335737
 30
0.0
 11
237.53172965
 21
36.63544463
 31
0.0
  0
ARC
  8
0
  6
CONTINUOUS
 62
       7
  5
23D
 10
165.31732755
 20
-5.05755986
 30
0.0
 40
13.0
 50
122.2042275
 51
191.08695006
  0
CIRCLE
  8
0
  6
CONTINUOUS
 62
       7
  5
23E
 10
165.31732755
 20
-5.05755986
 30
0.0
 40
4.0
  0
ARC
  8
0
  6
CONTINUOUS
 62
       7
  5
23F
 10
172.31732755
 20
18.94244014
 30
0.0
 40
1.0
 50
0.0
 51
90.0
  0
ARC
  8
0
  6
CONTINUOUS
 62
       7
  5
240
 10
158.31732755
 20
18.94244014
 30
0.0
 40
1.0
 50
90.0
 51
180.0
  0
LINE
  8
0
  6
CONTINUOUS
 62
       7
  5
241
 10
173.31732755
 20
19.94244014
 30
0.0
 11
171.8827312
 21
41.46138548
 31
0.0
  0
LINE
  8
0
  6
CONTINUOUS
 62
       7
  5
242
 10
157.31732755
 20
19.94244014
 30
0.0
 11
158.75192391
 21
41.46138548
 31
0.0
  0
LINE
  8
0
  6
CONTINUOUS
 62
       7
  5
243
 10
157.31732757
 20
19.94244014
 30
0.0
 11
173.31732755
 21
19.94244014
 31
0.0
  0
ARC
  8
0
  6
CONTINUOUS
 62
       7
  5
244
 10
145.31732755
 20
8.2089393
 30
0.0
 40
12.0
 50
343.38528185
 51
0.0
  0
LINE
  8
0
  6
CONTINUOUS
 62
       7
  5
245
 10
173.31732755
 20
5.1893909
 30
0.0
 11
173.31732755
 21
19.94244014
 31
0.0
  0
LINE
  8
0
  6
CONTINUOUS
 62
       7
  5
246
 10
157.31732755
 20
8.2089393
 30
0.0
 11
157.31732755
 21
19.94244014
 31
0.0
  0
LINE
  8
0
  6
CONTINUOUS
 62
       7
  5
247
 10
176.71898403
 20
-14.85755986
 30
0.0
 11
178.07531452
 21
-7.55755986
 31
0.0
  0
LINE
  8
0
  6
CONTINUOUS
 62
       7
  5
248
 10
153.91567107
 20
-14.85755986
 30
0.0
 11
152.55934059
 21
-7.55755986
 31
0.0
  0
LINE
  8
0
  6
CENTER
 62
       2
  5
249
 10
149.8853595
 20
-5.05755986
 30
0.0
 11
181.01283284
 21
-5.05755986
 31
0.0
  0
LINE
  8
0
  6
CONTINUOUS
 62
       7
  5
24A
 10
158.38912432
 20
5.94244014
 30
0.0
 11
172.24553078
 21
5.94244014
 31
0.0
  0
ARC
  8
0
  6
CONTINUOUS
 62
       7
  5
24B
 10
165.31732755
 20
-5.05755986
 30
0.0
 40
13.0
 50
348.91304994
 51
57.7957725
  0
ARC
  8
0
  6
CONTINUOUS
 62
       7
  5
24C
 10
138.31732755
 20
-51.85755986
 30
0.0
 40
2.0
 50
0.0
 51
90.0
  0
ARC
  8
0
  6
CONTINUOUS
 62
       7
  5
24D
 10
148.81732755
 20
-51.85755986
 30
0.0
 40
2.0
 50
90.0
 51
180.0
  0
LINE
  8
0
  6
CONTINUOUS
 62
       7
  5
24E
 10
146.81732755
 20
-59.85755986
 30
0.0
 11
146.81732755
 21
-51.85755986
 31
0.0
  0
LINE
  8
0
  6
CONTINUOUS
 62
       7
  5
24F
 10
140.31732755
 20
-59.85755986
 30
0.0
 11
140.31732755
 21
-51.85755986
 31
0.0
  0
ARC
  8
0
  6
CONTINUOUS
 62
       7
  5
250
 10
148.31732755
 20
-22.85755986
 30
0.0
 40
2.0
 50
0.0
 51
90.0
  0
ARC
  8
0
  6
CONTINUOUS
 62
       7
  5
251
 10
182.31732755
 20
-22.85755986
 30
0.0
 40
2.0
 50
90.0
 51
180.0
  0
ARC
  8
0
  6
CONTINUOUS
 62
       7
  5
252
 10
141.81732755
 20
-23.53596945
 30
0.0
 40
2.0
 50
180.0
 51
270.0
  0
ARC
  8
0
  6
CONTINUOUS
 62
       7
  5
253
 10
188.81732755
 20
-23.53596945
 30
0.0
 40
2.0
 50
270.0
 51
0.0
  0
ARC
  8
0
  6
CONTINUOUS
 62
       7
  5
254
 10
148.31732755
 20
-27.53596945
 30
0.0
 40
2.0
 50
0.0
 51
90.0
  0
ARC
  8
0
  6
CONTINUOUS
 62
       7
  5
255
 10
182.31732755
 20
-27.53596945
 30
0.0
 40
2.0
 50
90.0
 51
180.0
  0
ARC
  8
0
  6
CONTINUOUS
 62
       7
  5
256
 10
151.31732755
 20
-47.85755986
 30
0.0
 40
2.0
 50
270.0
 51
0.0
  0
LINE
  8
0
  6
CONTINUOUS
 62
       7
  5
257
 10
180.31732755
 20
-20.85755986
 30
0.0
 11
188.81732755
 21
-20.85755986
 31
0.0
  0
ARC
  8
0
  6
CONTINUOUS
 62
       7
  5
258
 10
187.81732755
 20
-53.35755986
 30
0.0
 40
2.0
 50
90.0
 51
180.0
  0
ARC
  8
0
  6
CONTINUOUS
 62
       7
  5
259
 10
135.31732755
 20
-51.85755986
 30
0.0
 40
2.0
 50
90.0
 51
180.0
  0
ARC
  8
0
  6
CONTINUOUS
 62
       7
  5
25A
 10
153.31732755
 20
-51.85755986
 30
0.0
 40
2.0
 50
0.0
 51
90.0
  0
ARC
  8
0
  6
CONTINUOUS
 62
       7
  5
25B
 10
150.31732755
 20
-23.85755986
 30
0.0
 40
3.0
 50
0.0
 51
90.0
  0
ARC
  8
0
  6
CONTINUOUS
 62
       7
  5
25C
 10
180.31732755
 20
-23.85755986
 30
0.0
 40
3.0
 50
90.0
 51
180.0
  0
ARC
  8
0
  6
CONTINUOUS
 62
       7
  5
25D
 10
141.81732755
 20
-18.85755986
 30
0.0
 40
2.0
 50
180.0
 51
270.0
  0
ARC
  8
0
  6
CONTINUOUS
 62
       7
  5
25E
 10
188.81732755
 20
-18.85755986
 30
0.0
 40
2.0
 50
270.0
 51
0.0
  0
ARC
  8
0
  6
CONTINUOUS
 62
       7
  5
25F
 10
135.31732755
 20
-25.35755986
 30
0.0
 40
2.0
 50
90.0
 51
180.0
  0
ARC
  8
0
  6
CONTINUOUS
 62
       7
  5
260
 10
195.31732755
 20
-25.35755986
 30
0.0
 40
2.0
 50
0.0
 51
90.0
  0
ARC
  8
0
  6
CONTINUOUS
 62
       7
  5
261
 10
195.31732755
 20
-49.35755986
 30
0.0
 40
2.0
 50
270.0
 51
0.0
  0
ARC
  8
0
  6
CONTINUOUS
 62
       7
  5
262
 10
192.31732755
 20
-53.35755986
 30
0.0
 40
2.0
 50
90.0
 51
180.0
  0
LINE
  8
0
  6
CONTINUOUS
 62
       7
  5
263
 10
185.81732755
 20
-59.85755986
 30
0.0
 11
185.81732755
 21
-53.35755986
 31
0.0
  0
LINE
  8
0
  6
CONTINUOUS
 62
       7
  5
264
 10
190.31732755
 20
-59.85755986
 30
0.0
 11
190.31732755
 21
-53.35755986
 31
0.0
  0
LINE
  8
0
  6
CONTINUOUS
 62
       7
  5
265
 10
155.31732755
 20
-59.85755986
 30
0.0
 11
155.31732755
 21
-51.85755986
 31
0.0
  0
LINE
  8
0
  6
CONTINUOUS
 62
       7
  5
266
 10
135.31732755
 20
-49.85755986
 30
0.0
 11
153.31732755
 21
-49.85755986
 31
0.0
  0
LINE
  8
0
  6
CONTINUOUS
 62
       7
  5
267
 10
182.31732755
 20
-25.53596945
 30
0.0
 11
188.81732755
 21
-25.53596945
 31
0.0
  0
LINE
  8
0
  6
CONTINUOUS
 62
       7
  5
268
 10
141.81732755
 20
-25.53596945
 30
0.0
 11
148.31732755
 21
-25.53596945
 31
0.0
  0
LINE
  8
0
  6
CONTINUOUS
 62
       7
  5
269
 10
180.31732755
 20
-37.35755986
 30
0.0
 11
180.31732755
 21
-22.85755986
 31
0.0
  0
LINE
  8
0
  6
CONTINUOUS
 62
       7
  5
26A
 10
150.31732755
 20
-37.35755986
 30
0.0
 11
150.31732755
 21
-22.85755986
 31
0.0
  0
LINE
  8
0
  6
CONTINUOUS
 62
       7
  5
26B
 10
190.81732755
 20
-23.35755986
 30
0.0
 11
195.31732755
 21
-23.35755986
 31
0.0
  0
LINE
  8
0
  6
CONTINUOUS
 62
       7
  5
26C
 10
187.81732755
 20
-51.35755986
 30
0.0
 11
195.31732755
 21
-51.35755986
 31
0.0
  0
LINE
  8
0
  6
CONTINUOUS
 62
       7
  5
26D
 10
135.31732755
 20
-23.35755986
 30
0.0
 11
139.81732755
 21
-23.35755986
 31
0.0
  0
LINE
  8
0
  6
CONTINUOUS
 62
       7
  5
26E
 10
153.31732755
 20
-30.14645731
 30
0.0
 11
153.31732755
 21
-23.85755986
 31
0.0
  0
LINE
  8
0
  6
CONTINUOUS
 62
       7
  5
26F
 10
177.31732755
 20
-30.14645731
 30
0.0
 11
177.31732755
 21
-23.85755986
 31
0.0
  0
CIRCLE
  8
0
  6
CONTINUOUS
 62
       7
  5
270
 10
165.31732755
 20
-37.35755986
 30
0.0
 40
14.0
  0
LINE
  8
0
  6
CONTINUOUS
 62
       7
  5
271
 10
177.31732755
 20
-59.85755986
 30
0.0
 11
177.31732755
 21
-44.56866241
 31
0.0
  0
LINE
  8
0
  6
CONTINUOUS
 62
       7
  5
272
 10
153.31732755
 20
-47.85755986
 30
0.0
 11
153.31732755
 21
-44.56866241
 31
0.0
  0
LINE
  8
0
  6
CONTINUOUS
 62
       7
  5
273
 10
141.81732755
 20
-20.85755986
 30
0.0
 11
150.31732755
 21
-20.85755986
 31
0.0
  0
LINE
  8
0
  6
CONTINUOUS
 62
       7
  5
274
 10
190.81732755
 20
-23.53596945
 30
0.0
 11
190.81732755
 21
-14.85755986
 31
0.0
  0
LINE
  8
0
  6
CONTINUOUS
 62
       7
  5
275
 10
139.81732755
 20
-23.53596945
 30
0.0
 11
139.81732755
 21
-14.85755986
 31
0.0
  0
LINE
  8
0
  6
CENTER
 62
       2
  5
276
 10
121.42274276
 20
-37.35755986
 30
0.0
 11
207.59327192
 21
-37.35755986
 31
0.0
  0
LINE
  8
0
  6
CONTINUOUS
 62
       7
  5
277
 10
139.81732755
 20
-14.85755986
 30
0.0
 11
190.81732755
 21
-14.85755986
 31
0.0
  0
LINE
  8
0
  6
CONTINUOUS
 62
       7
  5
278
 10
133.31732757
 20
-59.85755986
 30
0.0
 11
197.31732757
 21
-59.85755986
 31
0.0
  0
LINE
  8
0
  6
CONTINUOUS
 62
       7
  5
279
 10
197.31732755
 20
-59.85755986
 30
0.0
 11
197.31732755
 21
-25.35755986
 31
0.0
  0
LINE
  8
0
  6
CONTINUOUS
 62
       7
  5
27A
 10
133.31732755
 20
-59.85755986
 30
0.0
 11
133.31732755
 21
-25.35755986
 31
0.0
  0
LINE
  8
0
  6
CENTER
 62
       2
  5
27B
 10
165.31732755
 20
-66.18344433
 30
0.0
 11
165.31732755
 21
-24.95949072
 31
0.0
  0
LINE
  8
0
  6
CONTINUOUS
 62
       7
  5
27C
 10
282.09985352
 20
195.5
 30
0.0
 11
282.09985352
 21
-195.0
 31
0.0
  0
LINE
  8
0
  6
CONTINUOUS
 62
       7
  5
27D
 10
-281.25
 20
195.5
 30
0.0
 11
282.09985352
 21
195.5
 31
0.0
  0
LINE
  8
0
  6
CONTINUOUS
 62
       7
  5
27E
 10
-281.25
 20
195.5
 30
0.0
 11
-281.25
 21
-195.0
 31
0.0
  0
LINE
  8
0
  6
CONTINUOUS
 62
       7
  5
27F
 10
-281.25
 20
-195.0
 30
0.0
 11
282.09985352
 21
-195.0
 31
0.0
  0
TEXT
  8
0
  6
CONTINUOUS
 62
       7
  5
280
 10
-268.27808225
 20
157.3499999
 30
0.0
 40
6.30000019
  1
MODEL:2503-4H
 41
1.06849315
  7
MX_NOTE_STANDARD
 11
-268.27808225
 21
160.5
 31
0.0
 73
       2
  0
ENDSEC
  0
EOF
