  0
SECTION
  2
HEADER
  0
ENDSEC
  0
SECTION
  2
TABLES
  0
TABLE
  2
LTYPE
 70
     4
  0
LTYPE
  2
CONTINUOUS
 70
    64
  3
Solid line
 72
    65
 73
     0
 40
0.000000
  0
LTYPE
  2
DASHED
 70
    64
  3
__ __ __ __ __ __ __ __ __ __ __ __ __ __ __
 72
    65
 73
     2
 40
3.500000
 49
2.000000
 49
-1.500000
  0
LTYPE
  2
CENTER
 70
    64
  3
____ _ ____ _ ____ _ ____ _ ____ _ ____ _ ____
 72
    65
 73
     4
 40
17.500000
 49
13.000000
 49
-1.500000
 49
1.500000
 49
-1.500000
  0
LTYPE
  2
PHANTOM
 70
    64
  3
_____ _ _ _____ _ _ _____ _ _ _____ _ _ ____  
 72
    65
 73
     6
 40
15.500000
 49
8.000000
 49
-1.500000
 49
1.500000
 49
-1.500000
 49
1.500000
 49
-1.500000
  0
LTYPE
  2
DASHED1
 70
    64
  3
__ __ __ __ __ __ __ __ __ __ __ __ __ __ __
 72
    65
 73
     2
 40
1.500000
 49
1.000000
 49
-0.500000
  0
LTYPE
  2
DASHED2
 70
    64
  3
__ __ __ __ __ __ __ __ __ __ __ __ __ __ __
 72
    65
 73
     2
 40
3.500000
 49
2.500000
 49
-1.000000
  0
LTYPE
  2
DASHED3
 70
    64
  3
__ __ __ __ __ __ __ __ __ __ __ __ __ __ __
 72
    65
 73
     2
 40
6.000000
 49
4.000000
 49
-2.000000
  0
LTYPE
  2
DASHED4
 70
    64
  3
__ __ __ __ __ __ __ __ __ __ __ __ __ __ __
 72
    65
 73
     2
 40
12.000000
 49
10.000000
 49
-2.000000
  0
LTYPE
  2
DASHED5
 70
    64
  3
__ __ __ __ __ __ __ __ __ __ __ __ __ __ __
 72
    65
 73
     2
 40
17.000000
 49
15.000000
 49
-2.000000
  0
LTYPE
  2
DASHED6
 70
    64
  3
__ __ __ __ __ __ __ __ __ __ __ __ __ __ __
 72
    65
 73
     2
 40
29.000000
 49
27.000000
 49
-2.000000
  0
LTYPE
  2
PHANTOM1
 70
    64
  3
_____ _ _ _____ _ _ _____ _ _ _____ _ _ ____  
 72
    65
 73
     6
 40
31.000000
 49
25.000000
 49
-1.500000
 49
1.000000
 49
-1.000000
 49
1.000000
 49
-1.500000
  0
LTYPE
  2
PHANTOM2
 70
    64
  3
_____ _ _ _____ _ _ _____ _ _ _____ _ _ ____  
 72
    65
 73
     6
 40
36.000000
 49
27.000000
 49
-1.500000
 49
2.500000
 49
-1.000000
 49
2.500000
 49
-1.500000
  0
LTYPE
  2
PHANTOM3
 70
    64
  3
_____ _ _ _____ _ _ _____ _ _ _____ _ _ ____  
 72
    65
 73
     6
 40
78.000000
 49
64.000000
 49
-2.000000
 49
4.000000
 49
-2.000000
 49
4.000000
 49
-2.000000
  0
LTYPE
  2
CENTER1
 70
    64
  3
____ _ ____ _ ____ _ ____ _ ____ _ ____ _ ____
 72
    65
 73
     4
 40
19.000000
 49
14.000000
 49
-1.000000
 49
3.000000
 49
-1.000000
  0
LTYPE
  2
CENTER2
 70
    64
  3
____ _ ____ _ ____ _ ____ _ ____ _ ____ _ ____
 72
    65
 73
     4
 40
28.500000
 49
25.000000
 49
-1.000000
 49
1.500000
 49
-1.000000
  0
LTYPE
  2
CENTER3
 70
    64
  3
____ _ ____ _ ____ _ ____ _ ____ _ ____ _ ____
 72
    65
 73
     4
 40
31.500000
 49
27.000000
 49
-1.000000
 49
2.500000
 49
-1.000000
  0
LTYPE
  2
CENTER4
 70
    64
  3
____ _ ____ _ ____ _ ____ _ ____ _ ____ _ ____
 72
    65
 73
     4
 40
50.000000
 49
45.000000
 49
-1.000000
 49
3.000000
 49
-1.000000
  0
LTYPE
  2
CENTER5
 70
    64
  3
____ _ ____ _ ____ _ ____ _ ____ _ ____ _ ____
 72
    65
 73
     4
 40
100.000000
 49
92.000000
 49
-2.000000
 49
4.000000
 49
-2.000000
  0
LTYPE
  2
SBK1
 70
    64
  3
______ _ _ _ ______ _ _ _ ______ _ _ _ _____  
 72
    65
 73
     8
 40
60.500000
 49
45.000000
 49
-2.000000
 49
2.500000
 49
-2.000000
 49
2.500000
 49
-2.000000
 49
2.500000
 49
-2.000000
  0
LTYPE
  2
SBK2
 70
    64
  3
______ _ _ _ ______ _ _ _ ______ _ _ _ _____  
 72
    65
 73
     8
 40
84.000000
 49
64.000000
 49
-2.000000
 49
4.000000
 49
-2.000000
 49
4.000000
 49
-2.000000
 49
4.000000
 49
-2.000000
  0
LTYPE
  2
STCH
 70
    64
  3
__ __ __ __ __ __ __ __ __ __ __ __ __ __ __
 72
    65
 73
     2
 40
3.000000
 49
1.000000
 49
-2.000000
  0
LTYPE
  2
MTCH
 70
    64
  3
_____ _ _ _____ _ _ _____ _ _ _____ _ _ ____  
 72
    65
 73
     6
 40
80.000000
 49
66.000000
 49
-2.000000
 49
4.000000
 49
-2.000000
 49
4.000000
 49
-2.000000
  0
ENDTAB
  0
TABLE
  2
LAYER
 70
     1
  0
LAYER
  2
0
 70
     0
 62
     7
  6
CONTINUOUS
  0
ENDTAB
  0
TABLE
  2
STYLE
 70
     1
  0
STYLE
  2
STANDARD
 70
     0
 40
0.000000
 41
1.000000
 50
0.000000
 71
     0
 42
0.200000
  3
txt
  4
BIGFONT
  0
ENDTAB
  0
TABLE
  2
VIEW
 70
     0
  0
ENDTAB
  0
ENDSEC
  0
SECTION
  2
BLOCKS
  0
ENDSEC
  0
SECTION
  2
ENTITIES
  0
LINE
  8
0
 10
-194.250000
 20
132.600006
 11
194.800003
 21
132.600006
  0
LINE
  8
0
 10
194.800003
 20
132.600006
 11
194.800003
 21
-133.500000
  0
LINE
  8
0
 10
-194.250000
 20
132.600006
 11
-194.250000
 21
-133.500000
  0
LINE
  8
0
 10
-194.250000
 20
-133.500000
 11
194.800003
 21
-133.500000
  0
LINE
  8
0
 10
109.800003
 20
-118.500000
 11
109.800003
 21
-133.500000
  0
LINE
  8
0
 10
109.800003
 20
-118.500000
 11
194.800003
 21
-118.500000
  0
LINE
  8
0
 10
109.800003
 20
132.600006
 11
109.800003
 21
117.600006
  0
LINE
  8
0
 10
109.800003
 20
117.600006
 11
194.800003
 21
117.600006
  0
LINE
  8
0
 10
-194.250000
 20
117.600006
 11
-109.250000
 21
117.600006
  0
LINE
  8
0
 10
-109.250000
 20
132.600006
 11
-109.250000
 21
117.600006
  0
LINE
  8
0
 10
0.275002
 20
-133.500000
 11
0.275002
 21
132.600006
  0
LINE
  8
0
 62
     4
 10
-165.146194
 20
38.500000
 11
-165.146194
 21
17.500000
  0
LINE
  8
0
 10
-130.146194
 20
-62.000000
 11
-165.146194
 21
-62.000000
  0
LINE
  8
0
 10
-160.646194
 20
-58.500000
 11
-160.646194
 21
-62.000000
  0
LINE
  8
0
 10
-154.646194
 20
-58.500000
 11
-154.646194
 21
-62.000000
  0
LINE
  8
0
 10
-154.646194
 20
-58.500000
 11
-160.646194
 21
-58.500000
  0
LINE
  8
0
 62
     4
 10
-130.146194
 20
37.500000
 11
-165.146194
 21
37.500000
  0
LINE
  8
0
 62
     4
 10
-130.146194
 20
37.500000
 11
-130.146194
 21
17.500000
  0
LINE
  8
0
 62
     4
 10
-130.146194
 20
38.500000
 11
-165.146194
 21
38.500000
  0
LINE
  8
0
 62
     4
 10
-130.146194
 20
38.500000
 11
-130.146194
 21
37.500000
  0
LINE
  8
0
 62
     4
 10
-130.146210
 20
38.500008
 11
-131.146210
 21
40.500011
  0
LINE
  8
0
 62
     4
 10
-141.646194
 20
40.500000
 11
-141.646194
 21
38.500000
  0
LINE
  8
0
 62
     4
 10
-164.146057
 20
40.499989
 11
-165.146088
 21
38.499947
  0
LINE
  8
0
 62
     4
 10
-140.396194
 20
39.200012
 11
-134.896194
 21
39.200012
  0
LINE
  8
0
 62
     4
 10
-134.896194
 20
39.200012
 11
-134.896194
 21
38.500000
  0
LINE
  8
0
 62
     4
 10
-140.396194
 20
39.200012
 11
-140.396194
 21
38.500000
  0
LINE
  8
0
 62
     4
 10
-138.396194
 20
41.200012
 11
-136.896194
 21
41.200012
  0
LINE
  8
0
 62
     4
 10
-158.396194
 20
41.200012
 11
-156.896194
 21
41.200012
  0
LINE
  8
0
 62
     4
 10
-131.146225
 20
40.500000
 11
-135.376312
 21
40.500000
  0
LINE
  8
0
 10
-130.146194
 20
17.500000
 11
-130.146194
 21
-62.000000
  0
LINE
  8
0
 62
     4
 10
-59.429886
 20
-65.271790
 11
-59.429886
 21
-63.599998
  0
LINE
  8
0
 62
     4
 10
-53.929886
 20
-65.271698
 11
-53.929886
 21
-63.599998
  0
LINE
  8
0
 62
     4
 10
-53.929886
 20
-64.303528
 11
-59.429886
 21
-64.303528
  0
LINE
  8
0
 62
     4
 10
-55.679886
 20
-66.303558
 11
-57.679886
 21
-66.303558
  0
LINE
  8
0
 62
     4
 10
-75.166672
 20
38.500000
 11
-75.166672
 21
17.500000
  0
LINE
  8
0
 62
     4
 10
-52.166672
 20
38.500000
 11
-52.166672
 21
17.500000
  0
LINE
  8
0
 10
-75.166672
 20
-53.000000
 11
-52.166672
 21
-53.000000
  0
LINE
  8
0
 10
-75.166672
 20
0.000000
 11
-52.166672
 21
0.000000
  0
LINE
  8
0
 10
-75.166672
 20
17.500000
 11
-52.166672
 21
17.500000
  0
LINE
  8
0
 62
     4
 10
-75.166672
 20
37.500000
 11
-52.166672
 21
37.500000
  0
LINE
  8
0
 62
     4
 10
-75.166672
 20
38.500000
 11
-52.166672
 21
38.500000
  0
LINE
  8
0
 62
     4
 10
-53.166710
 20
40.500015
 11
-52.166702
 21
38.500000
  0
LINE
  8
0
 10
-75.166672
 20
-62.000000
 11
-52.166672
 21
-62.000000
  0
LINE
  8
0
 62
     4
 10
-72.416672
 20
41.200012
 11
-70.916672
 21
41.200012
  0
LINE
  8
0
 62
     4
 10
-56.416672
 20
41.200012
 11
-54.916672
 21
41.200012
  0
LINE
  8
0
 62
     4
 10
-74.166641
 20
40.500000
 11
-53.166702
 21
40.500000
  0
LINE
  8
0
  6
CENTER
 62
     2
 10
-63.666672
 20
42.786743
 11
-63.666672
 21
-65.208771
  0
LINE
  8
0
 62
     4
 10
-75.166672
 20
36.500000
 11
-52.166672
 21
36.500000
  0
LINE
  8
0
 10
-130.146194
 20
17.500000
 11
-165.146194
 21
17.500000
  0
LINE
  8
0
 62
     4
 10
-139.916077
 20
40.500000
 11
-164.146103
 21
40.500000
  0
LINE
  8
0
  6
CENTER
 62
     2
 10
-138.146194
 20
-12.289253
 11
-138.146194
 21
-41.781128
  0
LINE
  8
0
 10
-165.146194
 20
0.000000
 11
-130.146194
 21
0.000000
  0
LINE
  8
0
  6
CENTER
 62
     2
 10
-142.146194
 20
-16.699997
 11
-134.146194
 21
-16.699997
  0
LINE
  8
0
  6
CENTER
 62
     2
 10
-142.146194
 20
-36.299999
 11
-134.146194
 21
-36.299999
  0
LINE
  8
0
 10
-165.146194
 20
-53.000000
 11
-130.146194
 21
-53.000000
  0
LINE
  8
0
 62
     4
 10
-74.166496
 20
40.499943
 11
-75.166504
 21
38.499931
  0
LINE
  8
0
 62
     4
 10
-177.146194
 20
29.649994
 11
-173.150421
 21
29.649994
  0
LINE
  8
0
 62
     4
 10
-177.146194
 20
31.350006
 11
-172.694901
 21
31.350006
  0
LINE
  8
0
 62
     4
 10
-187.146210
 20
30.179993
 11
-177.146194
 21
30.179993
  0
LINE
  8
0
 62
     4
 10
-187.146210
 20
30.819992
 11
-177.146194
 21
30.819992
  0
LINE
  8
0
 62
     4
 10
-177.146210
 20
31.349976
 11
-177.146210
 21
29.649979
  0
LINE
  8
0
 62
     4
 10
-187.146210
 20
30.819977
 11
-187.146210
 21
30.179993
  0
LINE
  8
0
 62
     1
 10
-173.686264
 20
27.649946
 11
-172.158951
 21
33.349957
  0
LINE
  8
0
 62
     1
 10
-172.133270
 20
27.649956
 11
-170.605957
 21
33.349945
  0
LINE
  8
0
 62
     4
 10
-171.597504
 20
29.649994
 11
-167.146179
 21
29.649994
  0
LINE
  8
0
 62
     4
 10
-171.141983
 20
31.350006
 11
-167.146179
 21
31.350006
  0
LINE
  8
0
 62
     4
 10
-167.146194
 20
28.800003
 11
-165.146194
 21
28.800003
  0
LINE
  8
0
 62
     4
 10
-167.146210
 20
32.199982
 11
-167.146210
 21
28.799988
  0
LINE
  8
0
 62
     4
 10
-167.146194
 20
32.199997
 11
-165.146194
 21
32.199997
  0
LINE
  8
0
  6
CENTER
 62
     2
 10
-71.166672
 20
-26.500000
 11
-56.166672
 21
-26.500000
  0
LINE
  8
0
  6
CENTER
 62
     2
 10
-57.666672
 20
-46.500000
 11
-51.666672
 21
-46.500000
  0
LINE
  8
0
  6
CENTER
 62
     2
 10
-75.666672
 20
-6.500000
 11
-69.666672
 21
-6.500000
  0
LINE
  8
0
  6
CENTER
 62
     2
 10
-54.666672
 20
-43.500000
 11
-54.666672
 21
-49.500000
  0
LINE
  8
0
  6
CENTER
 62
     2
 10
-72.666672
 20
-3.500000
 11
-72.666672
 21
-9.500000
  0
LINE
  8
0
 62
     4
 10
-133.646194
 20
40.500000
 11
-133.646194
 21
38.500000
  0
LINE
  8
0
 10
-165.146194
 20
17.500000
 11
-165.146194
 21
-62.000000
  0
LINE
  8
0
 10
-75.166672
 20
17.500000
 11
-75.166672
 21
-62.000000
  0
LINE
  8
0
 10
-52.166672
 20
17.500000
 11
-52.166672
 21
-62.000000
  0
LINE
  8
0
  6
CENTER
 62
     2
 10
-65.166672
 20
-53.836441
 11
-65.166672
 21
-61.495338
  0
LINE
  8
0
  6
CENTER
 62
     2
 10
-69.213303
 20
-57.500000
 11
-61.294792
 21
-57.500000
  0
LINE
  8
0
 62
     4
 10
-86.666672
 20
-67.599998
 11
-74.566666
 21
-67.599998
  0
LINE
  8
0
 62
     4
 10
-51.166672
 20
-62.000000
 11
-51.166672
 21
-66.000000
  0
LINE
  8
0
 62
     4
 10
-76.166672
 20
-62.000000
 11
-76.166672
 21
-66.000000
  0
LINE
  8
0
 62
     4
 10
-45.666672
 20
-66.000000
 11
-45.666672
 21
-67.599998
  0
LINE
  8
0
 62
     4
 10
-81.666672
 20
-66.000000
 11
-81.666672
 21
-67.599998
  0
LINE
  8
0
 62
     4
 10
-86.666672
 20
-66.000000
 11
-76.166672
 21
-66.000000
  0
LINE
  8
0
 62
     4
 10
-76.166672
 20
-62.000000
 11
-51.166672
 21
-62.000000
  0
LINE
  8
0
 62
     4
 10
-52.766678
 20
-63.599998
 11
-52.766678
 21
-67.599998
  0
LINE
  8
0
 62
     4
 10
-74.566666
 20
-63.599998
 11
-74.566666
 21
-67.599998
  0
LINE
  8
0
 62
     4
 10
-74.566666
 20
-63.599998
 11
-52.766678
 21
-63.599998
  0
LINE
  8
0
 62
     4
 10
-52.766678
 20
-67.599998
 11
-40.666672
 21
-67.599998
  0
LINE
  8
0
 62
     4
 10
-51.166672
 20
-66.000000
 11
-40.666672
 21
-66.000000
  0
LINE
  8
0
  6
CENTER
 62
     1
 10
-81.666672
 20
-62.799995
 11
-81.666672
 21
-70.799995
  0
LINE
  8
0
  6
CENTER
 62
     1
 10
-45.666672
 20
-62.799995
 11
-45.666672
 21
-70.799995
  0
LINE
  8
0
 62
     4
 10
-130.146179
 20
-62.000000
 11
-130.146179
 21
-67.600006
  0
LINE
  8
0
 62
     4
 10
-165.146179
 20
-62.000000
 11
-165.146179
 21
-67.600006
  0
LINE
  8
0
 62
     4
 10
-130.146194
 20
-67.600006
 11
-165.146194
 21
-67.600006
  0
LINE
  8
0
 62
     4
 10
-130.146194
 20
-66.000000
 11
-165.146194
 21
-66.000000
  0
LINE
  8
0
 62
     4
 10
-130.146194
 20
-62.000000
 11
-165.146194
 21
-62.000000
  0
LINE
  8
0
 62
     4
 10
-135.146179
 20
-66.000000
 11
-135.146179
 21
-67.600006
  0
LINE
  8
0
 62
     4
 10
-160.146179
 20
-66.000000
 11
-160.146179
 21
-67.600006
  0
LINE
  8
0
 10
-156.659409
 20
-61.203560
 11
-158.659409
 21
-61.203560
  0
LINE
  8
0
 10
-160.409409
 20
-60.171791
 11
-160.409409
 21
-58.500000
  0
LINE
  8
0
 10
-154.909409
 20
-60.171703
 11
-154.909409
 21
-58.500000
  0
LINE
  8
0
 10
-154.909409
 20
-59.203526
 11
-160.409409
 21
-59.203526
  0
LINE
  8
0
 62
     4
 10
-69.679886
 20
-66.303558
 11
-71.679886
 21
-66.303558
  0
LINE
  8
0
 62
     4
 10
-73.429886
 20
-65.271790
 11
-73.429886
 21
-63.599998
  0
LINE
  8
0
 62
     4
 10
-67.929886
 20
-65.271698
 11
-67.929886
 21
-63.599998
  0
LINE
  8
0
 62
     4
 10
-67.929886
 20
-64.303528
 11
-73.429886
 21
-64.303528
  0
LINE
  8
0
 62
     4
 10
-86.666672
 20
-66.000000
 11
-86.666672
 21
-67.599998
  0
LINE
  8
0
 62
     4
 10
-40.666672
 20
-66.000000
 11
-40.666672
 21
-67.599998
  0
LINE
  8
0
 10
-162.146194
 20
-3.500000
 11
-162.146194
 21
-9.500000
  0
LINE
  8
0
 10
-165.146194
 20
-3.500000
 11
-162.146194
 21
-3.500000
  0
LINE
  8
0
 10
-165.146194
 20
-9.500000
 11
-162.146194
 21
-9.500000
  0
LINE
  8
0
 10
-163.814468
 20
-9.249992
 11
-162.146194
 21
-9.249992
  0
LINE
  8
0
 10
-163.814468
 20
-3.750008
 11
-162.146194
 21
-3.750008
  0
LINE
  8
0
 10
-162.846207
 20
-3.750008
 11
-162.846207
 21
-9.249992
  0
LINE
  8
0
 10
-164.846207
 20
-5.499992
 11
-164.846207
 21
-7.500008
  0
LINE
  8
0
  6
CENTER
 62
     1
 10
-147.646179
 20
-58.997589
 11
-147.646179
 21
-69.883331
  0
LINE
  8
0
 10
128.500000
 20
-62.000000
 11
93.500000
 21
-62.000000
  0
LINE
  8
0
 10
98.000000
 20
-58.500000
 11
98.000000
 21
-62.000000
  0
LINE
  8
0
 10
104.000000
 20
-58.500000
 11
104.000000
 21
-62.000000
  0
LINE
  8
0
 10
104.000000
 20
-58.500000
 11
98.000000
 21
-58.500000
  0
LINE
  8
0
 10
128.500000
 20
17.500000
 11
128.500000
 21
-62.000000
  0
LINE
  8
0
 10
98.236786
 20
-60.171783
 11
98.236786
 21
-58.500000
  0
LINE
  8
0
 10
103.736786
 20
-60.171707
 11
103.736786
 21
-58.500000
  0
LINE
  8
0
 10
103.736786
 20
-59.203522
 11
98.236786
 21
-59.203522
  0
LINE
  8
0
 10
101.986786
 20
-61.203552
 11
99.986786
 21
-61.203552
  0
LINE
  8
0
 10
128.500000
 20
17.500000
 11
93.500000
 21
17.500000
  0
LINE
  8
0
 10
93.500000
 20
0.000000
 11
128.500000
 21
0.000000
  0
LINE
  8
0
 10
93.500000
 20
-53.000000
 11
128.500000
 21
-53.000000
  0
LINE
  8
0
 10
16.500015
 20
-53.000000
 11
39.500015
 21
-53.000000
  0
LINE
  8
0
 10
16.500015
 20
0.000000
 11
39.500015
 21
0.000000
  0
LINE
  8
0
 10
16.500015
 20
17.500000
 11
39.500015
 21
17.500000
  0
LINE
  8
0
 10
16.500015
 20
-62.000000
 11
39.500015
 21
-62.000000
  0
LINE
  8
0
  6
CENTER
 62
     2
 10
24.500015
 20
14.000000
 11
31.500015
 21
14.000000
  0
LINE
  8
0
 10
16.500015
 20
17.499985
 11
16.500015
 21
-62.000000
  0
LINE
  8
0
 10
39.500015
 20
17.499985
 11
39.500015
 21
-62.000000
  0
LINE
  8
0
 10
93.500000
 20
17.500000
 11
93.500000
 21
-62.000000
  0
LINE
  8
0
 62
     4
 10
29.300003
 20
32.200012
 11
26.700027
 21
32.200012
  0
LINE
  8
0
 62
     4
 10
29.300003
 20
28.799988
 11
26.700027
 21
28.799988
  0
LINE
  8
0
 62
     4
 10
16.500015
 20
38.499985
 11
16.500015
 21
17.499985
  0
LINE
  8
0
 62
     4
 10
39.500015
 20
38.499985
 11
39.500015
 21
17.499985
  0
LINE
  8
0
 62
     4
 10
16.500015
 20
37.500000
 11
39.500015
 21
37.500000
  0
LINE
  8
0
 62
     4
 10
16.500015
 20
38.500000
 11
39.500015
 21
38.500000
  0
LINE
  8
0
 62
     4
 10
38.500053
 20
40.499985
 11
39.500057
 21
38.499973
  0
LINE
  8
0
 62
     4
 10
19.250015
 20
41.200012
 11
20.750015
 21
41.200012
  0
LINE
  8
0
 62
     4
 10
35.250015
 20
41.200012
 11
36.750015
 21
41.200012
  0
LINE
  8
0
 62
     4
 10
17.500015
 20
40.500000
 11
38.499954
 21
40.500000
  0
LINE
  8
0
 62
     4
 10
17.499933
 20
40.500019
 11
16.499928
 21
38.500004
  0
LINE
  8
0
 62
     4
 10
93.500000
 20
38.500000
 11
93.500000
 21
17.500000
  0
LINE
  8
0
 62
     4
 10
128.500000
 20
37.500000
 11
93.500000
 21
37.500000
  0
LINE
  8
0
 62
     4
 10
128.500000
 20
37.500000
 11
128.500000
 21
17.500000
  0
LINE
  8
0
 62
     4
 10
128.500000
 20
38.500000
 11
93.500000
 21
38.500000
  0
LINE
  8
0
 62
     4
 10
128.500000
 20
38.500000
 11
128.500000
 21
37.500000
  0
LINE
  8
0
 62
     4
 10
128.499985
 20
38.500050
 11
127.499977
 21
40.500065
  0
LINE
  8
0
 62
     4
 10
117.000000
 20
40.500000
 11
117.000000
 21
38.500000
  0
LINE
  8
0
 62
     4
 10
94.500267
 20
40.499889
 11
93.500252
 21
38.499863
  0
LINE
  8
0
 62
     4
 10
118.250000
 20
39.200012
 11
123.750000
 21
39.200012
  0
LINE
  8
0
 62
     4
 10
123.750000
 20
39.200012
 11
123.750000
 21
38.500000
  0
LINE
  8
0
 62
     4
 10
118.250000
 20
39.200012
 11
118.250000
 21
38.500000
  0
LINE
  8
0
 62
     4
 10
120.250000
 20
41.200012
 11
121.750000
 21
41.200012
  0
LINE
  8
0
 62
     4
 10
100.250000
 20
41.200012
 11
101.750000
 21
41.200012
  0
LINE
  8
0
 62
     4
 10
127.499969
 20
40.500000
 11
123.269882
 21
40.500000
  0
LINE
  8
0
 62
     4
 10
118.730118
 20
40.500000
 11
94.500092
 21
40.500000
  0
LINE
  8
0
 62
     4
 10
81.500000
 20
29.650024
 11
85.495758
 21
29.650024
  0
LINE
  8
0
 62
     4
 10
81.500000
 20
31.349976
 11
85.951294
 21
31.349976
  0
LINE
  8
0
 62
     4
 10
71.499969
 20
30.179993
 11
81.500000
 21
30.179993
  0
LINE
  8
0
 62
     4
 10
71.499969
 20
30.820007
 11
81.500000
 21
30.820007
  0
LINE
  8
0
 62
     4
 10
81.499969
 20
31.349976
 11
81.499969
 21
29.649979
  0
LINE
  8
0
 62
     4
 10
71.499969
 20
30.819977
 11
71.499969
 21
30.179993
  0
LINE
  8
0
 62
     1
 10
84.960152
 20
27.649920
 11
86.487473
 21
33.349937
  0
LINE
  8
0
 62
     1
 10
86.513229
 20
27.649900
 11
88.040535
 21
33.349888
  0
LINE
  8
0
 62
     4
 10
87.048676
 20
29.650024
 11
91.500031
 21
29.650024
  0
LINE
  8
0
 62
     4
 10
87.504211
 20
31.349976
 11
91.500031
 21
31.349976
  0
LINE
  8
0
 62
     4
 10
91.500000
 20
28.799988
 11
93.500000
 21
28.799988
  0
LINE
  8
0
 62
     4
 10
91.499969
 20
32.199982
 11
91.499969
 21
28.799988
  0
LINE
  8
0
 62
     4
 10
91.500000
 20
32.200012
 11
93.500000
 21
32.200012
  0
LINE
  8
0
 62
     4
 10
125.000000
 20
40.500000
 11
125.000000
 21
38.500000
  0
LINE
  8
0
 10
39.500015
 20
-56.500000
 11
50.500000
 21
-56.500000
  0
LINE
  8
0
 10
39.500015
 20
12.000000
 11
40.000015
 21
12.000000
  0
LINE
  8
0
  6
CENTER
 62
     2
 10
46.000000
 20
10.500000
 11
46.000000
 21
2.500000
  0
LINE
  8
0
  6
CENTER
 62
     2
 10
42.000000
 20
6.500000
 11
50.000000
 21
6.500000
  0
LINE
  8
0
 10
42.000015
 20
11.000000
 11
50.500000
 21
11.000000
  0
LINE
  8
0
 10
50.500000
 20
11.000000
 11
50.500000
 21
-56.500000
  0
LINE
  8
0
 10
40.000015
 20
0.000000
 11
40.000015
 21
-53.000000
  0
LINE
  8
0
 10
39.500015
 20
-53.000000
 11
40.000015
 21
-53.000000
  0
LINE
  8
0
 10
39.500015
 20
0.000000
 11
40.000015
 21
0.000000
  0
LINE
  8
0
 10
44.500000
 20
2.500000
 11
44.500000
 21
-56.500000
  0
LINE
  8
0
 10
43.000015
 20
2.500000
 11
50.500000
 21
2.500000
  0
LINE
  8
0
 10
39.500015
 20
12.000000
 11
42.000015
 21
12.000000
  0
LINE
  8
0
 10
42.000015
 20
12.000000
 11
42.000015
 21
3.500000
  0
LINE
  8
0
 10
40.499985
 20
13.199997
 11
40.499985
 21
12.000000
  0
LINE
  8
0
 10
39.500015
 20
13.200012
 11
40.499985
 21
13.200012
  0
LINE
  8
0
 10
7.500015
 20
-56.500000
 11
16.500015
 21
-56.500000
  0
LINE
  8
0
  6
CENTER
 62
     2
 10
12.000015
 20
-48.000000
 11
12.000015
 21
-56.000000
  0
LINE
  8
0
  6
CENTER
 62
     2
 10
8.000015
 20
-52.000000
 11
16.000015
 21
-52.000000
  0
LINE
  8
0
 10
7.500015
 20
11.000000
 11
14.000015
 21
11.000000
  0
LINE
  8
0
 10
7.500015
 20
11.000000
 11
7.500015
 21
-56.500000
  0
LINE
  8
0
 10
16.000015
 20
0.000000
 11
16.000015
 21
-56.500000
  0
LINE
  8
0
 10
16.000015
 20
0.000000
 11
16.500015
 21
0.000000
  0
LINE
  8
0
 10
16.000015
 20
-53.000000
 11
16.500015
 21
-53.000000
  0
LINE
  8
0
 10
13.500015
 20
11.000000
 11
13.500015
 21
-47.500000
  0
LINE
  8
0
 10
7.500015
 20
-47.500000
 11
15.000015
 21
-47.500000
  0
LINE
  8
0
 10
14.000015
 20
12.000000
 11
16.500015
 21
12.000000
  0
LINE
  8
0
 10
14.000015
 20
11.000000
 11
14.000015
 21
12.000000
  0
LINE
  8
0
  6
CENTER
 62
     2
 10
28.000015
 20
41.868912
 11
28.000015
 21
-65.208771
  0
LINE
  8
0
 10
19.000015
 20
-36.500000
 11
16.500015
 21
-36.500000
  0
LINE
  8
0
 10
19.000015
 20
-42.500000
 11
16.500015
 21
-42.500000
  0
LINE
  8
0
 10
36.500015
 20
-49.000000
 11
39.500015
 21
-49.000000
  0
LINE
  8
0
 10
36.500015
 20
-44.000000
 11
39.500015
 21
-44.000000
  0
LINE
  8
0
 10
37.000015
 20
-24.500000
 11
39.500015
 21
-24.500000
  0
LINE
  8
0
 10
37.000015
 20
-18.500000
 11
39.500015
 21
-18.500000
  0
LINE
  8
0
 10
19.500015
 20
-4.000000
 11
16.500015
 21
-4.000000
  0
LINE
  8
0
 10
19.500015
 20
-9.000000
 11
16.500015
 21
-9.000000
  0
LINE
  8
0
 10
19.000015
 20
-10.500000
 11
16.500015
 21
-10.500000
  0
LINE
  8
0
 10
19.000015
 20
-16.500000
 11
16.500015
 21
-16.500000
  0
LINE
  8
0
 10
18.000015
 20
-1.500015
 11
18.000015
 21
-4.000015
  0
LINE
  8
0
 10
38.000015
 20
-1.500015
 11
38.000015
 21
-18.500000
  0
LINE
  8
0
 10
18.000015
 20
-1.500000
 11
38.000015
 21
-1.500000
  0
LINE
  8
0
 10
18.000015
 20
-51.500000
 11
38.000015
 21
-51.500000
  0
LINE
  8
0
 10
18.000015
 20
-42.500000
 11
18.000015
 21
-51.500000
  0
LINE
  8
0
 10
18.000015
 20
-16.500000
 11
18.000015
 21
-36.500000
  0
LINE
  8
0
 10
18.000015
 20
-9.000015
 11
18.000015
 21
-10.500015
  0
LINE
  8
0
 10
38.000015
 20
-24.500000
 11
38.000015
 21
-44.000000
  0
LINE
  8
0
 10
38.000015
 20
-49.000000
 11
38.000015
 21
-51.500000
  0
LINE
  8
0
 10
16.500177
 20
-53.000225
 11
18.000189
 21
-51.500214
  0
LINE
  8
0
 10
38.000031
 20
-51.499950
 11
39.500038
 21
-52.999962
  0
LINE
  8
0
 10
39.500153
 20
-0.000132
 11
38.000160
 21
-1.500123
  0
LINE
  8
0
 10
16.500042
 20
0.000111
 11
18.000032
 21
-1.499880
  0
LINE
  8
0
 10
35.439045
 20
-47.560390
 11
37.560364
 21
-45.439068
  0
LINE
  8
0
 10
18.439066
 20
-7.560437
 11
20.560389
 21
-5.439115
  0
LINE
  8
0
 10
18.439240
 20
-5.439392
 11
20.560560
 21
-7.560712
  0
LINE
  8
0
 10
35.439152
 20
-45.439369
 11
37.560474
 21
-47.560692
  0
LINE
  8
0
 10
17.939087
 20
-14.560420
 11
20.060408
 21
-12.439099
  0
LINE
  8
0
 10
17.939173
 20
-12.439327
 11
20.060493
 21
-14.560647
  0
LINE
  8
0
 10
35.939137
 20
-22.560411
 11
38.060455
 21
-20.439093
  0
LINE
  8
0
 10
35.939190
 20
-20.439339
 11
38.060509
 21
-22.560659
  0
LINE
  8
0
 10
17.939140
 20
-40.560406
 11
20.060461
 21
-38.439083
  0
LINE
  8
0
 10
17.939224
 20
-38.439434
 11
20.060543
 21
-40.560757
  0
LINE
  8
0
 10
130.500000
 20
12.000000
 11
170.500000
 21
12.000000
  0
LINE
  8
0
 10
129.500000
 20
0.000000
 11
129.500000
 21
-53.000000
  0
LINE
  8
0
 10
172.500000
 20
11.000000
 11
172.500000
 21
-56.500000
  0
LINE
  8
0
  6
CENTER
 62
     2
 10
145.000000
 20
-19.000000
 11
145.000000
 21
-34.000000
  0
LINE
  8
0
  6
CENTER
 62
     2
 10
137.500000
 20
-26.500000
 11
152.500000
 21
-26.500000
  0
LINE
  8
0
 10
130.500000
 20
12.000000
 11
130.500000
 21
-56.500000
  0
LINE
  8
0
 10
136.500000
 20
2.500000
 11
136.500000
 21
-56.500000
  0
LINE
  8
0
 10
164.500000
 20
11.000000
 11
164.500000
 21
2.500000
  0
LINE
  8
0
 10
170.500000
 20
12.000000
 11
170.500000
 21
10.947632
  0
LINE
  8
0
 10
128.500000
 20
0.000000
 11
130.500000
 21
0.000000
  0
LINE
  8
0
 10
128.500000
 20
-53.000000
 11
130.500000
 21
-53.000000
  0
LINE
  8
0
  6
CENTER
 62
     2
 10
160.569336
 20
6.500000
 11
176.500000
 21
6.500000
  0
LINE
  8
0
  6
CENTER
 62
     2
 10
160.282623
 20
-52.000000
 11
176.500000
 21
-52.000000
  0
LINE
  8
0
 10
131.999969
 20
13.200012
 11
131.999969
 21
12.000000
  0
LINE
  8
0
 10
131.999969
 20
13.200012
 11
154.499969
 21
13.200012
  0
LINE
  8
0
 10
133.899933
 20
13.787292
 11
133.899933
 21
13.199997
  0
LINE
  8
0
 10
136.099945
 20
13.787292
 11
136.099945
 21
13.199997
  0
LINE
  8
0
 10
136.099945
 20
13.400024
 11
133.899933
 21
13.400024
  0
LINE
  8
0
 10
135.399933
 20
14.200012
 11
134.599945
 21
14.200012
  0
LINE
  8
0
 10
131.999969
 20
13.199997
 11
131.999969
 21
12.000000
  0
LINE
  8
0
 10
154.499969
 20
13.199997
 11
154.499969
 21
12.000000
  0
LINE
  8
0
 10
150.399933
 20
13.787292
 11
150.399933
 21
13.199997
  0
LINE
  8
0
 10
152.599945
 20
13.787292
 11
152.599945
 21
13.199997
  0
LINE
  8
0
 10
152.599945
 20
13.400024
 11
150.399933
 21
13.400024
  0
LINE
  8
0
 10
151.899933
 20
14.200012
 11
151.099945
 21
14.200012
  0
LINE
  8
0
 10
172.500000
 20
-56.500000
 11
130.500000
 21
-56.500000
  0
LINE
  8
0
 10
172.500000
 20
2.500000
 11
130.500000
 21
2.500000
  0
LINE
  8
0
 10
172.500000
 20
11.000000
 11
164.500000
 21
11.000000
  0
LINE
  8
0
 10
89.999969
 20
-1.500015
 11
89.999969
 21
-40.900009
  0
LINE
  8
0
 10
91.499969
 20
-0.000015
 11
91.499969
 21
-18.500000
  0
LINE
  8
0
 10
93.500000
 20
0.000000
 11
91.499969
 21
0.000000
  0
LINE
  8
0
 10
91.499969
 20
-45.000000
 11
89.999969
 21
-45.000000
  0
LINE
  8
0
 10
91.499969
 20
-40.000000
 11
89.999969
 21
-40.000000
  0
LINE
  8
0
 10
93.500000
 20
-18.500000
 11
89.999969
 21
-18.500000
  0
LINE
  8
0
 10
93.500000
 20
-24.500000
 11
89.999969
 21
-24.500000
  0
LINE
  8
0
 10
93.500000
 20
-53.000000
 11
91.499969
 21
-53.000000
  0
LINE
  8
0
 10
91.500107
 20
-52.999950
 11
90.000099
 21
-51.499958
  0
LINE
  8
0
 10
91.499687
 20
0.000189
 11
89.999733
 21
-1.499778
  0
LINE
  8
0
 10
91.499969
 20
-24.500000
 11
91.499969
 21
-53.000000
  0
LINE
  8
0
 10
91.831757
 20
-18.750000
 11
93.500000
 21
-18.750000
  0
LINE
  8
0
 10
90.799988
 20
-22.500015
 11
90.799988
 21
-20.500000
  0
LINE
  8
0
 10
91.831757
 20
-24.250000
 11
93.500000
 21
-24.250000
  0
LINE
  8
0
 10
91.499969
 20
-44.750000
 11
91.499969
 21
-40.250000
  0
LINE
  8
0
 10
90.612579
 20
-44.750000
 11
91.499969
 21
-44.750000
  0
LINE
  8
0
 10
90.612549
 20
-40.250000
 11
91.499969
 21
-40.250000
  0
LINE
  8
0
 10
89.799988
 20
-43.300003
 11
89.799988
 21
-41.700012
  0
LINE
  8
0
 10
89.999969
 20
-44.099991
 11
89.999969
 21
-51.500000
  0
LINE
  8
0
 10
92.800018
 20
-24.250000
 11
92.800018
 21
-18.750015
  0
LINE
  8
0
  6
CENTER
 62
     1
 10
-137.085709
 20
-8.500000
 11
-102.686447
 21
-8.500000
  0
LINE
  8
0
 62
     4
 10
-111.146194
 20
-3.500000
 11
-111.146194
 21
-13.500000
  0
LINE
  8
0
 62
     4
 10
-111.592758
 20
-2.726501
 11
-113.146194
 21
-2.726501
  0
LINE
  8
0
 62
     4
 10
-111.592773
 20
-14.273506
 11
-113.146194
 21
-14.273506
  0
LINE
  8
0
 62
     4
 10
-111.592773
 20
-5.613251
 11
-113.146194
 21
-5.613251
  0
LINE
  8
0
 62
     4
 10
-111.592773
 20
-11.386749
 11
-113.146194
 21
-11.386749
  0
LINE
  8
0
 62
     4
 10
-111.146164
 20
-3.500008
 11
-111.592751
 21
-2.726497
  0
LINE
  8
0
 62
     4
 10
-111.146210
 20
-13.499990
 11
-111.592796
 21
-14.273500
  0
LINE
  8
0
 62
     4
 10
-106.146194
 20
-5.000000
 11
-106.146194
 21
-8.000000
  0
LINE
  8
0
 62
     4
 10
-108.146194
 20
-8.000000
 11
-108.146194
 21
-9.000000
  0
LINE
  8
0
 62
     4
 10
-108.146194
 20
-8.000000
 11
-106.146194
 21
-8.000000
  0
LINE
  8
0
 62
     4
 10
-108.146194
 20
-9.000000
 11
-106.146194
 21
-9.000000
  0
LINE
  8
0
 62
     4
 10
-106.146194
 20
-9.000000
 11
-106.146194
 21
-12.000000
  0
LINE
  8
0
 62
     4
 10
-111.146194
 20
-4.500000
 11
-106.646194
 21
-4.500000
  0
LINE
  8
0
 62
     4
 10
-111.146194
 20
-12.500000
 11
-106.646194
 21
-12.500000
  0
LINE
  8
0
 62
     4
 10
-106.646172
 20
-4.500001
 11
-106.146179
 21
-4.999990
  0
LINE
  8
0
 62
     4
 10
-106.146164
 20
-12.000012
 11
-106.646164
 21
-12.500013
  0
LINE
  8
0
 62
     4
 10
-106.646194
 20
-12.500000
 11
-106.646194
 21
-9.000000
  0
LINE
  8
0
 62
     4
 10
-106.646194
 20
-4.500000
 11
-106.646194
 21
-8.000000
  0
LINE
  8
0
 62
     1
 10
-111.146194
 20
-12.000000
 11
-106.146194
 21
-12.000000
  0
LINE
  8
0
 62
     1
 10
-111.146194
 20
-5.000000
 11
-106.146194
 21
-5.000000
  0
LINE
  8
0
 62
     4
 10
-126.146194
 20
-3.500000
 11
-126.146194
 21
-13.500000
  0
LINE
  8
0
 62
     4
 10
-125.713181
 20
-14.250000
 11
-113.579193
 21
-14.250000
  0
LINE
  8
0
 62
     4
 10
-125.713181
 20
-2.750000
 11
-113.579193
 21
-2.750000
  0
LINE
  8
0
 62
     4
 10
-113.146233
 20
-3.500025
 11
-113.579247
 21
-2.750022
  0
LINE
  8
0
 62
     4
 10
-113.146255
 20
-13.499977
 11
-113.579269
 21
-14.249979
  0
LINE
  8
0
 62
     4
 10
-126.146118
 20
-3.500049
 11
-125.713104
 21
-2.750047
  0
LINE
  8
0
 62
     4
 10
-126.146149
 20
-13.499971
 11
-125.713135
 21
-14.249973
  0
LINE
  8
0
 62
     4
 10
-126.146179
 20
-13.489002
 11
-130.146179
 21
-13.364002
  0
LINE
  8
0
 62
     1
 10
-127.219154
 20
-12.869468
 11
-130.146179
 21
-12.777998
  0
LINE
  8
0
 62
     1
 10
-127.219124
 20
-4.130701
 11
-130.146179
 21
-4.222171
  0
LINE
  8
0
 62
     4
 10
-126.146187
 20
-3.511242
 11
-130.146179
 21
-3.636241
  0
LINE
  8
0
 62
     4
 10
-113.146194
 20
-5.613251
 11
-126.146194
 21
-5.613251
  0
LINE
  8
0
 62
     4
 10
-113.146194
 20
-11.386749
 11
-126.146194
 21
-11.386749
  0
LINE
  8
0
 62
     1
 10
-126.146194
 20
-3.511238
 11
-127.219147
 21
-4.130707
  0
LINE
  8
0
 62
     1
 10
-126.146187
 20
-13.488778
 11
-127.219139
 21
-12.869310
  0
LINE
  8
0
 62
     1
 10
-127.219131
 20
-4.130699
 11
-127.219131
 21
-12.869476
  0
LINE
  8
0
  6
CENTER
 62
     1
 10
-123.646194
 20
-4.500000
 11
-123.646194
 21
-12.500000
  0
LINE
  8
0
 62
     4
 10
-113.146194
 20
-2.726501
 11
-113.146194
 21
-14.273506
  0
LINE
  8
0
  6
CENTER
 62
     1
 10
-137.085709
 20
-44.500000
 11
-102.686447
 21
-44.500000
  0
LINE
  8
0
 62
     4
 10
-111.146194
 20
-39.500000
 11
-111.146194
 21
-49.500000
  0
LINE
  8
0
 62
     4
 10
-111.592758
 20
-38.726501
 11
-113.146194
 21
-38.726501
  0
LINE
  8
0
 62
     4
 10
-111.592773
 20
-50.273506
 11
-113.146194
 21
-50.273506
  0
LINE
  8
0
 62
     4
 10
-111.592773
 20
-41.613251
 11
-113.146194
 21
-41.613251
  0
LINE
  8
0
 62
     4
 10
-111.592773
 20
-47.386749
 11
-113.146194
 21
-47.386749
  0
LINE
  8
0
 62
     4
 10
-111.146172
 20
-39.500011
 11
-111.592758
 21
-38.726498
  0
LINE
  8
0
 62
     4
 10
-111.146210
 20
-49.500000
 11
-111.592789
 21
-50.273499
  0
LINE
  8
0
 62
     4
 10
-106.146194
 20
-41.000000
 11
-106.146194
 21
-44.000000
  0
LINE
  8
0
 62
     4
 10
-108.146194
 20
-44.000000
 11
-108.146194
 21
-45.000000
  0
LINE
  8
0
 62
     4
 10
-108.146194
 20
-44.000000
 11
-106.146194
 21
-44.000000
  0
LINE
  8
0
 62
     4
 10
-108.146194
 20
-45.000000
 11
-106.146194
 21
-45.000000
  0
LINE
  8
0
 62
     4
 10
-106.146194
 20
-45.000000
 11
-106.146194
 21
-48.000000
  0
LINE
  8
0
 62
     4
 10
-111.146194
 20
-40.500000
 11
-106.646194
 21
-40.500000
  0
LINE
  8
0
 62
     4
 10
-111.146194
 20
-48.500000
 11
-106.646194
 21
-48.500000
  0
LINE
  8
0
 62
     4
 10
-106.646179
 20
-40.500000
 11
-106.146187
 21
-40.999992
  0
LINE
  8
0
 62
     4
 10
-106.146156
 20
-48.000011
 11
-106.646156
 21
-48.500011
  0
LINE
  8
0
 62
     4
 10
-106.646194
 20
-48.500000
 11
-106.646194
 21
-45.000000
  0
LINE
  8
0
 62
     4
 10
-106.646194
 20
-40.500000
 11
-106.646194
 21
-44.000000
  0
LINE
  8
0
 62
     1
 10
-111.146194
 20
-48.000000
 11
-106.146194
 21
-48.000000
  0
LINE
  8
0
 62
     1
 10
-111.146194
 20
-41.000000
 11
-106.146194
 21
-41.000000
  0
LINE
  8
0
 62
     4
 10
-126.146194
 20
-39.500000
 11
-126.146194
 21
-49.500000
  0
LINE
  8
0
 62
     4
 10
-125.713181
 20
-50.250000
 11
-113.579193
 21
-50.250000
  0
LINE
  8
0
 62
     4
 10
-125.713181
 20
-38.750000
 11
-113.579193
 21
-38.750000
  0
LINE
  8
0
 62
     4
 10
-113.146240
 20
-39.500031
 11
-113.579247
 21
-38.750031
  0
LINE
  8
0
 62
     4
 10
-113.146255
 20
-49.499977
 11
-113.579269
 21
-50.249981
  0
LINE
  8
0
 62
     4
 10
-126.146118
 20
-39.500042
 11
-125.713104
 21
-38.750042
  0
LINE
  8
0
 62
     4
 10
-126.146141
 20
-49.499962
 11
-125.713127
 21
-50.249966
  0
LINE
  8
0
 62
     4
 10
-126.146187
 20
-49.489006
 11
-130.146179
 21
-49.364006
  0
LINE
  8
0
 62
     1
 10
-127.219162
 20
-48.869469
 11
-130.146194
 21
-48.778000
  0
LINE
  8
0
 62
     1
 10
-127.219131
 20
-40.130699
 11
-130.146179
 21
-40.222172
  0
LINE
  8
0
 62
     4
 10
-126.146179
 20
-39.511242
 11
-130.146194
 21
-39.636242
  0
LINE
  8
0
 62
     4
 10
-113.146194
 20
-41.613251
 11
-126.146194
 21
-41.613251
  0
LINE
  8
0
 62
     4
 10
-113.146194
 20
-47.386749
 11
-126.146194
 21
-47.386749
  0
LINE
  8
0
 62
     1
 10
-126.146187
 20
-39.511230
 11
-127.219139
 21
-40.130699
  0
LINE
  8
0
 62
     1
 10
-126.146187
 20
-49.488777
 11
-127.219139
 21
-48.869308
  0
LINE
  8
0
 62
     1
 10
-127.219131
 20
-40.130699
 11
-127.219131
 21
-48.869476
  0
LINE
  8
0
  6
CENTER
 62
     1
 10
-123.646194
 20
-40.500000
 11
-123.646194
 21
-48.500000
  0
LINE
  8
0
 62
     4
 10
-113.146194
 20
-38.726501
 11
-113.146194
 21
-50.273506
  0
LINE
  8
0
 62
     4
 10
-60.666683
 20
-14.273500
 11
-65.666679
 21
-11.386751
  0
LINE
  8
0
 62
     4
 10
-55.666668
 20
-5.613255
 11
-60.666664
 21
-2.726505
  0
LINE
  8
0
 62
     4
 10
-60.666706
 20
-14.273486
 11
-55.666695
 21
-11.386729
  0
LINE
  8
0
 62
     4
 10
-65.666710
 20
-5.613228
 11
-60.666698
 21
-2.726471
  0
LINE
  8
0
 62
     4
 10
-55.666672
 20
-11.386749
 11
-55.666672
 21
-5.613251
  0
LINE
  8
0
 62
     4
 10
-65.666672
 20
-11.386749
 11
-65.666672
 21
-5.613251
  0
LINE
  8
0
 62
     4
 10
-64.635300
 20
-8.000000
 11
-56.698044
 21
-8.000000
  0
LINE
  8
0
 62
     4
 10
-64.635300
 20
-9.000000
 11
-56.698044
 21
-9.000000
  0
LINE
  8
0
  6
CENTER
 62
     1
 10
-60.666672
 20
-1.000000
 11
-60.666672
 21
-16.000000
  0
LINE
  8
0
  6
CENTER
 62
     1
 10
-68.166672
 20
-8.500000
 11
-53.166672
 21
-8.500000
  0
LINE
  8
0
 62
     4
 10
-66.666679
 20
-50.273506
 11
-71.666679
 21
-47.386757
  0
LINE
  8
0
 62
     4
 10
-61.666672
 20
-41.613258
 11
-66.666664
 21
-38.726509
  0
LINE
  8
0
 62
     4
 10
-66.666702
 20
-50.273487
 11
-61.666691
 21
-47.386730
  0
LINE
  8
0
 62
     4
 10
-71.666702
 20
-41.613228
 11
-66.666695
 21
-38.726475
  0
LINE
  8
0
 62
     4
 10
-61.666672
 20
-47.386749
 11
-61.666672
 21
-41.613251
  0
LINE
  8
0
 62
     4
 10
-71.666672
 20
-47.386749
 11
-71.666672
 21
-41.613251
  0
LINE
  8
0
 62
     4
 10
-70.635300
 20
-44.000000
 11
-62.698044
 21
-44.000000
  0
LINE
  8
0
 62
     4
 10
-70.635300
 20
-45.000000
 11
-62.698044
 21
-45.000000
  0
LINE
  8
0
  6
CENTER
 62
     1
 10
-66.666672
 20
-37.000000
 11
-66.666672
 21
-52.000000
  0
LINE
  8
0
  6
CENTER
 62
     1
 10
-74.166672
 20
-44.500000
 11
-59.166672
 21
-44.500000
  0
LINE
  8
0
 62
     4
 10
65.500000
 20
0.500000
 11
65.500000
 21
-13.500000
  0
LINE
  8
0
 62
     4
 10
54.500000
 20
0.500000
 11
54.500000
 21
-13.500000
  0
LINE
  8
0
 62
     4
 10
55.125214
 20
1.582901
 11
64.874786
 21
1.582901
  0
LINE
  8
0
 62
     4
 10
55.125214
 20
-14.582901
 11
64.874786
 21
-14.582901
  0
LINE
  8
0
 62
     4
 10
65.500038
 20
0.500017
 11
64.874825
 21
1.582921
  0
LINE
  8
0
 62
     4
 10
54.500008
 20
-13.499990
 11
55.125221
 21
-14.582891
  0
LINE
  8
0
 62
     4
 10
54.499996
 20
0.500006
 11
55.125210
 21
1.582908
  0
LINE
  8
0
 62
     4
 10
65.500023
 20
-13.500003
 11
64.874809
 21
-14.582904
  0
LINE
  8
0
 62
     4
 10
55.125214
 20
-2.458549
 11
64.874786
 21
-2.458549
  0
LINE
  8
0
 62
     4
 10
55.125214
 20
-10.541458
 11
64.874786
 21
-10.541458
  0
LINE
  8
0
  6
CENTER
 62
     1
 10
57.500000
 20
-1.500000
 11
57.500000
 21
-11.500000
  0
LINE
  8
0
 62
     4
 10
54.500011
 20
0.097354
 11
50.500011
 21
-0.027646
  0
LINE
  8
0
 62
     1
 10
54.499981
 20
-13.097270
 11
53.127060
 21
-12.304614
  0
LINE
  8
0
 62
     1
 10
54.499992
 20
0.097368
 11
53.126873
 21
-0.695403
  0
LINE
  8
0
 62
     4
 10
54.496681
 20
-13.203394
 11
50.500004
 21
-13.078497
  0
LINE
  8
0
  6
CENTER
 62
     1
 10
50.500000
 20
1.582901
 11
50.500000
 21
-14.582901
  0
LINE
  8
0
 62
     1
 10
53.126884
 20
-0.695418
 11
50.500008
 21
-0.777507
  0
LINE
  8
0
 62
     1
 10
53.127090
 20
-12.304595
 11
50.500008
 21
-12.222498
  0
LINE
  8
0
 62
     1
 10
53.127083
 20
-12.304596
 11
53.127083
 21
-0.695412
  0
LINE
  8
0
  6
CENTER
 62
     1
 10
41.560471
 20
-6.500000
 11
75.959747
 21
-6.500000
  0
LINE
  8
0
 62
     4
 10
67.500000
 20
-1.500000
 11
67.500000
 21
-11.500000
  0
LINE
  8
0
 62
     4
 10
67.053421
 20
-0.726501
 11
65.500000
 21
-0.726501
  0
LINE
  8
0
 62
     4
 10
67.053421
 20
-12.273506
 11
65.500000
 21
-12.273506
  0
LINE
  8
0
 62
     4
 10
67.053421
 20
-3.613251
 11
65.500000
 21
-3.613251
  0
LINE
  8
0
 62
     4
 10
67.053421
 20
-9.386749
 11
65.500000
 21
-9.386749
  0
LINE
  8
0
 62
     4
 10
67.500000
 20
-1.500006
 11
67.053421
 21
-0.726505
  0
LINE
  8
0
 62
     4
 10
67.500008
 20
-11.500015
 11
67.053429
 21
-12.273513
  0
LINE
  8
0
 62
     4
 10
72.500000
 20
-3.000000
 11
72.500000
 21
-6.000000
  0
LINE
  8
0
 62
     4
 10
70.500000
 20
-6.000000
 11
70.500000
 21
-7.000000
  0
LINE
  8
0
 62
     4
 10
70.500000
 20
-6.000000
 11
72.500000
 21
-6.000000
  0
LINE
  8
0
 62
     4
 10
70.500000
 20
-7.000000
 11
72.500000
 21
-7.000000
  0
LINE
  8
0
 62
     4
 10
72.500000
 20
-7.000000
 11
72.500000
 21
-10.000000
  0
LINE
  8
0
 62
     4
 10
67.500000
 20
-2.500000
 11
72.000000
 21
-2.500000
  0
LINE
  8
0
 62
     4
 10
67.500000
 20
-10.500000
 11
72.000000
 21
-10.500000
  0
LINE
  8
0
 62
     4
 10
72.000000
 20
-2.500006
 11
72.499992
 21
-3.000003
  0
LINE
  8
0
 62
     4
 10
72.499985
 20
-9.999991
 11
71.999985
 21
-10.499992
  0
LINE
  8
0
 62
     4
 10
72.000000
 20
-10.500000
 11
72.000000
 21
-7.000000
  0
LINE
  8
0
 62
     4
 10
72.000000
 20
-2.500000
 11
72.000000
 21
-6.000000
  0
LINE
  8
0
 62
     1
 10
67.500000
 20
-10.000000
 11
72.500000
 21
-10.000000
  0
LINE
  8
0
 62
     1
 10
67.500000
 20
-3.000000
 11
72.500000
 21
-3.000000
  0
LINE
  8
0
 62
     4
 10
65.500000
 20
-39.500000
 11
65.500000
 21
-53.500000
  0
LINE
  8
0
 62
     4
 10
54.500000
 20
-39.500000
 11
54.500000
 21
-53.500000
  0
LINE
  8
0
 62
     4
 10
55.125214
 20
-38.417099
 11
64.874786
 21
-38.417099
  0
LINE
  8
0
 62
     4
 10
55.125214
 20
-54.582901
 11
64.874786
 21
-54.582901
  0
LINE
  8
0
 62
     4
 10
65.500038
 20
-39.499985
 11
64.874825
 21
-38.417084
  0
LINE
  8
0
 62
     4
 10
54.500008
 20
-53.499992
 11
55.125221
 21
-54.582893
  0
LINE
  8
0
 62
     4
 10
54.499996
 20
-39.499996
 11
55.125210
 21
-38.417095
  0
LINE
  8
0
 62
     4
 10
65.500015
 20
-53.500008
 11
64.874802
 21
-54.582909
  0
LINE
  8
0
 62
     4
 10
55.125214
 20
-42.458549
 11
64.874786
 21
-42.458549
  0
LINE
  8
0
 62
     4
 10
55.125214
 20
-50.541458
 11
64.874786
 21
-50.541458
  0
LINE
  8
0
  6
CENTER
 62
     1
 10
57.500000
 20
-41.500000
 11
57.500000
 21
-51.500000
  0
LINE
  8
0
 62
     4
 10
54.500008
 20
-39.902645
 11
50.500008
 21
-40.027641
  0
LINE
  8
0
 62
     1
 10
54.499981
 20
-53.097263
 11
53.127060
 21
-52.304607
  0
LINE
  8
0
 62
     1
 10
54.499989
 20
-39.902637
 11
53.126873
 21
-40.695408
  0
LINE
  8
0
 62
     4
 10
54.496677
 20
-53.203392
 11
50.500000
 21
-53.078495
  0
LINE
  8
0
  6
CENTER
 62
     1
 10
50.500000
 20
-38.417099
 11
50.500000
 21
-54.582901
  0
LINE
  8
0
 62
     1
 10
53.126884
 20
-40.695415
 11
50.500008
 21
-40.777504
  0
LINE
  8
0
 62
     1
 10
53.127090
 20
-52.304596
 11
50.500008
 21
-52.222500
  0
LINE
  8
0
 62
     1
 10
53.127083
 20
-52.304596
 11
53.127083
 21
-40.695412
  0
LINE
  8
0
  6
CENTER
 62
     1
 10
41.560471
 20
-46.500000
 11
75.959747
 21
-46.500000
  0
LINE
  8
0
 62
     4
 10
67.500000
 20
-41.500000
 11
67.500000
 21
-51.500000
  0
LINE
  8
0
 62
     4
 10
67.053421
 20
-40.726501
 11
65.500000
 21
-40.726501
  0
LINE
  8
0
 62
     4
 10
67.053421
 20
-52.273506
 11
65.500000
 21
-52.273506
  0
LINE
  8
0
 62
     4
 10
67.053421
 20
-43.613251
 11
65.500000
 21
-43.613251
  0
LINE
  8
0
 62
     4
 10
67.053421
 20
-49.386749
 11
65.500000
 21
-49.386749
  0
LINE
  8
0
 62
     4
 10
67.500000
 20
-41.500008
 11
67.053421
 21
-40.726509
  0
LINE
  8
0
 62
     4
 10
67.500008
 20
-51.500015
 11
67.053429
 21
-52.273514
  0
LINE
  8
0
 62
     4
 10
72.500000
 20
-43.000000
 11
72.500000
 21
-46.000000
  0
LINE
  8
0
 62
     4
 10
70.500000
 20
-46.000000
 11
70.500000
 21
-47.000000
  0
LINE
  8
0
 62
     4
 10
70.500000
 20
-46.000000
 11
72.500000
 21
-46.000000
  0
LINE
  8
0
 62
     4
 10
70.500000
 20
-47.000000
 11
72.500000
 21
-47.000000
  0
LINE
  8
0
 62
     4
 10
72.500000
 20
-47.000000
 11
72.500000
 21
-50.000000
  0
LINE
  8
0
 62
     4
 10
67.500000
 20
-42.500000
 11
72.000000
 21
-42.500000
  0
LINE
  8
0
 62
     4
 10
67.500000
 20
-50.500000
 11
72.000000
 21
-50.500000
  0
LINE
  8
0
 62
     4
 10
72.000000
 20
-42.500008
 11
72.499992
 21
-43.000004
  0
LINE
  8
0
 62
     4
 10
72.499992
 20
-49.999989
 11
71.999985
 21
-50.499992
  0
LINE
  8
0
 62
     4
 10
72.000000
 20
-50.500000
 11
72.000000
 21
-47.000000
  0
LINE
  8
0
 62
     4
 10
72.000000
 20
-42.500000
 11
72.000000
 21
-46.000000
  0
LINE
  8
0
 62
     1
 10
67.500000
 20
-50.000000
 11
72.500000
 21
-50.000000
  0
LINE
  8
0
 62
     1
 10
67.500000
 20
-43.000000
 11
72.500000
 21
-43.000000
  0
LINE
  8
0
 62
     4
 10
151.499985
 20
1.582889
 11
144.499985
 21
-2.458562
  0
LINE
  8
0
 62
     4
 10
158.500000
 20
-2.458580
 11
151.499985
 21
1.582877
  0
LINE
  8
0
 62
     4
 10
158.500000
 20
-2.458549
 11
158.500000
 21
-10.541451
  0
LINE
  8
0
 62
     4
 10
158.499985
 20
-10.541454
 11
151.500000
 21
-14.582901
  0
LINE
  8
0
 62
     4
 10
151.499985
 20
-14.582937
 11
144.499985
 21
-10.541488
  0
LINE
  8
0
 62
     4
 10
144.500000
 20
-2.458549
 11
144.500000
 21
-10.541458
  0
LINE
  8
0
  6
CENTER
 62
     1
 10
151.500000
 20
-16.500000
 11
151.500000
 21
3.500000
  0
LINE
  8
0
 62
     4
 10
151.500000
 20
-12.273484
 11
146.500000
 21
-9.386735
  0
LINE
  8
0
 62
     4
 10
156.500015
 20
-3.613245
 11
151.500015
 21
-0.726495
  0
LINE
  8
0
 62
     4
 10
151.500015
 20
-12.273535
 11
156.500031
 21
-9.386778
  0
LINE
  8
0
 62
     4
 10
146.500000
 20
-3.613264
 11
151.500000
 21
-0.726511
  0
LINE
  8
0
 62
     4
 10
156.500000
 20
-9.386749
 11
156.500000
 21
-3.613251
  0
LINE
  8
0
 62
     4
 10
146.500000
 20
-9.386749
 11
146.500000
 21
-3.613251
  0
LINE
  8
0
 62
     4
 10
147.531372
 20
-6.000000
 11
155.468628
 21
-6.000000
  0
LINE
  8
0
 62
     4
 10
147.531372
 20
-7.000000
 11
155.468628
 21
-7.000000
  0
LINE
  8
0
  6
CENTER
 62
     1
 10
141.500000
 20
-6.500000
 11
161.500000
 21
-6.500000
  0
LINE
  8
0
 62
     4
 10
151.499985
 20
-38.417118
 11
144.499985
 21
-42.458569
  0
LINE
  8
0
 62
     4
 10
158.500000
 20
-42.458580
 11
151.499985
 21
-38.417122
  0
LINE
  8
0
 62
     4
 10
158.500000
 20
-42.458549
 11
158.500000
 21
-50.541451
  0
LINE
  8
0
 62
     4
 10
158.500000
 20
-50.541447
 11
151.500000
 21
-54.582897
  0
LINE
  8
0
 62
     4
 10
151.499985
 20
-54.582935
 11
144.499985
 21
-50.541489
  0
LINE
  8
0
 62
     4
 10
144.500000
 20
-42.458549
 11
144.500000
 21
-50.541458
  0
LINE
  8
0
  6
CENTER
 62
     1
 10
151.500000
 20
-56.500000
 11
151.500000
 21
-36.500000
  0
LINE
  8
0
 62
     4
 10
151.500015
 20
-52.273495
 11
146.500015
 21
-49.386745
  0
LINE
  8
0
 62
     4
 10
156.500000
 20
-43.613247
 11
151.500015
 21
-40.726498
  0
LINE
  8
0
 62
     4
 10
151.500015
 20
-52.273540
 11
156.500031
 21
-49.386784
  0
LINE
  8
0
 62
     4
 10
146.500000
 20
-43.613266
 11
151.500000
 21
-40.726517
  0
LINE
  8
0
 62
     4
 10
156.500000
 20
-49.386749
 11
156.500000
 21
-43.613251
  0
LINE
  8
0
 62
     4
 10
146.500000
 20
-49.386749
 11
146.500000
 21
-43.613251
  0
LINE
  8
0
 62
     4
 10
147.531372
 20
-46.000000
 11
155.468628
 21
-46.000000
  0
LINE
  8
0
 62
     4
 10
147.531372
 20
-47.000000
 11
155.468628
 21
-47.000000
  0
LINE
  8
0
  6
CENTER
 62
     1
 10
141.500000
 20
-46.500000
 11
161.500000
 21
-46.500000
  0
ARC
  8
0
 62
     4
 10
-138.396194
 20
39.200012
 40
2.000000
 50
90.000000
 51
180.000000
  0
ARC
  8
0
 62
     4
 10
-136.896194
 20
39.200012
 40
2.000000
 50
0.000000
 51
90.000000
  0
ARC
  8
0
 62
     4
 10
-158.396194
 20
39.200012
 40
2.000000
 50
90.000000
 51
139.458298
  0
ARC
  8
0
 62
     4
 10
-156.896194
 20
39.200012
 40
2.000006
 50
40.788067
 51
90.000000
  0
ARC
  8
0
 62
     4
 10
-55.679916
 20
-64.303497
 40
2.000000
 50
270.000000
 51
331.046478
  0
ARC
  8
0
 62
     4
 10
-57.679901
 20
-64.303513
 40
1.999998
 50
208.956070
 51
270.000000
  0
ARC
  8
0
 62
     4
 10
-72.416672
 20
39.200012
 40
2.000000
 50
90.000000
 51
139.459000
  0
ARC
  8
0
 62
     4
 10
-70.916672
 20
39.200012
 40
2.000003
 50
40.541080
 51
90.000000
  0
ARC
  8
0
 62
     4
 10
-56.416672
 20
39.200012
 40
2.000000
 50
90.000000
 51
139.458466
  0
ARC
  8
0
 62
     4
 10
-54.916672
 20
39.200012
 40
2.000000
 50
90.000000
 51
95.183693
  0
ARC
  8
0
 62
     4
 10
-54.916672
 20
39.200012
 40
1.999998
 50
40.541615
 51
90.000000
  0
CIRCLE
  8
0
 10
-138.146194
 20
-16.699997
 40
1.650000
  0
CIRCLE
  8
0
 10
-138.146194
 20
-36.299999
 40
1.650000
  0
CIRCLE
  8
0
 10
-65.166672
 20
-57.500000
 40
2.700000
  0
CIRCLE
  8
0
 10
-65.166672
 20
-57.500000
 40
2.000000
  0
CIRCLE
  8
0
 10
-63.666672
 20
-26.500000
 40
5.722500
  0
CIRCLE
  8
0
 10
-54.666672
 20
-46.500000
 40
1.650000
  0
CIRCLE
  8
0
 10
-72.666672
 20
-6.500000
 40
1.650000
  0
CIRCLE
  8
0
 62
     2
 10
-63.666672
 20
-26.500000
 40
6.578500
  0
CIRCLE
  8
0
 10
-62.166672
 20
9.199997
 40
2.700000
  0
CIRCLE
  8
0
 10
-62.166672
 20
9.199997
 40
2.000000
  0
ARC
  8
0
 10
-158.659424
 20
-59.203514
 40
2.000004
 50
208.956116
 51
270.000000
  0
ARC
  8
0
 10
-156.659439
 20
-59.203503
 40
2.000000
 50
270.000000
 51
331.046539
  0
ARC
  8
0
 62
     4
 10
-71.679901
 20
-64.303513
 40
2.000002
 50
208.956024
 51
270.000000
  0
ARC
  8
0
 62
     4
 10
-69.679916
 20
-64.303497
 40
2.000000
 50
270.000000
 51
331.046417
  0
ARC
  8
0
 10
-162.846207
 20
-5.499992
 40
2.000003
 50
118.956001
 51
179.999985
  0
ARC
  8
0
 10
-162.846207
 20
-7.500008
 40
2.000000
 50
179.999939
 51
241.043991
  0
ARC
  8
0
 10
91.499969
 20
-41.700012
 40
1.700002
 50
121.467278
 51
180.000000
  0
ARC
  8
0
 10
101.986755
 20
-59.203491
 40
2.000000
 50
270.000000
 51
331.046417
  0
ARC
  8
0
 10
99.986786
 20
-59.203491
 40
2.000004
 50
208.956116
 51
270.000000
  0
CIRCLE
  8
0
 10
28.000015
 20
14.000000
 40
2.299999
  0
CIRCLE
  8
0
 10
28.000015
 20
14.000000
 40
1.500000
  0
ARC
  8
0
 62
     4
 10
36.750015
 20
39.200012
 40
1.999998
 50
40.541615
 51
90.000000
  0
ARC
  8
0
 62
     4
 10
29.300003
 20
30.500000
 40
1.699997
 50
269.999878
 51
90.000130
  0
ARC
  8
0
 62
     4
 10
26.700027
 20
30.500000
 40
1.699997
 50
89.999870
 51
270.000122
  0
CIRCLE
  8
0
 62
     4
 10
26.700027
 20
30.500000
 40
0.850000
  0
CIRCLE
  8
0
 62
     4
 10
29.300003
 20
30.500000
 40
0.850000
  0
ARC
  8
0
 62
     4
 10
19.250015
 20
39.200012
 40
2.000000
 50
90.000000
 51
139.458847
  0
ARC
  8
0
 62
     4
 10
20.750015
 20
39.200012
 40
2.000000
 50
40.541149
 51
90.000000
  0
ARC
  8
0
 62
     4
 10
35.250015
 20
39.200012
 40
2.000000
 50
90.000000
 51
139.458466
  0
ARC
  8
0
 62
     4
 10
36.750015
 20
39.200012
 40
2.000000
 50
90.000000
 51
95.183693
  0
ARC
  8
0
 62
     4
 10
101.750000
 20
39.200012
 40
2.000000
 50
40.788212
 51
90.000000
  0
ARC
  8
0
 62
     4
 10
120.250000
 20
39.200012
 40
2.000000
 50
90.000000
 51
180.000000
  0
ARC
  8
0
 62
     4
 10
121.750000
 20
39.200012
 40
2.000000
 50
0.000000
 51
90.000000
  0
ARC
  8
0
 62
     4
 10
100.250000
 20
39.200012
 40
2.000000
 50
90.000000
 51
139.458298
  0
ARC
  8
0
 10
37.000015
 20
-21.000000
 40
3.000000
 50
0.000000
 51
0.399688
  0
ARC
  8
0
 10
37.000015
 20
-20.500000
 40
3.000000
 50
0.000000
 51
2.505093
  0
ARC
  8
0
 10
37.000015
 20
-22.000000
 40
3.000000
 50
0.000000
 51
0.399688
  0
ARC
  8
0
 10
37.000015
 20
-21.500000
 40
3.000000
 50
0.000000
 51
2.505093
  0
ARC
  8
0
 10
37.000015
 20
-21.500000
 40
3.000000
 50
0.000000
 51
2.440335
  0
CIRCLE
  8
0
 10
46.000000
 20
6.500000
 40
2.250000
  0
ARC
  8
0
 10
43.000015
 20
3.500000
 40
1.000000
 50
179.999985
 51
270.000000
  0
CIRCLE
  8
0
 10
12.000015
 20
-52.000000
 40
2.250000
  0
ARC
  8
0
 10
15.000015
 20
-48.500000
 40
1.000000
 50
0.000000
 51
90.000000
  0
ARC
  8
0
 10
19.000015
 20
-13.500000
 40
3.000000
 50
0.000000
 51
90.000000
  0
ARC
  8
0
 10
19.000015
 20
-39.500000
 40
3.000000
 50
0.000000
 51
90.000000
  0
ARC
  8
0
 10
36.500015
 20
-46.500000
 40
2.500000
 50
90.000000
 51
270.000000
  0
ARC
  8
0
 10
19.500015
 20
-6.500000
 40
2.500000
 50
0.000000
 51
90.000000
  0
ARC
  8
0
 10
19.000015
 20
-39.500000
 40
3.000000
 50
270.000000
 51
0.000000
  0
ARC
  8
0
 10
19.000015
 20
-13.500000
 40
3.000000
 50
270.000000
 51
0.000000
  0
ARC
  8
0
 10
37.000015
 20
-21.500000
 40
3.000000
 50
90.000000
 51
270.000000
  0
ARC
  8
0
 10
19.500015
 20
-6.500000
 40
2.500000
 50
270.000000
 51
0.000000
  0
CIRCLE
  8
0
 10
19.000015
 20
-39.500000
 40
2.500000
  0
CIRCLE
  8
0
 10
19.000015
 20
-13.500000
 40
2.500000
  0
CIRCLE
  8
0
 10
37.000015
 20
-21.500000
 40
2.500000
  0
CIRCLE
  8
0
 10
36.500015
 20
-46.500000
 40
2.250000
  0
CIRCLE
  8
0
 10
19.500015
 20
-6.500000
 40
2.250000
  0
CIRCLE
  8
0
 62
     2
 10
145.000000
 20
-26.500000
 40
6.578500
  0
CIRCLE
  8
0
 10
145.000000
 20
-26.500000
 40
5.722500
  0
ARC
  8
0
 10
134.599945
 20
13.400024
 40
0.799999
 50
90.000000
 51
151.046814
  0
ARC
  8
0
 10
135.399933
 20
13.400024
 40
0.799999
 50
28.953123
 51
90.000000
  0
ARC
  8
0
 10
151.899933
 20
13.400024
 40
0.799999
 50
28.953123
 51
90.000000
  0
ARC
  8
0
 10
151.099945
 20
13.400024
 40
0.799999
 50
90.000000
 51
151.046814
  0
ARC
  8
0
 10
92.800018
 20
-22.500000
 40
2.000000
 50
180.000000
 51
241.044662
  0
ARC
  8
0
 10
92.800018
 20
-20.500000
 40
2.000001
 50
118.955528
 51
180.000000
  0
ARC
  8
0
 10
91.884857
 20
-18.950012
 40
0.200001
 50
90.000000
 51
120.556580
  0
ARC
  8
0
 10
91.499969
 20
-43.299988
 40
1.699997
 50
180.000000
 51
238.533295
  0
ARC
  8
0
 62
     4
 10
-113.702011
 20
-12.830132
 40
2.555820
 50
325.615723
 51
34.384285
  0
ARC
  8
0
 62
     4
 10
-120.699585
 20
-8.500000
 40
9.553394
 50
342.412018
 51
17.587990
  0
ARC
  8
0
 62
     4
 10
-113.702011
 20
-4.169876
 40
2.555828
 50
325.615753
 51
34.384045
  0
CIRCLE
  8
0
 62
     4
 10
-123.646194
 20
-8.500000
 40
2.000000
  0
ARC
  8
0
 62
     4
 10
-123.563034
 20
-4.181625
 40
2.583141
 50
146.343048
 51
213.656937
  0
ARC
  8
0
 62
     4
 10
-116.307114
 20
-8.500000
 40
9.839068
 50
162.938583
 51
197.061401
  0
ARC
  8
0
 62
     4
 10
-123.563065
 20
-12.818375
 40
2.583132
 50
146.343048
 51
213.656952
  0
ARC
  8
0
 62
     4
 10
-115.729324
 20
-4.181625
 40
2.583141
 50
326.343048
 51
33.656918
  0
ARC
  8
0
 62
     4
 10
-122.985245
 20
-8.500000
 40
9.839069
 50
342.938568
 51
17.061378
  0
ARC
  8
0
 62
     4
 10
-115.729324
 20
-12.818375
 40
2.583133
 50
326.343018
 51
33.656937
  0
ARC
  8
0
 62
     4
 10
-113.702011
 20
-48.830132
 40
2.555820
 50
325.615723
 51
34.384266
  0
ARC
  8
0
 62
     4
 10
-120.699585
 20
-44.500000
 40
9.553394
 50
342.412018
 51
17.587986
  0
ARC
  8
0
 62
     4
 10
-113.702011
 20
-40.169876
 40
2.555828
 50
325.615753
 51
34.384075
  0
CIRCLE
  8
0
 62
     4
 10
-123.646194
 20
-44.500000
 40
2.000000
  0
ARC
  8
0
 62
     4
 10
-123.563034
 20
-40.181625
 40
2.583141
 50
146.343063
 51
213.656937
  0
ARC
  8
0
 62
     4
 10
-116.307114
 20
-44.500000
 40
9.839068
 50
162.938583
 51
197.061401
  0
ARC
  8
0
 62
     4
 10
-123.563065
 20
-48.818375
 40
2.583132
 50
146.343048
 51
213.656952
  0
ARC
  8
0
 62
     4
 10
-115.729324
 20
-40.181625
 40
2.583141
 50
326.343079
 51
33.656933
  0
ARC
  8
0
 62
     4
 10
-122.985245
 20
-44.500000
 40
9.839069
 50
342.938568
 51
17.061373
  0
ARC
  8
0
 62
     4
 10
-115.729324
 20
-48.818375
 40
2.583132
 50
326.343048
 51
33.656956
  0
CIRCLE
  8
0
 62
     4
 10
-60.666672
 20
-8.500000
 40
5.000000
  0
CIRCLE
  8
0
 62
     1
 10
-60.666672
 20
-8.500000
 40
3.500000
  0
CIRCLE
  8
0
 62
     4
 10
-60.666672
 20
-8.500000
 40
4.000000
  0
CIRCLE
  8
0
 62
     4
 10
-66.666672
 20
-44.500000
 40
5.000000
  0
CIRCLE
  8
0
 62
     1
 10
-66.666672
 20
-44.500000
 40
3.500000
  0
CIRCLE
  8
0
 62
     4
 10
-66.666672
 20
-44.500000
 40
4.000000
  0
CIRCLE
  8
0
 62
     4
 10
57.500000
 20
-6.500000
 40
2.500000
  0
ARC
  8
0
 62
     4
 10
61.921844
 20
-0.437820
 40
3.578155
 50
325.615814
 51
34.384197
  0
ARC
  8
0
 62
     4
 10
61.921852
 20
-12.562180
 40
3.578150
 50
325.615723
 51
34.384239
  0
ARC
  8
0
 62
     4
 10
52.125191
 20
-6.500000
 40
13.374810
 50
342.412079
 51
17.587923
  0
ARC
  8
0
 62
     4
 10
58.078156
 20
-0.437820
 40
3.578157
 50
145.615768
 51
214.384125
  0
ARC
  8
0
 62
     4
 10
67.874817
 20
-6.500000
 40
13.374811
 50
162.412048
 51
197.587891
  0
ARC
  8
0
 62
     4
 10
58.078148
 20
-12.562180
 40
3.578149
 50
145.615738
 51
214.384216
  0
ARC
  8
0
 62
     4
 10
64.944168
 20
-2.169876
 40
2.555828
 50
325.615753
 51
34.384045
  0
ARC
  8
0
 62
     4
 10
64.944183
 20
-10.830132
 40
2.555820
 50
325.615723
 51
34.384285
  0
ARC
  8
0
 62
     4
 10
57.946602
 20
-6.500000
 40
9.553394
 50
342.412018
 51
17.587990
  0
CIRCLE
  8
0
 62
     4
 10
57.500000
 20
-46.500000
 40
2.500000
  0
ARC
  8
0
 62
     4
 10
61.921844
 20
-40.437820
 40
3.578156
 50
325.615814
 51
34.384193
  0
ARC
  8
0
 62
     4
 10
61.921852
 20
-52.562180
 40
3.578149
 50
325.615723
 51
34.384262
  0
ARC
  8
0
 62
     4
 10
52.125191
 20
-46.500000
 40
13.374810
 50
342.412079
 51
17.587915
  0
ARC
  8
0
 62
     4
 10
58.078156
 20
-40.437820
 40
3.578158
 50
145.615753
 51
214.384109
  0
ARC
  8
0
 62
     4
 10
67.874817
 20
-46.500000
 40
13.374811
 50
162.412048
 51
197.587891
  0
ARC
  8
0
 62
     4
 10
58.078148
 20
-52.562180
 40
3.578149
 50
145.615738
 51
214.384232
  0
ARC
  8
0
 62
     4
 10
64.944168
 20
-42.169876
 40
2.555828
 50
325.615753
 51
34.384075
  0
ARC
  8
0
 62
     4
 10
64.944183
 20
-50.830132
 40
2.555820
 50
325.615723
 51
34.384266
  0
ARC
  8
0
 62
     4
 10
57.946602
 20
-46.500000
 40
9.553394
 50
342.412018
 51
17.587986
  0
CIRCLE
  8
0
 62
     4
 10
151.500000
 20
-6.500000
 40
7.000000
  0
CIRCLE
  8
0
 62
     1
 10
151.500000
 20
-6.500000
 40
3.500000
  0
CIRCLE
  8
0
 62
     4
 10
151.500000
 20
-6.500000
 40
4.000000
  0
CIRCLE
  8
0
 62
     4
 10
151.500000
 20
-6.500000
 40
5.000000
  0
CIRCLE
  8
0
 62
     4
 10
151.500000
 20
-46.500000
 40
7.000000
  0
CIRCLE
  8
0
 62
     1
 10
151.500000
 20
-46.500000
 40
3.500000
  0
CIRCLE
  8
0
 62
     4
 10
151.500000
 20
-46.500000
 40
4.000000
  0
CIRCLE
  8
0
 62
     4
 10
151.500000
 20
-46.500000
 40
5.000000
  0
TEXT
  8
0
 10
115.907150
 20
122.050003
 40
4.500000
  1
DATE : NOV ,1993
 50
0.000000
 41
1.052631
 51
0.000000
  7
STANDARD
  0
TEXT
  8
0
 10
113.700279
 20
-130.669998
 40
6.300000
  1
KOGANEI CORP.
 50
0.000000
 41
1.052632
 51
0.000000
  7
STANDARD
  0
TEXT
  8
0
 10
-167.892654
 20
122.050003
 40
4.500000
  1
240 S.C
 50
0.000000
 41
1.052632
 51
0.000000
  7
STANDARD
  0
TEXT
  8
0
 10
7.632338
 20
96.550003
 40
4.500000
  1
FOR A240TYPE,W240TYPE
 50
0.000000
 41
1.052632
 51
0.000000
  7
STANDARD
  0
TEXT
  8
0
 10
-57.473671
 20
-36.380001
 40
3.200000
  1
P
 50
0.000000
 41
1.052632
 51
0.000000
  7
STANDARD
  0
TEXT
  8
0
 10
-70.073669
 20
-4.380000
 40
3.200000
  1
R1
 50
0.000000
 41
1.052632
 51
0.000000
  7
STANDARD
  0
TEXT
  8
0
 10
-64.073677
 20
-52.380001
 40
3.200000
  1
R2
 50
0.000000
 41
1.052632
 51
0.000000
  7
STANDARD
  0
TEXT
  8
0
 10
164.699997
 20
-9.678437
 40
3.000000
  1
R1
 50
90.000000
 41
1.052631
 51
0.000000
  7
STANDARD
  0
TEXT
  8
0
 10
164.699997
 20
-49.678436
 40
3.000000
  1
R2
 50
90.000000
 41
1.052631
 51
0.000000
  7
STANDARD
  0
TEXT
  8
0
 10
158.199997
 20
-28.178438
 40
3.000000
  1
P
 50
90.000000
 41
1.052631
 51
0.000000
  7
STANDARD
  0
TEXT
  8
0
 10
-186.892654
 20
96.550003
 40
4.500000
  1
FOR 240TYPE
 50
0.000000
 41
1.052632
 51
0.000000
  7
STANDARD
  0
TEXT
  8
0
 10
-186.892654
 20
104.550003
 40
4.500000
  1
MODEL:240-4E1-21-70
 50
0.000000
 41
1.052632
 51
0.000000
  7
STANDARD
  0
TEXT
  8
0
 10
7.632338
 20
104.550003
 40
4.500000
  1
MODEL:A240-4E1-70
 50
0.000000
 41
1.052632
 51
0.000000
  7
STANDARD
  0
ENDSEC
  0
EOF
