  0
SECTION
  2
HEADER
  0
ENDSEC
  0
SECTION
  2
TABLES
  0
TABLE
  2
LTYPE
 70
     4
  0
LTYPE
  2
CONTINUOUS
 70
    64
  3
Solid line
 72
    65
 73
     0
 40
0.000000
  0
LTYPE
  2
DASHED
 70
    64
  3
__ __ __ __ __ __ __ __ __ __ __ __ __ __ __
 72
    65
 73
     2
 40
3.500000
 49
2.000000
 49
-1.500000
  0
LTYPE
  2
CENTER
 70
    64
  3
____ _ ____ _ ____ _ ____ _ ____ _ ____ _ ____
 72
    65
 73
     4
 40
17.500000
 49
13.000000
 49
-1.500000
 49
1.500000
 49
-1.500000
  0
LTYPE
  2
PHANTOM
 70
    64
  3
_____ _ _ _____ _ _ _____ _ _ _____ _ _ ____  
 72
    65
 73
     6
 40
15.500000
 49
8.000000
 49
-1.500000
 49
1.500000
 49
-1.500000
 49
1.500000
 49
-1.500000
  0
LTYPE
  2
DASHED1
 70
    64
  3
__ __ __ __ __ __ __ __ __ __ __ __ __ __ __
 72
    65
 73
     2
 40
1.500000
 49
1.000000
 49
-0.500000
  0
LTYPE
  2
DASHED2
 70
    64
  3
__ __ __ __ __ __ __ __ __ __ __ __ __ __ __
 72
    65
 73
     2
 40
3.500000
 49
2.500000
 49
-1.000000
  0
LTYPE
  2
DASHED3
 70
    64
  3
__ __ __ __ __ __ __ __ __ __ __ __ __ __ __
 72
    65
 73
     2
 40
6.000000
 49
4.000000
 49
-2.000000
  0
LTYPE
  2
DASHED4
 70
    64
  3
__ __ __ __ __ __ __ __ __ __ __ __ __ __ __
 72
    65
 73
     2
 40
12.000000
 49
10.000000
 49
-2.000000
  0
LTYPE
  2
DASHED5
 70
    64
  3
__ __ __ __ __ __ __ __ __ __ __ __ __ __ __
 72
    65
 73
     2
 40
17.000000
 49
15.000000
 49
-2.000000
  0
LTYPE
  2
DASHED6
 70
    64
  3
__ __ __ __ __ __ __ __ __ __ __ __ __ __ __
 72
    65
 73
     2
 40
29.000000
 49
27.000000
 49
-2.000000
  0
LTYPE
  2
PHANTOM1
 70
    64
  3
_____ _ _ _____ _ _ _____ _ _ _____ _ _ ____  
 72
    65
 73
     6
 40
31.000000
 49
25.000000
 49
-1.500000
 49
1.000000
 49
-1.000000
 49
1.000000
 49
-1.500000
  0
LTYPE
  2
PHANTOM2
 70
    64
  3
_____ _ _ _____ _ _ _____ _ _ _____ _ _ ____  
 72
    65
 73
     6
 40
36.000000
 49
27.000000
 49
-1.500000
 49
2.500000
 49
-1.000000
 49
2.500000
 49
-1.500000
  0
LTYPE
  2
PHANTOM3
 70
    64
  3
_____ _ _ _____ _ _ _____ _ _ _____ _ _ ____  
 72
    65
 73
     6
 40
78.000000
 49
64.000000
 49
-2.000000
 49
4.000000
 49
-2.000000
 49
4.000000
 49
-2.000000
  0
LTYPE
  2
CENTER1
 70
    64
  3
____ _ ____ _ ____ _ ____ _ ____ _ ____ _ ____
 72
    65
 73
     4
 40
19.000000
 49
14.000000
 49
-1.000000
 49
3.000000
 49
-1.000000
  0
LTYPE
  2
CENTER2
 70
    64
  3
____ _ ____ _ ____ _ ____ _ ____ _ ____ _ ____
 72
    65
 73
     4
 40
28.500000
 49
25.000000
 49
-1.000000
 49
1.500000
 49
-1.000000
  0
LTYPE
  2
CENTER3
 70
    64
  3
____ _ ____ _ ____ _ ____ _ ____ _ ____ _ ____
 72
    65
 73
     4
 40
31.500000
 49
27.000000
 49
-1.000000
 49
2.500000
 49
-1.000000
  0
LTYPE
  2
CENTER4
 70
    64
  3
____ _ ____ _ ____ _ ____ _ ____ _ ____ _ ____
 72
    65
 73
     4
 40
50.000000
 49
45.000000
 49
-1.000000
 49
3.000000
 49
-1.000000
  0
LTYPE
  2
CENTER5
 70
    64
  3
____ _ ____ _ ____ _ ____ _ ____ _ ____ _ ____
 72
    65
 73
     4
 40
100.000000
 49
92.000000
 49
-2.000000
 49
4.000000
 49
-2.000000
  0
LTYPE
  2
SBK1
 70
    64
  3
______ _ _ _ ______ _ _ _ ______ _ _ _ _____  
 72
    65
 73
     8
 40
60.500000
 49
45.000000
 49
-2.000000
 49
2.500000
 49
-2.000000
 49
2.500000
 49
-2.000000
 49
2.500000
 49
-2.000000
  0
LTYPE
  2
SBK2
 70
    64
  3
______ _ _ _ ______ _ _ _ ______ _ _ _ _____  
 72
    65
 73
     8
 40
84.000000
 49
64.000000
 49
-2.000000
 49
4.000000
 49
-2.000000
 49
4.000000
 49
-2.000000
 49
4.000000
 49
-2.000000
  0
LTYPE
  2
STCH
 70
    64
  3
__ __ __ __ __ __ __ __ __ __ __ __ __ __ __
 72
    65
 73
     2
 40
3.000000
 49
1.000000
 49
-2.000000
  0
LTYPE
  2
MTCH
 70
    64
  3
_____ _ _ _____ _ _ _____ _ _ _____ _ _ ____  
 72
    65
 73
     6
 40
80.000000
 49
66.000000
 49
-2.000000
 49
4.000000
 49
-2.000000
 49
4.000000
 49
-2.000000
  0
ENDTAB
  0
TABLE
  2
LAYER
 70
     1
  0
LAYER
  2
0
 70
     0
 62
     7
  6
CONTINUOUS
  0
ENDTAB
  0
TABLE
  2
STYLE
 70
     1
  0
STYLE
  2
STANDARD
 70
     0
 40
0.000000
 41
1.000000
 50
0.000000
 71
     0
 42
0.200000
  3
txt
  4
BIGFONT
  0
ENDTAB
  0
TABLE
  2
VIEW
 70
     0
  0
ENDTAB
  0
ENDSEC
  0
SECTION
  2
BLOCKS
  0
ENDSEC
  0
SECTION
  2
ENTITIES
  0
LINE
  8
0
 10
-194.250000
 20
132.600006
 11
194.800003
 21
132.600006
  0
LINE
  8
0
 10
194.800003
 20
132.600006
 11
194.800003
 21
-133.500000
  0
LINE
  8
0
 10
-194.250000
 20
132.600006
 11
-194.250000
 21
-133.500000
  0
LINE
  8
0
 10
-194.250000
 20
-133.500000
 11
194.800003
 21
-133.500000
  0
LINE
  8
0
 10
109.800003
 20
-118.500000
 11
109.800003
 21
-133.500000
  0
LINE
  8
0
 10
109.800003
 20
-118.500000
 11
194.800003
 21
-118.500000
  0
LINE
  8
0
 10
109.800003
 20
132.600006
 11
109.800003
 21
117.600006
  0
LINE
  8
0
 10
109.800003
 20
117.600006
 11
194.800003
 21
117.600006
  0
LINE
  8
0
 10
-194.250000
 20
117.600006
 11
-109.250000
 21
117.600006
  0
LINE
  8
0
 10
-109.250000
 20
132.600006
 11
-109.250000
 21
117.600006
  0
LINE
  8
0
 10
-76.390884
 20
58.911446
 11
-78.446602
 21
60.967167
  0
LINE
  8
0
 10
-76.318779
 20
61.160782
 11
-78.510468
 21
58.969097
  0
LINE
  8
0
 10
-94.390755
 20
18.911537
 11
-96.446480
 21
20.967255
  0
LINE
  8
0
 10
-94.318756
 20
21.160812
 11
-96.510468
 21
18.969099
  0
LINE
  8
0
  6
CENTER
 62
     2
 10
-91.979523
 20
51.000000
 11
-76.979523
 21
51.000000
  0
LINE
  8
0
  6
CENTER
 62
     2
 10
-84.479523
 20
58.500000
 11
-84.479523
 21
43.500000
  0
LINE
  8
0
  6
CENTER
 62
     2
 10
-88.479523
 20
36.500000
 11
-88.479523
 21
21.500000
  0
LINE
  8
0
  6
CENTER
 62
     2
 10
-95.979523
 20
29.000000
 11
-80.979523
 21
29.000000
  0
LINE
  8
0
 10
-95.479523
 20
17.000000
 11
-97.979523
 21
17.000000
  0
LINE
  8
0
 10
-95.479523
 20
23.000000
 11
-97.979523
 21
23.000000
  0
LINE
  8
0
 10
-77.479523
 20
63.000000
 11
-74.979523
 21
63.000000
  0
LINE
  8
0
 10
-77.479523
 20
57.000000
 11
-74.979523
 21
57.000000
  0
LINE
  8
0
  6
CENTER
 62
     2
 10
-86.479523
 20
108.368912
 11
-86.479523
 21
-29.000000
  0
LINE
  8
0
 10
-74.979523
 20
13.500000
 11
-97.979523
 21
13.500000
  0
LINE
  8
0
 10
-74.979523
 20
66.500000
 11
-97.979523
 21
66.500000
  0
LINE
  8
0
 10
-97.979515
 20
-4.000000
 11
-74.979515
 21
-4.000000
  0
LINE
  8
0
 10
-74.979523
 20
84.000000
 11
-97.979523
 21
84.000000
  0
LINE
  8
0
 10
-97.979523
 20
84.000000
 11
-97.979523
 21
-4.000000
  0
LINE
  8
0
 10
-74.979523
 20
84.000000
 11
-74.979523
 21
-4.000000
  0
LINE
  8
0
  6
CENTER
 62
     2
 10
-95.479523
 20
24.000000
 11
-95.479523
 21
16.000000
  0
LINE
  8
0
  6
CENTER
 62
     2
 10
-99.479523
 20
20.000000
 11
-91.479523
 21
20.000000
  0
LINE
  8
0
  6
CENTER
 62
     2
 10
-77.479523
 20
64.000000
 11
-77.479523
 21
56.000000
  0
LINE
  8
0
  6
CENTER
 62
     2
 10
-81.479523
 20
60.000000
 11
-73.479523
 21
60.000000
  0
LINE
  8
0
 62
     4
 10
-74.979523
 20
105.000000
 11
-74.979523
 21
84.000000
  0
LINE
  8
0
 62
     4
 10
-97.979523
 20
105.000000
 11
-97.979523
 21
84.000000
  0
LINE
  8
0
 62
     4
 10
-74.979523
 20
104.000000
 11
-97.979523
 21
104.000000
  0
LINE
  8
0
 62
     4
 10
-74.979523
 20
105.000000
 11
-97.979523
 21
105.000000
  0
LINE
  8
0
 62
     4
 10
-96.979340
 20
106.999939
 11
-97.979347
 21
104.999924
  0
LINE
  8
0
 62
     4
 10
-75.979584
 20
107.000000
 11
-96.979462
 21
107.000000
  0
LINE
  8
0
 62
     4
 10
-77.729523
 20
107.700012
 11
-79.229523
 21
107.700012
  0
LINE
  8
0
 62
     4
 10
-93.729523
 20
107.700012
 11
-95.229523
 21
107.700012
  0
LINE
  8
0
 62
     4
 10
-74.979523
 20
103.000000
 11
-97.979523
 21
103.000000
  0
LINE
  8
0
 62
     4
 10
-85.179535
 20
98.699997
 11
-87.779510
 21
98.699997
  0
LINE
  8
0
 62
     4
 10
-85.179535
 20
95.300003
 11
-87.779510
 21
95.300003
  0
LINE
  8
0
 62
     4
 10
-75.979813
 20
106.999878
 11
-74.979813
 21
104.999863
  0
LINE
  8
0
 62
     4
 10
-97.979523
 20
-25.000000
 11
-97.979523
 21
-3.999998
  0
LINE
  8
0
 62
     4
 10
-74.979523
 20
-25.000000
 11
-74.979523
 21
-4.000002
  0
LINE
  8
0
 62
     4
 10
-97.979523
 20
-24.000000
 11
-74.979523
 21
-24.000000
  0
LINE
  8
0
 62
     4
 10
-97.979523
 20
-25.000000
 11
-74.979523
 21
-25.000000
  0
LINE
  8
0
 62
     4
 10
-75.979706
 20
-26.999941
 11
-74.979698
 21
-24.999926
  0
LINE
  8
0
 62
     4
 10
-96.979462
 20
-27.000000
 11
-75.979584
 21
-27.000000
  0
LINE
  8
0
 62
     4
 10
-95.229523
 20
-27.700012
 11
-93.729523
 21
-27.700012
  0
LINE
  8
0
 62
     4
 10
-79.229523
 20
-27.700012
 11
-77.729523
 21
-27.700012
  0
LINE
  8
0
 62
     4
 10
-97.979523
 20
-23.000000
 11
-74.979523
 21
-23.000000
  0
LINE
  8
0
 62
     4
 10
-87.779510
 20
-18.699997
 11
-85.179535
 21
-18.699997
  0
LINE
  8
0
 62
     4
 10
-87.779510
 20
-15.300003
 11
-85.179535
 21
-15.300003
  0
LINE
  8
0
 62
     4
 10
-96.979233
 20
-26.999876
 11
-97.979240
 21
-24.999859
  0
LINE
  8
0
 10
10.000000
 20
84.000000
 11
10.000000
 21
-4.000000
  0
LINE
  8
0
 10
10.000000
 20
84.000000
 11
-25.000000
 21
84.000000
  0
LINE
  8
0
  6
CENTER
 62
     2
 10
2.000000
 20
54.210747
 11
2.000000
 21
24.718872
  0
LINE
  8
0
 10
-25.000000
 20
66.500000
 11
10.000000
 21
66.500000
  0
LINE
  8
0
  6
CENTER
 62
     2
 10
-2.000000
 20
49.800003
 11
6.000000
 21
49.800003
  0
LINE
  8
0
  6
CENTER
 62
     2
 10
-2.000000
 20
30.200001
 11
6.000000
 21
30.200001
  0
LINE
  8
0
 10
-25.000000
 20
13.500000
 11
10.000000
 21
13.500000
  0
LINE
  8
0
 10
10.000000
 20
-4.000000
 11
-25.000000
 21
-4.000000
  0
LINE
  8
0
 10
-25.000000
 20
84.000000
 11
-25.000000
 21
-4.000000
  0
LINE
  8
0
 10
-22.000000
 20
63.000000
 11
-22.000000
 21
57.000000
  0
LINE
  8
0
 10
-25.000000
 20
63.000000
 11
-22.000000
 21
63.000000
  0
LINE
  8
0
 10
-25.000000
 20
57.000000
 11
-22.000000
 21
57.000000
  0
LINE
  8
0
 10
-23.668282
 20
57.250008
 11
-22.000000
 21
57.250008
  0
LINE
  8
0
 10
-23.668282
 20
62.749992
 11
-22.000000
 21
62.749992
  0
LINE
  8
0
 10
-22.700012
 20
62.749992
 11
-22.700012
 21
57.250008
  0
LINE
  8
0
 10
-24.700012
 20
61.000008
 11
-24.700012
 21
58.999992
  0
LINE
  8
0
 10
10.000000
 20
-4.000000
 11
-25.000000
 21
-4.000000
  0
LINE
  8
0
  6
CENTER
 62
     2
 10
7.500000
 20
60.000000
 11
12.500000
 21
60.000000
  0
LINE
  8
0
  6
CENTER
 62
     2
 10
7.500000
 20
20.000000
 11
12.500000
 21
20.000000
  0
LINE
  8
0
 62
     4
 10
-25.000000
 20
105.000000
 11
-25.000000
 21
84.000000
  0
LINE
  8
0
 62
     4
 10
10.000000
 20
104.000000
 11
-25.000000
 21
104.000000
  0
LINE
  8
0
 62
     4
 10
10.000000
 20
104.000000
 11
10.000000
 21
84.000000
  0
LINE
  8
0
 62
     4
 10
10.000000
 20
105.000000
 11
-25.000000
 21
105.000000
  0
LINE
  8
0
 62
     4
 10
10.000000
 20
105.000000
 11
10.000000
 21
104.000000
  0
LINE
  8
0
 62
     4
 10
10.000051
 20
105.000038
 11
9.000044
 21
107.000053
  0
LINE
  8
0
 62
     4
 10
-1.500000
 20
107.000000
 11
-1.500000
 21
105.000000
  0
LINE
  8
0
 62
     4
 10
-23.999796
 20
106.999947
 11
-24.999817
 21
104.999901
  0
LINE
  8
0
 62
     4
 10
-0.250000
 20
105.700012
 11
5.250000
 21
105.700012
  0
LINE
  8
0
 62
     4
 10
5.250000
 20
105.700012
 11
5.250000
 21
105.000000
  0
LINE
  8
0
 62
     4
 10
-0.250000
 20
105.700012
 11
-0.250000
 21
105.000000
  0
LINE
  8
0
 62
     4
 10
1.750000
 20
107.700012
 11
3.250000
 21
107.700012
  0
LINE
  8
0
 62
     4
 10
-18.250000
 20
107.700012
 11
-16.750000
 21
107.700012
  0
LINE
  8
0
 62
     4
 10
8.999969
 20
107.000000
 11
4.769867
 21
107.000000
  0
LINE
  8
0
 62
     4
 10
0.230133
 20
107.000000
 11
-23.999908
 21
107.000000
  0
LINE
  8
0
 62
     4
 10
-37.000000
 20
96.149994
 11
-33.004242
 21
96.149994
  0
LINE
  8
0
 62
     4
 10
-37.000000
 20
97.850006
 11
-32.548706
 21
97.850006
  0
LINE
  8
0
 62
     4
 10
-47.000031
 20
96.679993
 11
-37.000000
 21
96.679993
  0
LINE
  8
0
 62
     4
 10
-47.000031
 20
97.319992
 11
-37.000000
 21
97.319992
  0
LINE
  8
0
 62
     4
 10
-37.000031
 20
97.849976
 11
-37.000031
 21
96.149979
  0
LINE
  8
0
 62
     4
 10
-47.000031
 20
97.319977
 11
-47.000031
 21
96.679993
  0
LINE
  8
0
 62
     1
 10
-33.540092
 20
94.149956
 11
-32.012775
 21
99.849968
  0
LINE
  8
0
 62
     1
 10
-31.987070
 20
94.149933
 11
-30.459761
 21
99.849922
  0
LINE
  8
0
 62
     4
 10
-31.451324
 20
96.149994
 11
-26.999969
 21
96.149994
  0
LINE
  8
0
 62
     4
 10
-30.995789
 20
97.850006
 11
-26.999969
 21
97.850006
  0
LINE
  8
0
 62
     4
 10
-27.000000
 20
95.300003
 11
-25.000000
 21
95.300003
  0
LINE
  8
0
 62
     4
 10
-27.000031
 20
98.699982
 11
-27.000031
 21
95.299988
  0
LINE
  8
0
 62
     4
 10
-27.000000
 20
98.699997
 11
-25.000000
 21
98.699997
  0
LINE
  8
0
 62
     4
 10
6.500000
 20
107.000000
 11
6.500000
 21
105.000000
  0
LINE
  8
0
  6
CENTER
 62
     1
 10
-49.051239
 20
97.000000
 11
-22.989441
 21
97.000000
  0
LINE
  8
0
 62
     4
 10
-25.000000
 20
-25.000000
 11
-25.000000
 21
-4.000000
  0
LINE
  8
0
 62
     4
 10
10.000000
 20
-24.000000
 11
-25.000000
 21
-24.000000
  0
LINE
  8
0
 62
     4
 10
10.000000
 20
-24.000000
 11
10.000000
 21
-4.000000
  0
LINE
  8
0
 62
     4
 10
10.000000
 20
-25.000000
 11
-25.000000
 21
-25.000000
  0
LINE
  8
0
 62
     4
 10
10.000000
 20
-25.000000
 11
10.000000
 21
-24.000000
  0
LINE
  8
0
 62
     4
 10
10.000048
 20
-25.000036
 11
9.000041
 21
-27.000051
  0
LINE
  8
0
 62
     4
 10
-13.500000
 20
-27.000000
 11
-13.500000
 21
-25.000000
  0
LINE
  8
0
 62
     4
 10
-23.999794
 20
-26.999949
 11
-24.999813
 21
-24.999907
  0
LINE
  8
0
 62
     4
 10
-14.750000
 20
-25.700012
 11
-20.250000
 21
-25.700012
  0
LINE
  8
0
 62
     4
 10
-20.250000
 20
-25.700012
 11
-20.250000
 21
-25.000000
  0
LINE
  8
0
 62
     4
 10
-14.750000
 20
-25.700012
 11
-14.750000
 21
-25.000000
  0
LINE
  8
0
 62
     4
 10
-16.750000
 20
-27.700012
 11
-18.250000
 21
-27.700012
  0
LINE
  8
0
 62
     4
 10
3.250000
 20
-27.700012
 11
1.750000
 21
-27.700012
  0
LINE
  8
0
 62
     4
 10
-23.999969
 20
-27.000000
 11
-19.769867
 21
-27.000000
  0
LINE
  8
0
 62
     4
 10
-15.230133
 20
-27.000000
 11
8.999908
 21
-27.000000
  0
LINE
  8
0
 62
     4
 10
-37.000000
 20
-16.149994
 11
-33.004242
 21
-16.149994
  0
LINE
  8
0
 62
     4
 10
-37.000000
 20
-17.850006
 11
-32.548706
 21
-17.850006
  0
LINE
  8
0
 62
     4
 10
-47.000031
 20
-16.679993
 11
-37.000000
 21
-16.679993
  0
LINE
  8
0
 62
     4
 10
-47.000031
 20
-17.319992
 11
-37.000000
 21
-17.319992
  0
LINE
  8
0
 62
     4
 10
-37.000031
 20
-17.849976
 11
-37.000031
 21
-16.149979
  0
LINE
  8
0
 62
     4
 10
-47.000031
 20
-17.319977
 11
-47.000031
 21
-16.679993
  0
LINE
  8
0
 62
     1
 10
-33.540096
 20
-14.149961
 11
-32.012783
 21
-19.849970
  0
LINE
  8
0
 62
     1
 10
-31.987072
 20
-14.149935
 11
-30.459763
 21
-19.849920
  0
LINE
  8
0
 62
     4
 10
-31.451324
 20
-16.149994
 11
-26.999969
 21
-16.149994
  0
LINE
  8
0
 62
     4
 10
-30.995789
 20
-17.850006
 11
-26.999969
 21
-17.850006
  0
LINE
  8
0
 62
     4
 10
-27.000000
 20
-15.300003
 11
-25.000000
 21
-15.300003
  0
LINE
  8
0
 62
     4
 10
-27.000031
 20
-18.699982
 11
-27.000031
 21
-15.299988
  0
LINE
  8
0
 62
     4
 10
-27.000000
 20
-18.699997
 11
-25.000000
 21
-18.699997
  0
LINE
  8
0
 62
     4
 10
-21.500000
 20
-27.000000
 11
-21.500000
 21
-25.000000
  0
LINE
  8
0
  6
CENTER
 62
     1
 10
-49.051239
 20
-17.000000
 11
-22.989441
 21
-17.000000
  0
LINE
  8
0
  6
CENTER
 62
     2
 10
-86.479523
 20
-57.763321
 11
-86.479523
 21
-107.482590
  0
LINE
  8
0
  6
CENTER
 62
     2
 10
-95.479523
 20
-99.000000
 11
-95.479523
 21
-104.000000
  0
LINE
  8
0
  6
CENTER
 62
     2
 10
-77.479523
 20
-99.000000
 11
-77.479523
 21
-104.000000
  0
LINE
  8
0
 62
     4
 10
-74.979523
 20
-66.499992
 11
-74.979523
 21
-101.500000
  0
LINE
  8
0
 62
     4
 10
-97.979515
 20
-101.500000
 11
-74.979515
 21
-101.500000
  0
LINE
  8
0
 62
     4
 10
-97.979523
 20
-66.499992
 11
-97.979523
 21
-101.499992
  0
LINE
  8
0
 62
     4
 10
-95.567757
 20
-95.088951
 11
-93.512039
 21
-93.033234
  0
LINE
  8
0
 62
     4
 10
-95.640388
 20
-92.839287
 11
-93.448692
 21
-95.030983
  0
LINE
  8
0
 62
     4
 10
-78.479515
 20
-69.999992
 11
-74.979515
 21
-69.999992
  0
LINE
  8
0
 62
     4
 10
-94.479515
 20
-89.999992
 11
-97.979515
 21
-89.999992
  0
LINE
  8
0
 62
     4
 10
-94.479523
 20
-97.999992
 11
-97.979523
 21
-97.999992
  0
LINE
  8
0
 62
     4
 10
-77.391296
 20
-72.911110
 11
-79.447014
 21
-74.966835
  0
LINE
  8
0
 62
     4
 10
-77.318642
 20
-75.160751
 11
-79.510368
 21
-72.969032
  0
LINE
  8
0
 62
     4
 10
-78.479515
 20
-77.999992
 11
-74.979515
 21
-77.999992
  0
LINE
  8
0
 62
     1
 10
-83.629440
 20
-57.949413
 11
-89.329453
 21
-59.476742
  0
LINE
  8
0
 62
     1
 10
-83.629478
 20
-59.502331
 11
-89.329468
 21
-61.029644
  0
LINE
  8
0
  6
CENTER
 62
     1
 10
-85.179535
 20
-42.438187
 11
-85.179535
 21
-65.426712
  0
LINE
  8
0
 62
     4
 10
-86.029510
 20
-54.500000
 11
-86.029510
 21
-58.592468
  0
LINE
  8
0
 62
     4
 10
-84.329498
 20
-54.500000
 11
-84.329498
 21
-58.136948
  0
LINE
  8
0
 62
     4
 10
-85.499542
 20
-44.499969
 11
-85.499542
 21
-54.500000
  0
LINE
  8
0
 62
     4
 10
-84.859528
 20
-44.499969
 11
-84.859528
 21
-54.500000
  0
LINE
  8
0
 62
     4
 10
-84.329552
 20
-54.499962
 11
-86.029564
 21
-54.499962
  0
LINE
  8
0
 62
     4
 10
-84.859528
 20
-44.499969
 11
-85.499542
 21
-44.499969
  0
LINE
  8
0
 62
     4
 10
-88.629547
 20
-54.500000
 11
-88.629547
 21
-59.289139
  0
LINE
  8
0
 62
     4
 10
-86.929535
 20
-54.500000
 11
-86.929535
 21
-58.833618
  0
LINE
  8
0
 62
     4
 10
-88.099518
 20
-44.499969
 11
-88.099518
 21
-54.500000
  0
LINE
  8
0
 62
     4
 10
-87.459503
 20
-44.499969
 11
-87.459503
 21
-54.500000
  0
LINE
  8
0
 62
     4
 10
-86.929527
 20
-54.499962
 11
-88.629539
 21
-54.499962
  0
LINE
  8
0
 62
     4
 10
-87.459564
 20
-44.499969
 11
-88.099518
 21
-44.499969
  0
LINE
  8
0
  6
CENTER
 62
     1
 10
-87.779572
 20
-42.438187
 11
-87.779572
 21
-65.426712
  0
LINE
  8
0
 62
     4
 10
-88.629547
 20
-60.842117
 11
-88.629547
 21
-64.499992
  0
LINE
  8
0
 62
     4
 10
-86.929535
 20
-60.386597
 11
-86.929535
 21
-64.499992
  0
LINE
  8
0
 62
     4
 10
-86.029510
 20
-60.145432
 11
-86.029510
 21
-64.499992
  0
LINE
  8
0
 62
     4
 10
-84.329498
 20
-59.689926
 11
-84.329498
 21
-64.499992
  0
LINE
  8
0
 62
     4
 10
-96.979523
 20
-67.499992
 11
-96.979523
 21
-89.999992
  0
LINE
  8
0
 62
     4
 10
-75.979523
 20
-67.500000
 11
-75.979523
 21
-70.000000
  0
LINE
  8
0
 62
     4
 10
-96.979515
 20
-67.499992
 11
-75.979515
 21
-67.499992
  0
LINE
  8
0
 62
     4
 10
-96.979523
 20
-100.499992
 11
-75.979523
 21
-100.499992
  0
LINE
  8
0
 62
     4
 10
-97.979515
 20
-66.500000
 11
-96.979507
 21
-67.500000
  0
LINE
  8
0
 62
     4
 10
-74.979523
 20
-66.500015
 11
-75.979507
 21
-67.500000
  0
LINE
  8
0
 62
     4
 10
-74.979515
 20
-101.500000
 11
-75.979515
 21
-100.499992
  0
LINE
  8
0
 62
     4
 10
-97.979500
 20
-101.499992
 11
-96.979492
 21
-100.499985
  0
LINE
  8
0
 62
     4
 10
-96.979523
 20
-97.999992
 11
-96.979523
 21
-100.499992
  0
LINE
  8
0
 62
     4
 10
-75.979523
 20
-78.000000
 11
-75.979523
 21
-100.500000
  0
LINE
  8
0
 62
     4
 10
-83.479553
 20
-64.499992
 11
-89.479553
 21
-64.499992
  0
LINE
  8
0
 62
     4
 10
-83.479553
 20
-64.499992
 11
-83.479553
 21
-66.499992
  0
LINE
  8
0
 62
     4
 10
-89.479553
 20
-64.499992
 11
-89.479553
 21
-66.499992
  0
LINE
  8
0
 62
     4
 10
-97.979515
 20
-66.499992
 11
-74.979515
 21
-66.499992
  0
LINE
  8
0
  6
CENTER
 62
     2
 10
89.479492
 20
14.500000
 11
89.479492
 21
29.500000
  0
LINE
  8
0
  6
CENTER
 62
     2
 10
102.979492
 20
58.000000
 11
87.979492
 21
58.000000
  0
LINE
  8
0
  6
CENTER
 62
     2
 10
96.979492
 20
22.000000
 11
81.979492
 21
22.000000
  0
LINE
  8
0
  6
CENTER
 62
     2
 10
95.479492
 20
65.500000
 11
95.479492
 21
50.500000
  0
LINE
  8
0
  6
CENTER
 62
     2
 10
84.979492
 20
40.000000
 11
99.979492
 21
40.000000
  0
LINE
  8
0
  6
CENTER
 62
     2
 10
98.479492
 20
20.000000
 11
104.479492
 21
20.000000
  0
LINE
  8
0
  6
CENTER
 62
     2
 10
80.479492
 20
60.000000
 11
86.479492
 21
60.000000
  0
LINE
  8
0
  6
CENTER
 62
     2
 10
101.479492
 20
23.000000
 11
101.479492
 21
17.000000
  0
LINE
  8
0
  6
CENTER
 62
     2
 10
83.479492
 20
63.000000
 11
83.479492
 21
57.000000
  0
LINE
  8
0
 10
103.979492
 20
13.499996
 11
80.979492
 21
13.499996
  0
LINE
  8
0
 10
103.979492
 20
66.500000
 11
80.979492
 21
66.500000
  0
LINE
  8
0
 10
80.979492
 20
-4.000004
 11
103.979492
 21
-4.000004
  0
LINE
  8
0
 10
103.979492
 20
84.000000
 11
80.979492
 21
84.000000
  0
LINE
  8
0
  6
CENTER
 62
     2
 10
92.479492
 20
-28.368916
 11
92.479492
 21
109.000000
  0
LINE
  8
0
 10
80.979492
 20
84.000000
 11
80.979492
 21
-4.000004
  0
LINE
  8
0
 10
103.979492
 20
84.000000
 11
103.979492
 21
-4.000004
  0
LINE
  8
0
 62
     4
 10
80.979492
 20
105.000000
 11
80.979492
 21
84.000000
  0
LINE
  8
0
 62
     4
 10
103.979492
 20
105.000000
 11
103.979492
 21
84.000000
  0
LINE
  8
0
 62
     4
 10
80.979492
 20
104.000000
 11
103.979492
 21
104.000000
  0
LINE
  8
0
 62
     4
 10
80.979492
 20
105.000000
 11
103.979492
 21
105.000000
  0
LINE
  8
0
 62
     4
 10
102.979485
 20
107.000053
 11
103.979492
 21
105.000038
  0
LINE
  8
0
 62
     4
 10
83.729492
 20
107.700012
 11
85.229492
 21
107.700012
  0
LINE
  8
0
 62
     4
 10
99.729492
 20
107.700012
 11
101.229492
 21
107.700012
  0
LINE
  8
0
 62
     4
 10
81.979523
 20
107.000000
 11
102.979462
 21
107.000000
  0
LINE
  8
0
 62
     4
 10
80.979492
 20
103.000000
 11
103.979492
 21
103.000000
  0
LINE
  8
0
 62
     4
 10
81.979843
 20
106.999817
 11
80.979836
 21
104.999802
  0
LINE
  8
0
 62
     4
 10
103.979492
 20
-25.000008
 11
103.979492
 21
-4.000006
  0
LINE
  8
0
 62
     4
 10
80.979492
 20
-25.000000
 11
80.979492
 21
-4.000002
  0
LINE
  8
0
 62
     4
 10
103.979492
 20
-24.000004
 11
80.979492
 21
-24.000004
  0
LINE
  8
0
 62
     4
 10
103.979492
 20
-25.000004
 11
80.979492
 21
-25.000004
  0
LINE
  8
0
 62
     4
 10
81.979492
 20
-27.000055
 11
80.979485
 21
-25.000042
  0
LINE
  8
0
 62
     4
 10
101.229492
 20
-27.700016
 11
99.729492
 21
-27.700016
  0
LINE
  8
0
 62
     4
 10
85.229492
 20
-27.700016
 11
83.729492
 21
-27.700016
  0
LINE
  8
0
 62
     4
 10
102.979462
 20
-27.000004
 11
81.979523
 21
-27.000004
  0
LINE
  8
0
 62
     4
 10
103.979492
 20
-23.000004
 11
80.979492
 21
-23.000004
  0
LINE
  8
0
 62
     4
 10
102.979126
 20
-26.999836
 11
103.979134
 21
-24.999830
  0
CIRCLE
  8
0
 10
-95.479523
 20
20.000000
 40
2.250000
  0
CIRCLE
  8
0
 10
-77.479523
 20
60.000000
 40
2.250000
  0
CIRCLE
  8
0
 62
     2
 10
-84.479523
 20
51.000000
 40
6.578500
  0
CIRCLE
  8
0
 10
-84.479523
 20
51.000000
 40
5.722500
  0
CIRCLE
  8
0
 62
     2
 10
-88.479523
 20
29.000000
 40
6.578500
  0
CIRCLE
  8
0
 10
-88.479523
 20
29.000000
 40
5.722500
  0
ARC
  8
0
 10
-95.479523
 20
20.000000
 40
3.000000
 50
270.000000
 51
90.000000
  0
ARC
  8
0
 10
-77.479523
 20
60.000000
 40
3.000000
 50
90.000000
 51
270.000000
  0
CIRCLE
  8
0
 10
-86.479515
 20
-0.500000
 40
2.299999
  0
CIRCLE
  8
0
 10
-86.479515
 20
-0.500000
 40
1.500000
  0
CIRCLE
  8
0
 10
-86.479523
 20
80.500000
 40
2.299999
  0
CIRCLE
  8
0
 10
-86.479523
 20
80.500000
 40
1.500000
  0
CIRCLE
  8
0
 62
     4
 10
-87.779510
 20
97.000000
 40
0.850000
  0
CIRCLE
  8
0
 62
     4
 10
-85.179535
 20
97.000000
 40
0.850000
  0
ARC
  8
0
 62
     4
 10
-77.729523
 20
105.700012
 40
2.000003
 50
40.541080
 51
90.000000
  0
ARC
  8
0
 62
     4
 10
-79.229523
 20
105.700012
 40
2.000000
 50
90.000000
 51
139.458923
  0
ARC
  8
0
 62
     4
 10
-93.729523
 20
105.700012
 40
1.999996
 50
40.541531
 51
90.000000
  0
ARC
  8
0
 62
     4
 10
-95.229523
 20
105.700012
 40
2.000001
 50
84.816414
 51
90.000000
  0
ARC
  8
0
 62
     4
 10
-95.229523
 20
105.700012
 40
2.000000
 50
90.000000
 51
139.458298
  0
ARC
  8
0
 62
     4
 10
-85.179535
 20
97.000000
 40
1.699997
 50
269.999756
 51
90.000259
  0
ARC
  8
0
 62
     4
 10
-87.779510
 20
97.000000
 40
1.699997
 50
90.000000
 51
270.000000
  0
CIRCLE
  8
0
 62
     4
 10
-85.179535
 20
-17.000000
 40
0.850000
  0
CIRCLE
  8
0
 62
     4
 10
-87.779510
 20
-17.000000
 40
0.850000
  0
ARC
  8
0
 62
     4
 10
-95.229523
 20
-25.700012
 40
2.000001
 50
220.541031
 51
270.000000
  0
ARC
  8
0
 62
     4
 10
-93.729523
 20
-25.700012
 40
2.000000
 50
270.000000
 51
319.458954
  0
ARC
  8
0
 62
     4
 10
-79.229523
 20
-25.700012
 40
1.999998
 50
220.541611
 51
270.000000
  0
ARC
  8
0
 62
     4
 10
-77.729523
 20
-25.700012
 40
2.000001
 50
264.816406
 51
270.000000
  0
ARC
  8
0
 62
     4
 10
-77.729523
 20
-25.700012
 40
2.000000
 50
270.000000
 51
319.458344
  0
ARC
  8
0
 62
     4
 10
-87.779510
 20
-17.000000
 40
1.699997
 50
89.999741
 51
270.000244
  0
ARC
  8
0
 62
     4
 10
-85.179535
 20
-17.000000
 40
1.699997
 50
270.000000
 51
90.000259
  0
CIRCLE
  8
0
 10
2.000000
 20
49.800003
 40
1.650000
  0
CIRCLE
  8
0
 10
2.000000
 20
30.200001
 40
1.650000
  0
ARC
  8
0
 10
-22.700012
 20
61.000008
 40
1.999999
 50
118.955872
 51
180.000000
  0
ARC
  8
0
 10
-22.700012
 20
58.999992
 40
2.000000
 50
179.999893
 51
241.044128
  0
ARC
  8
0
 62
     4
 10
1.750000
 20
105.700012
 40
2.000000
 50
89.999985
 51
180.000000
  0
ARC
  8
0
 62
     4
 10
3.250000
 20
105.700012
 40
2.000000
 50
0.000000
 51
89.999977
  0
ARC
  8
0
 62
     4
 10
-18.250000
 20
105.700012
 40
2.000000
 50
90.000000
 51
139.458267
  0
ARC
  8
0
 62
     4
 10
-16.750000
 20
105.700012
 40
1.999998
 50
40.788128
 51
90.000000
  0
ARC
  8
0
 62
     4
 10
-16.750000
 20
-25.700012
 40
2.000000
 50
269.999939
 51
359.999939
  0
ARC
  8
0
 62
     4
 10
-18.250000
 20
-25.700012
 40
2.000000
 50
179.999939
 51
269.999939
  0
ARC
  8
0
 62
     4
 10
3.250000
 20
-25.700012
 40
2.000000
 50
269.999969
 51
319.458221
  0
ARC
  8
0
 62
     4
 10
1.750000
 20
-25.700012
 40
2.000000
 50
220.788162
 51
269.999969
  0
ARC
  8
0
 62
     4
 10
-94.479523
 20
-93.999992
 40
4.000000
 50
270.000000
 51
90.000000
  0
CIRCLE
  8
0
 62
     4
 10
-78.479515
 20
-73.999992
 40
2.750000
  0
CIRCLE
  8
0
 62
     4
 10
-94.479523
 20
-93.999992
 40
2.750000
  0
ARC
  8
0
 62
     4
 10
-78.479515
 20
-73.999992
 40
4.000000
 50
90.000000
 51
270.000000
  0
CIRCLE
  8
0
 10
83.479492
 20
60.000000
 40
1.650000
  0
CIRCLE
  8
0
 62
     2
 10
89.479492
 20
22.000000
 40
4.864000
  0
CIRCLE
  8
0
 10
89.479492
 20
22.000000
 40
4.278000
  0
CIRCLE
  8
0
 62
     2
 10
95.479492
 20
58.000000
 40
4.864000
  0
CIRCLE
  8
0
 10
95.479492
 20
58.000000
 40
4.278000
  0
CIRCLE
  8
0
 62
     2
 10
92.479492
 20
40.000000
 40
6.578500
  0
CIRCLE
  8
0
 10
92.479492
 20
40.000000
 40
5.722500
  0
CIRCLE
  8
0
 10
101.479492
 20
20.000000
 40
1.650000
  0
CIRCLE
  8
0
 10
90.979492
 20
4.299999
 40
2.000000
  0
CIRCLE
  8
0
 10
90.979492
 20
4.299999
 40
2.700000
  0
CIRCLE
  8
0
 10
93.979492
 20
75.699997
 40
2.700000
  0
CIRCLE
  8
0
 10
93.979492
 20
75.699997
 40
2.000000
  0
ARC
  8
0
 62
     4
 10
83.729492
 20
105.700012
 40
2.000000
 50
90.000000
 51
139.458923
  0
ARC
  8
0
 62
     4
 10
85.229492
 20
105.700012
 40
2.000003
 50
40.541080
 51
90.000000
  0
ARC
  8
0
 62
     4
 10
99.729492
 20
105.700012
 40
2.000000
 50
90.000000
 51
139.458298
  0
ARC
  8
0
 62
     4
 10
101.229492
 20
105.700012
 40
2.000000
 50
90.000000
 51
95.183586
  0
ARC
  8
0
 62
     4
 10
101.229492
 20
105.700012
 40
2.000001
 50
40.541695
 51
90.000000
  0
ARC
  8
0
 62
     4
 10
101.229492
 20
-25.700020
 40
2.000000
 50
270.000000
 51
319.458954
  0
ARC
  8
0
 62
     4
 10
99.729492
 20
-25.700020
 40
2.000001
 50
220.541031
 51
270.000000
  0
ARC
  8
0
 62
     4
 10
85.229492
 20
-25.700012
 40
2.000000
 50
270.000000
 51
319.458374
  0
ARC
  8
0
 62
     4
 10
83.729492
 20
-25.700012
 40
2.000000
 50
270.000000
 51
275.183594
  0
ARC
  8
0
 62
     4
 10
83.729492
 20
-25.700012
 40
1.999998
 50
220.541611
 51
270.000000
  0
TEXT
  8
0
 10
115.907150
 20
122.050003
 40
4.500000
  1
DATE : NOV ,1993
 50
0.000000
 41
1.052631
 51
0.000000
  7
STANDARD
  0
TEXT
  8
0
 10
113.700279
 20
-130.669998
 40
6.300000
  1
KOGANEI CORP.
 50
0.000000
 41
1.052632
 51
0.000000
  7
STANDARD
  0
TEXT
  8
0
 10
-167.892654
 20
122.050003
 40
4.500000
  1
240-4E2
 50
0.000000
 41
1.052632
 51
0.000000
  7
STANDARD
  0
TEXT
  8
0
 10
-186.892654
 20
104.550003
 40
4.500000
  1
MODEL:240-4E2
 50
0.000000
 41
1.052632
 51
0.000000
  7
STANDARD
  0
TEXT
  8
0
 10
-96.286522
 20
59.119999
 40
3.200000
  1
A
 50
0.000000
 41
1.052632
 51
0.000000
  7
STANDARD
  0
TEXT
  8
0
 10
-80.286522
 20
17.120001
 40
3.200000
  1
B
 50
0.000000
 41
1.052632
 51
0.000000
  7
STANDARD
  0
TEXT
  8
0
 10
98.672493
 20
30.120001
 40
3.200000
  1
P
 50
0.000000
 41
1.052632
 51
0.000000
  7
STANDARD
  0
TEXT
  8
0
 10
86.072495
 20
62.119999
 40
3.200000
  1
R1
 50
0.000000
 41
1.052632
 51
0.000000
  7
STANDARD
  0
TEXT
  8
0
 10
92.072495
 20
14.120000
 40
3.200000
  1
R2
 50
0.000000
 41
1.052632
 51
0.000000
  7
STANDARD
  0
ENDSEC
  0
EOF
