  0
SECTION
  2
HEADER
  0
ENDSEC
  0
SECTION
  2
TABLES
  0
TABLE
  2
LTYPE
 70
     4
  0
LTYPE
  2
CONTINUOUS
 70
    64
  3
Solid line
 72
    65
 73
     0
 40
0.000000
  0
LTYPE
  2
DASHED
 70
    64
  3
__ __ __ __ __ __ __ __ __ __ __ __ __ __ __
 72
    65
 73
     2
 40
3.500000
 49
2.000000
 49
-1.500000
  0
LTYPE
  2
CENTER
 70
    64
  3
____ _ ____ _ ____ _ ____ _ ____ _ ____ _ ____
 72
    65
 73
     4
 40
17.500000
 49
13.000000
 49
-1.500000
 49
1.500000
 49
-1.500000
  0
LTYPE
  2
PHANTOM
 70
    64
  3
_____ _ _ _____ _ _ _____ _ _ _____ _ _ ____  
 72
    65
 73
     6
 40
15.500000
 49
8.000000
 49
-1.500000
 49
1.500000
 49
-1.500000
 49
1.500000
 49
-1.500000
  0
ENDTAB
  0
TABLE
  2
LAYER
 70
     1
  0
LAYER
  2
0
 70
     0
 62
     7
  6
CONTINUOUS
  0
ENDTAB
  0
TABLE
  2
STYLE
 70
     1
  0
STYLE
  2
STANDARD
 70
     0
 40
0.000000
 41
1.000000
 50
0.000000
 71
     0
 42
0.200000
  3
txt
  4
BIGFONT
  0
ENDTAB
  0
TABLE
  2
VIEW
 70
     0
  0
ENDTAB
  0
ENDSEC
  0
SECTION
  2
BLOCKS
  0
ENDSEC
  0
SECTION
  2
ENTITIES
  0
LINE
  8
0
  6
CONTINUOUS
 62
7
 10
128.550003
 20
329.533997
 11
155.550003
 21
329.533997
  0
LINE
  8
0
  6
CONTINUOUS
 62
7
 10
253.550003
 20
329.533997
 11
290.549988
 21
329.533997
  0
LINE
  8
0
  6
CONTINUOUS
 62
7
 10
378.549988
 20
329.533997
 11
405.549988
 21
329.533997
  0
LINE
  8
0
  6
CONTINUOUS
 62
7
 10
128.550003
 20
283.933990
 11
155.550003
 21
283.933990
  0
LINE
  8
0
  6
CONTINUOUS
 62
7
 10
253.550003
 20
283.933990
 11
290.549988
 21
283.933990
  0
LINE
  8
0
  6
CONTINUOUS
 62
7
 10
378.549988
 20
283.933990
 11
405.549988
 21
283.933990
  0
LINE
  8
0
  6
CONTINUOUS
 62
7
 10
231.751999
 20
157.634003
 11
252.785995
 21
157.634003
  0
LINE
  8
0
  6
CONTINUOUS
 62
7
 10
281.049988
 20
329.533997
 11
281.049988
 21
326.734009
  0
LINE
  8
0
  6
CONTINUOUS
 62
7
 10
281.049988
 20
326.734009
 11
290.549988
 21
326.734009
  0
LINE
  8
0
  6
CONTINUOUS
 62
7
 10
378.549988
 20
326.734009
 11
385.049988
 21
326.734009
  0
LINE
  8
0
  6
CONTINUOUS
 62
7
 10
128.550003
 20
326.734009
 11
135.050003
 21
326.734009
  0
LINE
  8
0
  6
CONTINUOUS
 62
7
 10
385.049988
 20
329.533997
 11
385.049988
 21
326.734009
  0
LINE
  8
0
  6
CONTINUOUS
 62
7
 10
135.050003
 20
329.533997
 11
135.050003
 21
326.734009
  0
LINE
  8
0
  6
CONTINUOUS
 62
7
 10
250.550003
 20
313.933990
 11
250.550003
 21
309.933990
  0
LINE
  8
0
  6
CONTINUOUS
 62
7
 10
135.065994
 20
311.933990
 11
148.992996
 21
311.933990
  0
LINE
  8
0
  6
CONTINUOUS
 62
7
 10
139.550003
 20
314.433990
 11
144.550003
 21
314.433990
  0
LINE
  8
0
  6
CONTINUOUS
 62
7
 10
139.550003
 20
309.433990
 11
144.550003
 21
309.433990
  0
LINE
  8
0
  6
CONTINUOUS
 62
7
 10
139.550003
 20
315.433990
 11
144.550003
 21
315.433990
  0
LINE
  8
0
  6
CONTINUOUS
 62
7
 10
139.550003
 20
308.433990
 11
144.550003
 21
308.433990
  0
LINE
  8
0
  6
CONTINUOUS
 62
7
 10
251.050003
 20
314.433990
 11
253.550003
 21
314.433990
  0
LINE
  8
0
  6
CONTINUOUS
 62
7
 10
251.050003
 20
309.433990
 11
253.550003
 21
309.433990
  0
LINE
  8
0
  6
CONTINUOUS
 62
7
 10
238.802002
 20
158.884003
 11
244.438004
 21
158.884003
  0
LINE
  8
0
  6
CONTINUOUS
 62
7
 10
238.802002
 20
156.384003
 11
244.373993
 21
156.384003
  0
LINE
  8
0
  6
CONTINUOUS
 62
7
 10
246.244003
 20
158.884003
 11
251.550003
 21
158.884003
  0
LINE
  8
0
  6
CONTINUOUS
 62
7
 10
245.977005
 20
156.384003
 11
251.550003
 21
156.384003
  0
LINE
  8
0
  6
CONTINUOUS
 62
7
 10
238.802002
 20
158.884003
 11
238.802002
 21
156.384003
  0
LINE
  8
0
  6
CONTINUOUS
 62
7
 10
232.841003
 20
158.134003
 11
238.802002
 21
158.134003
  0
LINE
  8
0
  6
CONTINUOUS
 62
7
 10
232.841003
 20
157.134003
 11
238.802002
 21
157.134003
  0
LINE
  8
0
  6
CONTINUOUS
 62
7
 10
232.841003
 20
158.134003
 11
232.841003
 21
157.134003
  0
LINE
  8
0
  6
CONTINUOUS
 62
7
 10
139.550003
 20
316.334991
 11
139.550003
 21
307.522003
  0
LINE
  8
0
  6
CONTINUOUS
 62
7
 10
144.550003
 20
316.256012
 11
144.550003
 21
307.483002
  0
LINE
  8
0
  6
CONTINUOUS
 62
7
 10
131.800003
 20
330.886993
 11
131.800003
 21
325.747986
  0
LINE
  8
0
  6
CONTINUOUS
 62
7
 10
379.299988
 20
327.433990
 11
381.799988
 21
327.433990
  0
LINE
  8
0
  6
CONTINUOUS
 62
7
 10
379.299988
 20
327.433990
 11
379.299988
 21
326.734009
  0
LINE
  8
0
  6
CONTINUOUS
 62
7
 10
384.299988
 20
327.433990
 11
381.799988
 21
327.433990
  0
LINE
  8
0
  6
CONTINUOUS
 62
7
 10
384.300995
 20
327.433990
 11
384.300995
 21
326.734009
  0
LINE
  8
0
  6
CONTINUOUS
 62
7
 10
285.799988
 20
330.953003
 11
285.799988
 21
325.747009
  0
LINE
  8
0
  6
CONTINUOUS
 62
7
 10
381.799988
 20
330.837006
 11
381.799988
 21
325.457001
  0
LINE
  8
0
  6
CONTINUOUS
 62
7
 10
129.300003
 20
327.433990
 11
131.800003
 21
327.433990
  0
LINE
  8
0
  6
CONTINUOUS
 62
7
 10
134.300003
 20
327.433990
 11
131.800003
 21
327.433990
  0
LINE
  8
0
  6
CONTINUOUS
 62
7
 10
134.300003
 20
327.433990
 11
134.300003
 21
326.734009
  0
LINE
  8
0
  6
CONTINUOUS
 62
7
 10
129.300003
 20
327.433990
 11
129.300003
 21
326.734009
  0
LINE
  8
0
  6
CONTINUOUS
 62
7
 10
283.299988
 20
327.433990
 11
285.799988
 21
327.433990
  0
LINE
  8
0
  6
CONTINUOUS
 62
7
 10
288.299988
 20
327.433990
 11
285.799988
 21
327.433990
  0
LINE
  8
0
  6
CONTINUOUS
 62
7
 10
288.299988
 20
327.433990
 11
288.299988
 21
326.734009
  0
LINE
  8
0
  6
CONTINUOUS
 62
7
 10
283.299988
 20
327.433990
 11
283.299988
 21
326.734009
  0
LINE
  8
0
  6
CONTINUOUS
 62
7
 10
392.050995
 20
330.533997
 11
401.049988
 21
330.533997
  0
LINE
  8
0
  6
CONTINUOUS
 62
7
 10
401.050995
 20
330.533997
 11
402.050995
 21
329.533997
  0
LINE
  8
0
  6
CONTINUOUS
 62
7
 10
392.050995
 20
330.533997
 11
383.049988
 21
330.533997
  0
LINE
  8
0
  6
CONTINUOUS
 62
7
 10
383.050995
 20
330.533997
 11
382.050995
 21
329.533997
  0
LINE
  8
0
  6
CONTINUOUS
 62
7
 10
142.050003
 20
330.533997
 11
133.050003
 21
330.533997
  0
LINE
  8
0
  6
CONTINUOUS
 62
7
 10
133.050003
 20
330.533997
 11
132.050003
 21
329.533997
  0
LINE
  8
0
  6
CONTINUOUS
 62
7
 10
142.050003
 20
330.533997
 11
151.050003
 21
330.533997
  0
LINE
  8
0
  6
CONTINUOUS
 62
7
 10
151.050003
 20
330.533997
 11
152.050003
 21
329.533997
  0
LINE
  8
0
  6
CONTINUOUS
 62
7
 10
272.049988
 20
330.533997
 11
263.049988
 21
330.533997
  0
LINE
  8
0
  6
CONTINUOUS
 62
7
 10
263.049988
 20
330.533997
 11
262.049988
 21
329.533997
  0
LINE
  8
0
  6
CONTINUOUS
 62
7
 10
272.049988
 20
330.533997
 11
281.049988
 21
330.533997
  0
LINE
  8
0
  6
CONTINUOUS
 62
7
 10
281.050995
 20
330.533997
 11
282.050995
 21
329.533997
  0
LINE
  8
0
  6
CONTINUOUS
 62
7
 10
253.550003
 20
173.634003
 11
290.549988
 21
173.634003
  0
LINE
  8
0
  6
CONTINUOUS
 62
7
 10
253.550003
 20
146.634003
 11
290.549988
 21
146.634003
  0
LINE
  8
0
  6
CONTINUOUS
 62
7
 10
253.550003
 20
173.634003
 11
253.550003
 21
146.634003
  0
LINE
  8
0
  6
CONTINUOUS
 62
7
 10
290.549988
 20
173.634003
 11
290.549988
 21
146.634003
  0
LINE
  8
0
  6
CONTINUOUS
 62
7
 10
250.464996
 20
160.134003
 11
293.527008
 21
160.134003
  0
LINE
  8
0
  6
CONTINUOUS
 62
7
 10
272.049988
 20
186.740997
 11
272.049988
 21
178.373001
  0
LINE
  8
0
  6
CONTINUOUS
 62
7
 10
251.550003
 20
165.634003
 11
251.550003
 21
154.634003
  0
LINE
  8
0
  6
CONTINUOUS
 62
7
 10
251.550003
 20
165.634003
 11
253.550003
 21
165.634003
  0
LINE
  8
0
  6
CONTINUOUS
 62
7
 10
251.550003
 20
154.634003
 11
253.550003
 21
154.634003
  0
LINE
  8
0
  6
CONTINUOUS
 62
7
 10
230.751999
 20
311.933990
 11
255.175995
 21
311.933990
  0
LINE
  8
0
  6
CONTINUOUS
 62
7
 10
237.802002
 20
313.183990
 11
243.438004
 21
313.183990
  0
LINE
  8
0
  6
CONTINUOUS
 62
7
 10
237.802002
 20
310.683990
 11
243.373993
 21
310.683990
  0
LINE
  8
0
  6
CONTINUOUS
 62
7
 10
245.244003
 20
313.183990
 11
250.550003
 21
313.183990
  0
LINE
  8
0
  6
CONTINUOUS
 62
7
 10
244.977005
 20
310.683990
 11
250.550003
 21
310.683990
  0
LINE
  8
0
  6
CONTINUOUS
 62
7
 10
237.802002
 20
313.183990
 11
237.802002
 21
310.683990
  0
LINE
  8
0
  6
CONTINUOUS
 62
7
 10
231.841003
 20
312.433990
 11
237.802002
 21
312.433990
  0
LINE
  8
0
  6
CONTINUOUS
 62
7
 10
231.841003
 20
311.433990
 11
237.802002
 21
311.433990
  0
LINE
  8
0
  6
CONTINUOUS
 62
7
 10
231.841003
 20
312.433990
 11
231.841003
 21
311.433990
  0
LINE
  8
0
  6
CONTINUOUS
 62
7
 10
231.751999
 20
162.634003
 11
252.705994
 21
162.634003
  0
LINE
  8
0
  6
CONTINUOUS
 62
7
 10
238.802002
 20
163.884003
 11
244.438004
 21
163.884003
  0
LINE
  8
0
  6
CONTINUOUS
 62
7
 10
238.802002
 20
161.384003
 11
244.373993
 21
161.384003
  0
LINE
  8
0
  6
CONTINUOUS
 62
7
 10
246.244003
 20
163.884003
 11
251.550003
 21
163.884003
  0
LINE
  8
0
  6
CONTINUOUS
 62
7
 10
245.977005
 20
161.384003
 11
251.550003
 21
161.384003
  0
LINE
  8
0
  6
CONTINUOUS
 62
7
 10
238.802002
 20
163.884003
 11
238.802002
 21
161.384003
  0
LINE
  8
0
  6
CONTINUOUS
 62
7
 10
232.841003
 20
163.134003
 11
238.802002
 21
163.134003
  0
LINE
  8
0
  6
CONTINUOUS
 62
7
 10
232.841003
 20
162.134003
 11
238.802002
 21
162.134003
  0
LINE
  8
0
  6
CONTINUOUS
 62
7
 10
232.841003
 20
163.134003
 11
232.841003
 21
162.134003
  0
LINE
  8
0
  6
CONTINUOUS
 62
7
 10
255.195999
 20
170.634003
 11
263.391998
 21
170.634003
  0
LINE
  8
0
  6
CONTINUOUS
 62
7
 10
280.345001
 20
149.634003
 11
288.139008
 21
149.634003
  0
LINE
  8
0
  6
CONTINUOUS
 62
7
 10
284.549988
 20
153.496002
 11
284.549988
 21
145.455994
  0
LINE
  8
0
  6
CONTINUOUS
 62
7
 10
259.549988
 20
174.621994
 11
259.549988
 21
166.748001
  0
LINE
  8
0
  6
CONTINUOUS
 62
7
 10
275.549988
 20
173.634003
 11
275.549988
 21
170.134003
  0
LINE
  8
0
  6
CONTINUOUS
 62
7
 10
268.549988
 20
173.634003
 11
268.549988
 21
170.134003
  0
LINE
  8
0
  6
CONTINUOUS
 62
7
 10
268.549988
 20
150.134003
 11
268.549988
 21
146.634003
  0
LINE
  8
0
  6
CONTINUOUS
 62
7
 10
275.549988
 20
150.134003
 11
275.549988
 21
146.634003
  0
LINE
  8
0
  6
CONTINUOUS
 62
7
 10
268.273987
 20
170.134003
 11
275.979004
 21
170.134003
  0
LINE
  8
0
  6
CONTINUOUS
 62
7
 10
268.005005
 20
150.134003
 11
276.067993
 21
150.134003
  0
LINE
  8
0
  6
CONTINUOUS
 62
7
 10
270.850006
 20
168.932999
 11
273.313995
 21
171.397003
  0
LINE
  8
0
  6
CONTINUOUS
 62
7
 10
270.907990
 20
171.276001
 11
273.326996
 21
168.856995
  0
LINE
  8
0
  6
CONTINUOUS
 62
7
 10
270.850006
 20
151.335007
 11
273.313995
 21
148.871002
  0
LINE
  8
0
  6
CONTINUOUS
 62
7
 10
270.907990
 20
148.992004
 11
273.326996
 21
151.410004
  0
LINE
  8
0
  6
CONTINUOUS
 62
7
 10
283.825012
 20
81.282799
 11
283.825012
 21
36.283001
  0
LINE
  8
0
  6
CONTINUOUS
 62
7
 10
320.825012
 20
50.282902
 11
320.825012
 21
36.283001
  0
LINE
  8
0
  6
CONTINUOUS
 62
7
 10
431.157990
 20
81.282799
 11
431.157990
 21
36.283001
  0
LINE
  8
0
  6
CONTINUOUS
 62
7
 10
404.157990
 20
81.282799
 11
404.157990
 21
36.283001
  0
LINE
  8
0
  6
CONTINUOUS
 62
7
 10
283.825012
 20
81.282799
 11
329.825012
 21
81.282799
  0
LINE
  8
0
  6
CONTINUOUS
 62
7
 10
404.157990
 20
81.282799
 11
408.657990
 21
81.282799
  0
LINE
  8
0
  6
CONTINUOUS
 62
7
 10
320.825012
 20
50.282902
 11
329.825012
 21
50.282902
  0
LINE
  8
0
  6
CONTINUOUS
 62
7
 10
329.825012
 20
81.282799
 11
329.825012
 21
50.282902
  0
LINE
  8
0
  6
CONTINUOUS
 62
7
 10
318.325012
 20
81.282799
 11
318.325012
 21
78.482803
  0
LINE
  8
0
  6
CONTINUOUS
 62
7
 10
311.325012
 20
81.282799
 11
311.325012
 21
78.482803
  0
LINE
  8
0
  6
CONTINUOUS
 62
7
 10
323.899994
 20
64.282898
 11
366.600006
 21
64.282898
  0
LINE
  8
0
  6
CONTINUOUS
 62
7
 10
422.282013
 20
64.282898
 11
412.872986
 21
64.282898
  0
LINE
  8
0
  6
CONTINUOUS
 62
7
 10
331.325012
 20
50.282902
 11
331.325012
 21
78.532799
  0
LINE
  8
0
  6
CONTINUOUS
 62
7
 10
356.825012
 20
78.532799
 11
329.825012
 21
78.532799
  0
LINE
  8
0
  6
CONTINUOUS
 62
7
 10
359.325012
 20
52.282902
 11
359.325012
 21
76.032799
  0
LINE
  8
0
  6
CONTINUOUS
 62
7
 10
352.325012
 20
75.278397
 11
352.325012
 21
101.927002
  0
LINE
  8
0
  6
CONTINUOUS
 62
7
 10
361.325012
 20
78.532799
 11
361.325012
 21
88.532799
  0
LINE
  8
0
  6
CONTINUOUS
 62
7
 10
343.325012
 20
79.532799
 11
343.325012
 21
88.532799
  0
LINE
  8
0
  6
CONTINUOUS
 62
7
 10
361.325012
 20
78.532799
 11
359.325012
 21
73.532799
  0
LINE
  8
0
  6
CONTINUOUS
 62
7
 10
359.825012
 20
90.032799
 11
344.825012
 21
90.032799
  0
LINE
  8
0
  6
CONTINUOUS
 62
7
 10
347.325012
 20
78.532799
 11
347.325012
 21
86.032799
  0
LINE
  8
0
  6
CONTINUOUS
 62
7
 10
357.325012
 20
78.532799
 11
357.325012
 21
86.032799
  0
LINE
  8
0
  6
CONTINUOUS
 62
7
 10
354.825012
 20
88.532799
 11
349.825012
 21
88.532799
  0
LINE
  8
0
  6
CONTINUOUS
 62
7
 10
344.325012
 20
89.946999
 11
344.325012
 21
93.032799
  0
LINE
  8
0
  6
CONTINUOUS
 62
7
 10
360.325012
 20
89.946999
 11
360.325012
 21
93.032799
  0
LINE
  8
0
  6
CONTINUOUS
 62
7
 10
360.325012
 20
93.032799
 11
344.325012
 21
93.032799
  0
LINE
  8
0
  6
CONTINUOUS
 62
7
 10
345.325012
 20
93.032799
 11
345.325012
 21
95.032799
  0
LINE
  8
0
  6
CONTINUOUS
 62
7
 10
359.325012
 20
93.032799
 11
359.325012
 21
95.032799
  0
LINE
  8
0
  6
CONTINUOUS
 62
7
 10
359.325012
 20
89.982300
 11
359.325012
 21
93.032799
  0
LINE
  8
0
  6
CONTINUOUS
 62
7
 10
345.325012
 20
89.982300
 11
345.325012
 21
93.032799
  0
LINE
  8
0
  6
CONTINUOUS
 62
7
 10
361.562012
 20
95.032799
 11
352.325012
 21
95.032799
  0
LINE
  8
0
  6
CONTINUOUS
 62
7
 10
360.325012
 20
100.032997
 11
352.325012
 21
100.032997
  0
LINE
  8
0
  6
CONTINUOUS
 62
7
 10
361.562012
 20
95.032799
 11
361.562012
 21
99.318199
  0
LINE
  8
0
  6
CONTINUOUS
 62
7
 10
360.325012
 20
100.032997
 11
361.562012
 21
99.318100
  0
LINE
  8
0
  6
CONTINUOUS
 62
7
 10
356.944000
 20
99.318199
 11
356.944000
 21
95.032799
  0
LINE
  8
0
  6
CONTINUOUS
 62
7
 10
343.087006
 20
95.032799
 11
352.325012
 21
95.032799
  0
LINE
  8
0
  6
CONTINUOUS
 62
7
 10
344.325012
 20
100.032997
 11
352.325012
 21
100.032997
  0
LINE
  8
0
  6
CONTINUOUS
 62
7
 10
343.087006
 20
95.032799
 11
343.087006
 21
99.318199
  0
LINE
  8
0
  6
CONTINUOUS
 62
7
 10
344.325012
 20
100.032997
 11
343.087006
 21
99.318199
  0
LINE
  8
0
  6
CONTINUOUS
 62
7
 10
347.705994
 20
99.318199
 11
347.705994
 21
95.032799
  0
LINE
  8
0
  6
CONTINUOUS
 62
7
 10
354.325012
 20
55.282902
 11
354.325012
 21
73.282898
  0
LINE
  8
0
  6
CONTINUOUS
 62
7
 10
352.325012
 20
55.282902
 11
352.325012
 21
73.282898
  0
LINE
  8
0
  6
CONTINUOUS
 62
7
 10
350.325012
 20
55.282902
 11
350.325012
 21
73.282898
  0
LINE
  8
0
  6
CONTINUOUS
 62
7
 10
348.325012
 20
55.282902
 11
348.325012
 21
61.637199
  0
LINE
  8
0
  6
CONTINUOUS
 62
7
 10
346.325012
 20
55.282902
 11
346.325012
 21
60.409901
  0
LINE
  8
0
  6
CONTINUOUS
 62
7
 10
344.325012
 20
55.282902
 11
344.325012
 21
60.409901
  0
LINE
  8
0
  6
CONTINUOUS
 62
7
 10
342.325012
 20
55.282902
 11
342.325012
 21
61.637199
  0
LINE
  8
0
  6
CONTINUOUS
 62
7
 10
340.325012
 20
55.282902
 11
340.325012
 21
73.282898
  0
LINE
  8
0
  6
CONTINUOUS
 62
7
 10
338.325012
 20
55.282902
 11
338.325012
 21
73.282898
  0
LINE
  8
0
  6
CONTINUOUS
 62
7
 10
336.325012
 20
55.282902
 11
336.325012
 21
73.282898
  0
LINE
  8
0
  6
CONTINUOUS
 62
7
 10
342.325012
 20
66.928596
 11
342.325012
 21
73.282898
  0
LINE
  8
0
  6
CONTINUOUS
 62
7
 10
344.325012
 20
68.155899
 11
344.325012
 21
73.282898
  0
LINE
  8
0
  6
CONTINUOUS
 62
7
 10
346.325012
 20
68.155899
 11
346.325012
 21
73.282898
  0
LINE
  8
0
  6
CONTINUOUS
 62
7
 10
348.325012
 20
66.928596
 11
348.325012
 21
73.282898
  0
LINE
  8
0
  6
CONTINUOUS
 62
7
 10
357.325012
 20
50.282902
 11
325.571991
 21
50.282902
  0
LINE
  8
0
  6
CONTINUOUS
 62
7
 10
410.657990
 20
95.282799
 11
410.657990
 21
93.282799
  0
LINE
  8
0
  6
CONTINUOUS
 62
7
 10
410.657990
 20
93.282799
 11
410.657990
 21
90.282799
  0
LINE
  8
0
  6
CONTINUOUS
 62
7
 10
409.657990
 20
93.282799
 11
409.657990
 21
90.282799
  0
LINE
  8
0
  6
CONTINUOUS
 62
7
 10
427.657990
 20
78.282898
 11
427.657990
 21
52.282902
  0
LINE
  8
0
  6
CONTINUOUS
 62
7
 10
407.657990
 20
78.282898
 11
407.657990
 21
52.282902
  0
LINE
  8
0
  6
CONTINUOUS
 62
7
 10
427.657990
 20
78.282898
 11
407.657990
 21
78.282898
  0
LINE
  8
0
  6
CONTINUOUS
 62
7
 10
426.657990
 20
89.282799
 11
426.657990
 21
78.282898
  0
LINE
  8
0
  6
CONTINUOUS
 62
7
 10
425.657990
 20
90.282799
 11
409.657990
 21
90.282799
  0
LINE
  8
0
  6
CONTINUOUS
 62
7
 10
425.657990
 20
93.282799
 11
409.657990
 21
93.282799
  0
LINE
  8
0
  6
CONTINUOUS
 62
7
 10
425.657990
 20
95.282799
 11
409.657990
 21
95.282799
  0
LINE
  8
0
  6
CONTINUOUS
 62
7
 10
425.657990
 20
100.282997
 11
409.657990
 21
100.282997
  0
LINE
  8
0
  6
CONTINUOUS
 62
7
 10
425.657990
 20
100.282997
 11
425.657990
 21
95.282799
  0
LINE
  8
0
  6
CONTINUOUS
 62
7
 10
409.657990
 20
100.282997
 11
409.657990
 21
95.282799
  0
LINE
  8
0
  6
CONTINUOUS
 62
7
 10
424.657990
 20
95.282799
 11
424.657990
 21
93.282799
  0
LINE
  8
0
  6
CONTINUOUS
 62
7
 10
425.657990
 20
93.282799
 11
425.657990
 21
90.282799
  0
LINE
  8
0
  6
CONTINUOUS
 62
7
 10
424.657990
 20
93.282799
 11
424.657990
 21
90.282799
  0
LINE
  8
0
  6
CONTINUOUS
 62
7
 10
409.657990
 20
100.282997
 11
425.657990
 21
100.282997
  0
LINE
  8
0
  6
CONTINUOUS
 62
7
 10
415.536987
 20
66.404099
 11
419.778992
 21
62.161499
  0
LINE
  8
0
  6
CONTINUOUS
 62
7
 10
416.316010
 20
62.940899
 11
418.871002
 21
65.496002
  0
LINE
  8
0
  6
CONTINUOUS
 62
7
 10
425.657990
 20
50.282902
 11
409.657990
 21
50.282902
  0
LINE
  8
0
  6
CONTINUOUS
 62
7
 10
408.657990
 20
89.282799
 11
408.657990
 21
78.282898
  0
LINE
  8
0
  6
CONTINUOUS
 62
7
 10
426.657990
 20
81.282799
 11
431.157990
 21
81.282799
  0
LINE
  8
0
  6
CONTINUOUS
 62
7
 10
311.325012
 20
78.482803
 11
318.325012
 21
78.482803
  0
LINE
  8
0
  6
CONTINUOUS
 62
7
 10
314.825012
 20
82.553200
 11
314.825012
 21
77.456802
  0
LINE
  8
0
  6
CONTINUOUS
 62
7
 10
312.075012
 20
80.358704
 11
312.075012
 21
79.182800
  0
LINE
  8
0
  6
CONTINUOUS
 62
7
 10
317.575012
 20
80.358704
 11
317.575012
 21
79.182800
  0
LINE
  8
0
  6
CONTINUOUS
 62
7
 10
317.825012
 20
79.182800
 11
317.825012
 21
78.482803
  0
LINE
  8
0
  6
CONTINUOUS
 62
7
 10
311.825012
 20
79.182800
 11
317.825012
 21
79.182800
  0
LINE
  8
0
  6
CONTINUOUS
 62
7
 10
311.825012
 20
79.182800
 11
311.825012
 21
78.482803
  0
LINE
  8
0
  6
CONTINUOUS
 62
7
 10
283.825012
 20
36.282902
 11
320.825012
 21
36.282902
  0
LINE
  8
0
  6
CONTINUOUS
 62
7
 10
404.157990
 20
36.282902
 11
431.157990
 21
36.282902
  0
LINE
  8
0
  6
CONTINUOUS
 62
7
 10
417.657990
 20
104.279999
 11
417.657990
 21
33.160000
  0
LINE
  8
0
  6
CONTINUOUS
 62
7
 10
302.325012
 20
85.251099
 11
302.325012
 21
33.160000
  0
LINE
  8
0
  6
CONTINUOUS
 62
7
 10
207.768997
 20
84.878403
 11
207.768997
 21
32.097301
  0
LINE
  8
0
  6
CONTINUOUS
 62
7
 10
194.516006
 20
34.782799
 11
221.516006
 21
34.782799
  0
LINE
  8
0
  6
CONTINUOUS
 62
7
 10
92.435600
 20
84.278999
 11
92.435600
 21
31.621599
  0
LINE
  8
0
  6
CONTINUOUS
 62
7
 10
73.935699
 20
79.782898
 11
119.935997
 21
79.782898
  0
LINE
  8
0
  6
CONTINUOUS
 62
7
 10
73.935600
 20
79.782898
 11
73.935600
 21
34.782902
  0
LINE
  8
0
  6
CONTINUOUS
 62
7
 10
110.935997
 20
48.782902
 11
110.935997
 21
34.782902
  0
LINE
  8
0
  6
CONTINUOUS
 62
7
 10
119.935997
 20
79.782898
 11
119.935997
 21
48.782902
  0
LINE
  8
0
  6
CONTINUOUS
 62
7
 10
110.935997
 20
48.782902
 11
119.935997
 21
48.782902
  0
LINE
  8
0
  6
CONTINUOUS
 62
7
 10
77.435600
 20
82.552200
 11
77.435600
 21
72.843903
  0
LINE
  8
0
  6
CONTINUOUS
 62
7
 10
73.935699
 20
75.782898
 11
80.935699
 21
75.782898
  0
LINE
  8
0
  6
CONTINUOUS
 62
7
 10
80.935600
 20
79.782898
 11
80.935600
 21
75.782898
  0
LINE
  8
0
  6
CONTINUOUS
 62
7
 10
120.935997
 20
78.282898
 11
120.935997
 21
50.282902
  0
LINE
  8
0
  6
CONTINUOUS
 62
7
 10
119.935997
 20
78.282898
 11
120.935997
 21
78.282898
  0
LINE
  8
0
  6
CONTINUOUS
 62
7
 10
119.935997
 20
50.282902
 11
120.935997
 21
50.282902
  0
LINE
  8
0
  6
CONTINUOUS
 62
7
 10
120.935997
 20
77.282898
 11
132.436005
 21
77.282898
  0
LINE
  8
0
  6
CONTINUOUS
 62
7
 10
120.935997
 20
51.282902
 11
132.436005
 21
51.282902
  0
LINE
  8
0
  6
CONTINUOUS
 62
7
 10
132.436005
 20
77.282898
 11
132.436005
 21
51.282902
  0
LINE
  8
0
  6
CONTINUOUS
 62
7
 10
129.936005
 20
51.282902
 11
129.936005
 21
58.282799
  0
LINE
  8
0
  6
CONTINUOUS
 62
7
 10
129.936005
 20
58.282902
 11
132.436005
 21
58.282902
  0
LINE
  8
0
  6
CONTINUOUS
 62
7
 10
130.186005
 20
79.282898
 11
130.186005
 21
77.282898
  0
LINE
  8
0
  6
CONTINUOUS
 62
7
 10
123.185997
 20
79.282898
 11
123.185997
 21
77.282898
  0
LINE
  8
0
  6
CONTINUOUS
 62
7
 10
123.185997
 20
79.282799
 11
130.186005
 21
79.282799
  0
LINE
  8
0
  6
CONTINUOUS
 62
7
 10
126.685997
 20
106.071999
 11
126.685997
 21
78.788399
  0
LINE
  8
0
  6
CONTINUOUS
 62
7
 10
127.685997
 20
99.282898
 11
127.685997
 21
92.103104
  0
LINE
  8
0
  6
CONTINUOUS
 62
7
 10
125.685997
 20
99.282898
 11
125.685997
 21
92.177696
  0
LINE
  8
0
  6
CONTINUOUS
 62
7
 10
125.685997
 20
90.177696
 11
125.685997
 21
79.282898
  0
LINE
  8
0
  6
CONTINUOUS
 62
7
 10
127.685997
 20
90.103104
 11
127.685997
 21
79.282898
  0
LINE
  8
0
  6
CONTINUOUS
 62
7
 10
125.685997
 20
99.282898
 11
127.685997
 21
99.282898
  0
LINE
  8
0
  6
CONTINUOUS
 62
7
 10
127.335999
 20
104.282997
 11
127.335999
 21
99.282898
  0
LINE
  8
0
  6
CONTINUOUS
 62
7
 10
126.036003
 20
104.282997
 11
126.036003
 21
99.282898
  0
LINE
  8
0
  6
CONTINUOUS
 62
7
 10
126.036003
 20
104.282997
 11
127.335999
 21
104.282997
  0
LINE
  8
0
  6
CONTINUOUS
 62
7
 10
199.016006
 20
80.782898
 11
207.516006
 21
80.782898
  0
LINE
  8
0
  6
CONTINUOUS
 62
7
 10
198.016006
 20
79.782997
 11
199.016006
 21
80.782997
  0
LINE
  8
0
  6
CONTINUOUS
 62
7
 10
218.016006
 20
79.782799
 11
217.016006
 21
80.782799
  0
LINE
  8
0
  6
CONTINUOUS
 62
7
 10
221.516006
 20
79.782898
 11
221.516006
 21
34.782902
  0
LINE
  8
0
  6
CONTINUOUS
 62
7
 10
194.516006
 20
79.782898
 11
194.516006
 21
34.782902
  0
LINE
  8
0
  6
CONTINUOUS
 62
7
 10
194.516006
 20
79.782898
 11
207.516006
 21
79.782898
  0
LINE
  8
0
  6
CONTINUOUS
 62
7
 10
83.435699
 20
80.782898
 11
101.435997
 21
80.782898
  0
LINE
  8
0
  6
CONTINUOUS
 62
7
 10
102.434998
 20
79.782799
 11
101.434998
 21
80.782799
  0
LINE
  8
0
  6
CONTINUOUS
 62
7
 10
82.435600
 20
79.782997
 11
83.435600
 21
80.782997
  0
LINE
  8
0
  6
CONTINUOUS
 62
7
 10
218.016006
 20
77.282898
 11
218.016006
 21
51.282902
  0
LINE
  8
0
  6
CONTINUOUS
 62
7
 10
198.016006
 20
77.282898
 11
198.016006
 21
51.282902
  0
LINE
  8
0
  6
CONTINUOUS
 62
7
 10
198.016006
 20
77.282898
 11
218.016006
 21
77.282898
  0
LINE
  8
0
  6
CONTINUOUS
 62
7
 10
198.016006
 20
51.282902
 11
218.016006
 21
51.282902
  0
LINE
  8
0
  6
CONTINUOUS
 62
7
 10
194.516006
 20
48.782902
 11
221.516006
 21
48.782902
  0
LINE
  8
0
  6
CONTINUOUS
 62
7
 10
216.016006
 20
79.282898
 11
216.016006
 21
77.282898
  0
LINE
  8
0
  6
CONTINUOUS
 62
7
 10
205.016006
 20
79.282898
 11
205.016006
 21
77.282898
  0
LINE
  8
0
  6
CONTINUOUS
 62
7
 10
205.016006
 20
79.282799
 11
216.016006
 21
79.282799
  0
LINE
  8
0
  6
CONTINUOUS
 62
7
 10
203.884995
 20
64.282898
 11
212.106995
 21
64.282898
  0
LINE
  8
0
  6
CONTINUOUS
 62
7
 10
210.016006
 20
65.282898
 11
210.016006
 21
63.282902
  0
LINE
  8
0
  6
CONTINUOUS
 62
7
 10
206.016006
 20
65.282898
 11
206.016006
 21
63.282902
  0
LINE
  8
0
  6
CONTINUOUS
 62
7
 10
206.016006
 20
65.282898
 11
210.016006
 21
65.282898
  0
LINE
  8
0
  6
CONTINUOUS
 62
7
 10
206.016006
 20
63.282902
 11
210.016006
 21
63.282902
  0
LINE
  8
0
  6
CONTINUOUS
 62
7
 10
201.516006
 20
76.591202
 11
201.516006
 21
70.156799
  0
LINE
  8
0
  6
CONTINUOUS
 62
7
 10
198.300003
 20
73.282898
 11
204.630005
 21
73.282898
  0
LINE
  8
0
  6
CONTINUOUS
 62
7
 10
198.016006
 20
70.282799
 11
201.516006
 21
70.282799
  0
LINE
  8
0
  6
CONTINUOUS
 62
7
 10
204.516006
 20
77.282898
 11
204.516006
 21
73.282898
  0
LINE
  8
0
  6
CONTINUOUS
 62
7
 10
211.516006
 20
51.282902
 11
211.516006
 21
55.282902
  0
LINE
  8
0
  6
CONTINUOUS
 62
7
 10
218.016006
 20
58.282902
 11
214.516006
 21
58.282902
  0
LINE
  8
0
  6
CONTINUOUS
 62
7
 10
214.516006
 20
51.974499
 11
214.516006
 21
58.409000
  0
LINE
  8
0
  6
CONTINUOUS
 62
7
 10
217.731995
 20
55.282902
 11
211.401993
 21
55.282902
  0
LINE
  8
0
  6
CONTINUOUS
 62
7
 10
196.516006
 20
78.782898
 11
196.516006
 21
49.782902
  0
LINE
  8
0
  6
CONTINUOUS
 62
7
 10
219.516006
 20
78.782898
 11
219.516006
 21
49.782902
  0
LINE
  8
0
  6
CONTINUOUS
 62
7
 10
196.516006
 20
78.782898
 11
205.016006
 21
78.782898
  0
LINE
  8
0
  6
CONTINUOUS
 62
7
 10
196.516006
 20
49.782902
 11
219.516006
 21
49.782902
  0
LINE
  8
0
  6
CONTINUOUS
 62
7
 10
216.016006
 20
78.782898
 11
219.516006
 21
78.782898
  0
LINE
  8
0
  6
CONTINUOUS
 62
7
 10
200.302002
 20
72.068604
 11
202.753998
 21
74.521004
  0
LINE
  8
0
  6
CONTINUOUS
 62
7
 10
200.335999
 20
74.462196
 11
202.787994
 21
72.009903
  0
LINE
  8
0
  6
CONTINUOUS
 62
7
 10
215.729996
 20
56.497101
 11
213.278000
 21
54.044800
  0
LINE
  8
0
  6
CONTINUOUS
 62
7
 10
215.695007
 20
54.103199
 11
213.242996
 21
56.555500
  0
LINE
  8
0
  6
CONTINUOUS
 62
7
 10
212.516006
 20
106.071999
 11
212.516006
 21
78.697601
  0
LINE
  8
0
  6
CONTINUOUS
 62
7
 10
208.516006
 20
105.834000
 11
208.516006
 21
78.589798
  0
LINE
  8
0
  6
CONTINUOUS
 62
7
 10
213.516006
 20
99.282898
 11
213.516006
 21
92.177696
  0
LINE
  8
0
  6
CONTINUOUS
 62
7
 10
211.516006
 20
99.282898
 11
211.516006
 21
92.103104
  0
LINE
  8
0
  6
CONTINUOUS
 62
7
 10
209.516006
 20
99.282898
 11
209.516006
 21
92.177696
  0
LINE
  8
0
  6
CONTINUOUS
 62
7
 10
207.516006
 20
99.282898
 11
207.516006
 21
92.103104
  0
LINE
  8
0
  6
CONTINUOUS
 62
7
 10
209.516006
 20
80.782898
 11
211.516006
 21
80.782898
  0
LINE
  8
0
  6
CONTINUOUS
 62
7
 10
209.516006
 20
79.782898
 11
211.516006
 21
79.782898
  0
LINE
  8
0
  6
CONTINUOUS
 62
7
 10
213.516006
 20
80.782898
 11
217.016006
 21
80.782898
  0
LINE
  8
0
  6
CONTINUOUS
 62
7
 10
213.516006
 20
79.782898
 11
221.516006
 21
79.782898
  0
LINE
  8
0
  6
CONTINUOUS
 62
7
 10
209.516006
 20
90.177696
 11
209.516006
 21
79.282898
  0
LINE
  8
0
  6
CONTINUOUS
 62
7
 10
207.516006
 20
90.103104
 11
207.516006
 21
79.282898
  0
LINE
  8
0
  6
CONTINUOUS
 62
7
 10
211.516006
 20
90.103104
 11
211.516006
 21
79.282898
  0
LINE
  8
0
  6
CONTINUOUS
 62
7
 10
213.516006
 20
90.177696
 11
213.516006
 21
79.282898
  0
LINE
  8
0
  6
CONTINUOUS
 62
7
 10
74.935699
 20
76.482803
 11
77.435699
 21
76.482803
  0
LINE
  8
0
  6
CONTINUOUS
 62
7
 10
74.935600
 20
76.482803
 11
74.935600
 21
75.782898
  0
LINE
  8
0
  6
CONTINUOUS
 62
7
 10
79.935600
 20
76.482803
 11
77.435699
 21
76.482803
  0
LINE
  8
0
  6
CONTINUOUS
 62
7
 10
79.935600
 20
76.482803
 11
79.935600
 21
75.782898
  0
LINE
  8
0
  6
CONTINUOUS
 62
7
 10
110.935997
 20
34.782799
 11
73.935699
 21
34.782799
  0
LINE
  8
0
  6
CONTINUOUS
 62
7
 10
209.516006
 20
99.282898
 11
207.516006
 21
99.282898
  0
LINE
  8
0
  6
CONTINUOUS
 62
7
 10
213.516006
 20
99.282898
 11
211.516006
 21
99.282898
  0
LINE
  8
0
  6
CONTINUOUS
 62
7
 10
211.860992
 20
104.282997
 11
211.860992
 21
99.282898
  0
LINE
  8
0
  6
CONTINUOUS
 62
7
 10
213.171005
 20
104.282997
 11
213.171005
 21
99.282898
  0
LINE
  8
0
  6
CONTINUOUS
 62
7
 10
209.171005
 20
104.282997
 11
209.171005
 21
99.282898
  0
LINE
  8
0
  6
CONTINUOUS
 62
7
 10
207.860992
 20
104.282997
 11
207.860992
 21
99.282898
  0
LINE
  8
0
  6
CONTINUOUS
 62
7
 10
213.171005
 20
104.282997
 11
211.860992
 21
104.282997
  0
LINE
  8
0
  6
CONTINUOUS
 62
7
 10
209.171005
 20
104.282997
 11
207.860992
 21
104.282997
  0
LINE
  8
0
  6
PHANTOM
 62
7
 10
253.550003
 20
182.134003
 11
259.549988
 21
188.134003
  0
LINE
  8
0
  6
PHANTOM
 62
7
 10
259.549988
 20
188.134003
 11
284.549988
 21
188.134003
  0
LINE
  8
0
  6
PHANTOM
 62
7
 10
284.550995
 20
188.134003
 11
290.550995
 21
182.134003
  0
LINE
  8
0
  6
PHANTOM
 62
7
 10
290.550995
 20
182.134003
 11
290.550995
 21
173.634003
  0
LINE
  8
0
  6
PHANTOM
 62
7
 10
253.550995
 20
182.134003
 11
253.550995
 21
173.634003
  0
LINE
  8
0
  6
PHANTOM
 62
7
 10
253.550995
 20
146.634003
 11
253.550995
 21
138.134003
  0
LINE
  8
0
  6
PHANTOM
 62
7
 10
253.550995
 20
138.134003
 11
259.550995
 21
132.134003
  0
LINE
  8
0
  6
PHANTOM
 62
7
 10
259.549988
 20
132.134003
 11
284.549988
 21
132.134003
  0
LINE
  8
0
  6
PHANTOM
 62
7
 10
290.550995
 20
138.134003
 11
284.550995
 21
132.134003
  0
LINE
  8
0
  6
PHANTOM
 62
7
 10
290.550995
 20
146.634003
 11
290.550995
 21
138.134003
  0
LINE
  8
0
  6
PHANTOM
 62
7
 10
253.550995
 20
145.134003
 11
290.550995
 21
145.134003
  0
LINE
  8
0
  6
PHANTOM
 62
7
 10
253.550995
 20
175.134003
 11
290.550995
 21
175.134003
  0
LINE
  8
0
  6
CONTINUOUS
 62
7
 10
266.428009
 20
182.634003
 11
277.585999
 21
182.634003
  0
LINE
  8
0
  6
CONTINUOUS
 62
7
 10
266.856995
 20
137.634003
 11
277.800995
 21
137.634003
  0
LINE
  8
0
  6
CONTINUOUS
 62
7
 10
272.049988
 20
141.250000
 11
272.049988
 21
133.309998
  0
LINE
  8
0
  6
CONTINUOUS
 62
7
 10
272.049988
 20
176.227005
 11
272.049988
 21
144.468994
  0
LINE
  8
0
  6
CONTINUOUS
 62
7
 10
155.550003
 20
329.533997
 11
155.550003
 21
224.334000
  0
LINE
  8
0
  6
CONTINUOUS
 62
7
 10
128.550003
 20
329.533997
 11
128.550003
 21
224.334000
  0
LINE
  8
0
  6
CONTINUOUS
 62
7
 10
129.350006
 20
223.533997
 11
154.750000
 21
223.533997
  0
LINE
  8
0
  6
CONTINUOUS
 62
7
 10
142.050003
 20
333.429993
 11
142.050003
 21
220.141998
  0
LINE
  8
0
  6
CONTINUOUS
 62
7
 10
128.550003
 20
228.533997
 11
155.550003
 21
228.533997
  0
LINE
  8
0
  6
CONTINUOUS
 62
7
 10
128.550003
 20
281.933990
 11
155.550003
 21
281.933990
  0
LINE
  8
0
  6
CONTINUOUS
 62
7
 10
133.964005
 20
236.233994
 11
150.470993
 21
236.233994
  0
LINE
  8
0
  6
CONTINUOUS
 62
7
 10
133.964005
 20
255.233994
 11
151.520996
 21
255.233994
  0
LINE
  8
0
  6
CONTINUOUS
 62
7
 10
134.313995
 20
274.234009
 11
151.520996
 21
274.234009
  0
LINE
  8
0
  6
CONTINUOUS
 62
7
 10
148.677994
 20
260.234009
 11
156.910995
 21
260.234009
  0
LINE
  8
0
  6
CONTINUOUS
 62
7
 10
127.925003
 20
250.233994
 11
135.300003
 21
250.233994
  0
LINE
  8
0
  6
CONTINUOUS
 62
7
 10
152.550003
 20
256.105988
 11
152.550003
 21
264.166992
  0
LINE
  8
0
  6
CONTINUOUS
 62
7
 10
131.550003
 20
246.158997
 11
131.550003
 21
254.563004
  0
LINE
  8
0
  6
CONTINUOUS
 62
7
 10
253.550003
 20
329.533997
 11
253.550003
 21
224.334000
  0
LINE
  8
0
  6
CONTINUOUS
 62
7
 10
290.549988
 20
329.533997
 11
290.549988
 21
224.334000
  0
LINE
  8
0
  6
CONTINUOUS
 62
7
 10
254.350006
 20
223.533997
 11
267.799988
 21
223.533997
  0
LINE
  8
0
  6
CONTINUOUS
 62
7
 10
253.550003
 20
228.533997
 11
290.549988
 21
228.533997
  0
LINE
  8
0
  6
CONTINUOUS
 62
7
 10
268.799988
 20
226.533997
 11
275.299988
 21
226.533997
  0
LINE
  8
0
  6
CONTINUOUS
 62
7
 10
275.799988
 20
226.033997
 11
275.799988
 21
224.033997
  0
LINE
  8
0
  6
CONTINUOUS
 62
7
 10
268.299988
 20
226.033997
 11
268.299988
 21
224.033997
  0
LINE
  8
0
  6
CONTINUOUS
 62
7
 10
267.799988
 20
223.533997
 11
276.299988
 21
223.533997
  0
LINE
  8
0
  6
CONTINUOUS
 62
7
 10
276.299988
 20
223.533997
 11
289.750000
 21
223.533997
  0
LINE
  8
0
  6
CONTINUOUS
 62
7
 10
253.550003
 20
281.933990
 11
290.549988
 21
281.933990
  0
LINE
  8
0
  6
CONTINUOUS
 62
7
 10
258.049988
 20
268.596985
 11
258.049988
 21
260.364014
  0
LINE
  8
0
  6
CONTINUOUS
 62
7
 10
254.134003
 20
264.734009
 11
262.195007
 21
264.734009
  0
LINE
  8
0
  6
CONTINUOUS
 62
7
 10
253.962997
 20
245.733994
 11
262.367004
 21
245.733994
  0
LINE
  8
0
  6
CONTINUOUS
 62
7
 10
258.049988
 20
249.901993
 11
258.049988
 21
241.154999
  0
LINE
  8
0
  6
CONTINUOUS
 62
7
 10
272.049988
 20
332.334015
 11
272.049988
 21
220.334000
  0
LINE
  8
0
  6
CONTINUOUS
 62
7
 10
378.549988
 20
329.533997
 11
378.549988
 21
224.334000
  0
LINE
  8
0
  6
CONTINUOUS
 62
7
 10
405.549988
 20
329.533997
 11
405.549988
 21
224.334000
  0
LINE
  8
0
  6
CONTINUOUS
 62
7
 10
379.350006
 20
223.533997
 11
404.750000
 21
223.533997
  0
LINE
  8
0
  6
CONTINUOUS
 62
7
 10
392.049988
 20
334.028992
 11
392.049988
 21
219.542999
  0
LINE
  8
0
  6
CONTINUOUS
 62
7
 10
378.549988
 20
228.533997
 11
405.549988
 21
228.533997
  0
LINE
  8
0
  6
CONTINUOUS
 62
7
 10
378.549988
 20
281.933990
 11
405.549988
 21
281.933990
  0
LINE
  8
0
  6
CONTINUOUS
 62
7
 10
285.243011
 20
266.734009
 11
297.571014
 21
266.734009
  0
LINE
  8
0
  6
CONTINUOUS
 62
7
 10
285.941010
 20
243.733994
 11
296.640991
 21
243.733994
  0
LINE
  8
0
  6
CONTINUOUS
 62
7
 10
402.549988
 20
256.420013
 11
402.549988
 21
243.899002
  0
LINE
  8
0
  6
CONTINUOUS
 62
7
 10
381.549988
 20
266.709991
 11
381.549988
 21
253.847000
  0
LINE
  8
0
  6
CONTINUOUS
 62
7
 10
396.070007
 20
250.233994
 11
407.733002
 21
250.233994
  0
LINE
  8
0
  6
CONTINUOUS
 62
7
 10
375.832001
 20
260.234009
 11
387.665985
 21
260.234009
  0
LINE
  8
0
  6
CONTINUOUS
 62
7
 10
231.274002
 20
236.233994
 11
259.670990
 21
236.233994
  0
LINE
  8
0
  6
CONTINUOUS
 62
7
 10
249.695999
 20
255.233994
 11
259.145996
 21
255.233994
  0
LINE
  8
0
  6
CONTINUOUS
 62
7
 10
229.455994
 20
274.234009
 11
259.670990
 21
274.234009
  0
LINE
  8
0
  6
PHANTOM
 62
7
 10
239.186005
 20
266.134003
 11
248.748001
 21
266.134003
  0
LINE
  8
0
  6
PHANTOM
 62
7
 10
239.186005
 20
282.334015
 11
248.748001
 21
282.334015
  0
LINE
  8
0
  6
PHANTOM
 62
7
 10
238.550003
 20
281.234009
 11
238.550003
 21
267.234009
  0
LINE
  8
0
  6
PHANTOM
 62
7
 10
249.550003
 20
280.944000
 11
249.550003
 21
267.523987
  0
LINE
  8
0
  6
PHANTOM
 62
7
 10
249.550003
 20
280.944000
 11
253.550003
 21
280.734009
  0
LINE
  8
0
  6
PHANTOM
 62
7
 10
249.550003
 20
279.944000
 11
253.550003
 21
279.734009
  0
LINE
  8
0
  6
PHANTOM
 62
7
 10
249.550003
 20
268.523987
 11
253.550003
 21
268.734009
  0
LINE
  8
0
  6
PHANTOM
 62
7
 10
249.550003
 20
267.523987
 11
253.550003
 21
267.734009
  0
LINE
  8
0
  6
PHANTOM
 62
7
 10
239.550003
 20
270.234009
 11
248.550003
 21
270.234009
  0
LINE
  8
0
  6
PHANTOM
 62
7
 10
239.550003
 20
278.234009
 11
248.550003
 21
278.234009
  0
LINE
  8
0
  6
PHANTOM
 62
7
 10
249.550003
 20
280.944000
 11
248.748001
 21
282.334015
  0
LINE
  8
0
  6
PHANTOM
 62
7
 10
248.748001
 20
266.134003
 11
249.550003
 21
267.523987
  0
LINE
  8
0
  6
PHANTOM
 62
7
 10
238.550003
 20
281.234009
 11
239.186005
 21
282.334015
  0
LINE
  8
0
  6
PHANTOM
 62
7
 10
239.186005
 20
266.134003
 11
238.550003
 21
267.234009
  0
LINE
  8
0
  6
PHANTOM
 62
7
 10
237.300003
 20
279.984009
 11
238.550003
 21
279.984009
  0
LINE
  8
0
  6
PHANTOM
 62
7
 10
237.300003
 20
268.484009
 11
238.550003
 21
268.484009
  0
LINE
  8
0
  6
PHANTOM
 62
7
 10
237.300003
 20
271.334015
 11
238.550003
 21
271.334015
  0
LINE
  8
0
  6
PHANTOM
 62
7
 10
237.300003
 20
277.134003
 11
238.550003
 21
277.134003
  0
LINE
  8
0
  6
PHANTOM
 62
7
 10
236.550003
 20
278.558990
 11
236.550003
 21
269.908997
  0
LINE
  8
0
  6
PHANTOM
 62
7
 10
232.550003
 20
277.734009
 11
232.550003
 21
270.734009
  0
LINE
  8
0
  6
PHANTOM
 62
7
 10
233.050003
 20
278.234009
 11
236.550003
 21
278.234009
  0
LINE
  8
0
  6
PHANTOM
 62
7
 10
233.050003
 20
270.234009
 11
236.550003
 21
270.234009
  0
LINE
  8
0
  6
PHANTOM
 62
7
 10
232.550003
 20
274.734009
 11
234.550003
 21
274.734009
  0
LINE
  8
0
  6
PHANTOM
 62
7
 10
232.550003
 20
273.734009
 11
234.550003
 21
273.734009
  0
LINE
  8
0
  6
PHANTOM
 62
7
 10
234.550003
 20
274.734009
 11
234.550003
 21
273.734009
  0
LINE
  8
0
  6
PHANTOM
 62
7
 10
232.550003
 20
270.734009
 11
236.550003
 21
270.734009
  0
LINE
  8
0
  6
PHANTOM
 62
7
 10
232.550003
 20
277.734009
 11
236.550003
 21
277.734009
  0
LINE
  8
0
  6
PHANTOM
 62
7
 10
232.550003
 20
277.734009
 11
233.050003
 21
278.234009
  0
LINE
  8
0
  6
PHANTOM
 62
7
 10
232.550995
 20
270.734009
 11
233.050003
 21
270.234009
  0
LINE
  8
0
  6
PHANTOM
 62
7
 10
239.186005
 20
228.134003
 11
248.748001
 21
228.134003
  0
LINE
  8
0
  6
PHANTOM
 62
7
 10
239.186005
 20
244.334000
 11
248.748001
 21
244.334000
  0
LINE
  8
0
  6
PHANTOM
 62
7
 10
238.550003
 20
243.233994
 11
238.550003
 21
229.233994
  0
LINE
  8
0
  6
PHANTOM
 62
7
 10
249.550003
 20
242.944000
 11
249.550003
 21
229.524002
  0
LINE
  8
0
  6
PHANTOM
 62
7
 10
249.550003
 20
242.944000
 11
253.550003
 21
242.733994
  0
LINE
  8
0
  6
PHANTOM
 62
7
 10
249.550003
 20
241.944000
 11
253.550003
 21
241.733994
  0
LINE
  8
0
  6
PHANTOM
 62
7
 10
249.550003
 20
230.524002
 11
253.550003
 21
230.733994
  0
LINE
  8
0
  6
PHANTOM
 62
7
 10
249.550003
 20
229.524002
 11
253.550003
 21
229.733994
  0
LINE
  8
0
  6
PHANTOM
 62
7
 10
239.550003
 20
232.233994
 11
248.550003
 21
232.233994
  0
LINE
  8
0
  6
PHANTOM
 62
7
 10
239.550003
 20
240.233994
 11
248.550003
 21
240.233994
  0
LINE
  8
0
  6
PHANTOM
 62
7
 10
249.550003
 20
242.944000
 11
248.748001
 21
244.334000
  0
LINE
  8
0
  6
PHANTOM
 62
7
 10
248.748001
 20
228.134003
 11
249.550003
 21
229.524002
  0
LINE
  8
0
  6
PHANTOM
 62
7
 10
238.550003
 20
243.233994
 11
239.186005
 21
244.334000
  0
LINE
  8
0
  6
PHANTOM
 62
7
 10
239.186005
 20
228.134003
 11
238.550003
 21
229.233994
  0
LINE
  8
0
  6
PHANTOM
 62
7
 10
237.300003
 20
241.983994
 11
238.550003
 21
241.983994
  0
LINE
  8
0
  6
PHANTOM
 62
7
 10
237.300003
 20
230.483994
 11
238.550003
 21
230.483994
  0
LINE
  8
0
  6
PHANTOM
 62
7
 10
237.300003
 20
233.334000
 11
238.550003
 21
233.334000
  0
LINE
  8
0
  6
PHANTOM
 62
7
 10
237.300003
 20
239.134003
 11
238.550003
 21
239.134003
  0
LINE
  8
0
  6
PHANTOM
 62
7
 10
236.550003
 20
240.559006
 11
236.550003
 21
231.908997
  0
LINE
  8
0
  6
PHANTOM
 62
7
 10
232.550003
 20
239.733994
 11
232.550003
 21
232.733994
  0
LINE
  8
0
  6
PHANTOM
 62
7
 10
233.050003
 20
240.233994
 11
236.550003
 21
240.233994
  0
LINE
  8
0
  6
PHANTOM
 62
7
 10
233.050003
 20
232.233994
 11
236.550003
 21
232.233994
  0
LINE
  8
0
  6
PHANTOM
 62
7
 10
232.550003
 20
236.733994
 11
234.550003
 21
236.733994
  0
LINE
  8
0
  6
PHANTOM
 62
7
 10
232.550003
 20
235.733994
 11
234.550003
 21
235.733994
  0
LINE
  8
0
  6
PHANTOM
 62
7
 10
234.550003
 20
236.733994
 11
234.550003
 21
235.733994
  0
LINE
  8
0
  6
PHANTOM
 62
7
 10
232.550003
 20
232.733994
 11
236.550003
 21
232.733994
  0
LINE
  8
0
  6
PHANTOM
 62
7
 10
232.550003
 20
239.733994
 11
236.550003
 21
239.733994
  0
LINE
  8
0
  6
PHANTOM
 62
7
 10
232.550003
 20
239.733994
 11
233.050003
 21
240.233994
  0
LINE
  8
0
  6
PHANTOM
 62
7
 10
232.550003
 20
232.733994
 11
233.050003
 21
232.233994
  0
LINE
  8
0
  6
CONTINUOUS
 62
7
 10
246.550003
 20
239.412994
 11
246.550003
 21
233.061005
  0
LINE
  8
0
  6
CONTINUOUS
 62
7
 10
246.550003
 20
277.220001
 11
246.550003
 21
270.919006
  0
LINE
  8
0
  6
CONTINUOUS
 62
7
 10
287.549988
 20
257.588013
 11
290.549988
 21
257.588013
  0
LINE
  8
0
  6
CONTINUOUS
 62
7
 10
287.549988
 20
262.880005
 11
290.549988
 21
262.880005
  0
LINE
  8
0
  6
CONTINUOUS
 62
7
 10
287.549988
 20
262.880005
 11
287.549988
 21
257.588013
  0
LINE
  8
0
  6
CONTINUOUS
 62
7
 10
383.403015
 20
243.733994
 11
400.213989
 21
243.733994
  0
LINE
  8
0
  6
CONTINUOUS
 62
7
 10
383.868011
 20
266.734009
 11
400.914001
 21
266.734009
  0
LINE
  8
0
  6
CONTINUOUS
 62
7
 10
114.051003
 20
216.533997
 11
114.051003
 21
213.533997
  0
LINE
  8
0
  6
PHANTOM
 62
7
 10
114.050003
 20
216.533997
 11
124.051003
 21
216.533997
  0
LINE
  8
0
  6
PHANTOM
 62
7
 10
114.050003
 20
214.533997
 11
124.051003
 21
214.533997
  0
LINE
  8
0
  6
CONTINUOUS
 62
7
 10
119.550003
 20
218.906006
 11
119.550003
 21
212.089005
  0
LINE
  8
0
  6
PHANTOM
 62
7
 10
125.051003
 20
220.533997
 11
125.051003
 21
217.533997
  0
LINE
  8
0
  6
PHANTOM
 62
7
 10
127.050003
 20
220.533997
 11
127.050003
 21
217.533997
  0
LINE
  8
0
  6
PHANTOM
 62
7
 10
128.050003
 20
221.533997
 11
156.050995
 21
221.533997
  0
LINE
  8
0
  6
PHANTOM
 62
7
 10
157.050003
 20
220.533997
 11
157.050003
 21
217.533997
  0
LINE
  8
0
  6
PHANTOM
 62
7
 10
159.050003
 20
220.533997
 11
159.050003
 21
217.533997
  0
LINE
  8
0
  6
PHANTOM
 62
7
 10
160.050995
 20
214.533997
 11
170.050003
 21
214.533997
  0
LINE
  8
0
  6
PHANTOM
 62
7
 10
160.050995
 20
216.533997
 11
170.050003
 21
216.533997
  0
LINE
  8
0
  6
PHANTOM
 62
7
 10
170.050995
 20
216.533997
 11
170.050995
 21
214.533997
  0
LINE
  8
0
  6
PHANTOM
 62
7
 10
253.550003
 20
216.533997
 11
290.549988
 21
216.533997
  0
LINE
  8
0
  6
PHANTOM
 62
7
 10
253.550003
 20
214.533997
 11
290.549988
 21
214.533997
  0
LINE
  8
0
  6
PHANTOM
 62
7
 10
253.550003
 20
220.533997
 11
290.549988
 21
220.533997
  0
LINE
  8
0
  6
PHANTOM
 62
7
 10
253.550003
 20
223.533997
 11
253.550003
 21
214.533997
  0
LINE
  8
0
  6
PHANTOM
 62
7
 10
290.549988
 20
223.533997
 11
290.549988
 21
214.533997
  0
LINE
  8
0
  6
PHANTOM
 62
7
 10
364.049988
 20
216.533997
 11
364.049988
 21
214.533997
  0
LINE
  8
0
  6
PHANTOM
 62
7
 10
364.050995
 20
214.533997
 11
374.049988
 21
214.533997
  0
LINE
  8
0
  6
PHANTOM
 62
7
 10
364.050995
 20
216.533997
 11
374.049988
 21
216.533997
  0
LINE
  8
0
  6
PHANTOM
 62
7
 10
377.049988
 20
220.533997
 11
377.049988
 21
217.533997
  0
LINE
  8
0
  6
PHANTOM
 62
7
 10
375.050995
 20
220.533997
 11
375.050995
 21
217.533997
  0
LINE
  8
0
  6
PHANTOM
 62
7
 10
378.049988
 20
221.533997
 11
406.050995
 21
221.533997
  0
LINE
  8
0
  6
PHANTOM
 62
7
 10
409.049988
 20
220.533997
 11
409.049988
 21
217.533997
  0
LINE
  8
0
  6
PHANTOM
 62
7
 10
407.049988
 20
220.533997
 11
407.049988
 21
217.533997
  0
LINE
  8
0
  6
PHANTOM
 62
7
 10
410.050995
 20
216.533997
 11
420.050995
 21
216.533997
  0
LINE
  8
0
  6
PHANTOM
 62
7
 10
410.050995
 20
214.533997
 11
420.050995
 21
214.533997
  0
LINE
  8
0
  6
PHANTOM
 62
7
 10
420.050995
 20
216.533997
 11
420.050995
 21
214.533997
  0
LINE
  8
0
  6
CONTINUOUS
 62
7
 10
334.694000
 20
291.123993
 11
372.487000
 21
291.123993
  0
LINE
  8
0
  6
CONTINUOUS
 62
3
 10
0.000000
 20
0.000000
 11
0.000000
 21
360.000000
  0
LINE
  8
0
  6
CONTINUOUS
 62
3
 10
524.494019
 20
360.000000
 11
524.494019
 21
0.000000
  0
LINE
  8
0
  6
CONTINUOUS
 62
3
 10
0.000000
 20
0.000000
 11
524.494019
 21
0.000000
  0
LINE
  8
0
  6
CONTINUOUS
 62
3
 10
0.000000
 20
360.000000
 11
524.494019
 21
360.000000
  0
LINE
  8
0
  6
CONTINUOUS
 62
3
 10
0.000000
 20
339.774994
 11
107.864998
 21
339.774994
  0
LINE
  8
0
  6
CONTINUOUS
 62
3
 10
107.864998
 20
339.774994
 11
107.864998
 21
360.000000
  0
LINE
  8
0
  6
CONTINUOUS
 62
3
 10
416.628998
 20
20.224701
 11
524.494019
 21
20.224701
  0
LINE
  8
0
  6
CONTINUOUS
 62
3
 10
416.628998
 20
339.774994
 11
524.494019
 21
339.774994
  0
LINE
  8
0
  6
CONTINUOUS
 62
3
 10
416.628998
 20
360.000000
 11
416.628998
 21
339.774994
  0
LINE
  8
0
  6
CONTINUOUS
 62
3
 10
416.628998
 20
20.224701
 11
416.628998
 21
0.000000
  0
ARC
  8
0
  6
CONTINUOUS
 62
7
 10
144.550003
 20
311.933990
 40
2.500000
 50
0.000000
 51
90.000000
  0
ARC
  8
0
  6
CONTINUOUS
 62
7
 10
139.550003
 20
311.933990
 40
2.500000
 50
90.000000
 51
270.000000
  0
ARC
  8
0
  6
CONTINUOUS
 62
7
 10
144.550003
 20
311.933990
 40
3.500000
 50
0.000000
 51
90.000000
  0
ARC
  8
0
  6
CONTINUOUS
 62
7
 10
139.550003
 20
311.933990
 40
3.500000
 50
90.000000
 51
270.000000
  0
ARC
  8
0
  6
CONTINUOUS
 62
7
 10
144.550003
 20
311.933990
 40
3.500000
 50
270.000000
 51
0.000000
  0
ARC
  8
0
  6
CONTINUOUS
 62
7
 10
144.550003
 20
311.933990
 40
2.500000
 50
270.000000
 51
0.000000
  0
CIRCLE
  8
0
  6
CONTINUOUS
 62
7
 10
144.550003
 20
311.933990
 40
1.250000
  0
CIRCLE
  8
0
  6
CONTINUOUS
 62
7
 10
139.550003
 20
311.933990
 40
1.250000
  0
ARC
  8
0
  6
CONTINUOUS
 62
7
 10
251.050003
 20
313.933990
 40
0.500000
 50
90.000000
 51
180.000000
  0
ARC
  8
0
  6
CONTINUOUS
 62
7
 10
251.050003
 20
309.933990
 40
0.500000
 50
180.000000
 51
270.000000
  0
CIRCLE
  8
0
  6
CONTINUOUS
 62
7
 10
139.550003
 20
311.933990
 40
0.500000
  0
CIRCLE
  8
0
  6
CONTINUOUS
 62
7
 10
144.550003
 20
311.933990
 40
0.500000
  0
CIRCLE
  8
0
  6
CONTINUOUS
 62
7
 10
259.549988
 20
170.634003
 40
2.000000
  0
CIRCLE
  8
0
  6
CONTINUOUS
 62
7
 10
284.549988
 20
149.634003
 40
2.000000
  0
CIRCLE
  8
0
  6
CONTINUOUS
 62
7
 10
259.549988
 20
170.634003
 40
1.500000
  0
CIRCLE
  8
0
  6
CONTINUOUS
 62
7
 10
284.549988
 20
149.634003
 40
1.500000
  0
ARC
  8
0
  6
CONTINUOUS
 62
7
 10
272.049988
 20
170.134003
 40
3.500000
 50
180.000000
 51
0.000000
  0
ARC
  8
0
  6
CONTINUOUS
 62
7
 10
272.049988
 20
150.134003
 40
3.500000
 50
0.000000
 51
180.000000
  0
CIRCLE
  8
0
  6
CONTINUOUS
 62
7
 10
272.049988
 20
170.134003
 40
2.500000
  0
CIRCLE
  8
0
  6
CONTINUOUS
 62
7
 10
272.049988
 20
150.134003
 40
2.500000
  0
ARC
  8
0
  6
CONTINUOUS
 62
7
 10
314.825012
 20
76.182800
 40
4.999990
 50
56.632900
 51
123.366997
  0
ARC
  8
0
  6
CONTINUOUS
 62
7
 10
356.825012
 20
76.032799
 40
2.500000
 50
0.000000
 51
90.000000
  0
ARC
  8
0
  6
CONTINUOUS
 62
7
 10
354.825012
 20
86.032799
 40
2.500000
 50
0.000000
 51
90.000000
  0
ARC
  8
0
  6
CONTINUOUS
 62
7
 10
349.825012
 20
86.032799
 40
2.499990
 50
90.000000
 51
180.000000
  0
ARC
  8
0
  6
CONTINUOUS
 62
7
 10
342.325012
 20
79.532799
 40
1.000000
 50
270.000000
 51
0.000000
  0
ARC
  8
0
  6
CONTINUOUS
 62
7
 10
344.825012
 20
88.532799
 40
1.499990
 50
90.000000
 51
180.000000
  0
ARC
  8
0
  6
CONTINUOUS
 62
7
 10
359.825012
 20
88.532799
 40
1.500000
 50
0.000000
 51
90.000000
  0
ARC
  8
0
  6
CONTINUOUS
 62
7
 10
359.252991
 20
95.943497
 40
4.089300
 50
55.615799
 51
124.384003
  0
ARC
  8
0
  6
CONTINUOUS
 62
7
 10
352.325012
 20
84.747299
 40
15.285400
 50
72.412102
 51
90.000000
  0
ARC
  8
0
  6
CONTINUOUS
 62
7
 10
352.325012
 20
84.747299
 40
15.285400
 50
90.000000
 51
107.587997
  0
ARC
  8
0
  6
CONTINUOUS
 62
7
 10
345.397003
 20
95.943497
 40
4.089300
 50
55.615799
 51
124.384003
  0
ARC
  8
0
  6
CONTINUOUS
 62
7
 10
357.325012
 20
52.282902
 40
2.000000
 50
270.000000
 51
0.000000
  0
ARC
  8
0
  6
CONTINUOUS
 62
7
 10
421.657990
 20
88.504204
 40
11.778500
 50
70.147400
 51
109.852997
  0
ARC
  8
0
  6
CONTINUOUS
 62
7
 10
413.657990
 20
88.504204
 40
11.778500
 50
70.147400
 51
109.851997
  0
CIRCLE
  8
0
  6
CONTINUOUS
 62
7
 10
417.657990
 20
64.282898
 40
2.999990
  0
ARC
  8
0
  6
CONTINUOUS
 62
7
 10
425.657990
 20
52.282902
 40
2.000000
 50
270.000000
 51
0.000000
  0
ARC
  8
0
  6
CONTINUOUS
 62
7
 10
409.657990
 20
52.282902
 40
2.000000
 50
180.000000
 51
270.000000
  0
ARC
  8
0
  6
CONTINUOUS
 62
7
 10
409.657990
 20
89.282799
 40
1.000000
 50
90.000000
 51
180.000000
  0
ARC
  8
0
  6
CONTINUOUS
 62
7
 10
425.657990
 20
89.282799
 40
1.000000
 50
0.000000
 51
90.000000
  0
ARC
  8
0
  6
CONTINUOUS
 62
7
 10
201.516006
 20
73.282898
 40
3.000000
 50
270.000000
 51
0.000000
  0
CIRCLE
  8
0
  6
CONTINUOUS
 62
7
 10
201.516006
 20
73.282898
 40
2.500000
  0
ARC
  8
0
  6
CONTINUOUS
 62
7
 10
214.516006
 20
55.282902
 40
3.000000
 50
90.000000
 51
180.000000
  0
CIRCLE
  8
0
  6
CONTINUOUS
 62
7
 10
214.516006
 20
55.282902
 40
2.500000
  0
CIRCLE
  8
0
  6
PHANTOM
 62
7
 10
272.049988
 20
182.634003
 40
2.750000
  0
CIRCLE
  8
0
  6
PHANTOM
 62
7
 10
272.049988
 20
137.634003
 40
2.750000
  0
ARC
  8
0
  6
CONTINUOUS
 62
7
 10
129.350006
 20
224.334000
 40
0.800003
 50
180.000000
 51
270.000000
  0
ARC
  8
0
  6
CONTINUOUS
 62
7
 10
154.750000
 20
224.334000
 40
0.800003
 50
270.000000
 51
0.000000
  0
CIRCLE
  8
0
  6
CONTINUOUS
 62
7
 10
142.050003
 20
274.234009
 40
5.750000
  0
CIRCLE
  8
0
  6
CONTINUOUS
 62
7
 10
142.050003
 20
255.233994
 40
5.750000
  0
CIRCLE
  8
0
  6
CONTINUOUS
 62
7
 10
142.050003
 20
236.233994
 40
5.750000
  0
CIRCLE
  8
0
  6
CONTINUOUS
 62
7
 10
142.050003
 20
274.234009
 40
6.500000
  0
CIRCLE
  8
0
  6
CONTINUOUS
 62
7
 10
142.050003
 20
255.233994
 40
6.500000
  0
CIRCLE
  8
0
  6
CONTINUOUS
 62
7
 10
142.050003
 20
236.233994
 40
6.500000
  0
CIRCLE
  8
0
  6
CONTINUOUS
 62
7
 10
131.550003
 20
250.233994
 40
2.200000
  0
CIRCLE
  8
0
  6
CONTINUOUS
 62
7
 10
152.550003
 20
260.234009
 40
2.200000
  0
ARC
  8
0
  6
CONTINUOUS
 62
7
 10
268.799988
 20
226.033997
 40
0.500000
 50
90.000000
 51
180.000000
  0
ARC
  8
0
  6
CONTINUOUS
 62
7
 10
275.299988
 20
226.033997
 40
0.500000
 50
0.000000
 51
90.000000
  0
ARC
  8
0
  6
CONTINUOUS
 62
7
 10
267.799988
 20
224.033997
 40
0.500000
 50
270.000000
 51
0.000000
  0
ARC
  8
0
  6
CONTINUOUS
 62
7
 10
276.299988
 20
224.033997
 40
0.500000
 50
180.000000
 51
270.000000
  0
ARC
  8
0
  6
CONTINUOUS
 62
7
 10
289.750000
 20
224.334000
 40
0.800003
 50
270.000000
 51
0.000000
  0
ARC
  8
0
  6
CONTINUOUS
 62
7
 10
254.350006
 20
224.334000
 40
0.800003
 50
180.000000
 51
270.000000
  0
CIRCLE
  8
0
  6
CONTINUOUS
 62
7
 10
258.049988
 20
264.734009
 40
2.200000
  0
CIRCLE
  8
0
  6
CONTINUOUS
 62
7
 10
258.049988
 20
245.733994
 40
2.200000
  0
ARC
  8
0
  6
CONTINUOUS
 62
7
 10
379.350006
 20
224.334000
 40
0.799988
 50
180.000000
 51
270.000000
  0
ARC
  8
0
  6
CONTINUOUS
 62
7
 10
404.750000
 20
224.334000
 40
0.800003
 50
270.000000
 51
0.000000
  0
CIRCLE
  8
0
  6
CONTINUOUS
 62
7
 10
392.049988
 20
266.734009
 40
6.500000
  0
CIRCLE
  8
0
  6
CONTINUOUS
 62
7
 10
392.049988
 20
243.733994
 40
6.500000
  0
CIRCLE
  8
0
  6
CONTINUOUS
 62
7
 10
392.049988
 20
266.734009
 40
5.750000
  0
CIRCLE
  8
0
  6
CONTINUOUS
 62
7
 10
392.049988
 20
243.733994
 40
5.750000
  0
CIRCLE
  8
0
  6
CONTINUOUS
 62
7
 10
381.549988
 20
260.234009
 40
2.200000
  0
CIRCLE
  8
0
  6
CONTINUOUS
 62
7
 10
402.549988
 20
250.233994
 40
2.200000
  0
ARC
  8
0
  6
CONTINUOUS
 62
7
 10
381.549988
 20
260.234009
 40
4.000000
 50
0.000000
 51
138.589996
  0
ARC
  8
0
  6
CONTINUOUS
 62
7
 10
402.549988
 20
250.233994
 40
4.000000
 50
41.409599
 51
318.589996
  0
ARC
  8
0
  6
CONTINUOUS
 62
7
 10
381.549988
 20
260.234009
 40
4.000000
 50
221.410004
 51
0.000000
  0
ARC
  8
0
  6
PHANTOM
 62
7
 10
247.050003
 20
274.234009
 40
8.500010
 50
151.927994
 51
208.072006
  0
ARC
  8
0
  6
PHANTOM
 62
7
 10
241.050003
 20
274.234009
 40
8.500030
 50
0.000000
 51
28.072399
  0
ARC
  8
0
  6
PHANTOM
 62
7
 10
241.050003
 20
274.234009
 40
8.500030
 50
331.928009
 51
0.000000
  0
ARC
  8
0
  6
PHANTOM
 62
7
 10
242.600006
 20
280.916992
 40
4.061790
 50
175.526001
 51
221.343994
  0
ARC
  8
0
  6
PHANTOM
 62
7
 10
242.453003
 20
267.600006
 40
3.919230
 50
137.772003
 51
185.356995
  0
ARC
  8
0
  6
PHANTOM
 62
7
 10
245.501007
 20
280.916992
 40
4.061790
 50
318.656006
 51
4.474250
  0
ARC
  8
0
  6
PHANTOM
 62
7
 10
245.647995
 20
267.600006
 40
3.919240
 50
354.641998
 51
42.227699
  0
ARC
  8
0
  6
PHANTOM
 62
7
 10
242.531998
 20
274.234009
 40
5.981670
 50
151.000000
 51
209.000000
  0
ARC
  8
0
  6
PHANTOM
 62
7
 10
238.279007
 20
278.558990
 40
1.728730
 50
124.483002
 51
235.516998
  0
ARC
  8
0
  6
PHANTOM
 62
7
 10
238.279007
 20
269.908997
 40
1.728740
 50
124.483002
 51
235.516998
  0
ARC
  8
0
  6
PHANTOM
 62
7
 10
238.279007
 20
231.908997
 40
1.728740
 50
124.483002
 51
235.516998
  0
ARC
  8
0
  6
PHANTOM
 62
7
 10
247.050003
 20
236.233994
 40
8.500010
 50
151.927994
 51
208.072006
  0
ARC
  8
0
  6
PHANTOM
 62
7
 10
241.050003
 20
236.233994
 40
8.500030
 50
0.000000
 51
28.072399
  0
ARC
  8
0
  6
PHANTOM
 62
7
 10
241.050003
 20
236.233994
 40
8.500030
 50
331.928009
 51
0.000000
  0
ARC
  8
0
  6
PHANTOM
 62
7
 10
242.600006
 20
242.917007
 40
4.061790
 50
175.526001
 51
221.343994
  0
ARC
  8
0
  6
PHANTOM
 62
7
 10
242.453003
 20
229.600006
 40
3.919250
 50
137.772003
 51
185.358002
  0
ARC
  8
0
  6
PHANTOM
 62
7
 10
245.501007
 20
242.917007
 40
4.061790
 50
318.656006
 51
4.474250
  0
ARC
  8
0
  6
PHANTOM
 62
7
 10
245.647995
 20
229.600006
 40
3.919240
 50
354.641998
 51
42.227798
  0
ARC
  8
0
  6
PHANTOM
 62
7
 10
242.531998
 20
236.233994
 40
5.981670
 50
151.000000
 51
209.000000
  0
ARC
  8
0
  6
PHANTOM
 62
7
 10
238.279007
 20
240.559006
 40
1.728740
 50
124.482002
 51
235.516998
  0
CIRCLE
  8
0
  6
PHANTOM
 62
7
 10
246.550003
 20
236.233994
 40
2.500000
  0
CIRCLE
  8
0
  6
PHANTOM
 62
7
 10
246.550003
 20
274.234009
 40
2.500000
  0
ARC
  8
0
  6
CONTINUOUS
 62
7
 10
272.049988
 20
226.533997
 40
2.500000
 50
180.000000
 51
0.000000
  0
ARC
  8
0
  6
PHANTOM
 62
7
 10
124.050003
 20
217.533997
 40
3.000000
 50
270.000000
 51
0.000000
  0
ARC
  8
0
  6
PHANTOM
 62
7
 10
124.050003
 20
217.533997
 40
1.000000
 50
270.000000
 51
0.000000
  0
ARC
  8
0
  6
PHANTOM
 62
7
 10
128.050003
 20
220.533997
 40
3.000000
 50
90.000000
 51
180.000000
  0
ARC
  8
0
  6
PHANTOM
 62
7
 10
128.050003
 20
220.533997
 40
1.000000
 50
90.000000
 51
180.000000
  0
ARC
  8
0
  6
PHANTOM
 62
7
 10
156.050995
 20
220.533997
 40
3.000000
 50
0.000000
 51
90.000000
  0
ARC
  8
0
  6
PHANTOM
 62
7
 10
160.050995
 20
217.533997
 40
3.000000
 50
180.000000
 51
270.000000
  0
ARC
  8
0
  6
PHANTOM
 62
7
 10
160.050995
 20
217.533997
 40
1.000000
 50
180.000000
 51
270.000000
  0
ARC
  8
0
  6
CONTINUOUS
 62
7
 10
156.050995
 20
220.533997
 40
1.000000
 50
0.000000
 51
90.000000
  0
ARC
  8
0
  6
PHANTOM
 62
7
 10
374.050995
 20
217.533997
 40
3.000000
 50
270.000000
 51
0.000000
  0
ARC
  8
0
  6
PHANTOM
 62
7
 10
374.050995
 20
217.533997
 40
1.000000
 50
270.000000
 51
0.000000
  0
ARC
  8
0
  6
PHANTOM
 62
7
 10
378.049988
 20
220.533997
 40
3.000000
 50
90.000000
 51
180.000000
  0
ARC
  8
0
  6
PHANTOM
 62
7
 10
378.049988
 20
220.533997
 40
1.000000
 50
90.000000
 51
180.000000
  0
ARC
  8
0
  6
PHANTOM
 62
7
 10
406.050995
 20
220.533997
 40
1.000000
 50
0.000000
 51
90.000000
  0
ARC
  8
0
  6
PHANTOM
 62
7
 10
406.050995
 20
220.533997
 40
3.000000
 50
0.000000
 51
90.000000
  0
ARC
  8
0
  6
PHANTOM
 62
7
 10
410.050995
 20
217.533997
 40
3.000000
 50
180.000000
 51
270.000000
  0
ARC
  8
0
  6
PHANTOM
 62
7
 10
410.050995
 20
217.533997
 40
1.000000
 50
180.000000
 51
270.000000
  0
POLYLINE
  8
0
  6
CONTINUOUS
 62
7
 66
     1
  0
VERTEX
  8
0
 10
244.440994
 20
158.897003
  0
VERTEX
  8
0
 10
244.369675
 20
158.511246
  0
VERTEX
  8
0
 10
244.373993
 20
158.095001
  0
VERTEX
  8
0
 10
244.511368
 20
157.574860
  0
VERTEX
  8
0
 10
244.608002
 20
157.093002
  0
VERTEX
  8
0
 10
244.535675
 20
156.731903
  0
VERTEX
  8
0
 10
244.373993
 20
156.391998
  0
SEQEND
  0
POLYLINE
  8
0
  6
CONTINUOUS
 62
7
 66
     1
  0
VERTEX
  8
0
 10
246.177994
 20
158.863007
  0
VERTEX
  8
0
 10
246.080841
 20
158.420471
  0
VERTEX
  8
0
 10
246.076996
 20
157.960999
  0
VERTEX
  8
0
 10
246.208618
 20
157.453506
  0
VERTEX
  8
0
 10
246.278000
 20
156.992996
  0
VERTEX
  8
0
 10
246.171097
 20
156.676483
  0
VERTEX
  8
0
 10
245.977005
 20
156.391998
  0
SEQEND
  0
POLYLINE
  8
0
  6
CONTINUOUS
 62
7
 66
     1
  0
VERTEX
  8
0
 10
379.299988
 20
327.433990
  0
VERTEX
  8
0
 10
379.281189
 20
327.898743
  0
VERTEX
  8
0
 10
379.477997
 20
328.489990
  0
VERTEX
  8
0
 10
380.060699
 20
329.088715
  0
VERTEX
  8
0
 10
380.905457
 20
329.426453
  0
VERTEX
  8
0
 10
381.799988
 20
329.533997
  0
SEQEND
  0
POLYLINE
  8
0
  6
CONTINUOUS
 62
7
 66
     1
  0
VERTEX
  8
0
 10
384.300995
 20
327.433990
  0
VERTEX
  8
0
 10
384.319824
 20
327.898682
  0
VERTEX
  8
0
 10
384.122986
 20
328.489990
  0
VERTEX
  8
0
 10
383.540039
 20
329.088837
  0
VERTEX
  8
0
 10
382.694855
 20
329.426514
  0
VERTEX
  8
0
 10
381.799988
 20
329.533997
  0
SEQEND
  0
POLYLINE
  8
0
  6
CONTINUOUS
 62
7
 66
     1
  0
VERTEX
  8
0
 10
134.300003
 20
327.433990
  0
VERTEX
  8
0
 10
134.319336
 20
327.898682
  0
VERTEX
  8
0
 10
134.123001
 20
328.489990
  0
VERTEX
  8
0
 10
133.540039
 20
329.088837
  0
VERTEX
  8
0
 10
132.694885
 20
329.426514
  0
VERTEX
  8
0
 10
131.800003
 20
329.533997
  0
SEQEND
  0
POLYLINE
  8
0
  6
CONTINUOUS
 62
7
 66
     1
  0
VERTEX
  8
0
 10
129.300003
 20
327.433990
  0
VERTEX
  8
0
 10
129.281189
 20
327.898743
  0
VERTEX
  8
0
 10
129.477997
 20
328.489990
  0
VERTEX
  8
0
 10
130.060715
 20
329.088715
  0
VERTEX
  8
0
 10
130.905487
 20
329.426453
  0
VERTEX
  8
0
 10
131.800003
 20
329.533997
  0
SEQEND
  0
POLYLINE
  8
0
  6
CONTINUOUS
 62
7
 66
     1
  0
VERTEX
  8
0
 10
288.299988
 20
327.433990
  0
VERTEX
  8
0
 10
288.319336
 20
327.898682
  0
VERTEX
  8
0
 10
288.122986
 20
328.489990
  0
VERTEX
  8
0
 10
287.540039
 20
329.088837
  0
VERTEX
  8
0
 10
286.694885
 20
329.426514
  0
VERTEX
  8
0
 10
285.799988
 20
329.533997
  0
SEQEND
  0
POLYLINE
  8
0
  6
CONTINUOUS
 62
7
 66
     1
  0
VERTEX
  8
0
 10
283.299988
 20
327.433990
  0
VERTEX
  8
0
 10
283.281189
 20
327.898743
  0
VERTEX
  8
0
 10
283.477997
 20
328.489990
  0
VERTEX
  8
0
 10
284.060699
 20
329.088715
  0
VERTEX
  8
0
 10
284.905457
 20
329.426453
  0
VERTEX
  8
0
 10
285.799988
 20
329.533997
  0
SEQEND
  0
POLYLINE
  8
0
  6
CONTINUOUS
 62
7
 66
     1
  0
VERTEX
  8
0
 10
243.440994
 20
313.196991
  0
VERTEX
  8
0
 10
243.369675
 20
312.811218
  0
VERTEX
  8
0
 10
243.373993
 20
312.394989
  0
VERTEX
  8
0
 10
243.511368
 20
311.874847
  0
VERTEX
  8
0
 10
243.608002
 20
311.393005
  0
VERTEX
  8
0
 10
243.535675
 20
311.031891
  0
VERTEX
  8
0
 10
243.373993
 20
310.691986
  0
SEQEND
  0
POLYLINE
  8
0
  6
CONTINUOUS
 62
7
 66
     1
  0
VERTEX
  8
0
 10
245.177994
 20
313.162994
  0
VERTEX
  8
0
 10
245.080841
 20
312.720459
  0
VERTEX
  8
0
 10
245.076996
 20
312.260986
  0
VERTEX
  8
0
 10
245.208618
 20
311.753510
  0
VERTEX
  8
0
 10
245.278000
 20
311.292999
  0
VERTEX
  8
0
 10
245.171097
 20
310.976471
  0
VERTEX
  8
0
 10
244.977005
 20
310.691986
  0
SEQEND
  0
POLYLINE
  8
0
  6
CONTINUOUS
 62
7
 66
     1
  0
VERTEX
  8
0
 10
244.440994
 20
163.897003
  0
VERTEX
  8
0
 10
244.369675
 20
163.511246
  0
VERTEX
  8
0
 10
244.373993
 20
163.095001
  0
VERTEX
  8
0
 10
244.511368
 20
162.574860
  0
VERTEX
  8
0
 10
244.608002
 20
162.093002
  0
VERTEX
  8
0
 10
244.535675
 20
161.731903
  0
VERTEX
  8
0
 10
244.373993
 20
161.391998
  0
SEQEND
  0
POLYLINE
  8
0
  6
CONTINUOUS
 62
7
 66
     1
  0
VERTEX
  8
0
 10
246.177994
 20
163.863007
  0
VERTEX
  8
0
 10
246.080841
 20
163.420471
  0
VERTEX
  8
0
 10
246.076996
 20
162.960999
  0
VERTEX
  8
0
 10
246.208618
 20
162.453506
  0
VERTEX
  8
0
 10
246.278000
 20
161.992996
  0
VERTEX
  8
0
 10
246.171097
 20
161.676483
  0
VERTEX
  8
0
 10
245.977005
 20
161.391998
  0
SEQEND
  0
POLYLINE
  8
0
  6
CONTINUOUS
 62
7
 66
     1
  0
VERTEX
  8
0
 10
407.657990
 20
74.282898
  0
VERTEX
  8
0
 10
407.961700
 20
75.106613
  0
VERTEX
  8
0
 10
408.361481
 20
75.948288
  0
VERTEX
  8
0
 10
408.844147
 20
76.747337
  0
VERTEX
  8
0
 10
409.396576
 20
77.443176
  0
VERTEX
  8
0
 10
410.005554
 20
77.975227
  0
VERTEX
  8
0
 10
410.657990
 20
78.282898
  0
VERTEX
  8
0
 10
411.461670
 20
78.314758
  0
VERTEX
  8
0
 10
412.295258
 20
78.037079
  0
VERTEX
  8
0
 10
413.131134
 20
77.501999
  0
VERTEX
  8
0
 10
413.941589
 20
76.761665
  0
VERTEX
  8
0
 10
414.699005
 20
75.868202
  0
VERTEX
  8
0
 10
415.381042
 20
74.889458
  0
VERTEX
  8
0
 10
416.002930
 20
73.924545
  0
VERTEX
  8
0
 10
416.579681
 20
73.090462
  0
VERTEX
  8
0
 10
417.126373
 20
72.504211
  0
VERTEX
  8
0
 10
417.657990
 20
72.282799
  0
VERTEX
  8
0
 10
418.188904
 20
72.503265
  0
VERTEX
  8
0
 10
418.734131
 20
73.087593
  0
VERTEX
  8
0
 10
419.309814
 20
73.920235
  0
VERTEX
  8
0
 10
419.932068
 20
74.885628
  0
VERTEX
  8
0
 10
420.617004
 20
75.868202
  0
VERTEX
  8
0
 10
421.373444
 20
76.766510
  0
VERTEX
  8
0
 10
422.176514
 20
77.509354
  0
VERTEX
  8
0
 10
423.005463
 20
78.044518
  0
VERTEX
  8
0
 10
423.839539
 20
78.319771
  0
VERTEX
  8
0
 10
424.657990
 20
78.282898
  0
VERTEX
  8
0
 10
425.324432
 20
77.971558
  0
VERTEX
  8
0
 10
425.937347
 20
77.438477
  0
VERTEX
  8
0
 10
426.486969
 20
76.743370
  0
VERTEX
  8
0
 10
426.963470
 20
75.945938
  0
VERTEX
  8
0
 10
427.357086
 20
75.105881
  0
VERTEX
  8
0
 10
427.657990
 20
74.282898
  0
SEQEND
  0
POLYLINE
  8
0
  6
CONTINUOUS
 62
7
 66
     1
  0
VERTEX
  8
0
 10
213.535004
 20
90.164398
  0
VERTEX
  8
0
 10
213.301331
 20
90.320885
  0
VERTEX
  8
0
 10
212.985001
 20
90.384300
  0
VERTEX
  8
0
 10
212.434753
 20
90.136902
  0
VERTEX
  8
0
 10
211.959000
 20
89.907799
  0
VERTEX
  8
0
 10
211.711823
 20
89.980309
  0
VERTEX
  8
0
 10
211.483002
 20
90.127800
  0
SEQEND
  0
POLYLINE
  8
0
  6
CONTINUOUS
 62
7
 66
     1
  0
VERTEX
  8
0
 10
209.535004
 20
90.164398
  0
VERTEX
  8
0
 10
209.301331
 20
90.320885
  0
VERTEX
  8
0
 10
208.985001
 20
90.384300
  0
VERTEX
  8
0
 10
208.434753
 20
90.136909
  0
VERTEX
  8
0
 10
207.959000
 20
89.907799
  0
VERTEX
  8
0
 10
207.711823
 20
89.980309
  0
VERTEX
  8
0
 10
207.483002
 20
90.127800
  0
SEQEND
  0
POLYLINE
  8
0
  6
CONTINUOUS
 62
7
 66
     1
  0
VERTEX
  8
0
 10
79.935600
 20
76.482803
  0
VERTEX
  8
0
 10
79.808090
 20
77.428993
  0
VERTEX
  8
0
 10
79.360703
 20
78.275299
  0
VERTEX
  8
0
 10
78.815773
 20
78.705444
  0
VERTEX
  8
0
 10
78.148903
 20
78.970955
  0
VERTEX
  8
0
 10
77.446404
 20
79.091499
  0
SEQEND
  0
POLYLINE
  8
0
  6
CONTINUOUS
 62
7
 66
     1
  0
VERTEX
  8
0
 10
213.535004
 20
92.164398
  0
VERTEX
  8
0
 10
213.301331
 20
92.320885
  0
VERTEX
  8
0
 10
212.985001
 20
92.384300
  0
VERTEX
  8
0
 10
212.434753
 20
92.136902
  0
VERTEX
  8
0
 10
211.959000
 20
91.907799
  0
VERTEX
  8
0
 10
211.711823
 20
91.980309
  0
VERTEX
  8
0
 10
211.483002
 20
92.127800
  0
SEQEND
  0
POLYLINE
  8
0
  6
CONTINUOUS
 62
7
 66
     1
  0
VERTEX
  8
0
 10
74.935600
 20
76.482803
  0
VERTEX
  8
0
 10
75.063110
 20
77.429001
  0
VERTEX
  8
0
 10
75.510498
 20
78.275299
  0
VERTEX
  8
0
 10
76.055458
 20
78.705444
  0
VERTEX
  8
0
 10
76.722366
 20
78.970955
  0
VERTEX
  8
0
 10
77.424896
 20
79.091499
  0
SEQEND
  0
POLYLINE
  8
0
  6
CONTINUOUS
 62
7
 66
     1
  0
VERTEX
  8
0
 10
129.936005
 20
52.282902
  0
VERTEX
  8
0
 10
130.717117
 20
52.284561
  0
VERTEX
  8
0
 10
131.503998
 20
52.592602
  0
VERTEX
  8
0
 10
132.027069
 20
53.178730
  0
VERTEX
  8
0
 10
132.327499
 20
53.959808
  0
VERTEX
  8
0
 10
132.436005
 20
54.782902
  0
SEQEND
  0
POLYLINE
  8
0
  6
CONTINUOUS
 62
7
 66
     1
  0
VERTEX
  8
0
 10
129.936005
 20
57.282902
  0
VERTEX
  8
0
 10
130.717133
 20
57.281189
  0
VERTEX
  8
0
 10
131.503998
 20
56.973099
  0
VERTEX
  8
0
 10
132.027054
 20
56.386997
  0
VERTEX
  8
0
 10
132.327499
 20
55.605961
  0
VERTEX
  8
0
 10
132.436005
 20
54.782902
  0
SEQEND
  0
POLYLINE
  8
0
  6
CONTINUOUS
 62
7
 66
     1
  0
VERTEX
  8
0
 10
125.666000
 20
90.164398
  0
VERTEX
  8
0
 10
125.899666
 20
90.320885
  0
VERTEX
  8
0
 10
126.216003
 20
90.384300
  0
VERTEX
  8
0
 10
126.766197
 20
90.136902
  0
VERTEX
  8
0
 10
127.241997
 20
89.907799
  0
VERTEX
  8
0
 10
127.489693
 20
89.980240
  0
VERTEX
  8
0
 10
127.719002
 20
90.127800
  0
SEQEND
  0
POLYLINE
  8
0
  6
CONTINUOUS
 62
7
 66
     1
  0
VERTEX
  8
0
 10
125.666000
 20
92.164398
  0
VERTEX
  8
0
 10
125.899666
 20
92.320885
  0
VERTEX
  8
0
 10
126.216003
 20
92.384300
  0
VERTEX
  8
0
 10
126.766197
 20
92.136902
  0
VERTEX
  8
0
 10
127.241997
 20
91.907799
  0
VERTEX
  8
0
 10
127.489693
 20
91.980240
  0
VERTEX
  8
0
 10
127.719002
 20
92.127800
  0
SEQEND
  0
POLYLINE
  8
0
  6
CONTINUOUS
 62
7
 66
     1
  0
VERTEX
  8
0
 10
209.535004
 20
92.164398
  0
VERTEX
  8
0
 10
209.301331
 20
92.320885
  0
VERTEX
  8
0
 10
208.985001
 20
92.384300
  0
VERTEX
  8
0
 10
208.434753
 20
92.136909
  0
VERTEX
  8
0
 10
207.959000
 20
91.907799
  0
VERTEX
  8
0
 10
207.711823
 20
91.980309
  0
VERTEX
  8
0
 10
207.483002
 20
92.127800
  0
SEQEND
  0
TEXT
  8
0
 62
7
 10
381.920013
 20
269.932007
 40
2.500000
  1
A
 50
0.000000
 41
0.820000
 51
0.000000
  7
STANDARD
  0
TEXT
  8
0
 62
7
 10
381.920013
 20
246.438004
 40
2.500000
  1
B
 50
0.000000
 41
0.820000
 51
0.000000
  7
STANDARD
  0
TEXT
  8
0
 62
7
 10
129.158005
 20
275.677002
 40
2.500000
  1
R1
 50
0.000000
 41
1.142861
 51
0.000000
  7
STANDARD
  0
TEXT
  8
0
 62
7
 10
130.214005
 20
256.084015
 40
2.500000
  1
P
 50
0.000000
 41
0.820000
 51
0.000000
  7
STANDARD
  0
TEXT
  8
0
 62
7
 10
148.990005
 20
237.944000
 40
2.500000
  1
R2
 50
0.000000
 41
1.142861
 51
0.000000
  7
STANDARD
  0
TEXT
  8
0
 62
7
 10
335.940002
 20
292.601990
 40
4.000000
  1
ザグリφ８深３
 50
0.000000
 41
0.660266
 51
0.000000
  7
STANDARD
  0
TEXT
  8
0
 62
7
 10
423.066986
 20
346.888000
 40
6.000000
  1
DATE : AUG ,1992
 50
0.000000
 41
0.835717
 51
0.000000
  7
STANDARD
  0
TEXT
  8
0
 62
7
 10
25.632599
 20
346.388000
 40
7.000000
  1
AIR VALBU
 50
0.000000
 41
0.767857
 51
0.000000
  7
STANDARD
  0
TEXT
  8
0
 62
7
 10
431.762024
 20
8.362400
 40
7.000000
  1
KOGANEI,CORP
 50
0.000000
 41
0.828571
 51
0.000000
  7
STANDARD
  0
TEXT
  8
0
 62
7
 10
15.321102
 20
306.303986
 40
7.000000
  1
MODEL:200-4E1
 50
0.000000
 41
0.818182
 51
0.000000
  7
STANDARD
  0
LINE
  8
0
  6
CONTINUOUS
 62
7
 10
269.484009
 20
106.304001
 11
230.479996
 21
106.304001
  0
LINE
  8
0
  6
CONTINUOUS
 62
7
 10
230.479996
 20
106.304001
 11
210.440994
 21
66.155502
  0
LINE
  8
0
  6
CONTINUOUS
 62
7
 10
210.440994
 20
66.155502
 11
212.429825
 21
68.401512
  0
LINE
  8
0
  6
CONTINUOUS
 62
7
 10
210.440994
 20
66.155502
 11
211.040375
 21
69.095016
  0
TEXT
  8
0
 62
7
 10
230.479996
 20
106.304001
 40
3.200000
  1
ＬＥＤインジケータ
 50
0.000000
 41
0.643645
 51
0.000000
  7
STANDARD
  0
LINE
  8
0
  6
CONTINUOUS
 62
7
 10
345.045990
 20
120.934998
 11
299.484009
 21
120.934998
  0
LINE
  8
0
  6
CONTINUOUS
 62
7
 10
299.484009
 20
120.934998
 11
285.473999
 21
147.860001
  0
LINE
  8
0
  6
CONTINUOUS
 62
7
 10
285.473999
 20
147.860001
 11
286.122772
 21
144.931000
  0
LINE
  8
0
  6
CONTINUOUS
 62
7
 10
285.473999
 20
147.860001
 11
287.500366
 21
145.647797
  0
TEXT
  8
0
 62
7
 10
299.484009
 20
120.934998
 40
3.200000
  1
２－Ｍ３Ｘ０．５深１２
 50
0.000000
 41
0.634664
 51
0.000000
  7
STANDARD
  0
LINE
  8
0
  6
CONTINUOUS
 62
7
 10
223.688995
 20
120.934998
 11
249.483994
 21
120.934998
  0
LINE
  8
0
  6
CONTINUOUS
 62
7
 10
249.483994
 20
120.934998
 11
269.839996
 21
135.998001
  0
LINE
  8
0
  6
CONTINUOUS
 62
7
 10
269.839996
 20
135.998001
 11
267.048767
 21
134.898468
  0
LINE
  8
0
  6
CONTINUOUS
 62
7
 10
269.839996
 20
135.998001
 11
267.972473
 21
133.650162
  0
TEXT
  8
0
 62
7
 10
223.688995
 20
120.934998
 40
3.200000
  1
2-φ5.5
 50
0.000000
 41
1.039609
 51
0.000000
  7
STANDARD
  0
LINE
  8
0
  6
CONTINUOUS
 62
7
 10
445.855988
 20
290.934998
 11
419.484009
 21
290.934998
  0
LINE
  8
0
  6
CONTINUOUS
 62
7
 10
419.484009
 20
290.934998
 11
396.924988
 21
271.033997
  0
LINE
  8
0
  6
CONTINUOUS
 62
7
 10
396.924988
 20
271.033997
 11
399.611694
 21
272.368744
  0
LINE
  8
0
  6
CONTINUOUS
 62
7
 10
396.924988
 20
271.033997
 11
398.584381
 21
273.533295
  0
TEXT
  8
0
 62
7
 10
419.484009
 20
290.934998
 40
3.200000
  1
5-R
 50
0.000000
 41
0.789231
 51
0.000000
  7
STANDARD
  0
TEXT
  8
0
 62
7
 10
427.060638
 20
290.934998
 40
1.600000
  1
C
 50
0.000000
 41
0.789231
 51
0.000000
  7
STANDARD
  0
TEXT
  8
0
 62
7
 10
428.323395
 20
290.934998
 40
3.200000
  1
1/4
 50
0.000000
 41
0.789231
 51
0.000000
  7
STANDARD
  0
LINE
  8
0
  6
CONTINUOUS
 62
7
 10
342.707001
 20
300.934998
 11
369.484009
 21
300.934998
  0
LINE
  8
0
  6
CONTINUOUS
 62
7
 10
369.484009
 20
300.934998
 11
380.414001
 21
264.069000
  0
LINE
  8
0
  6
CONTINUOUS
 62
7
 10
380.414001
 20
264.069000
 11
380.334747
 21
267.067963
  0
LINE
  8
0
  6
CONTINUOUS
 62
7
 10
380.414001
 20
264.069000
 11
378.845886
 21
266.626526
  0
TEXT
  8
0
 62
7
 10
342.707001
 20
300.934998
 40
3.200000
  1
2-φ4.4
 50
0.000000
 41
1.039609
 51
0.000000
  7
STANDARD
  0
LINE
  8
0
  6
CONTINUOUS
 62
7
 10
212.315002
 20
190.934998
 11
239.483994
 21
190.934998
  0
LINE
  8
0
  6
CONTINUOUS
 62
7
 10
239.483994
 20
190.934998
 11
257.208008
 21
243.701996
  0
LINE
  8
0
  6
CONTINUOUS
 62
7
 10
257.208008
 20
243.701996
 11
255.549286
 21
241.202271
  0
LINE
  8
0
  6
CONTINUOUS
 62
7
 10
257.208008
 20
243.701996
 11
257.021362
 21
240.707809
  0
TEXT
  8
0
 62
7
 10
212.315002
 20
190.934998
 40
3.200000
  1
2-φ4.4
 50
0.000000
 41
1.039609
 51
0.000000
  7
STANDARD
  0
ENDSEC
  0
EOF
