  0
SECTION
  2
HEADER
  9
$ACADVER
  1
AC1002
  9
$INSBASE
 10
0.0
 20
0.0
  9
$EXTMIN
 10
-370.8736
 20
-254.5585
  9
$EXTMAX
 10
370.8736
 20
254.5585
  9
$LIMMIN
 10
0.0
 20
0.0
  9
$LIMMAX
 10
12.0
 20
9.0
  9
$VIEWCTR
 10
28.6093211
 20
0.0
  9
$VIEWSIZE
 40
509.117
  9
$SNAPMODE
 70
     0
  9
$SNAPUNIT
 10
1.0
 20
1.0
  9
$SNAPBASE
 10
0.0
 20
0.0
  9
$SNAPANG
 50
0.0
  9
$SNAPSTYLE
 70
     0
  9
$SNAPISOPAIR
 70
     0
  9
$GRIDMODE
 70
     0
  9
$GRIDUNIT
 10
0.0
 20
0.0
  9
$ORTHOMODE
 70
     0
  9
$REGENMODE
 70
     1
  9
$FILLMODE
 70
     1
  9
$QTEXTMODE
 70
     0
  9
$DRAGMODE
 70
     2
  9
$LTSCALE
 40
1.0
  9
$OSMODE
 70
     0
  9
$ATTMODE
 70
     1
  9
$TEXTSIZE
 40
0.2
  9
$TRACEWID
 40
0.05
  9
$TEXTSTYLE
  7
AAA
  9
$CLAYER
  8
0
  9
$CELTYPE
  6
BYLAYER
  9
$CECOLOR
 62
   256
  9
$DIMSCALE
 40
1.0
  9
$DIMASZ
 40
0.18
  9
$DIMEXO
 40
0.0625
  9
$DIMDLI
 40
0.38
  9
$DIMRND
 40
0.0
  9
$DIMDLE
 40
0.0
  9
$DIMEXE
 40
0.18
  9
$DIMTP
 40
0.0
  9
$DIMTM
 40
0.0
  9
$DIMTXT
 40
0.18
  9
$DIMCEN
 40
0.09
  9
$DIMTSZ
 40
0.0
  9
$DIMTOL
 70
     0
  9
$DIMLIM
 70
     0
  9
$DIMTIH
 70
     1
  9
$DIMTOH
 70
     1
  9
$DIMSE1
 70
     0
  9
$DIMSE2
 70
     0
  9
$DIMTAD
 70
     0
  9
$DIMZIN
 70
     0
  9
$DIMBLK
  1

  9
$LUNITS
 70
     2
  9
$LUPREC
 70
     4
  9
$AXISMODE
 70
     0
  9
$AXISUNIT
 10
0.0
 20
0.0
  9
$SKETCHINC
 40
0.1
  9
$FILLETRAD
 40
0.0
  9
$AUNITS
 70
     0
  9
$AUPREC
 70
     0
  9
$MENU
  1
ACAD
  9
$ELEVATION
 40
0.0
  9
$THICKNESS
 40
0.0
  9
$VIEWDIR
 10
0.0
 20
0.0
 30
1.0
  9
$LIMCHECK
 70
     0
  9
$BLIPMODE
 70
     1
  9
$CHAMFERA
 40
0.0
  9
$CHAMFERB
 40
0.0
  9
$FASTZOOM
 70
     1
  9
$SKPOLY
 70
     0
  9
$TDCREATE
 40
2447877.5971412534
  9
$TDUPDATE
 40
2447877.5971412534
  9
$TDINDWG
 40
0.0119212963
  9
$TDUSRTIMER
 40
0.0119212963
  9
$USRTIMER
 70
     1
  9
$ANGBASE
 50
0.0
  9
$ANGDIR
 70
     0
  9
$PDMODE
 70
     0
  9
$PDSIZE
 40
0.0
  9
$PLINEWID
 40
0.0
  9
$COORDS
 70
     0
  9
$USERI1
 70
     0
  9
$USERI2
 70
     0
  9
$USERI3
 70
     0
  9
$USERI4
 70
     0
  9
$USERI5
 70
     0
  9
$USERR1
 40
0.0
  9
$USERR2
 40
0.0
  9
$USERR3
 40
0.0
  9
$USERR4
 40
0.0
  9
$USERR5
 40
0.0
  0
ENDSEC
  0
SECTION
  2
TABLES
  0
TABLE
  2
LTYPE
 70
     3
  0
LTYPE
  2
CONTINUOUS
 70
    64
  3
SOLID
 72
    65
 73
     0
 40
0.0
  0
LTYPE
  2
CENTER
 70
    64
  3
CENTER
 72
    65
 73
     4
 40
2.0
 49
1.25
 49
-0.25
 49
0.25
 49
-0.25
  0
LTYPE
  2
PHANTOM
 70
    64
  3
PHANTOM
 72
    65
 73
     6
 40
2.5
 49
1.25
 49
-0.25
 49
0.25
 49
-0.25
 49
0.25
 49
-0.25
  0
ENDTAB
  0
TABLE
  2
LAYER
 70
     1
  0
LAYER
  2
0
 70
    64
 62
     7
  6
CONTINUOUS
  0
ENDTAB
  0
TABLE
  2
STYLE
 70
     2
  0
STYLE
  2
AAA
 70
     0
 40
0.0
 41
1.0
 50
0.0
 71
     0
 42
0.2
  3
TXT
  4

  0
STYLE
  2
STANDARD
 70
    64
 40
0.0
 41
1.0
 50
0.0
 71
     0
 42
0.2
  3
TXT
  4
BIGFONT
  0
ENDTAB
  0
TABLE
  2
VIEW
 70
     0
  0
ENDTAB
  0
ENDSEC
  0
SECTION
  2
BLOCKS
  0
ENDSEC
  0
SECTION
  2
ENTITIES
  0
POINT
  8
0
  6
CONTINUOUS
 62
     7
 10
-298.0613
 20
1.60017
  0
POINT
  8
0
  6
CONTINUOUS
 62
     7
 10
-313.5613
 20
1.60017
  0
POINT
  8
0
  6
CONTINUOUS
 62
     7
 10
-307.5613
 20
-26.59982
  0
POINT
  8
0
  6
CONTINUOUS
 62
     7
 10
-307.0613
 20
-13.39983
  0
POINT
  8
0
  6
CONTINUOUS
 62
     7
 10
-306.5613
 20
-0.19983
  0
POINT
  8
0
  6
CONTINUOUS
 62
     7
 10
-312.0613
 20
-42.79982
  0
POINT
  8
0
  6
CONTINUOUS
 62
     7
 10
-195.4368
 20
1.60001
  0
POINT
  8
0
  6
CONTINUOUS
 62
     7
 10
-168.4368
 20
1.60001
  0
POINT
  8
0
  6
CONTINUOUS
 62
     7
 10
-172.4368
 20
-42.79999
  0
POINT
  8
0
  6
CONTINUOUS
 62
     7
 10
-168.4368
 20
22.3
  0
POINT
  8
0
  6
CONTINUOUS
 62
     7
 10
-168.4367
 20
150.2775
  0
POINT
  8
0
  6
CONTINUOUS
 62
     7
 10
-195.4367
 20
150.2775
  0
POINT
  8
0
  6
CONTINUOUS
 62
     7
 10
-172.4367
 20
148.7775
  0
POINT
  8
0
  6
CONTINUOUS
 62
     7
 10
-36.3123
 20
1.60005
  0
POINT
  8
0
  6
CONTINUOUS
 62
     7
 10
-43.3123
 20
-21.39995
  0
POINT
  8
0
  6
CONTINUOUS
 62
     7
 10
-42.3123
 20
-5.39995
  0
POINT
  8
0
  6
CONTINUOUS
 62
     7
 10
-42.8123
 20
22.30006
  0
POINT
  8
0
  6
CONTINUOUS
 62
     7
 10
-37.8123
 20
-42.79994
  0
POINT
  8
0
  6
CONTINUOUS
 62
     7
 10
-168.4368
 20
-185.679
  0
POINT
  8
0
  6
CONTINUOUS
 62
     7
 10
-195.4368
 20
-185.679
  0
POINT
  8
0
  6
CONTINUOUS
 62
     7
 10
-168.4368
 20
-179.179
  0
POINT
  8
0
  6
CONTINUOUS
 62
     7
 10
-172.4368
 20
-184.179
  0
POINT
  8
0
  6
CONTINUOUS
 62
     7
 10
68.81204
 20
1.60023
  0
POINT
  8
0
  6
CONTINUOUS
 62
     7
 10
41.81204
 20
1.60023
  0
POINT
  8
0
  6
CONTINUOUS
 62
     7
 10
68.812
 20
22.30023
  0
POINT
  8
0
  6
CONTINUOUS
 62
     7
 10
175.4368
 20
1.60002
  0
POINT
  8
0
  6
CONTINUOUS
 62
     7
 10
168.9368
 20
22.30002
  0
POINT
  8
0
  6
CONTINUOUS
 62
     7
 10
175.4372
 20
150.2773
  0
POINT
  8
0
  6
CONTINUOUS
 62
     7
 10
299.0612
 20
1.60014
  0
POINT
  8
0
  6
CONTINUOUS
 62
     7
 10
272.0612
 20
22.30014
  0
POINT
  8
0
  6
CONTINUOUS
 62
     7
 10
175.437
 20
-185.6791
  0
POINT
  8
0
  6
CONTINUOUS
 62
     7
 10
168.937
 20
-158.6791
  0
LINE
  8
0
  6
CONTINUOUS
 62
     7
 10
218.3292
 20
-225.9564
 11
370.8736
 21
-225.9564
  0
LINE
  8
0
  6
CONTINUOUS
 62
     7
 10
-218.3292
 20
225.9564
 11
-218.3292
 21
254.5585
  0
LINE
  8
0
  6
CONTINUOUS
 62
     7
 10
-370.8736
 20
225.9564
 11
-218.3292
 21
225.9564
  0
LINE
  8
0
  6
CONTINUOUS
 62
     7
 10
-370.8736
 20
254.5585
 11
370.8736
 21
254.5585
  0
LINE
  8
0
  6
CONTINUOUS
 62
     7
 10
-370.8736
 20
-254.5585
 11
370.8736
 21
-254.5585
  0
LINE
  8
0
  6
CONTINUOUS
 62
     7
 10
370.8736
 20
254.5585
 11
370.8736
 21
-254.5585
  0
LINE
  8
0
  6
CONTINUOUS
 62
     7
 10
-370.8736
 20
-254.5585
 11
-370.8736
 21
254.5585
  0
LINE
  8
0
  6
CONTINUOUS
 62
     7
 10
218.3292
 20
-225.9564
 11
218.3292
 21
-254.5585
  0
LINE
  8
0
  6
CONTINUOUS
 62
     7
 10
218.3292
 20
254.5585
 11
218.3292
 21
225.9564
  0
LINE
  8
0
  6
CONTINUOUS
 62
     7
 10
218.3292
 20
225.9564
 11
370.8736
 21
225.9564
  0
LINE
  8
0
  6
CONTINUOUS
 62
     7
 10
258.3816
 20
-232.8337
 11
258.3816
 21
-236.1516
  0
LINE
  8
0
  6
CONTINUOUS
 62
     7
 10
258.3816
 20
-236.1516
 11
270.8235
 21
-236.1516
  0
LINE
  8
0
  6
CONTINUOUS
 62
     7
 10
258.3816
 20
-249.1465
 11
275.2473
 21
-249.1465
  0
LINE
  8
0
  6
CONTINUOUS
 62
     7
 10
258.3816
 20
-245.8286
 11
270.8235
 21
-245.8286
  0
LINE
  8
0
  6
CONTINUOUS
 62
     7
 10
258.3816
 20
-232.8337
 11
273.0354
 21
-232.8337
  0
LINE
  8
0
  6
CONTINUOUS
 62
     7
 10
270.8235
 20
-236.1516
 11
270.8235
 21
-245.8286
  0
LINE
  8
0
  6
CONTINUOUS
 62
     7
 10
275.2473
 20
-235.0457
 11
275.2473
 21
-249.1465
  0
LINE
  8
0
  6
CONTINUOUS
 62
     7
 10
258.3816
 20
-245.8286
 11
258.3816
 21
-249.1465
  0
LINE
  8
0
  6
CONTINUOUS
 62
     7
 10
293.4954
 20
-236.1516
 11
293.4954
 21
-246.9346
  0
LINE
  8
0
  6
CONTINUOUS
 62
     7
 10
277.7357
 20
-232.8337
 11
277.7357
 21
-236.1516
  0
LINE
  8
0
  6
CONTINUOUS
 62
     7
 10
293.9378
 20
-232.585
 11
295.5138
 21
-232.585
  0
LINE
  8
0
  6
CONTINUOUS
 62
     7
 10
293.9378
 20
-230.373
 11
295.5138
 21
-230.373
  0
LINE
  8
0
  6
CONTINUOUS
 62
     7
 10
295.5138
 20
-230.373
 11
295.5138
 21
-232.585
  0
LINE
  8
0
  6
CONTINUOUS
 62
     7
 10
293.9378
 20
-230.373
 11
293.9378
 21
-232.585
  0
LINE
  8
0
  6
CONTINUOUS
 62
     7
 10
293.1083
 20
-230.373
 11
293.1083
 21
-232.585
  0
LINE
  8
0
  6
CONTINUOUS
 62
     7
 10
282.7661
 20
-230.373
 11
286.2009
 21
-230.373
  0
LINE
  8
0
  6
CONTINUOUS
 62
     7
 10
285.5413
 20
-232.8335
 11
286.2006
 21
-230.3727
  0
LINE
  8
0
  6
CONTINUOUS
 62
     7
 10
282.1067
 20
-232.8337
 11
282.766
 21
-230.373
  0
LINE
  8
0
  6
CONTINUOUS
 62
     7
 10
285.5416
 20
-232.8337
 11
290.1776
 21
-232.8337
  0
LINE
  8
0
  6
CONTINUOUS
 62
     7
 10
284.6526
 20
-236.1516
 11
289.0716
 21
-236.1516
  0
LINE
  8
0
  6
CONTINUOUS
 62
     7
 10
286.6429
 20
-249.1465
 11
291.2836
 21
-249.1465
  0
LINE
  8
0
  6
CONTINUOUS
 62
     7
 10
285.7537
 20
-245.8286
 11
286.6427
 21
-249.1463
  0
LINE
  8
0
  6
CONTINUOUS
 62
     7
 10
285.7538
 20
-245.8286
 11
289.0716
 21
-245.8286
  0
LINE
  8
0
  6
CONTINUOUS
 62
     7
 10
281.1707
 20
-249.1466
 11
284.6527
 21
-236.1517
  0
LINE
  8
0
  6
CONTINUOUS
 62
     7
 10
277.7357
 20
-236.1516
 11
281.2177
 21
-236.1516
  0
LINE
  8
0
  6
CONTINUOUS
 62
     7
 10
277.7354
 20
-249.1462
 11
281.2175
 21
-236.1513
  0
LINE
  8
0
  6
CONTINUOUS
 62
     7
 10
277.7357
 20
-249.1465
 11
281.1706
 21
-249.1465
  0
LINE
  8
0
  6
CONTINUOUS
 62
     7
 10
277.7357
 20
-232.8337
 11
282.1067
 21
-232.8337
  0
LINE
  8
0
  6
CONTINUOUS
 62
     7
 10
289.0716
 20
-236.1516
 11
289.0716
 21
-245.8286
  0
LINE
  8
0
  6
CONTINUOUS
 62
     7
 10
291.5323
 20
-230.373
 11
293.1083
 21
-230.373
  0
LINE
  8
0
  6
CONTINUOUS
 62
     7
 10
291.5323
 20
-232.585
 11
293.1083
 21
-232.585
  0
LINE
  8
0
  6
CONTINUOUS
 62
     7
 10
291.5323
 20
-230.373
 11
291.5323
 21
-232.585
  0
LINE
  8
0
  6
CONTINUOUS
 62
     7
 10
301.5135
 20
-230.373
 11
305.9373
 21
-230.373
  0
LINE
  8
0
  6
CONTINUOUS
 62
     7
 10
308.3423
 20
-240.1951
 11
311.2962
 21
-238.8176
  0
LINE
  8
0
  6
CONTINUOUS
 62
     7
 10
305.9373
 20
-242.7344
 11
305.9373
 21
-249.1465
  0
LINE
  8
0
  6
CONTINUOUS
 62
     7
 10
301.5135
 20
-243.379
 11
301.5135
 21
-249.1465
  0
LINE
  8
0
  6
CONTINUOUS
 62
     7
 10
305.9373
 20
-232.8337
 11
310.3611
 21
-232.8337
  0
LINE
  8
0
  6
CONTINUOUS
 62
     7
 10
305.9373
 20
-230.373
 11
305.9373
 21
-232.8337
  0
LINE
  8
0
  6
CONTINUOUS
 62
     7
 10
301.5135
 20
-230.373
 11
301.5135
 21
-232.8337
  0
LINE
  8
0
  6
CONTINUOUS
 62
     7
 10
312.573
 20
-235.0457
 11
312.573
 21
-236.8128
  0
LINE
  8
0
  6
CONTINUOUS
 62
     7
 10
308.3424
 20
-240.195
 11
312.5734
 21
-242.168
  0
LINE
  8
0
  6
CONTINUOUS
 62
     7
 10
305.9373
 20
-242.7343
 11
312.5731
 21
-245.8286
  0
LINE
  8
0
  6
CONTINUOUS
 62
     7
 10
296.2603
 20
-242.1678
 11
296.2603
 21
-245.8286
  0
LINE
  8
0
  6
CONTINUOUS
 62
     7
 10
296.2607
 20
-242.1682
 11
309.1626
 21
-236.1519
  0
LINE
  8
0
  6
CONTINUOUS
 62
     7
 10
296.2603
 20
-245.8286
 11
301.5136
 21
-243.3789
  0
LINE
  8
0
  6
CONTINUOUS
 62
     7
 10
312.573
 20
-242.1678
 11
312.573
 21
-245.8286
  0
LINE
  8
0
  6
CONTINUOUS
 62
     7
 10
296.2603
 20
-232.8337
 11
296.2603
 21
-236.1516
  0
LINE
  8
0
  6
CONTINUOUS
 62
     7
 10
301.5135
 20
-249.1465
 11
305.9373
 21
-249.1465
  0
LINE
  8
0
  6
CONTINUOUS
 62
     7
 10
296.2603
 20
-236.1516
 11
309.1621
 21
-236.1516
  0
LINE
  8
0
  6
CONTINUOUS
 62
     7
 10
296.2603
 20
-232.8337
 11
301.5135
 21
-232.8337
  0
LINE
  8
0
  6
CONTINUOUS
 62
     7
 10
327.504
 20
-236.4047
 11
328.73
 21
-235.9171
  0
LINE
  8
0
  6
CONTINUOUS
 62
     7
 10
327.5034
 20
-236.4044
 11
327.5034
 21
-249.1465
  0
LINE
  8
0
  6
CONTINUOUS
 62
     7
 10
323.0795
 20
-249.1465
 11
327.5034
 21
-249.1465
  0
LINE
  8
0
  6
CONTINUOUS
 62
     7
 10
313.9553
 20
-241.7925
 11
323.0794
 21
-238.1637
  0
LINE
  8
0
  6
CONTINUOUS
 62
     7
 10
313.9555
 20
-238.222
 11
326.8062
 21
-233.1111
  0
LINE
  8
0
  6
CONTINUOUS
 62
     7
 10
323.0795
 20
-238.1638
 11
323.0795
 21
-249.1465
  0
LINE
  8
0
  6
CONTINUOUS
 62
     7
 10
327.5034
 20
-231.3684
 11
327.5034
 21
-232.0834
  0
LINE
  8
0
  6
CONTINUOUS
 62
     7
 10
330.8211
 20
-231.3684
 11
330.8211
 21
-232.8338
  0
LINE
  8
0
  6
CONTINUOUS
 62
     7
 10
313.9554
 20
-238.2219
 11
313.9554
 21
-241.7925
  0
LINE
  8
0
  6
CONTINUOUS
 62
     7
 10
327.5034
 20
-231.3684
 11
330.8211
 21
-231.3684
  0
LINE
  8
0
  6
CONTINUOUS
 62
     7
 10
0.0
 20
254.5585
 11
0.0
 21
-254.5585
  0
LINE
  8
0
  6
CENTER
 62
     2
 10
-310.8254
 20
17.50017
 11
-303.257
 21
17.50017
  0
LINE
  8
0
  6
CENTER
 62
     2
 10
-316.0613
 20
1.60017
 11
-311.0656
 21
1.60017
  0
LINE
  8
0
  6
CENTER
 62
     2
 10
-303.1369
 20
-28.39983
 11
-298.0613
 21
-28.39983
  0
LINE
  8
0
  6
CENTER
 62
     2
 10
-300.5613
 20
-25.68153
 11
-300.5613
 21
-31.20764
  0
LINE
  8
0
  6
CENTER
 62
     2
 10
-313.5613
 20
4.35164
 11
-313.5613
 21
-0.81406
  0
LINE
  8
0
  6
CENTER
 62
     2
 10
-312.7822
 20
-0.19983
 11
-300.7258
 21
-0.19983
  0
LINE
  8
0
  6
CENTER
 62
     2
 10
-313.2701
 20
-13.39983
 11
-300.7258
 21
-13.39983
  0
LINE
  8
0
  6
CENTER
 62
     2
 10
-313.4094
 20
-26.59982
 11
-301.144
 21
-26.59982
  0
LINE
  8
0
  6
CONTINUOUS
 62
     7
 10
-299.0613
 20
25.80017
 11
-298.0613
 21
24.80017
  0
LINE
  8
0
  6
CONTINUOUS
 62
     7
 10
-315.0613
 20
25.80013
 11
-316.0613
 21
24.80013
  0
LINE
  8
0
  6
CONTINUOUS
 62
     7
 10
-315.5613
 20
-42.79982
 11
-298.5613
 21
-42.79982
  0
LINE
  8
0
  6
CONTINUOUS
 62
     7
 10
-316.0613
 20
-34.39983
 11
-298.0613
 21
-34.39983
  0
LINE
  8
0
  6
CONTINUOUS
 62
     7
 10
-316.0613
 20
24.80019
 11
-316.0613
 21
-42.29982
  0
LINE
  8
0
  6
CONTINUOUS
 62
     7
 10
-298.0613
 20
24.80019
 11
-298.0613
 21
-42.29982
  0
LINE
  8
0
  6
CENTER
 62
     2
 10
-307.0613
 20
57.54561
 11
-307.0613
 21
-47.16649
  0
LINE
  8
0
  6
CONTINUOUS
 62
     7
 10
-316.0613
 20
7.60017
 11
-298.0613
 21
7.60017
  0
LINE
  8
0
  6
CONTINUOUS
 62
     7
 10
-309.8613
 20
-39.89983
 11
-309.8613
 21
-42.29982
  0
LINE
  8
0
  6
CONTINUOUS
 62
     7
 10
-315.5613
 20
-39.39983
 11
-310.3613
 21
-39.39983
  0
LINE
  8
0
  6
CENTER
 62
     2
 10
-313.0613
 20
-38.2339
 11
-313.0613
 21
-44.04008
  0
LINE
  8
0
  6
CONTINUOUS
 62
     7
 10
-310.2613
 20
-40.57166
 11
-310.2613
 21
-39.39983
  0
LINE
  8
0
  6
CONTINUOUS
 62
     7
 10
-315.8613
 20
-40.57164
 11
-315.8613
 21
-39.39983
  0
LINE
  8
0
  6
CONTINUOUS
 62
     7
 10
-316.0613
 20
24.80019
 11
-298.0613
 21
24.80019
  0
LINE
  8
0
  6
CENTER
 62
     2
 10
-307.5613
 20
-20.43877
 11
-307.5613
 21
-32.63345
  0
LINE
  8
0
  6
CENTER
 62
     2
 10
-306.5613
 20
6.13942
 11
-306.5613
 21
-6.44614
  0
LINE
  8
0
  6
CONTINUOUS
 62
     7
 10
-307.579
 20
15.56831
 11
-305.1295
 21
18.0178
  0
LINE
  8
0
  6
CONTINUOUS
 62
     7
 10
-308.9932
 20
16.98253
 11
-306.5437
 21
19.43201
  0
LINE
  8
0
  6
CONTINUOUS
 62
     7
 10
-307.5789
 20
19.43208
 11
-305.1294
 21
16.98258
  0
LINE
  8
0
  6
CONTINUOUS
 62
     7
 10
-315.0613
 20
25.80019
 11
-299.0613
 21
25.80019
  0
LINE
  8
0
  6
CONTINUOUS
 62
     7
 10
-308.4756
 20
16.08595
 11
-305.6472
 21
18.91438
  0
LINE
  8
0
  6
CONTINUOUS
 62
     7
 10
-308.4756
 20
18.91438
 11
-305.6472
 21
16.08595
  0
LINE
  8
0
  6
CONTINUOUS
 62
     7
 10
-308.9932
 20
18.01784
 11
-306.5437
 21
15.56835
  0
LINE
  8
0
  6
CONTINUOUS
 62
     7
 10
-314.5613
 20
52.00017
 11
-314.5613
 21
25.80019
  0
LINE
  8
0
  6
CONTINUOUS
 62
     7
 10
-314.5613
 20
51.00017
 11
-299.5613
 21
51.00017
  0
LINE
  8
0
  6
CONTINUOUS
 62
     7
 10
-299.5613
 20
52.00017
 11
-299.5613
 21
25.80019
  0
LINE
  8
0
  6
CONTINUOUS
 62
     7
 10
-314.5613
 20
52.00017
 11
-299.5613
 21
52.00017
  0
LINE
  8
0
  6
CONTINUOUS
 62
     7
 10
-313.5613
 20
54.00017
 11
-313.3871
 21
54.00017
  0
LINE
  8
0
  6
CONTINUOUS
 62
     7
 10
-299.5613
 20
52.00013
 11
-300.5613
 21
54.00012
  0
LINE
  8
0
  6
CONTINUOUS
 62
     7
 10
-314.5613
 20
52.00018
 11
-313.5613
 21
54.00016
  0
LINE
  8
0
  6
CONTINUOUS
 62
     7
 10
-308.5613
 20
54.00017
 11
-308.5613
 21
52.00017
  0
LINE
  8
0
  6
CENTER
 62
     2
 10
-311.5613
 20
57.00017
 11
-311.5613
 21
49.00017
  0
LINE
  8
0
  6
CONTINUOUS
 62
     7
 10
-309.0113
 20
52.60017
 11
-314.1113
 21
52.60017
  0
LINE
  8
0
  6
CONTINUOUS
 62
     7
 10
-309.0113
 20
52.60017
 11
-309.0113
 21
52.00017
  0
LINE
  8
0
  6
CONTINUOUS
 62
     7
 10
-314.1113
 20
52.60017
 11
-314.1113
 21
52.00017
  0
LINE
  8
0
  6
CONTINUOUS
 62
     7
 10
-309.3113
 20
53.2939
 11
-309.3113
 21
52.60014
  0
LINE
  8
0
  6
CONTINUOUS
 62
     7
 10
-313.8113
 20
53.2939
 11
-313.8113
 21
52.60017
  0
LINE
  8
0
  6
CONTINUOUS
 62
     7
 10
-309.7356
 20
54.00017
 11
-300.5613
 21
54.00017
  0
LINE
  8
0
  6
CENTER
 62
     2
 10
-302.5613
 20
57.00017
 11
-302.5613
 21
49.00017
  0
LINE
  8
0
  6
CONTINUOUS
 62
     7
 10
-311.0613
 20
54.80019
 11
-303.0613
 21
54.80019
  0
LINE
  8
0
  6
CONTINUOUS
 62
     7
 10
-311.0613
 20
54.80019
 11
-311.0613
 21
54.27928
  0
LINE
  8
0
  6
CONTINUOUS
 62
     7
 10
-303.0613
 20
54.80019
 11
-303.0613
 21
54.27928
  0
LINE
  8
0
  6
CONTINUOUS
 62
     7
 10
-313.5613
 20
48.00017
 11
-300.5613
 21
48.00017
  0
LINE
  8
0
  6
CONTINUOUS
 62
     7
 10
-313.5613
 20
44.00017
 11
-300.5613
 21
44.00017
  0
LINE
  8
0
  6
CONTINUOUS
 62
     7
 10
-300.5613
 20
48.00017
 11
-300.5613
 21
44.00017
  0
LINE
  8
0
  6
CONTINUOUS
 62
     7
 10
-313.5613
 20
48.00017
 11
-313.5613
 21
44.00017
  0
LINE
  8
0
  6
CONTINUOUS
 62
     7
 10
-312.8492
 20
47.10695
 11
-310.5076
 21
47.10695
  0
LINE
  8
0
  6
CONTINUOUS
 62
     7
 10
-312.8492
 20
45.03038
 11
-310.861
 21
45.03038
  0
LINE
  8
0
  6
CONTINUOUS
 62
     7
 10
-312.8492
 20
44.50017
 11
-310.1541
 21
44.50017
  0
LINE
  8
0
  6
CONTINUOUS
 62
     7
 10
-312.8492
 20
46.57677
 11
-310.861
 21
46.57677
  0
LINE
  8
0
  6
CONTINUOUS
 62
     7
 10
-312.8492
 20
47.10695
 11
-312.8492
 21
46.57677
  0
LINE
  8
0
  6
CONTINUOUS
 62
     7
 10
-310.1541
 20
46.75349
 11
-310.1541
 21
44.50017
  0
LINE
  8
0
  6
CONTINUOUS
 62
     7
 10
-310.861
 20
46.57677
 11
-310.861
 21
45.03038
  0
LINE
  8
0
  6
CONTINUOUS
 62
     7
 10
-309.7565
 20
47.10695
 11
-309.7565
 21
46.57677
  0
LINE
  8
0
  6
CONTINUOUS
 62
     7
 10
-307.238
 20
46.57677
 11
-307.238
 21
44.85362
  0
LINE
  8
0
  6
CONTINUOUS
 62
     7
 10
-307.945
 20
46.57677
 11
-307.945
 21
45.03038
  0
LINE
  8
0
  6
CONTINUOUS
 62
     7
 10
-312.8492
 20
45.03038
 11
-312.8492
 21
44.50017
  0
LINE
  8
0
  6
CONTINUOUS
 62
     7
 10
-309.7565
 20
47.10695
 11
-309.058
 21
47.10695
  0
LINE
  8
0
  6
CONTINUOUS
 62
     7
 10
-309.7565
 20
44.50017
 11
-309.2076
 21
44.50017
  0
LINE
  8
0
  6
CONTINUOUS
 62
     7
 10
-309.7565
 20
44.50018
 11
-309.2001
 21
46.57676
  0
LINE
  8
0
  6
CONTINUOUS
 62
     7
 10
-309.7565
 20
46.57677
 11
-309.2
 21
46.57677
  0
LINE
  8
0
  6
CONTINUOUS
 62
     7
 10
-309.2076
 20
44.50011
 11
-308.6511
 21
46.5767
  0
LINE
  8
0
  6
CONTINUOUS
 62
     7
 10
-308.4752
 20
45.03038
 11
-307.945
 21
45.03038
  0
LINE
  8
0
  6
CONTINUOUS
 62
     7
 10
-308.4751
 20
45.03038
 11
-308.333
 21
44.5002
  0
LINE
  8
0
  6
CONTINUOUS
 62
     7
 10
-308.3331
 20
44.50017
 11
-307.5915
 21
44.50017
  0
LINE
  8
0
  6
CONTINUOUS
 62
     7
 10
-308.6512
 20
46.57677
 11
-307.945
 21
46.57677
  0
LINE
  8
0
  6
CONTINUOUS
 62
     7
 10
-308.5091
 20
47.10695
 11
-307.7682
 21
47.10695
  0
LINE
  8
0
  6
CONTINUOUS
 62
     7
 10
-309.058
 20
47.10696
 11
-308.9526
 21
47.50017
  0
LINE
  8
0
  6
CONTINUOUS
 62
     7
 10
-308.5091
 20
47.10695
 11
-308.4037
 21
47.50018
  0
LINE
  8
0
  6
CONTINUOUS
 62
     7
 10
-306.7962
 20
47.10695
 11
-305.9568
 21
47.10695
  0
LINE
  8
0
  6
CONTINUOUS
 62
     7
 10
-306.7962
 20
46.57677
 11
-304.7345
 21
46.57677
  0
LINE
  8
0
  6
CONTINUOUS
 62
     7
 10
-305.9568
 20
44.50017
 11
-305.2498
 21
44.50017
  0
LINE
  8
0
  6
CONTINUOUS
 62
     7
 10
-306.7962
 20
47.10695
 11
-306.7962
 21
46.57677
  0
LINE
  8
0
  6
CONTINUOUS
 62
     7
 10
-304.1895
 20
45.61537
 11
-304.1895
 21
45.03038
  0
LINE
  8
0
  6
CONTINUOUS
 62
     7
 10
-306.7962
 20
45.03029
 11
-305.9567
 21
45.42175
  0
LINE
  8
0
  6
CONTINUOUS
 62
     7
 10
-306.7962
 20
45.61528
 11
-304.7345
 21
46.57668
  0
LINE
  8
0
  6
CONTINUOUS
 62
     7
 10
-306.7962
 20
45.61537
 11
-306.7962
 21
45.03038
  0
LINE
  8
0
  6
CONTINUOUS
 62
     7
 10
-305.2498
 20
45.52481
 11
-304.1895
 21
45.03035
  0
LINE
  8
0
  6
CONTINUOUS
 62
     7
 10
-304.8655
 20
45.93058
 11
-304.1894
 21
45.61529
  0
LINE
  8
0
  6
CONTINUOUS
 62
     7
 10
-304.1895
 20
46.75349
 11
-304.1895
 21
46.47112
  0
LINE
  8
0
  6
CONTINUOUS
 62
     7
 10
-305.9568
 20
47.50017
 11
-305.9568
 21
47.10695
  0
LINE
  8
0
  6
CONTINUOUS
 62
     7
 10
-305.2498
 20
47.50017
 11
-305.2498
 21
47.10695
  0
LINE
  8
0
  6
CONTINUOUS
 62
     7
 10
-305.2498
 20
47.10695
 11
-304.5429
 21
47.10695
  0
LINE
  8
0
  6
CONTINUOUS
 62
     7
 10
-305.9568
 20
45.4218
 11
-305.9568
 21
44.50017
  0
LINE
  8
0
  6
CONTINUOUS
 62
     7
 10
-305.2498
 20
45.52483
 11
-305.2498
 21
44.50017
  0
LINE
  8
0
  6
CONTINUOUS
 62
     7
 10
-304.8655
 20
45.93055
 11
-304.3935
 21
46.15067
  0
LINE
  8
0
  6
CONTINUOUS
 62
     7
 10
-301.8036
 20
47.34111
 11
-301.2734
 21
47.34111
  0
LINE
  8
0
  6
CONTINUOUS
 62
     7
 10
-303.9685
 20
46.24593
 11
-303.9685
 21
45.67534
  0
LINE
  8
0
  6
CONTINUOUS
 62
     7
 10
-301.2734
 20
47.34111
 11
-301.2734
 21
47.10695
  0
LINE
  8
0
  6
CONTINUOUS
 62
     7
 10
-301.8036
 20
47.34111
 11
-301.8036
 21
47.22685
  0
LINE
  8
0
  6
CONTINUOUS
 62
     7
 10
-302.5105
 20
46.2552
 11
-302.5105
 21
44.50017
  0
LINE
  8
0
  6
CONTINUOUS
 62
     7
 10
-303.9685
 20
46.2459
 11
-301.915
 21
47.06261
  0
LINE
  8
0
  6
CONTINUOUS
 62
     7
 10
-303.9686
 20
45.67538
 11
-302.5106
 21
46.25526
  0
LINE
  8
0
  6
CONTINUOUS
 62
     7
 10
-302.5105
 20
44.50017
 11
-301.8036
 21
44.50017
  0
LINE
  8
0
  6
CONTINUOUS
 62
     7
 10
-301.8036
 20
46.53636
 11
-301.8036
 21
44.50017
  0
LINE
  8
0
  6
CONTINUOUS
 62
     7
 10
-301.8035
 20
46.53628
 11
-301.6076
 21
46.61419
  0
LINE
  8
0
  6
CONTINUOUS
 62
     7
 10
-308.9526
 20
47.50017
 11
-308.4037
 21
47.50017
  0
LINE
  8
0
  6
CONTINUOUS
 62
     7
 10
-307.5252
 20
47.50017
 11
-307.2993
 21
47.50017
  0
LINE
  8
0
  6
CONTINUOUS
 62
     7
 10
-305.9568
 20
47.50017
 11
-305.2498
 21
47.50017
  0
LINE
  8
0
  6
CONTINUOUS
 62
     7
 10
-307.5252
 20
47.14671
 11
-307.2993
 21
47.14671
  0
LINE
  8
0
  6
CONTINUOUS
 62
     7
 10
-307.5252
 20
47.50017
 11
-307.5252
 21
47.14671
  0
LINE
  8
0
  6
CONTINUOUS
 62
     7
 10
-307.2993
 20
47.50017
 11
-307.2993
 21
47.14671
  0
LINE
  8
0
  6
CONTINUOUS
 62
     7
 10
-307.1415
 20
47.50017
 11
-307.1415
 21
47.14671
  0
LINE
  8
0
  6
CONTINUOUS
 62
     7
 10
-306.9155
 20
47.50017
 11
-306.9155
 21
47.14671
  0
LINE
  8
0
  6
CONTINUOUS
 62
     7
 10
-307.1415
 20
47.50017
 11
-306.9155
 21
47.50017
  0
LINE
  8
0
  6
CONTINUOUS
 62
     7
 10
-307.1415
 20
47.14671
 11
-306.9155
 21
47.14671
  0
LINE
  8
0
  6
CONTINUOUS
 62
     7
 10
-169.4367
 20
136.7775
 11
-169.4367
 21
135.7775
  0
LINE
  8
0
  6
CONTINUOUS
 62
     7
 10
-168.4367
 20
150.7775
 11
-168.4367
 21
152.2775
  0
LINE
  8
0
  6
CENTER
 62
     2
 10
-197.833
 20
143.7775
 11
-147.2764
 21
143.7775
  0
LINE
  8
0
  6
CONTINUOUS
 62
     7
 10
-194.9367
 20
152.7775
 11
-168.9367
 21
152.7775
  0
LINE
  8
0
  6
CONTINUOUS
 62
     7
 10
-194.9367
 20
134.7775
 11
-168.9367
 21
134.7775
  0
LINE
  8
0
  6
CONTINUOUS
 62
     7
 10
-168.4367
 20
135.2775
 11
-168.4367
 21
136.7775
  0
LINE
  8
0
  6
CONTINUOUS
 62
     7
 10
-195.4367
 20
135.2775
 11
-195.4367
 21
152.2775
  0
LINE
  8
0
  6
CENTER
 62
     2
 10
-181.9367
 20
132.0275
 11
-181.9367
 21
156.005
  0
LINE
  8
0
  6
CONTINUOUS
 62
     7
 10
-194.4367
 20
151.7775
 11
-169.4367
 21
151.7775
  0
LINE
  8
0
  6
CONTINUOUS
 62
     7
 10
-194.4367
 20
135.7775
 11
-169.4367
 21
135.7775
  0
LINE
  8
0
  6
CONTINUOUS
 62
     7
 10
-194.4367
 20
151.7775
 11
-194.4367
 21
135.7775
  0
LINE
  8
0
  6
CONTINUOUS
 62
     7
 10
-169.4367
 20
151.7775
 11
-169.4367
 21
150.7775
  0
LINE
  8
0
  6
CONTINUOUS
 62
     7
 10
-169.4369
 20
135.7773
 11
-168.5833
 21
134.9238
  0
LINE
  8
0
  6
CONTINUOUS
 62
     7
 10
-194.4368
 20
135.7775
 11
-195.2903
 21
134.924
  0
LINE
  8
0
  6
CONTINUOUS
 62
     7
 10
-169.4367
 20
151.7776
 11
-168.5831
 21
152.6311
  0
LINE
  8
0
  6
CONTINUOUS
 62
     7
 10
-194.4366
 20
151.7776
 11
-195.2902
 21
152.6312
  0
LINE
  8
0
  6
CONTINUOUS
 62
     7
 10
-169.9367
 20
151.2775
 11
-169.9367
 21
136.2775
  0
LINE
  8
0
  6
CONTINUOUS
 62
     7
 10
-160.8367
 20
150.7775
 11
-160.8367
 21
147.7775
  0
LINE
  8
0
  6
CONTINUOUS
 62
     7
 10
-172.9367
 20
142.2775
 11
-169.9367
 21
142.2775
  0
LINE
  8
0
  6
CONTINUOUS
 62
     7
 10
-190.9367
 20
145.2775
 11
-193.9367
 21
145.2775
  0
LINE
  8
0
  6
CONTINUOUS
 62
     7
 10
-187.9367
 20
148.2775
 11
-187.9367
 21
151.2775
  0
LINE
  8
0
  6
CONTINUOUS
 62
     7
 10
-175.9367
 20
139.2775
 11
-175.9367
 21
136.2775
  0
LINE
  8
0
  6
CONTINUOUS
 62
     7
 10
-192.9367
 20
145.2775
 11
-192.9367
 21
137.2775
  0
LINE
  8
0
  6
CONTINUOUS
 62
     7
 10
-170.9367
 20
150.2775
 11
-170.9367
 21
142.2775
  0
LINE
  8
0
  6
CONTINUOUS
 62
     7
 10
-187.9367
 20
150.2775
 11
-170.9367
 21
150.2775
  0
LINE
  8
0
  6
CONTINUOUS
 62
     7
 10
-192.9367
 20
137.2775
 11
-175.9367
 21
137.2775
  0
LINE
  8
0
  6
CONTINUOUS
 62
     7
 10
-172.6367
 20
137.0476
 11
-172.6367
 21
136.7453
  0
LINE
  8
0
  6
CONTINUOUS
 62
     7
 10
-173.2367
 20
137.0476
 11
-173.2367
 21
136.7453
  0
LINE
  8
0
  6
CONTINUOUS
 62
     7
 10
-173.3975
 20
136.7695
 11
-173.3975
 21
137.0752
  0
LINE
  8
0
  6
CONTINUOUS
 62
     7
 10
-191.2367
 20
150.5075
 11
-191.2367
 21
150.8098
  0
LINE
  8
0
  6
CONTINUOUS
 62
     7
 10
-190.6367
 20
150.5075
 11
-190.6367
 21
150.8098
  0
LINE
  8
0
  6
CONTINUOUS
 62
     7
 10
-190.4759
 20
150.7856
 11
-190.4759
 21
150.4798
  0
LINE
  8
0
  6
CONTINUOUS
 62
     7
 10
-174.0398
 20
138.5422
 11
-173.6721
 21
138.9099
  0
LINE
  8
0
  6
CONTINUOUS
 62
     7
 10
-173.6721
 20
138.1745
 11
-173.3044
 21
138.5422
  0
LINE
  8
0
  6
CONTINUOUS
 62
     7
 10
-174.0398
 20
138.5423
 11
-173.6721
 21
138.1746
  0
LINE
  8
0
  6
CONTINUOUS
 62
     7
 10
-172.2012
 20
140.3808
 11
-171.8336
 21
140.0131
  0
LINE
  8
0
  6
CONTINUOUS
 62
     7
 10
-174.7008
 20
140.6741
 11
-173.672
 21
139.6454
  0
LINE
  8
0
  6
CONTINUOUS
 62
     7
 10
-174.3332
 20
141.0418
 11
-173.3044
 21
140.013
  0
LINE
  8
0
  6
CONTINUOUS
 62
     7
 10
-172.569
 20
140.013
 11
-172.2014
 21
140.3806
  0
LINE
  8
0
  6
CONTINUOUS
 62
     7
 10
-172.2013
 20
139.6453
 11
-171.8337
 21
140.0129
  0
LINE
  8
0
  6
CONTINUOUS
 62
     7
 10
-172.5689
 20
138.5423
 11
-171.5401
 21
137.5135
  0
LINE
  8
0
  6
CONTINUOUS
 62
     7
 10
-172.2013
 20
138.91
 11
-171.1725
 21
137.8812
  0
LINE
  8
0
  6
CONTINUOUS
 62
     7
 10
-192.0398
 20
147.5422
 11
-191.6721
 21
147.9099
  0
LINE
  8
0
  6
CONTINUOUS
 62
     7
 10
-191.6722
 20
147.1745
 11
-191.3044
 21
147.5422
  0
LINE
  8
0
  6
CONTINUOUS
 62
     7
 10
-192.0397
 20
147.5423
 11
-191.672
 21
147.1745
  0
LINE
  8
0
  6
CONTINUOUS
 62
     7
 10
-190.2013
 20
149.3807
 11
-189.8336
 21
149.013
  0
LINE
  8
0
  6
CONTINUOUS
 62
     7
 10
-192.7009
 20
149.6741
 11
-191.6721
 21
148.6453
  0
LINE
  8
0
  6
CONTINUOUS
 62
     7
 10
-192.3332
 20
150.0418
 11
-191.3044
 21
149.013
  0
LINE
  8
0
  6
CONTINUOUS
 62
     7
 10
-190.569
 20
149.013
 11
-190.2014
 21
149.3806
  0
LINE
  8
0
  6
CONTINUOUS
 62
     7
 10
-190.2014
 20
148.6453
 11
-189.8337
 21
149.013
  0
LINE
  8
0
  6
CONTINUOUS
 62
     7
 10
-190.569
 20
147.5423
 11
-189.5402
 21
146.5134
  0
LINE
  8
0
  6
CONTINUOUS
 62
     7
 10
-190.2013
 20
147.91
 11
-189.1725
 21
146.8812
  0
LINE
  8
0
  6
CONTINUOUS
 62
     7
 10
-151.4367
 20
147.7775
 11
-151.4367
 21
139.7775
  0
LINE
  8
0
  6
CONTINUOUS
 62
     7
 10
-157.108
 20
147.7775
 11
-157.108
 21
139.7775
  0
LINE
  8
0
  6
CONTINUOUS
 62
     7
 10
-168.4367
 20
147.7775
 11
-168.4367
 21
139.7775
  0
LINE
  8
0
  6
CONTINUOUS
 62
     7
 10
-169.9367
 20
139.5775
 11
-166.4367
 21
139.5775
  0
LINE
  8
0
  6
CONTINUOUS
 62
     7
 10
-169.9367
 20
147.9776
 11
-166.4367
 21
147.9776
  0
LINE
  8
0
  6
CONTINUOUS
 62
     7
 10
-166.4367
 20
147.9776
 11
-166.4367
 21
147.7775
  0
LINE
  8
0
  6
CONTINUOUS
 62
     7
 10
-165.4367
 20
147.9776
 11
-165.4367
 21
147.7775
  0
LINE
  8
0
  6
CONTINUOUS
 62
     7
 10
-165.4367
 20
139.5775
 11
-160.8367
 21
139.5775
  0
LINE
  8
0
  6
CONTINUOUS
 62
     7
 10
-165.4367
 20
147.9776
 11
-160.8367
 21
147.9776
  0
LINE
  8
0
  6
CONTINUOUS
 62
     7
 10
-160.8367
 20
139.7775
 11
-160.8367
 21
136.7775
  0
LINE
  8
0
  6
CONTINUOUS
 62
     7
 10
-165.4367
 20
139.7775
 11
-165.4367
 21
139.5775
  0
LINE
  8
0
  6
CONTINUOUS
 62
     7
 10
-166.4367
 20
139.7775
 11
-166.4367
 21
139.5775
  0
LINE
  8
0
  6
CENTER
 62
     2
 10
-172.9367
 20
143.2775
 11
-172.9367
 21
135.2775
  0
LINE
  8
0
  6
CENTER
 62
     2
 10
-190.9367
 20
152.2775
 11
-190.9367
 21
144.2775
  0
LINE
  8
0
  6
CENTER
 62
     2
 10
-194.9367
 20
148.2775
 11
-186.9367
 21
148.2775
  0
LINE
  8
0
  6
CENTER
 62
     2
 10
-176.9367
 20
139.2775
 11
-168.9367
 21
139.2775
  0
LINE
  8
0
  6
CONTINUOUS
 62
     7
 10
-193.4367
 20
151.2775
 11
-169.9367
 21
151.2775
  0
LINE
  8
0
  6
CONTINUOUS
 62
     7
 10
-193.9367
 20
150.7775
 11
-193.9367
 21
136.7775
  0
LINE
  8
0
  6
CONTINUOUS
 62
     7
 10
-193.4367
 20
136.2775
 11
-169.9367
 21
136.2775
  0
LINE
  8
0
  6
CONTINUOUS
 62
     7
 10
-169.9367
 20
150.7775
 11
-160.7367
 21
150.7775
  0
LINE
  8
0
  6
CONTINUOUS
 62
     7
 10
-159.9367
 20
149.9776
 11
-159.9367
 21
149.2775
  0
LINE
  8
0
  6
CONTINUOUS
 62
     7
 10
-159.9367
 20
138.2775
 11
-159.9367
 21
137.5775
  0
LINE
  8
0
  6
CONTINUOUS
 62
     7
 10
-169.9367
 20
136.7775
 11
-160.7367
 21
136.7775
  0
LINE
  8
0
  6
CONTINUOUS
 62
     7
 10
-160.8367
 20
138.2775
 11
-149.4367
 21
138.2775
  0
LINE
  8
0
  6
CONTINUOUS
 62
     7
 10
-149.4367
 20
149.2775
 11
-149.4367
 21
138.2775
  0
LINE
  8
0
  6
CONTINUOUS
 62
     7
 10
-160.8367
 20
149.2775
 11
-149.4367
 21
149.2775
  0
LINE
  8
0
  6
CONTINUOUS
 62
     7
 10
-168.4367
 20
147.7775
 11
-149.4367
 21
147.7775
  0
LINE
  8
0
  6
CONTINUOUS
 62
     7
 10
-168.4367
 20
139.7775
 11
-149.4367
 21
139.7775
  0
LINE
  8
0
  6
CONTINUOUS
 62
     7
 10
-149.4367
 20
147.1275
 11
-144.3155
 21
147.1275
  0
LINE
  8
0
  6
CONTINUOUS
 62
     7
 10
-149.4367
 20
145.4275
 11
-144.7711
 21
145.4275
  0
LINE
  8
0
  6
CENTER
 62
     2
 10
-152.4367
 20
146.2775
 11
-126.4367
 21
146.2775
  0
LINE
  8
0
  6
CONTINUOUS
 62
     7
 10
-139.4367
 20
146.5975
 11
-129.4367
 21
146.5975
  0
LINE
  8
0
  6
CONTINUOUS
 62
     7
 10
-139.4367
 20
147.1275
 11
-139.4367
 21
145.4275
  0
LINE
  8
0
  6
CONTINUOUS
 62
     7
 10
-129.4367
 20
146.5975
 11
-129.4367
 21
145.9575
  0
LINE
  8
0
  6
CONTINUOUS
 62
     7
 10
-139.4367
 20
145.9575
 11
-129.4367
 21
145.9575
  0
LINE
  8
0
  6
CONTINUOUS
 62
     7
 10
-139.4367
 20
141.5975
 11
-129.4367
 21
141.5975
  0
LINE
  8
0
  6
CONTINUOUS
 62
     7
 10
-129.4367
 20
141.5975
 11
-129.4367
 21
140.9575
  0
LINE
  8
0
  6
CONTINUOUS
 62
     7
 10
-139.4367
 20
140.9575
 11
-129.4367
 21
140.9575
  0
LINE
  8
0
  6
CENTER
 62
     2
 10
-152.4367
 20
141.2775
 11
-126.4367
 21
141.2775
  0
LINE
  8
0
  6
CONTINUOUS
 62
     7
 10
-149.4367
 20
142.1275
 11
-145.6553
 21
142.1275
  0
LINE
  8
0
  6
CONTINUOUS
 62
     7
 10
-139.4367
 20
142.1275
 11
-139.4367
 21
140.4275
  0
LINE
  8
0
  6
CONTINUOUS
 62
     7
 10
-149.4367
 20
140.4275
 11
-146.1108
 21
140.4275
  0
LINE
  8
0
  6
PHANTOM
 62
     2
 10
-146.6467
 20
138.4276
 11
-143.7797
 21
149.1275
  0
LINE
  8
0
  6
PHANTOM
 62
     2
 10
-145.0938
 20
138.4275
 11
-142.2267
 21
149.1275
  0
LINE
  8
0
  6
CONTINUOUS
 62
     7
 10
-142.7626
 20
147.1275
 11
-139.4367
 21
147.1275
  0
LINE
  8
0
  6
CONTINUOUS
 62
     7
 10
-143.2182
 20
145.4275
 11
-139.4367
 21
145.4275
  0
LINE
  8
0
  6
CONTINUOUS
 62
     7
 10
-144.1024
 20
142.1275
 11
-139.4367
 21
142.1275
  0
LINE
  8
0
  6
CONTINUOUS
 62
     7
 10
-144.5579
 20
140.4275
 11
-139.4367
 21
140.4275
  0
LINE
  8
0
  6
CENTER
 62
     2
 10
-181.9368
 20
57.35002
 11
-181.9368
 21
-46.14999
  0
LINE
  8
0
  6
CONTINUOUS
 62
     7
 10
-168.4368
 20
24.8
 11
-168.4368
 21
-42.29999
  0
LINE
  8
0
  6
CONTINUOUS
 62
     7
 10
-195.4368
 20
24.8
 11
-195.4368
 21
-42.29999
  0
LINE
  8
0
  6
CONTINUOUS
 62
     7
 10
-194.9368
 20
-42.79999
 11
-168.9368
 21
-42.79999
  0
LINE
  8
0
  6
CONTINUOUS
 62
     7
 10
-195.4368
 20
-34.39999
 11
-168.4368
 21
-34.39999
  0
LINE
  8
0
  6
CONTINUOUS
 62
     7
 10
-195.4368
 20
7.60002
 11
-168.4368
 21
7.60002
  0
LINE
  8
0
  6
CONTINUOUS
 62
     7
 10
-194.4368
 20
25.79999
 11
-195.4368
 21
24.79999
  0
LINE
  8
0
  6
CONTINUOUS
 62
     7
 10
-169.4368
 20
25.79998
 11
-168.4368
 21
24.79998
  0
LINE
  8
0
  6
CONTINUOUS
 62
     7
 10
-171.4368
 20
-26.74168
 11
-168.4368
 21
-26.74168
  0
LINE
  8
0
  6
CONTINUOUS
 62
     7
 10
-171.4368
 20
-30.0583
 11
-168.4368
 21
-30.0583
  0
LINE
  8
0
  6
CONTINUOUS
 62
     7
 10
-171.4368
 20
-26.74168
 11
-171.4368
 21
-30.0583
  0
LINE
  8
0
  6
CONTINUOUS
 62
     7
 10
-194.4368
 20
25.8
 11
-160.7368
 21
25.8
  0
LINE
  8
0
  6
CENTER
 62
     2
 10
-171.4368
 20
-38.5247
 11
-171.4368
 21
-43.97221
  0
LINE
  8
0
  6
CONTINUOUS
 62
     7
 10
-174.1368
 20
-39.39999
 11
-168.9368
 21
-39.39999
  0
LINE
  8
0
  6
CONTINUOUS
 62
     7
 10
-174.6368
 20
-39.89999
 11
-174.6368
 21
-42.29999
  0
LINE
  8
0
  6
CONTINUOUS
 62
     7
 10
-174.2368
 20
-40.57181
 11
-174.2368
 21
-39.39998
  0
LINE
  8
0
  6
CONTINUOUS
 62
     7
 10
-168.6368
 20
-40.57182
 11
-168.6368
 21
-39.40001
  0
LINE
  8
0
  6
CONTINUOUS
 62
     7
 10
-195.4368
 20
24.8
 11
-168.4368
 21
24.8
  0
LINE
  8
0
  6
CENTER
 62
     2
 10
-177.4368
 20
-28.39999
 11
-167.4086
 21
-28.39999
  0
LINE
  8
0
  6
CENTER
 62
     2
 10
-177.4368
 20
1.60001
 11
-171.1034
 21
1.60001
  0
LINE
  8
0
  6
CENTER
 62
     2
 10
-174.4368
 20
5.13335
 11
-174.4368
 21
-1.53333
  0
LINE
  8
0
  6
CENTER
 62
     2
 10
-174.4368
 20
-24.86665
 11
-174.4368
 21
-31.86665
  0
LINE
  8
0
  6
CONTINUOUS
 62
     7
 10
-193.9368
 20
51.00002
 11
-169.9368
 21
51.00002
  0
LINE
  8
0
  6
CONTINUOUS
 62
     7
 10
-193.9368
 20
52.00002
 11
-193.9368
 21
25.8
  0
LINE
  8
0
  6
CONTINUOUS
 62
     7
 10
-169.9368
 20
52.8
 11
-169.9368
 21
25.8
  0
LINE
  8
0
  6
CONTINUOUS
 62
     7
 10
-159.9368
 20
46.00002
 11
-159.9368
 21
26.60002
  0
LINE
  8
0
  6
CONTINUOUS
 62
     7
 10
-169.9368
 20
52.8
 11
-158.9368
 21
52.8
  0
LINE
  8
0
  6
CONTINUOUS
 62
     7
 10
-160.8368
 20
52.8
 11
-160.8368
 21
46.8
  0
LINE
  8
0
  6
CONTINUOUS
 62
     7
 10
-169.9368
 20
46.8
 11
-157.4368
 21
46.8
  0
LINE
  8
0
  6
CONTINUOUS
 62
     7
 10
-192.9368
 20
54.00002
 11
-174.7626
 21
54.00002
  0
LINE
  8
0
  6
CONTINUOUS
 62
     7
 10
-193.9368
 20
52.00002
 11
-169.9368
 21
52.00002
  0
LINE
  8
0
  6
CONTINUOUS
 62
     7
 10
-193.9368
 20
52.00003
 11
-192.9368
 21
54.00002
  0
LINE
  8
0
  6
CONTINUOUS
 62
     7
 10
-169.9368
 20
52.0
 11
-170.9368
 21
54.0
  0
LINE
  8
0
  6
CONTINUOUS
 62
     7
 10
-175.9368
 20
54.00002
 11
-175.9368
 21
52.00002
  0
LINE
  8
0
  6
CENTER
 62
     2
 10
-172.9368
 20
57.00002
 11
-172.9368
 21
48.00002
  0
LINE
  8
0
  6
CONTINUOUS
 62
     7
 10
-170.3868
 20
52.60002
 11
-175.4868
 21
52.60002
  0
LINE
  8
0
  6
CONTINUOUS
 62
     7
 10
-173.2368
 20
52.0
 11
-173.3976
 21
52.60001
  0
LINE
  8
0
  6
CONTINUOUS
 62
     7
 10
-172.6366
 20
52.60004
 11
-172.4758
 21
52.00005
  0
LINE
  8
0
  6
CONTINUOUS
 62
     7
 10
-170.3868
 20
52.60002
 11
-170.3868
 21
52.00002
  0
LINE
  8
0
  6
CONTINUOUS
 62
     7
 10
-175.4868
 20
52.60002
 11
-175.4868
 21
52.00002
  0
LINE
  8
0
  6
CONTINUOUS
 62
     7
 10
-170.6868
 20
53.29375
 11
-170.6868
 21
52.60002
  0
LINE
  8
0
  6
CONTINUOUS
 62
     7
 10
-175.1868
 20
53.29375
 11
-175.1868
 21
52.59999
  0
LINE
  8
0
  6
CONTINUOUS
 62
     7
 10
-171.111
 20
54.00002
 11
-170.9368
 21
54.00002
  0
LINE
  8
0
  6
CENTER
 62
     2
 10
-190.9368
 20
57.00002
 11
-190.9368
 21
48.00002
  0
LINE
  8
0
  6
CONTINUOUS
 62
     7
 10
-149.4368
 20
54.8
 11
-149.4368
 21
53.8
  0
LINE
  8
0
  6
CONTINUOUS
 62
     7
 10
-150.9368
 20
47.8
 11
-150.9368
 21
46.8
  0
LINE
  8
0
  6
CONTINUOUS
 62
     7
 10
-168.4368
 20
53.3
 11
-168.4368
 21
52.8
  0
LINE
  8
0
  6
CONTINUOUS
 62
     7
 10
-149.4368
 20
46.8
 11
-150.9368
 21
46.8
  0
LINE
  8
0
  6
CONTINUOUS
 62
     7
 10
-150.9368
 20
47.8
 11
-157.4368
 21
47.8
  0
LINE
  8
0
  6
CONTINUOUS
 62
     7
 10
-149.4368
 20
49.2
 11
-160.8368
 21
49.2
  0
LINE
  8
0
  6
CONTINUOUS
 62
     7
 10
-149.4368
 20
51.00002
 11
-160.8368
 21
51.00002
  0
LINE
  8
0
  6
CONTINUOUS
 62
     7
 10
-167.9368
 20
53.8
 11
-157.1081
 21
53.8
  0
LINE
  8
0
  6
CONTINUOUS
 62
     7
 10
-149.4368
 20
54.8
 11
-151.4368
 21
54.8
  0
LINE
  8
0
  6
CONTINUOUS
 62
     7
 10
-149.4368
 20
53.8
 11
-150.9368
 21
53.8
  0
LINE
  8
0
  6
CONTINUOUS
 62
     7
 10
-151.4367
 20
54.79997
 11
-157.108
 21
53.79998
  0
LINE
  8
0
  6
CONTINUOUS
 62
     7
 10
-150.9368
 20
53.79996
 11
-156.6081
 21
52.79996
  0
LINE
  8
0
  6
CONTINUOUS
 62
     7
 10
-160.8368
 20
51.8
 11
-158.9368
 21
51.8
  0
LINE
  8
0
  6
CONTINUOUS
 62
     7
 10
-157.4368
 20
47.8
 11
-157.4368
 21
46.8
  0
LINE
  8
0
  6
CONTINUOUS
 62
     7
 10
-160.8368
 20
52.10002
 11
-160.2368
 21
52.10002
  0
LINE
  8
0
  6
CONTINUOUS
 62
     7
 10
-149.7368
 20
52.09995
 11
-149.4368
 21
51.79995
  0
LINE
  8
0
  6
CONTINUOUS
 62
     7
 10
-155.9368
 20
51.8
 11
-155.6368
 21
52.09999
  0
LINE
  8
0
  6
CONTINUOUS
 62
     7
 10
-160.2367
 20
52.10006
 11
-159.9367
 21
51.80006
  0
LINE
  8
0
  6
CONTINUOUS
 62
     7
 10
-155.6368
 20
52.10002
 11
-149.7368
 21
52.10002
  0
LINE
  8
0
  6
CONTINUOUS
 62
     7
 10
-156.9368
 20
52.8
 11
-156.6081
 21
52.8
  0
LINE
  8
0
  6
CONTINUOUS
 62
     7
 10
-156.9368
 20
51.8
 11
-149.4368
 21
51.8
  0
LINE
  8
0
  6
CONTINUOUS
 62
     7
 10
-149.4368
 20
51.8
 11
-149.4368
 21
46.8
  0
LINE
  8
0
  6
CONTINUOUS
 62
     7
 10
-159.6368
 20
49.2
 11
-159.6368
 21
47.7
  0
LINE
  8
0
  6
CONTINUOUS
 62
     7
 10
-159.6368
 20
47.7
 11
-160.8368
 21
47.7
  0
LINE
  8
0
  6
CENTER
 62
     2
 10
-152.4368
 20
50.3
 11
-126.4368
 21
50.3
  0
LINE
  8
0
  6
CONTINUOUS
 62
     7
 10
-149.4368
 20
49.45
 11
-145.441
 21
49.45
  0
LINE
  8
0
  6
CONTINUOUS
 62
     7
 10
-149.4368
 20
51.15001
 11
-144.9855
 21
51.15001
  0
LINE
  8
0
  6
CONTINUOUS
 62
     7
 10
-139.4368
 20
50.62001
 11
-129.4368
 21
50.62001
  0
LINE
  8
0
  6
CONTINUOUS
 62
     7
 10
-139.4368
 20
49.98
 11
-129.4368
 21
49.98
  0
LINE
  8
0
  6
CONTINUOUS
 62
     7
 10
-139.4368
 20
51.15001
 11
-139.4368
 21
49.45
  0
LINE
  8
0
  6
CONTINUOUS
 62
     7
 10
-129.4368
 20
50.62001
 11
-129.4368
 21
49.98
  0
LINE
  8
0
  6
PHANTOM
 62
     2
 10
-145.9769
 20
47.45002
 11
-144.4496
 21
53.15001
  0
LINE
  8
0
  6
PHANTOM
 62
     2
 10
-144.424
 20
47.45
 11
-142.8967
 21
53.14999
  0
LINE
  8
0
  6
CONTINUOUS
 62
     7
 10
-143.4326
 20
51.15001
 11
-139.4368
 21
51.15001
  0
LINE
  8
0
  6
CONTINUOUS
 62
     7
 10
-143.8881
 20
49.45
 11
-139.4368
 21
49.45
  0
LINE
  8
0
  6
CENTER
 62
     2
 10
-45.73399
 20
22.30006
 11
-39.9026
 21
22.30006
  0
LINE
  8
0
  6
CENTER
 62
     2
 10
-40.65892
 20
1.60005
 11
-33.22795
 21
1.60005
  0
LINE
  8
0
  6
CENTER
 62
     2
 10
-52.2245
 20
-28.39995
 11
-45.15392
 21
-28.39995
  0
LINE
  8
0
  6
CENTER
 62
     2
 10
-49.3123
 20
-24.28719
 11
-49.3123
 21
-32.69183
  0
LINE
  8
0
  6
CENTER
 62
     2
 10
-36.3123
 20
6.19136
 11
-36.3123
 21
-2.81662
  0
LINE
  8
0
  6
CENTER
 62
     2
 10
-48.45976
 20
-5.39995
 11
-36.83141
 21
-5.39995
  0
LINE
  8
0
  6
CENTER
 62
     2
 10
-48.8958
 20
-21.39995
 11
-36.73454
 21
-21.39995
  0
LINE
  8
0
  6
CONTINUOUS
 62
     7
 10
-34.8124
 20
25.80006
 11
-33.8124
 21
24.80005
  0
LINE
  8
0
  6
CONTINUOUS
 62
     7
 10
-50.81236
 20
25.80014
 11
-51.81234
 21
24.80016
  0
LINE
  8
0
  6
CONTINUOUS
 62
     7
 10
-51.3123
 20
-42.79994
 11
-34.3123
 21
-42.79994
  0
LINE
  8
0
  6
CONTINUOUS
 62
     7
 10
-51.8123
 20
-34.39995
 11
-33.8123
 21
-34.39995
  0
LINE
  8
0
  6
CONTINUOUS
 62
     7
 10
-51.8123
 20
7.60005
 11
-33.8123
 21
7.60005
  0
LINE
  8
0
  6
CONTINUOUS
 62
     7
 10
-51.8123
 20
24.80006
 11
-51.8123
 21
-42.29994
  0
LINE
  8
0
  6
CONTINUOUS
 62
     7
 10
-51.8123
 20
24.80006
 11
-33.8123
 21
24.80006
  0
LINE
  8
0
  6
CENTER
 62
     2
 10
-42.3123
 20
0.73148
 11
-42.3123
 21
-11.84198
  0
LINE
  8
0
  6
CENTER
 62
     2
 10
-43.3123
 20
-14.81543
 11
-43.3123
 21
-27.55879
  0
LINE
  8
0
  6
CENTER
 62
     2
 10
-42.8123
 20
57.29033
 11
-42.8123
 21
-47.61662
  0
LINE
  8
0
  6
CONTINUOUS
 62
     7
 10
-33.8123
 20
24.80003
 11
-33.8123
 21
-42.29994
  0
LINE
  8
0
  6
CONTINUOUS
 62
     7
 10
-50.8123
 20
25.80006
 11
-34.8123
 21
25.80006
  0
LINE
  8
0
  6
CENTER
 62
     2
 10
-48.8123
 20
-38.30569
 11
-48.8123
 21
-44.25526
  0
LINE
  8
0
  6
CONTINUOUS
 62
     7
 10
-45.61229
 20
-39.89995
 11
-45.61229
 21
-42.29994
  0
LINE
  8
0
  6
CONTINUOUS
 62
     7
 10
-51.3123
 20
-39.39995
 11
-46.11229
 21
-39.39995
  0
LINE
  8
0
  6
CONTINUOUS
 62
     7
 10
-51.61229
 20
-40.57178
 11
-51.61229
 21
-39.39995
  0
LINE
  8
0
  6
CONTINUOUS
 62
     7
 10
-46.01228
 20
-40.57178
 11
-46.01228
 21
-39.39995
  0
LINE
  8
0
  6
CONTINUOUS
 62
     7
 10
-50.3123
 20
52.00005
 11
-50.3123
 21
25.80006
  0
LINE
  8
0
  6
CONTINUOUS
 62
     7
 10
-35.3123
 20
52.00005
 11
-35.3123
 21
25.80006
  0
LINE
  8
0
  6
CONTINUOUS
 62
     7
 10
-50.3123
 20
51.00005
 11
-49.8123
 21
51.00005
  0
LINE
  8
0
  6
CONTINUOUS
 62
     7
 10
-35.8123
 20
52.80006
 11
-35.8123
 21
46.80006
  0
LINE
  8
0
  6
CONTINUOUS
 62
     7
 10
-49.8123
 20
52.80006
 11
-49.8123
 21
46.80006
  0
LINE
  8
0
  6
CONTINUOUS
 62
     7
 10
-49.8123
 20
52.80006
 11
-35.8123
 21
52.80006
  0
LINE
  8
0
  6
CONTINUOUS
 62
     7
 10
-49.8123
 20
46.80006
 11
-35.8123
 21
46.80006
  0
LINE
  8
0
  6
CONTINUOUS
 62
     7
 10
-35.8123
 20
51.00005
 11
-35.3123
 21
51.00005
  0
LINE
  8
0
  6
CONTINUOUS
 62
     7
 10
-49.8123
 20
46.00005
 11
-49.8123
 21
26.60005
  0
LINE
  8
0
  6
CONTINUOUS
 62
     7
 10
-35.8123
 20
46.00005
 11
-35.8123
 21
26.60005
  0
LINE
  8
0
  6
CONTINUOUS
 62
     7
 10
-48.3123
 20
27.30006
 11
-37.3123
 21
27.30006
  0
LINE
  8
0
  6
CONTINUOUS
 62
     7
 10
-48.3123
 20
35.80006
 11
-37.3123
 21
35.80006
  0
LINE
  8
0
  6
CONTINUOUS
 62
     7
 10
-48.3123
 20
35.80006
 11
-48.3123
 21
27.30006
  0
LINE
  8
0
  6
CONTINUOUS
 62
     7
 10
-37.3123
 20
35.80006
 11
-37.3123
 21
27.30006
  0
LINE
  8
0
  6
CONTINUOUS
 62
     7
 10
-44.8123
 20
39.30006
 11
-40.8123
 21
39.30006
  0
LINE
  8
0
  6
CONTINUOUS
 62
     7
 10
-44.8123
 20
37.30006
 11
-40.8123
 21
37.30006
  0
LINE
  8
0
  6
CONTINUOUS
 62
     7
 10
-44.8123
 20
39.30006
 11
-44.8123
 21
37.30006
  0
LINE
  8
0
  6
CONTINUOUS
 62
     7
 10
-40.8123
 20
39.30006
 11
-40.8123
 21
37.30006
  0
LINE
  8
0
  6
CONTINUOUS
 62
     7
 10
-45.3123
 20
39.80006
 11
-40.3123
 21
39.80006
  0
LINE
  8
0
  6
CONTINUOUS
 62
     7
 10
-45.3123
 20
39.80006
 11
-45.3123
 21
36.80006
  0
LINE
  8
0
  6
CONTINUOUS
 62
     7
 10
-45.3123
 20
36.80006
 11
-40.3123
 21
36.80006
  0
LINE
  8
0
  6
CONTINUOUS
 62
     7
 10
-40.3123
 20
39.80006
 11
-40.3123
 21
36.80006
  0
LINE
  8
0
  6
CONTINUOUS
 62
     7
 10
-44.81239
 20
39.29995
 11
-45.31242
 21
39.79999
  0
LINE
  8
0
  6
CONTINUOUS
 62
     7
 10
-40.81231
 20
39.30008
 11
-40.31231
 21
39.80007
  0
LINE
  8
0
  6
CONTINUOUS
 62
     7
 10
-40.81236
 20
37.30003
 11
-40.31237
 21
36.80004
  0
LINE
  8
0
  6
CONTINUOUS
 62
     7
 10
-44.81237
 20
37.30001
 11
-45.31236
 21
36.80002
  0
LINE
  8
0
  6
CONTINUOUS
 62
     7
 10
-49.3123
 20
54.00005
 11
-49.13808
 21
54.00005
  0
LINE
  8
0
  6
CONTINUOUS
 62
     7
 10
-50.3123
 20
52.00005
 11
-49.8123
 21
52.00005
  0
LINE
  8
0
  6
CONTINUOUS
 62
     7
 10
-50.31243
 20
52.00008
 11
-49.31242
 21
54.00009
  0
LINE
  8
0
  6
CONTINUOUS
 62
     7
 10
-35.31241
 20
51.99998
 11
-36.31241
 21
53.99998
  0
LINE
  8
0
  6
CENTER
 62
     2
 10
-47.3123
 20
57.00005
 11
-47.3123
 21
48.00005
  0
LINE
  8
0
  6
CONTINUOUS
 62
     7
 10
-49.8123
 20
52.60005
 11
-49.86229
 21
52.60005
  0
LINE
  8
0
  6
CONTINUOUS
 62
     7
 10
-49.86229
 20
52.60005
 11
-49.86229
 21
52.00005
  0
LINE
  8
0
  6
CONTINUOUS
 62
     7
 10
-35.8123
 20
52.00005
 11
-35.3123
 21
52.00005
  0
LINE
  8
0
  6
CONTINUOUS
 62
     7
 10
-49.5623
 20
53.29381
 11
-49.5623
 21
52.80006
  0
LINE
  8
0
  6
CONTINUOUS
 62
     7
 10
-48.51231
 20
49.20006
 11
-46.8123
 21
49.20006
  0
LINE
  8
0
  6
CONTINUOUS
 62
     7
 10
-48.51231
 20
51.20006
 11
-47.01231
 21
51.20006
  0
LINE
  8
0
  6
CONTINUOUS
 62
     7
 10
-38.61229
 20
52.80006
 11
-38.61229
 21
51.20006
  0
LINE
  8
0
  6
CONTINUOUS
 62
     7
 10
-47.01231
 20
52.80006
 11
-47.01231
 21
51.20006
  0
LINE
  8
0
  6
CONTINUOUS
 62
     7
 10
-37.11229
 20
51.20006
 11
-37.11229
 21
49.20006
  0
LINE
  8
0
  6
CONTINUOUS
 62
     7
 10
-48.51231
 20
51.20006
 11
-48.51231
 21
49.20006
  0
LINE
  8
0
  6
CONTINUOUS
 62
     7
 10
-47.01231
 20
49.20006
 11
-47.01231
 21
46.80006
  0
LINE
  8
0
  6
CONTINUOUS
 62
     7
 10
-38.61229
 20
49.20006
 11
-38.61229
 21
46.80006
  0
LINE
  8
0
  6
CONTINUOUS
 62
     7
 10
-38.61229
 20
51.20006
 11
-37.11229
 21
51.20006
  0
LINE
  8
0
  6
CONTINUOUS
 62
     7
 10
-38.8123
 20
49.20006
 11
-37.11229
 21
49.20006
  0
LINE
  8
0
  6
CENTER
 62
     2
 10
-38.3123
 20
57.00005
 11
-38.3123
 21
48.00005
  0
LINE
  8
0
  6
CONTINUOUS
 62
     7
 10
-48.3123
 20
51.00005
 11
-46.8123
 21
51.00005
  0
LINE
  8
0
  6
CONTINUOUS
 62
     7
 10
-46.8123
 20
53.80006
 11
-38.8123
 21
53.80006
  0
LINE
  8
0
  6
CONTINUOUS
 62
     7
 10
-48.3123
 20
51.00005
 11
-48.3123
 21
49.20006
  0
LINE
  8
0
  6
CONTINUOUS
 62
     7
 10
-37.3123
 20
51.00005
 11
-37.3123
 21
49.20006
  0
LINE
  8
0
  6
CONTINUOUS
 62
     7
 10
-46.81242
 20
51.80016
 11
-46.51243
 21
52.10016
  0
LINE
  8
0
  6
CONTINUOUS
 62
     7
 10
-38.81249
 20
51.79983
 11
-39.11248
 21
52.09983
  0
LINE
  8
0
  6
CONTINUOUS
 62
     7
 10
-46.8123
 20
49.20006
 11
-46.8123
 21
46.80006
  0
LINE
  8
0
  6
CONTINUOUS
 62
     7
 10
-38.8123
 20
49.20006
 11
-38.8123
 21
46.80006
  0
LINE
  8
0
  6
CONTINUOUS
 62
     7
 10
-38.8123
 20
51.00005
 11
-37.3123
 21
51.00005
  0
LINE
  8
0
  6
CENTER
 62
     2
 10
-46.76231
 20
50.30006
 11
-38.86229
 21
50.30006
  0
LINE
  8
0
  6
CENTER
 62
     2
 10
-45.3123
 20
51.65007
 11
-45.3123
 21
48.85005
  0
LINE
  8
0
  6
CENTER
 62
     2
 10
-40.3123
 20
51.65007
 11
-40.3123
 21
48.85005
  0
LINE
  8
0
  6
CONTINUOUS
 62
     7
 10
-46.26231
 20
51.25005
 11
-44.36229
 21
51.25005
  0
LINE
  8
0
  6
CONTINUOUS
 62
     7
 10
-46.26231
 20
49.35005
 11
-44.36229
 21
49.35005
  0
LINE
  8
0
  6
CONTINUOUS
 62
     7
 10
-46.26231
 20
51.45006
 11
-46.26231
 21
49.35005
  0
LINE
  8
0
  6
CONTINUOUS
 62
     7
 10
-44.36229
 20
51.45006
 11
-44.36229
 21
49.35005
  0
LINE
  8
0
  6
CONTINUOUS
 62
     7
 10
-43.76231
 20
51.45006
 11
-43.76231
 21
49.35005
  0
LINE
  8
0
  6
CONTINUOUS
 62
     7
 10
-41.86229
 20
51.45006
 11
-41.86229
 21
49.35005
  0
LINE
  8
0
  6
CONTINUOUS
 62
     7
 10
-39.36229
 20
51.45006
 11
-39.36229
 21
49.35005
  0
LINE
  8
0
  6
CONTINUOUS
 62
     7
 10
-41.26231
 20
51.45006
 11
-41.26231
 21
49.35005
  0
LINE
  8
0
  6
CONTINUOUS
 62
     7
 10
-43.76231
 20
51.25005
 11
-41.86229
 21
51.25005
  0
LINE
  8
0
  6
CONTINUOUS
 62
     7
 10
-43.76231
 20
49.35005
 11
-41.86229
 21
49.35005
  0
LINE
  8
0
  6
CONTINUOUS
 62
     7
 10
-41.26231
 20
49.35005
 11
-39.36229
 21
49.35005
  0
LINE
  8
0
  6
CONTINUOUS
 62
     7
 10
-41.26231
 20
51.25005
 11
-39.36229
 21
51.25005
  0
LINE
  8
0
  6
CONTINUOUS
 62
     7
 10
-47.01231
 20
51.80006
 11
-38.61229
 21
51.80006
  0
LINE
  8
0
  6
CONTINUOUS
 62
     7
 10
-46.51231
 20
52.10005
 11
-39.11229
 21
52.10005
  0
LINE
  8
0
  6
CONTINUOUS
 62
     7
 10
-46.8123
 20
54.80006
 11
-38.8123
 21
54.80006
  0
LINE
  8
0
  6
CONTINUOUS
 62
     7
 10
-38.8123
 20
54.80006
 11
-38.8123
 21
51.00005
  0
LINE
  8
0
  6
CONTINUOUS
 62
     7
 10
-46.8123
 20
54.80006
 11
-46.8123
 21
51.00005
  0
LINE
  8
0
  6
CONTINUOUS
 62
     7
 10
-46.26231
 20
51.45006
 11
-44.36229
 21
51.45006
  0
LINE
  8
0
  6
CONTINUOUS
 62
     7
 10
-43.76231
 20
51.45006
 11
-41.86229
 21
51.45006
  0
LINE
  8
0
  6
CONTINUOUS
 62
     7
 10
-41.26231
 20
51.45006
 11
-39.36229
 21
51.45006
  0
LINE
  8
0
  6
CONTINUOUS
 62
     7
 10
-45.8123
 20
49.05006
 11
-44.8123
 21
49.05006
  0
LINE
  8
0
  6
CONTINUOUS
 62
     7
 10
-43.3123
 20
49.05006
 11
-42.3123
 21
49.05006
  0
LINE
  8
0
  6
CONTINUOUS
 62
     7
 10
-40.8123
 20
49.05006
 11
-39.8123
 21
49.05006
  0
LINE
  8
0
  6
CONTINUOUS
 62
     7
 10
-45.8123
 20
49.35005
 11
-45.8123
 21
49.05006
  0
LINE
  8
0
  6
CONTINUOUS
 62
     7
 10
-44.8123
 20
49.35005
 11
-44.8123
 21
49.05006
  0
LINE
  8
0
  6
CONTINUOUS
 62
     7
 10
-43.3123
 20
49.35005
 11
-43.3123
 21
49.05006
  0
LINE
  8
0
  6
CONTINUOUS
 62
     7
 10
-42.3123
 20
49.35005
 11
-42.3123
 21
49.05006
  0
LINE
  8
0
  6
CONTINUOUS
 62
     7
 10
-39.8123
 20
49.35005
 11
-39.8123
 21
49.05006
  0
LINE
  8
0
  6
CONTINUOUS
 62
     7
 10
-40.8123
 20
49.35005
 11
-40.8123
 21
49.05006
  0
LINE
  8
0
  6
CONTINUOUS
 62
     7
 10
-45.8123
 20
47.92506
 11
-44.8123
 21
47.92506
  0
LINE
  8
0
  6
CONTINUOUS
 62
     7
 10
-45.3123
 20
48.42506
 11
-45.3123
 21
47.42506
  0
LINE
  8
0
  6
CONTINUOUS
 62
     7
 10
-40.8123
 20
47.92506
 11
-39.8123
 21
47.92506
  0
LINE
  8
0
  6
CONTINUOUS
 62
     7
 10
-36.3123
 20
54.00005
 11
-38.8123
 21
54.00005
  0
LINE
  8
0
  6
CENTER
 62
     2
 10
-46.8123
 20
38.30006
 11
-38.8123
 21
38.30006
  0
LINE
  8
0
  6
CENTER
 62
     2
 10
-175.9642
 20
-184.179
 11
-169.1067
 21
-184.179
  0
LINE
  8
0
  6
CENTER
 62
     2
 10
-194.5854
 20
-174.179
 11
-188.0624
 21
-174.179
  0
LINE
  8
0
  6
CENTER
 62
     2
 10
-172.4368
 20
-180.7817
 11
-172.4368
 21
-187.3604
  0
LINE
  8
0
  6
CENTER
 62
     2
 10
-191.4368
 20
-170.8578
 11
-191.4368
 21
-177.6038
  0
LINE
  8
0
  6
CONTINUOUS
 62
     7
 10
-171.0125
 20
-174.0276
 11
-170.5883
 21
-174.4518
  0
LINE
  8
0
  6
CONTINUOUS
 62
     7
 10
-170.5882
 20
-172.7549
 11
-170.1639
 21
-172.3306
  0
LINE
  8
0
  6
CONTINUOUS
 62
     7
 10
-171.0125
 20
-172.3306
 11
-170.5882
 21
-171.9063
  0
LINE
  8
0
  6
CONTINUOUS
 62
     7
 10
-172.2853
 20
-171.9063
 11
-171.8611
 21
-172.3305
  0
LINE
  8
0
  6
CONTINUOUS
 62
     7
 10
-172.7096
 20
-172.3305
 11
-172.2853
 21
-172.7548
  0
LINE
  8
0
  6
CONTINUOUS
 62
     7
 10
-170.5882
 20
-171.9062
 11
-170.1639
 21
-172.3305
  0
LINE
  8
0
  6
CONTINUOUS
 62
     7
 10
-172.7095
 20
-174.0276
 11
-172.2852
 21
-174.4518
  0
LINE
  8
0
  6
CONTINUOUS
 62
     7
 10
-170.5883
 20
-173.6033
 11
-170.164
 21
-174.0276
  0
LINE
  8
0
  6
CENTER
 62
     2
 10
-181.9368
 20
-167.429
 11
-181.9368
 21
-191.4065
  0
LINE
  8
0
  6
CENTER
 62
     2
 10
-197.833
 20
-179.179
 11
-147.3366
 21
-179.179
  0
LINE
  8
0
  6
CONTINUOUS
 62
     7
 10
-194.9368
 20
-188.179
 11
-168.9368
 21
-188.179
  0
LINE
  8
0
  6
CONTINUOUS
 62
     7
 10
-194.9368
 20
-170.179
 11
-168.9368
 21
-170.179
  0
LINE
  8
0
  6
CONTINUOUS
 62
     7
 10
-168.4368
 20
-170.679
 11
-168.4368
 21
-187.679
  0
LINE
  8
0
  6
CONTINUOUS
 62
     7
 10
-195.4368
 20
-170.679
 11
-195.4368
 21
-187.679
  0
LINE
  8
0
  6
CENTER
 62
     2
 10
-175.5746
 20
-173.179
 11
-167.2668
 21
-173.179
  0
LINE
  8
0
  6
CENTER
 62
     2
 10
-196.6157
 20
-185.179
 11
-188.2688
 21
-185.179
  0
LINE
  8
0
  6
CENTER
 62
     2
 10
-192.4368
 20
-181.1467
 11
-192.4368
 21
-189.0888
  0
LINE
  8
0
  6
CENTER
 62
     2
 10
-171.4368
 20
-169.3219
 11
-171.4368
 21
-177.0463
  0
LINE
  8
0
  6
CONTINUOUS
 62
     7
 10
-189.2367
 20
-185.179
 11
-189.2367
 21
-187.679
  0
LINE
  8
0
  6
CONTINUOUS
 62
     7
 10
-194.9368
 20
-181.979
 11
-192.4368
 21
-181.979
  0
LINE
  8
0
  6
CONTINUOUS
 62
     7
 10
-171.4368
 20
-176.379
 11
-168.9368
 21
-176.379
  0
LINE
  8
0
  6
CONTINUOUS
 62
     7
 10
-174.6368
 20
-170.679
 11
-174.6368
 21
-173.179
  0
LINE
  8
0
  6
CONTINUOUS
 62
     7
 10
-193.7095
 20
-184.3306
 11
-193.2852
 21
-183.9063
  0
LINE
  8
0
  6
CONTINUOUS
 62
     7
 10
-191.5882
 20
-186.4519
 11
-191.164
 21
-186.0276
  0
LINE
  8
0
  6
CONTINUOUS
 62
     7
 10
-193.7095
 20
-186.0276
 11
-193.2852
 21
-185.6034
  0
LINE
  8
0
  6
CONTINUOUS
 62
     7
 10
-193.2852
 20
-186.4519
 11
-192.861
 21
-186.0277
  0
LINE
  8
0
  6
CONTINUOUS
 62
     7
 10
-193.7096
 20
-186.0276
 11
-193.2853
 21
-186.4518
  0
LINE
  8
0
  6
CONTINUOUS
 62
     7
 10
-191.5882
 20
-183.9062
 11
-191.164
 21
-184.3305
  0
LINE
  8
0
  6
CONTINUOUS
 62
     7
 10
-193.7095
 20
-184.3305
 11
-193.2853
 21
-184.7548
  0
LINE
  8
0
  6
CONTINUOUS
 62
     7
 10
-193.2853
 20
-183.9063
 11
-192.861
 21
-184.3306
  0
LINE
  8
0
  6
CONTINUOUS
 62
     7
 10
-192.0124
 20
-184.3306
 11
-191.5882
 21
-183.9063
  0
LINE
  8
0
  6
CONTINUOUS
 62
     7
 10
-191.5882
 20
-184.7549
 11
-191.1639
 21
-184.3306
  0
LINE
  8
0
  6
CONTINUOUS
 62
     7
 10
-192.0125
 20
-186.0276
 11
-191.5882
 21
-186.4518
  0
LINE
  8
0
  6
CONTINUOUS
 62
     7
 10
-191.5882
 20
-185.6034
 11
-191.164
 21
-186.0276
  0
LINE
  8
0
  6
CONTINUOUS
 62
     7
 10
-172.7095
 20
-172.3306
 11
-172.2852
 21
-171.9063
  0
LINE
  8
0
  6
CONTINUOUS
 62
     7
 10
-170.5882
 20
-174.4519
 11
-170.1639
 21
-174.0277
  0
LINE
  8
0
  6
CONTINUOUS
 62
     7
 10
-172.7095
 20
-174.0276
 11
-172.2852
 21
-173.6034
  0
LINE
  8
0
  6
CONTINUOUS
 62
     7
 10
-172.2852
 20
-174.4519
 11
-171.8609
 21
-174.0277
  0
LINE
  8
0
  6
CONTINUOUS
 62
     7
 10
-159.9368
 20
-172.979
 11
-159.9368
 21
-185.379
  0
LINE
  8
0
  6
CONTINUOUS
 62
     7
 10
-168.4368
 20
-186.179
 11
-160.7367
 21
-186.179
  0
LINE
  8
0
  6
CONTINUOUS
 62
     7
 10
-168.4368
 20
-172.179
 11
-160.7367
 21
-172.179
  0
LINE
  8
0
  6
CONTINUOUS
 62
     7
 10
-149.4368
 20
-173.679
 11
-149.4368
 21
-184.679
  0
LINE
  8
0
  6
CONTINUOUS
 62
     7
 10
-159.9368
 20
-183.179
 11
-149.4368
 21
-183.179
  0
LINE
  8
0
  6
CONTINUOUS
 62
     7
 10
-159.9368
 20
-175.179
 11
-149.4368
 21
-175.179
  0
LINE
  8
0
  6
CONTINUOUS
 62
     7
 10
-159.9368
 20
-173.679
 11
-149.4368
 21
-173.679
  0
LINE
  8
0
  6
CONTINUOUS
 62
     7
 10
-159.9368
 20
-184.679
 11
-149.4368
 21
-184.679
  0
LINE
  8
0
  6
CENTER
 62
     2
 10
-152.4368
 20
-176.679
 11
-126.4368
 21
-176.679
  0
LINE
  8
0
  6
CENTER
 62
     2
 10
-152.4368
 20
-181.679
 11
-126.4368
 21
-181.679
  0
LINE
  8
0
  6
CONTINUOUS
 62
     7
 10
-139.4368
 20
-175.829
 11
-139.4368
 21
-177.529
  0
LINE
  8
0
  6
CONTINUOUS
 62
     7
 10
-129.4368
 20
-176.359
 11
-129.4368
 21
-176.999
  0
LINE
  8
0
  6
CONTINUOUS
 62
     7
 10
-139.4368
 20
-181.999
 11
-129.4368
 21
-181.999
  0
LINE
  8
0
  6
CONTINUOUS
 62
     7
 10
-139.4368
 20
-181.359
 11
-129.4368
 21
-181.359
  0
LINE
  8
0
  6
CONTINUOUS
 62
     7
 10
-139.4368
 20
-176.999
 11
-129.4368
 21
-176.999
  0
LINE
  8
0
  6
CONTINUOUS
 62
     7
 10
-139.4368
 20
-176.359
 11
-129.4368
 21
-176.359
  0
LINE
  8
0
  6
CONTINUOUS
 62
     7
 10
-149.4368
 20
-177.529
 11
-144.7711
 21
-177.529
  0
LINE
  8
0
  6
CONTINUOUS
 62
     7
 10
-149.4368
 20
-175.829
 11
-144.3156
 21
-175.829
  0
LINE
  8
0
  6
CONTINUOUS
 62
     7
 10
-149.4368
 20
-180.829
 11
-145.6553
 21
-180.829
  0
LINE
  8
0
  6
CONTINUOUS
 62
     7
 10
-149.4368
 20
-182.529
 11
-146.1108
 21
-182.529
  0
LINE
  8
0
  6
CONTINUOUS
 62
     7
 10
-139.4368
 20
-180.829
 11
-139.4368
 21
-182.529
  0
LINE
  8
0
  6
CONTINUOUS
 62
     7
 10
-129.4368
 20
-181.359
 11
-129.4368
 21
-181.999
  0
LINE
  8
0
  6
CONTINUOUS
 62
     7
 10
-150.9368
 20
-175.179
 11
-150.9368
 21
-183.179
  0
LINE
  8
0
  6
CONTINUOUS
 62
     7
 10
-157.4368
 20
-175.179
 11
-157.4368
 21
-183.179
  0
LINE
  8
0
  6
PHANTOM
 62
     2
 10
-145.0938
 20
-184.529
 11
-142.2268
 21
-173.829
  0
LINE
  8
0
  6
PHANTOM
 62
     2
 10
-146.6468
 20
-184.5291
 11
-143.7797
 21
-173.8291
  0
LINE
  8
0
  6
CONTINUOUS
 62
     7
 10
-142.7627
 20
-175.829
 11
-139.4368
 21
-175.829
  0
LINE
  8
0
  6
CONTINUOUS
 62
     7
 10
-143.2182
 20
-177.529
 11
-139.4368
 21
-177.529
  0
LINE
  8
0
  6
CONTINUOUS
 62
     7
 10
-144.1024
 20
-180.829
 11
-139.4368
 21
-180.829
  0
LINE
  8
0
  6
CONTINUOUS
 62
     7
 10
-144.5579
 20
-182.529
 11
-139.4368
 21
-182.529
  0
LINE
  8
0
  6
CENTER
 62
     2
 10
168.9372
 20
152.6735
 11
168.9372
 21
101.4671
  0
LINE
  8
0
  6
CENTER
 62
     2
 10
157.1872
 20
136.7773
 11
181.1646
 21
136.7773
  0
LINE
  8
0
  6
CONTINUOUS
 62
     7
 10
176.4372
 20
124.7773
 11
161.4372
 21
124.7773
  0
LINE
  8
0
  6
CONTINUOUS
 62
     7
 10
175.9372
 20
115.6773
 11
172.9372
 21
115.6773
  0
LINE
  8
0
  6
CONTINUOUS
 62
     7
 10
167.4372
 20
127.7773
 11
167.4372
 21
124.7773
  0
LINE
  8
0
  6
CONTINUOUS
 62
     7
 10
170.4372
 20
145.7773
 11
170.4372
 21
148.7773
  0
LINE
  8
0
  6
CONTINUOUS
 62
     7
 10
173.4372
 20
142.7773
 11
176.4372
 21
142.7773
  0
LINE
  8
0
  6
CONTINUOUS
 62
     7
 10
164.4372
 20
130.7773
 11
161.4372
 21
130.7773
  0
LINE
  8
0
  6
CONTINUOUS
 62
     7
 10
170.4372
 20
147.7773
 11
162.4372
 21
147.7773
  0
LINE
  8
0
  6
CONTINUOUS
 62
     7
 10
175.4372
 20
125.7773
 11
167.4372
 21
125.7773
  0
LINE
  8
0
  6
CONTINUOUS
 62
     7
 10
175.4372
 20
142.7773
 11
175.4372
 21
125.7773
  0
LINE
  8
0
  6
CONTINUOUS
 62
     7
 10
162.4372
 20
147.7773
 11
162.4372
 21
130.7773
  0
LINE
  8
0
  6
CONTINUOUS
 62
     7
 10
162.2073
 20
127.4773
 11
161.9049
 21
127.4773
  0
LINE
  8
0
  6
CONTINUOUS
 62
     7
 10
162.2073
 20
128.0773
 11
161.9049
 21
128.0773
  0
LINE
  8
0
  6
CONTINUOUS
 62
     7
 10
161.9291
 20
128.2381
 11
162.2349
 21
128.2381
  0
LINE
  8
0
  6
CONTINUOUS
 62
     7
 10
175.6671
 20
146.0773
 11
175.9695
 21
146.0773
  0
LINE
  8
0
  6
CONTINUOUS
 62
     7
 10
175.6671
 20
145.4773
 11
175.9695
 21
145.4773
  0
LINE
  8
0
  6
CONTINUOUS
 62
     7
 10
175.9452
 20
145.3165
 11
175.6395
 21
145.3165
  0
LINE
  8
0
  6
CONTINUOUS
 62
     7
 10
163.7018
 20
128.8804
 11
164.0695
 21
128.5127
  0
LINE
  8
0
  6
CONTINUOUS
 62
     7
 10
163.3341
 20
128.5128
 11
163.7018
 21
128.1451
  0
LINE
  8
0
  6
CONTINUOUS
 62
     7
 10
163.7018
 20
128.8804
 11
163.3341
 21
128.5127
  0
LINE
  8
0
  6
CONTINUOUS
 62
     7
 10
165.5403
 20
127.0419
 11
165.1726
 21
126.6742
  0
LINE
  8
0
  6
CONTINUOUS
 62
     7
 10
165.8336
 20
129.5415
 11
164.8049
 21
128.5127
  0
LINE
  8
0
  6
CONTINUOUS
 62
     7
 10
166.2013
 20
129.1738
 11
165.1725
 21
128.145
  0
LINE
  8
0
  6
CONTINUOUS
 62
     7
 10
165.1726
 20
127.4096
 11
165.5403
 21
127.0419
  0
LINE
  8
0
  6
CONTINUOUS
 62
     7
 10
164.8049
 20
127.042
 11
165.1726
 21
126.6743
  0
LINE
  8
0
  6
CONTINUOUS
 62
     7
 10
163.7018
 20
127.4096
 11
162.673
 21
126.3808
  0
LINE
  8
0
  6
CONTINUOUS
 62
     7
 10
164.0695
 20
127.0419
 11
163.0407
 21
126.0131
  0
LINE
  8
0
  6
CONTINUOUS
 62
     7
 10
172.7018
 20
146.8804
 11
173.0695
 21
146.5127
  0
LINE
  8
0
  6
CONTINUOUS
 62
     7
 10
172.3341
 20
146.5127
 11
172.7018
 21
146.145
  0
LINE
  8
0
  6
CONTINUOUS
 62
     7
 10
172.7018
 20
146.8804
 11
172.3341
 21
146.5127
  0
LINE
  8
0
  6
CONTINUOUS
 62
     7
 10
174.5402
 20
145.0419
 11
174.1725
 21
144.6742
  0
LINE
  8
0
  6
CONTINUOUS
 62
     7
 10
174.8336
 20
147.5415
 11
173.8049
 21
146.5127
  0
LINE
  8
0
  6
CONTINUOUS
 62
     7
 10
175.2013
 20
147.1738
 11
174.1725
 21
146.145
  0
LINE
  8
0
  6
CONTINUOUS
 62
     7
 10
174.1726
 20
145.4096
 11
174.5403
 21
145.0419
  0
LINE
  8
0
  6
CONTINUOUS
 62
     7
 10
173.8049
 20
145.042
 11
174.1726
 21
144.6742
  0
LINE
  8
0
  6
CONTINUOUS
 62
     7
 10
172.7018
 20
145.4096
 11
171.673
 21
144.3808
  0
LINE
  8
0
  6
CONTINUOUS
 62
     7
 10
173.0695
 20
145.0419
 11
172.0407
 21
144.0132
  0
LINE
  8
0
  6
CONTINUOUS
 62
     7
 10
172.9372
 20
106.2773
 11
164.9372
 21
106.2773
  0
LINE
  8
0
  6
CONTINUOUS
 62
     7
 10
172.9372
 20
111.9486
 11
164.9372
 21
111.9486
  0
LINE
  8
0
  6
CONTINUOUS
 62
     7
 10
172.9372
 20
123.2773
 11
164.9372
 21
123.2773
  0
LINE
  8
0
  6
CONTINUOUS
 62
     7
 10
164.7372
 20
124.7773
 11
164.7372
 21
121.2773
  0
LINE
  8
0
  6
CONTINUOUS
 62
     7
 10
173.1372
 20
124.7773
 11
173.1372
 21
121.2773
  0
LINE
  8
0
  6
CONTINUOUS
 62
     7
 10
173.1372
 20
121.2773
 11
172.9372
 21
121.2773
  0
LINE
  8
0
  6
CONTINUOUS
 62
     7
 10
173.1372
 20
120.2773
 11
172.9372
 21
120.2773
  0
LINE
  8
0
  6
CONTINUOUS
 62
     7
 10
164.7372
 20
120.2773
 11
164.7372
 21
115.6773
  0
LINE
  8
0
  6
CONTINUOUS
 62
     7
 10
173.1372
 20
120.2773
 11
173.1372
 21
115.6773
  0
LINE
  8
0
  6
CONTINUOUS
 62
     7
 10
164.9372
 20
115.6773
 11
161.9372
 21
115.6773
  0
LINE
  8
0
  6
CONTINUOUS
 62
     7
 10
164.9372
 20
120.2773
 11
164.7372
 21
120.2773
  0
LINE
  8
0
  6
CONTINUOUS
 62
     7
 10
164.9372
 20
121.2773
 11
164.7372
 21
121.2773
  0
LINE
  8
0
  6
CENTER
 62
     2
 10
168.4372
 20
127.7773
 11
160.4372
 21
127.7773
  0
LINE
  8
0
  6
CENTER
 62
     2
 10
177.4372
 20
145.7773
 11
169.4372
 21
145.7773
  0
LINE
  8
0
  6
CENTER
 62
     2
 10
173.4372
 20
149.7773
 11
173.4372
 21
141.7773
  0
LINE
  8
0
  6
CENTER
 62
     2
 10
164.4372
 20
131.7773
 11
164.4372
 21
123.7773
  0
LINE
  8
0
  6
CONTINUOUS
 62
     7
 10
176.4372
 20
148.2773
 11
176.4372
 21
124.7773
  0
LINE
  8
0
  6
CONTINUOUS
 62
     7
 10
175.9372
 20
148.7773
 11
161.9372
 21
148.7773
  0
LINE
  8
0
  6
CONTINUOUS
 62
     7
 10
161.4372
 20
148.2773
 11
161.4372
 21
124.7773
  0
LINE
  8
0
  6
CONTINUOUS
 62
     7
 10
175.9372
 20
124.7773
 11
175.9372
 21
115.5773
  0
LINE
  8
0
  6
CONTINUOUS
 62
     7
 10
175.1372
 20
114.7773
 11
174.4372
 21
114.7773
  0
LINE
  8
0
  6
CONTINUOUS
 62
     7
 10
163.4372
 20
114.7773
 11
162.7372
 21
114.7773
  0
LINE
  8
0
  6
CONTINUOUS
 62
     7
 10
161.9372
 20
124.7773
 11
161.9372
 21
115.5773
  0
LINE
  8
0
  6
CONTINUOUS
 62
     7
 10
163.4372
 20
115.6773
 11
163.4372
 21
104.2773
  0
LINE
  8
0
  6
CONTINUOUS
 62
     7
 10
174.4372
 20
104.2773
 11
163.4372
 21
104.2773
  0
LINE
  8
0
  6
CONTINUOUS
 62
     7
 10
174.4372
 20
115.6773
 11
174.4372
 21
104.2773
  0
LINE
  8
0
  6
CONTINUOUS
 62
     7
 10
172.9372
 20
123.2773
 11
172.9372
 21
104.2773
  0
LINE
  8
0
  6
CONTINUOUS
 62
     7
 10
164.9372
 20
123.2773
 11
164.9372
 21
104.2773
  0
LINE
  8
0
  6
CONTINUOUS
 62
     7
 10
172.2872
 20
104.2773
 11
172.2872
 21
99.15611
  0
LINE
  8
0
  6
CONTINUOUS
 62
     7
 10
170.5872
 20
104.2773
 11
170.5872
 21
99.61165
  0
LINE
  8
0
  6
CENTER
 62
     2
 10
171.4372
 20
107.2773
 11
171.4372
 21
81.2773
  0
LINE
  8
0
  6
CONTINUOUS
 62
     7
 10
171.7572
 20
94.2773
 11
171.7572
 21
84.2773
  0
LINE
  8
0
  6
CONTINUOUS
 62
     7
 10
172.2872
 20
94.2773
 11
170.5872
 21
94.2773
  0
LINE
  8
0
  6
CONTINUOUS
 62
     7
 10
171.7572
 20
84.2773
 11
171.1172
 21
84.2773
  0
LINE
  8
0
  6
CONTINUOUS
 62
     7
 10
171.1172
 20
94.2773
 11
171.1172
 21
84.2773
  0
LINE
  8
0
  6
CONTINUOUS
 62
     7
 10
166.7572
 20
94.2773
 11
166.7572
 21
84.2773
  0
LINE
  8
0
  6
CONTINUOUS
 62
     7
 10
166.7572
 20
84.2773
 11
166.1172
 21
84.2773
  0
LINE
  8
0
  6
CONTINUOUS
 62
     7
 10
166.1172
 20
94.2773
 11
166.1172
 21
84.2773
  0
LINE
  8
0
  6
CENTER
 62
     2
 10
166.4372
 20
107.2773
 11
166.4372
 21
81.2773
  0
LINE
  8
0
  6
CONTINUOUS
 62
     7
 10
167.2872
 20
104.2773
 11
167.2872
 21
100.4959
  0
LINE
  8
0
  6
CONTINUOUS
 62
     7
 10
167.2872
 20
94.2773
 11
165.5872
 21
94.2773
  0
LINE
  8
0
  6
CONTINUOUS
 62
     7
 10
165.5872
 20
104.2773
 11
165.5872
 21
100.9514
  0
LINE
  8
0
  6
PHANTOM
 62
     2
 10
163.5872
 20
101.4873
 11
174.2872
 21
98.62023
  0
LINE
  8
0
  6
PHANTOM
 62
     2
 10
163.5872
 20
99.93439
 11
174.2872
 21
97.06733
  0
LINE
  8
0
  6
CONTINUOUS
 62
     7
 10
172.2872
 20
97.6032
 11
172.2872
 21
94.2773
  0
LINE
  8
0
  6
CONTINUOUS
 62
     7
 10
170.5872
 20
98.05873
 11
170.5872
 21
94.2773
  0
LINE
  8
0
  6
CONTINUOUS
 62
     7
 10
167.2872
 20
98.94295
 11
167.2872
 21
94.2773
  0
LINE
  8
0
  6
CONTINUOUS
 62
     7
 10
165.5872
 20
99.39848
 11
165.5872
 21
94.2773
  0
LINE
  8
0
  6
CONTINUOUS
 62
     7
 10
161.9372
 20
124.2773
 11
160.9372
 21
124.2773
  0
LINE
  8
0
  6
CONTINUOUS
 62
     7
 10
175.9372
 20
123.2773
 11
177.4372
 21
123.2773
  0
LINE
  8
0
  6
CONTINUOUS
 62
     7
 10
177.9372
 20
149.7773
 11
177.9372
 21
123.7773
  0
LINE
  8
0
  6
CONTINUOUS
 62
     7
 10
159.9372
 20
149.7773
 11
159.9372
 21
123.7773
  0
LINE
  8
0
  6
CONTINUOUS
 62
     7
 10
160.4372
 20
123.2773
 11
161.9372
 21
123.2773
  0
LINE
  8
0
  6
CONTINUOUS
 62
     7
 10
160.4372
 20
150.2773
 11
177.4372
 21
150.2773
  0
LINE
  8
0
  6
CONTINUOUS
 62
     7
 10
176.9372
 20
149.2773
 11
176.9372
 21
124.2773
  0
LINE
  8
0
  6
CONTINUOUS
 62
     7
 10
160.9372
 20
149.2773
 11
160.9372
 21
124.2773
  0
LINE
  8
0
  6
CONTINUOUS
 62
     7
 10
176.9372
 20
149.2773
 11
160.9372
 21
149.2773
  0
LINE
  8
0
  6
CONTINUOUS
 62
     7
 10
176.9372
 20
124.2773
 11
175.9372
 21
124.2773
  0
LINE
  8
0
  6
CONTINUOUS
 62
     7
 10
160.9372
 20
124.2772
 11
160.0837
 21
123.4237
  0
LINE
  8
0
  6
CONTINUOUS
 62
     7
 10
160.9372
 20
149.2773
 11
160.0836
 21
150.1308
  0
LINE
  8
0
  6
CONTINUOUS
 62
     7
 10
176.9371
 20
124.2773
 11
177.7907
 21
123.4237
  0
LINE
  8
0
  6
CONTINUOUS
 62
     7
 10
176.9372
 20
149.2773
 11
177.7907
 21
150.1309
  0
LINE
  8
0
  6
CENTER
 62
     2
 10
168.9368
 20
57.49974
 11
168.9368
 21
-47.61665
  0
LINE
  8
0
  6
CONTINUOUS
 62
     7
 10
177.9368
 20
24.80002
 11
177.9368
 21
-42.29997
  0
LINE
  8
0
  6
CONTINUOUS
 62
     7
 10
159.9368
 20
24.80002
 11
159.9368
 21
-42.29997
  0
LINE
  8
0
  6
CONTINUOUS
 62
     7
 10
159.9368
 20
7.60002
 11
177.9368
 21
7.60002
  0
LINE
  8
0
  6
CONTINUOUS
 62
     7
 10
159.9368
 20
-34.39998
 11
177.9368
 21
-34.39998
  0
LINE
  8
0
  6
CONTINUOUS
 62
     7
 10
160.4368
 20
-42.79997
 11
177.4368
 21
-42.79997
  0
LINE
  8
0
  6
CONTINUOUS
 62
     7
 10
160.9368
 20
25.80001
 11
159.9368
 21
24.80001
  0
LINE
  8
0
  6
CONTINUOUS
 62
     7
 10
176.9368
 20
25.8
 11
177.9368
 21
24.79999
  0
LINE
  8
0
  6
CENTER
 62
     2
 10
175.4368
 20
6.19131
 11
175.4368
 21
-2.81665
  0
LINE
  8
0
  6
CENTER
 62
     2
 10
162.4368
 20
-24.28723
 11
162.4368
 21
-32.69186
  0
LINE
  8
0
  6
CENTER
 62
     2
 10
159.5246
 20
-28.39998
 11
166.5951
 21
-28.39998
  0
LINE
  8
0
  6
CENTER
 62
     2
 10
171.0902
 20
1.60002
 11
178.5211
 21
1.60002
  0
LINE
  8
0
  6
CENTER
 62
     2
 10
166.0151
 20
22.30002
 11
171.8465
 21
22.30002
  0
LINE
  8
0
  6
CONTINUOUS
 62
     7
 10
160.9368
 20
25.80002
 11
176.9368
 21
25.80002
  0
LINE
  8
0
  6
CENTER
 62
     2
 10
162.9368
 20
-38.30573
 11
162.9368
 21
-44.25529
  0
LINE
  8
0
  6
CONTINUOUS
 62
     7
 10
166.1368
 20
-39.89998
 11
166.1368
 21
-42.29997
  0
LINE
  8
0
  6
CONTINUOUS
 62
     7
 10
160.4368
 20
-39.39998
 11
165.6368
 21
-39.39998
  0
LINE
  8
0
  6
CONTINUOUS
 62
     7
 10
160.1368
 20
-40.57181
 11
160.1368
 21
-39.39998
  0
LINE
  8
0
  6
CONTINUOUS
 62
     7
 10
165.7368
 20
-40.57181
 11
165.7368
 21
-39.39998
  0
LINE
  8
0
  6
CONTINUOUS
 62
     7
 10
159.9368
 20
24.80002
 11
177.9368
 21
24.80002
  0
LINE
  8
0
  6
CONTINUOUS
 62
     7
 10
161.4368
 20
52.00002
 11
161.4368
 21
25.80002
  0
LINE
  8
0
  6
CONTINUOUS
 62
     7
 10
176.4368
 20
52.00002
 11
176.4368
 21
25.80002
  0
LINE
  8
0
  6
CONTINUOUS
 62
     7
 10
161.4368
 20
51.00002
 11
161.9368
 21
51.00002
  0
LINE
  8
0
  6
CONTINUOUS
 62
     7
 10
175.9368
 20
52.80003
 11
175.9368
 21
46.80003
  0
LINE
  8
0
  6
CONTINUOUS
 62
     7
 10
161.9368
 20
52.80003
 11
161.9368
 21
46.80003
  0
LINE
  8
0
  6
CONTINUOUS
 62
     7
 10
161.9368
 20
52.80003
 11
175.9368
 21
52.80003
  0
LINE
  8
0
  6
CONTINUOUS
 62
     7
 10
161.9368
 20
46.80003
 11
175.9368
 21
46.80003
  0
LINE
  8
0
  6
CONTINUOUS
 62
     7
 10
175.9368
 20
51.00002
 11
176.4368
 21
51.00002
  0
LINE
  8
0
  6
CONTINUOUS
 62
     7
 10
161.9368
 20
46.00002
 11
161.9368
 21
26.60002
  0
LINE
  8
0
  6
CONTINUOUS
 62
     7
 10
175.9368
 20
46.00002
 11
175.9368
 21
26.60002
  0
LINE
  8
0
  6
CONTINUOUS
 62
     7
 10
163.4368
 20
27.30002
 11
174.4368
 21
27.30002
  0
LINE
  8
0
  6
CONTINUOUS
 62
     7
 10
163.4368
 20
35.80003
 11
174.4368
 21
35.80003
  0
LINE
  8
0
  6
CONTINUOUS
 62
     7
 10
163.4368
 20
35.80003
 11
163.4368
 21
27.30002
  0
LINE
  8
0
  6
CONTINUOUS
 62
     7
 10
174.4368
 20
35.80003
 11
174.4368
 21
27.30002
  0
LINE
  8
0
  6
CONTINUOUS
 62
     7
 10
166.9368
 20
39.30003
 11
170.9368
 21
39.30003
  0
LINE
  8
0
  6
CONTINUOUS
 62
     7
 10
166.9368
 20
37.30003
 11
170.9368
 21
37.30003
  0
LINE
  8
0
  6
CONTINUOUS
 62
     7
 10
166.9368
 20
39.30003
 11
166.9368
 21
37.30003
  0
LINE
  8
0
  6
CONTINUOUS
 62
     7
 10
170.9368
 20
39.30003
 11
170.9368
 21
37.30003
  0
LINE
  8
0
  6
CONTINUOUS
 62
     7
 10
166.4368
 20
39.80003
 11
171.4368
 21
39.80003
  0
LINE
  8
0
  6
CONTINUOUS
 62
     7
 10
166.4368
 20
39.80003
 11
166.4368
 21
36.80003
  0
LINE
  8
0
  6
CONTINUOUS
 62
     7
 10
166.4368
 20
36.80003
 11
171.4368
 21
36.80003
  0
LINE
  8
0
  6
CONTINUOUS
 62
     7
 10
171.4368
 20
39.80003
 11
171.4368
 21
36.80003
  0
LINE
  8
0
  6
CONTINUOUS
 62
     7
 10
166.9368
 20
39.29999
 11
166.4368
 21
39.8
  0
LINE
  8
0
  6
CONTINUOUS
 62
     7
 10
170.9368
 20
39.30001
 11
171.4368
 21
39.80001
  0
LINE
  8
0
  6
CONTINUOUS
 62
     7
 10
170.9367
 20
37.30001
 11
171.4368
 21
36.8
  0
LINE
  8
0
  6
CONTINUOUS
 62
     7
 10
166.9368
 20
37.30002
 11
166.4368
 21
36.80002
  0
LINE
  8
0
  6
CONTINUOUS
 62
     7
 10
162.4368
 20
54.00002
 11
162.611
 21
54.00002
  0
LINE
  8
0
  6
CONTINUOUS
 62
     7
 10
161.4368
 20
52.00002
 11
161.9368
 21
52.00002
  0
LINE
  8
0
  6
CONTINUOUS
 62
     7
 10
161.4368
 20
52.00004
 11
162.4368
 21
54.00004
  0
LINE
  8
0
  6
CONTINUOUS
 62
     7
 10
176.4368
 20
52.00001
 11
175.4368
 21
54.00001
  0
LINE
  8
0
  6
CENTER
 62
     2
 10
164.4368
 20
57.00002
 11
164.4368
 21
48.00002
  0
LINE
  8
0
  6
CONTINUOUS
 62
     7
 10
161.9368
 20
52.60002
 11
161.8868
 21
52.60002
  0
LINE
  8
0
  6
CONTINUOUS
 62
     7
 10
161.8868
 20
52.60002
 11
161.8868
 21
52.00002
  0
LINE
  8
0
  6
CONTINUOUS
 62
     7
 10
175.9368
 20
52.00002
 11
176.4368
 21
52.00002
  0
LINE
  8
0
  6
CONTINUOUS
 62
     7
 10
162.1868
 20
53.29378
 11
162.1868
 21
52.80003
  0
LINE
  8
0
  6
CONTINUOUS
 62
     7
 10
163.2368
 20
49.20003
 11
164.9368
 21
49.20003
  0
LINE
  8
0
  6
CONTINUOUS
 62
     7
 10
163.2368
 20
51.20003
 11
164.7368
 21
51.20003
  0
LINE
  8
0
  6
CONTINUOUS
 62
     7
 10
173.1368
 20
52.80003
 11
173.1368
 21
51.20003
  0
LINE
  8
0
  6
CONTINUOUS
 62
     7
 10
164.7368
 20
52.80003
 11
164.7368
 21
51.20003
  0
LINE
  8
0
  6
CONTINUOUS
 62
     7
 10
174.6368
 20
51.20003
 11
174.6368
 21
49.20003
  0
LINE
  8
0
  6
CONTINUOUS
 62
     7
 10
163.2368
 20
51.20003
 11
163.2368
 21
49.20003
  0
LINE
  8
0
  6
CONTINUOUS
 62
     7
 10
164.7368
 20
49.20003
 11
164.7368
 21
46.80003
  0
LINE
  8
0
  6
CONTINUOUS
 62
     7
 10
173.1368
 20
49.20003
 11
173.1368
 21
46.80003
  0
LINE
  8
0
  6
CONTINUOUS
 62
     7
 10
173.1368
 20
51.20003
 11
174.6368
 21
51.20003
  0
LINE
  8
0
  6
CONTINUOUS
 62
     7
 10
172.9368
 20
49.20003
 11
174.6368
 21
49.20003
  0
LINE
  8
0
  6
CENTER
 62
     2
 10
173.4368
 20
57.00002
 11
173.4368
 21
48.00002
  0
LINE
  8
0
  6
CONTINUOUS
 62
     7
 10
163.4368
 20
51.00002
 11
164.9368
 21
51.00002
  0
LINE
  8
0
  6
CONTINUOUS
 62
     7
 10
164.9368
 20
53.80003
 11
172.9368
 21
53.80003
  0
LINE
  8
0
  6
CONTINUOUS
 62
     7
 10
163.4368
 20
51.00002
 11
163.4368
 21
49.20003
  0
LINE
  8
0
  6
CONTINUOUS
 62
     7
 10
174.4368
 20
51.00002
 11
174.4368
 21
49.20003
  0
LINE
  8
0
  6
CONTINUOUS
 62
     7
 10
164.9368
 20
51.79998
 11
165.2368
 21
52.09999
  0
LINE
  8
0
  6
CONTINUOUS
 62
     7
 10
172.9367
 20
51.79993
 11
172.6367
 21
52.09993
  0
LINE
  8
0
  6
CONTINUOUS
 62
     7
 10
164.9368
 20
49.20003
 11
164.9368
 21
46.80003
  0
LINE
  8
0
  6
CONTINUOUS
 62
     7
 10
172.9368
 20
49.20003
 11
172.9368
 21
46.80003
  0
LINE
  8
0
  6
CONTINUOUS
 62
     7
 10
172.9368
 20
51.00002
 11
174.4368
 21
51.00002
  0
LINE
  8
0
  6
CENTER
 62
     2
 10
164.9868
 20
50.30003
 11
172.8868
 21
50.30003
  0
LINE
  8
0
  6
CENTER
 62
     2
 10
166.4368
 20
51.65001
 11
166.4368
 21
48.85002
  0
LINE
  8
0
  6
CENTER
 62
     2
 10
171.4368
 20
51.65001
 11
171.4368
 21
48.85002
  0
LINE
  8
0
  6
CONTINUOUS
 62
     7
 10
165.4868
 20
51.25002
 11
167.3868
 21
51.25002
  0
LINE
  8
0
  6
CONTINUOUS
 62
     7
 10
165.4868
 20
49.35002
 11
167.3868
 21
49.35002
  0
LINE
  8
0
  6
CONTINUOUS
 62
     7
 10
165.4868
 20
51.45003
 11
165.4868
 21
49.35002
  0
LINE
  8
0
  6
CONTINUOUS
 62
     7
 10
167.3868
 20
51.45003
 11
167.3868
 21
49.35002
  0
LINE
  8
0
  6
CONTINUOUS
 62
     7
 10
167.9868
 20
51.45003
 11
167.9868
 21
49.35002
  0
LINE
  8
0
  6
CONTINUOUS
 62
     7
 10
169.8868
 20
51.45003
 11
169.8868
 21
49.35002
  0
LINE
  8
0
  6
CONTINUOUS
 62
     7
 10
172.3868
 20
51.45003
 11
172.3868
 21
49.35002
  0
LINE
  8
0
  6
CONTINUOUS
 62
     7
 10
170.4868
 20
51.45003
 11
170.4868
 21
49.35002
  0
LINE
  8
0
  6
CONTINUOUS
 62
     7
 10
167.9868
 20
51.25002
 11
169.8868
 21
51.25002
  0
LINE
  8
0
  6
CONTINUOUS
 62
     7
 10
167.9868
 20
49.35002
 11
169.8868
 21
49.35002
  0
LINE
  8
0
  6
CONTINUOUS
 62
     7
 10
170.4868
 20
49.35002
 11
172.3868
 21
49.35002
  0
LINE
  8
0
  6
CONTINUOUS
 62
     7
 10
170.4868
 20
51.25002
 11
172.3868
 21
51.25002
  0
LINE
  8
0
  6
CONTINUOUS
 62
     7
 10
164.7368
 20
51.80003
 11
173.1368
 21
51.80003
  0
LINE
  8
0
  6
CONTINUOUS
 62
     7
 10
165.2368
 20
52.10002
 11
172.6368
 21
52.10002
  0
LINE
  8
0
  6
CONTINUOUS
 62
     7
 10
164.9368
 20
54.80003
 11
172.9368
 21
54.80003
  0
LINE
  8
0
  6
CONTINUOUS
 62
     7
 10
172.9368
 20
54.80003
 11
172.9368
 21
51.00002
  0
LINE
  8
0
  6
CONTINUOUS
 62
     7
 10
164.9368
 20
54.80003
 11
164.9368
 21
51.00002
  0
LINE
  8
0
  6
CONTINUOUS
 62
     7
 10
165.4868
 20
51.45003
 11
167.3868
 21
51.45003
  0
LINE
  8
0
  6
CONTINUOUS
 62
     7
 10
167.9868
 20
51.45003
 11
169.8868
 21
51.45003
  0
LINE
  8
0
  6
CONTINUOUS
 62
     7
 10
170.4868
 20
51.45003
 11
172.3868
 21
51.45003
  0
LINE
  8
0
  6
CONTINUOUS
 62
     7
 10
165.9368
 20
49.05003
 11
166.9368
 21
49.05003
  0
LINE
  8
0
  6
CONTINUOUS
 62
     7
 10
168.4368
 20
49.05003
 11
169.4368
 21
49.05003
  0
LINE
  8
0
  6
CONTINUOUS
 62
     7
 10
170.9368
 20
49.05003
 11
171.9368
 21
49.05003
  0
LINE
  8
0
  6
CONTINUOUS
 62
     7
 10
165.9368
 20
49.35002
 11
165.9368
 21
49.05003
  0
LINE
  8
0
  6
CONTINUOUS
 62
     7
 10
166.9368
 20
49.35002
 11
166.9368
 21
49.05003
  0
LINE
  8
0
  6
CONTINUOUS
 62
     7
 10
168.4368
 20
49.35002
 11
168.4368
 21
49.05003
  0
LINE
  8
0
  6
CONTINUOUS
 62
     7
 10
169.4368
 20
49.35002
 11
169.4368
 21
49.05003
  0
LINE
  8
0
  6
CONTINUOUS
 62
     7
 10
171.9368
 20
49.35002
 11
171.9368
 21
49.05003
  0
LINE
  8
0
  6
CONTINUOUS
 62
     7
 10
170.9368
 20
49.35002
 11
170.9368
 21
49.05003
  0
LINE
  8
0
  6
CONTINUOUS
 62
     7
 10
165.9368
 20
47.92503
 11
166.9368
 21
47.92503
  0
LINE
  8
0
  6
CONTINUOUS
 62
     7
 10
166.4368
 20
48.42503
 11
166.4368
 21
47.42503
  0
LINE
  8
0
  6
CONTINUOUS
 62
     7
 10
170.9368
 20
47.92503
 11
171.9368
 21
47.92503
  0
LINE
  8
0
  6
CONTINUOUS
 62
     7
 10
175.4368
 20
54.00002
 11
172.9368
 21
54.00002
  0
LINE
  8
0
  6
CENTER
 62
     2
 10
164.9368
 20
38.30003
 11
172.9368
 21
38.30003
  0
LINE
  8
0
  6
CONTINUOUS
 62
     7
 10
63.01199
 20
-40.57159
 11
63.01199
 21
-39.39977
  0
LINE
  8
0
  6
CONTINUOUS
 62
     7
 10
68.612
 20
-40.57159
 11
68.612
 21
-39.39977
  0
LINE
  8
0
  6
CONTINUOUS
 62
     7
 10
41.812
 20
24.80023
 11
68.812
 21
24.80023
  0
LINE
  8
0
  6
CENTER
 62
     2
 10
55.312
 20
57.35023
 11
55.312
 21
-46.14977
  0
LINE
  8
0
  6
CONTINUOUS
 62
     7
 10
68.812
 20
24.80023
 11
68.812
 21
-42.29976
  0
LINE
  8
0
  6
CONTINUOUS
 62
     7
 10
42.312
 20
-42.79976
 11
68.312
 21
-42.79976
  0
LINE
  8
0
  6
CONTINUOUS
 62
     7
 10
42.81206
 20
25.80014
 11
41.81206
 21
24.80014
  0
LINE
  8
0
  6
CONTINUOUS
 62
     7
 10
67.81197
 20
25.80025
 11
68.81197
 21
24.80025
  0
LINE
  8
0
  6
CONTINUOUS
 62
     7
 10
65.812
 20
-26.74146
 11
68.812
 21
-26.74146
  0
LINE
  8
0
  6
CONTINUOUS
 62
     7
 10
65.812
 20
-30.05809
 11
68.812
 21
-30.05809
  0
LINE
  8
0
  6
CONTINUOUS
 62
     7
 10
65.812
 20
-26.74146
 11
65.812
 21
-30.05809
  0
LINE
  8
0
  6
CONTINUOUS
 62
     7
 10
42.81201
 20
25.80023
 11
76.51199
 21
25.80023
  0
LINE
  8
0
  6
CENTER
 62
     2
 10
65.812
 20
-38.52448
 11
65.812
 21
-43.97198
  0
LINE
  8
0
  6
CONTINUOUS
 62
     7
 10
63.112
 20
-39.39977
 11
68.312
 21
-39.39977
  0
LINE
  8
0
  6
CONTINUOUS
 62
     7
 10
62.612
 20
-39.89977
 11
62.612
 21
-42.29976
  0
LINE
  8
0
  6
CONTINUOUS
 62
     7
 10
41.81204
 20
-34.39977
 11
68.812
 21
-34.39977
  0
LINE
  8
0
  6
CONTINUOUS
 62
     7
 10
41.81204
 20
7.60023
 11
68.812
 21
7.60023
  0
LINE
  8
0
  6
CONTINUOUS
 62
     7
 10
41.81204
 20
24.80023
 11
41.81204
 21
-42.29976
  0
LINE
  8
0
  6
CONTINUOUS
 62
     7
 10
43.312
 20
51.00023
 11
67.312
 21
51.00023
  0
LINE
  8
0
  6
CONTINUOUS
 62
     7
 10
43.312
 20
52.00023
 11
43.312
 21
25.80023
  0
LINE
  8
0
  6
CONTINUOUS
 62
     7
 10
67.312
 20
52.80022
 11
67.312
 21
25.80023
  0
LINE
  8
0
  6
CONTINUOUS
 62
     7
 10
77.312
 20
46.00023
 11
77.312
 21
26.60023
  0
LINE
  8
0
  6
CONTINUOUS
 62
     7
 10
67.312
 20
52.80022
 11
78.312
 21
52.80022
  0
LINE
  8
0
  6
CONTINUOUS
 62
     7
 10
76.41199
 20
52.80022
 11
76.41199
 21
46.80022
  0
LINE
  8
0
  6
CONTINUOUS
 62
     7
 10
67.312
 20
46.80022
 11
79.812
 21
46.80022
  0
LINE
  8
0
  6
CONTINUOUS
 62
     7
 10
44.312
 20
54.00023
 11
62.48622
 21
54.00023
  0
LINE
  8
0
  6
CONTINUOUS
 62
     7
 10
43.312
 20
52.00023
 11
67.312
 21
52.00023
  0
LINE
  8
0
  6
CONTINUOUS
 62
     7
 10
43.31202
 20
52.00024
 11
44.31202
 21
54.00022
  0
LINE
  8
0
  6
CONTINUOUS
 62
     7
 10
67.31199
 20
52.00023
 11
66.312
 21
54.00021
  0
LINE
  8
0
  6
CONTINUOUS
 62
     7
 10
61.312
 20
54.00023
 11
61.312
 21
52.00023
  0
LINE
  8
0
  6
CENTER
 62
     2
 10
64.312
 20
57.00023
 11
64.312
 21
48.00023
  0
LINE
  8
0
  6
CONTINUOUS
 62
     7
 10
66.862
 20
52.60023
 11
61.76199
 21
52.60023
  0
LINE
  8
0
  6
CONTINUOUS
 62
     7
 10
64.01199
 20
52.00022
 11
63.85122
 21
52.60021
  0
LINE
  8
0
  6
CONTINUOUS
 62
     7
 10
64.61198
 20
52.60019
 11
64.77275
 21
52.0002
  0
LINE
  8
0
  6
CONTINUOUS
 62
     7
 10
66.862
 20
52.60023
 11
66.862
 21
52.00023
  0
LINE
  8
0
  6
CONTINUOUS
 62
     7
 10
61.76199
 20
52.60023
 11
61.76199
 21
52.00023
  0
LINE
  8
0
  6
CONTINUOUS
 62
     7
 10
66.56201
 20
53.29399
 11
66.56201
 21
52.60023
  0
LINE
  8
0
  6
CONTINUOUS
 62
     7
 10
62.06201
 20
53.29396
 11
62.06201
 21
52.60023
  0
LINE
  8
0
  6
CONTINUOUS
 62
     7
 10
66.13777
 20
54.00023
 11
66.312
 21
54.00023
  0
LINE
  8
0
  6
CENTER
 62
     2
 10
46.312
 20
57.00023
 11
46.312
 21
48.00023
  0
LINE
  8
0
  6
CONTINUOUS
 62
     7
 10
87.812
 20
54.80022
 11
87.812
 21
53.80022
  0
LINE
  8
0
  6
CONTINUOUS
 62
     7
 10
86.312
 20
47.80022
 11
86.312
 21
46.80022
  0
LINE
  8
0
  6
CONTINUOUS
 62
     7
 10
68.812
 20
53.30022
 11
68.812
 21
52.80022
  0
LINE
  8
0
  6
CONTINUOUS
 62
     7
 10
87.812
 20
46.80022
 11
86.312
 21
46.80022
  0
LINE
  8
0
  6
CONTINUOUS
 62
     7
 10
86.312
 20
47.80022
 11
79.812
 21
47.80022
  0
LINE
  8
0
  6
CONTINUOUS
 62
     7
 10
87.812
 20
49.20024
 11
76.41199
 21
49.20024
  0
LINE
  8
0
  6
CONTINUOUS
 62
     7
 10
87.812
 20
51.00023
 11
76.41199
 21
51.00023
  0
LINE
  8
0
  6
CONTINUOUS
 62
     7
 10
69.312
 20
53.80022
 11
80.14072
 21
53.80022
  0
LINE
  8
0
  6
CONTINUOUS
 62
     7
 10
87.812
 20
54.80022
 11
85.812
 21
54.80022
  0
LINE
  8
0
  6
CONTINUOUS
 62
     7
 10
87.812
 20
53.80022
 11
86.312
 21
53.80022
  0
LINE
  8
0
  6
CONTINUOUS
 62
     7
 10
85.812
 20
54.80022
 11
80.14072
 21
53.80022
  0
LINE
  8
0
  6
CONTINUOUS
 62
     7
 10
86.31201
 20
53.80012
 11
80.64072
 21
52.80012
  0
LINE
  8
0
  6
CONTINUOUS
 62
     7
 10
76.41199
 20
51.80022
 11
78.312
 21
51.80022
  0
LINE
  8
0
  6
CONTINUOUS
 62
     7
 10
79.812
 20
47.80022
 11
79.812
 21
46.80022
  0
LINE
  8
0
  6
CONTINUOUS
 62
     7
 10
76.41199
 20
52.10023
 11
77.01199
 21
52.10023
  0
LINE
  8
0
  6
CONTINUOUS
 62
     7
 10
87.51196
 20
52.10022
 11
87.81195
 21
51.80022
  0
LINE
  8
0
  6
CONTINUOUS
 62
     7
 10
81.31201
 20
51.80017
 11
81.61201
 21
52.10018
  0
LINE
  8
0
  6
CONTINUOUS
 62
     7
 10
77.01201
 20
52.10025
 11
77.312
 21
51.80026
  0
LINE
  8
0
  6
CONTINUOUS
 62
     7
 10
81.612
 20
52.10023
 11
87.51199
 21
52.10023
  0
LINE
  8
0
  6
CONTINUOUS
 62
     7
 10
80.312
 20
52.80022
 11
80.64072
 21
52.80022
  0
LINE
  8
0
  6
CONTINUOUS
 62
     7
 10
80.312
 20
51.80022
 11
87.812
 21
51.80022
  0
LINE
  8
0
  6
CONTINUOUS
 62
     7
 10
87.812
 20
51.80022
 11
87.812
 21
46.80022
  0
LINE
  8
0
  6
CONTINUOUS
 62
     7
 10
77.612
 20
49.20024
 11
77.612
 21
47.70024
  0
LINE
  8
0
  6
CONTINUOUS
 62
     7
 10
77.612
 20
47.70024
 11
76.41199
 21
47.70024
  0
LINE
  8
0
  6
CENTER
 62
     2
 10
84.812
 20
50.30022
 11
110.812
 21
50.30022
  0
LINE
  8
0
  6
CONTINUOUS
 62
     7
 10
87.812
 20
49.45024
 11
91.80779
 21
49.45024
  0
LINE
  8
0
  6
CONTINUOUS
 62
     7
 10
87.812
 20
51.15022
 11
92.26329
 21
51.15022
  0
LINE
  8
0
  6
CONTINUOUS
 62
     7
 10
97.812
 20
50.62022
 11
107.812
 21
50.62022
  0
LINE
  8
0
  6
CONTINUOUS
 62
     7
 10
97.812
 20
49.98024
 11
107.812
 21
49.98024
  0
LINE
  8
0
  6
CONTINUOUS
 62
     7
 10
97.812
 20
51.15022
 11
97.812
 21
49.45024
  0
LINE
  8
0
  6
CONTINUOUS
 62
     7
 10
107.812
 20
50.62022
 11
107.812
 21
49.98024
  0
LINE
  8
0
  6
PHANTOM
 62
     2
 10
91.27187
 20
47.45022
 11
92.79918
 21
53.15024
  0
LINE
  8
0
  6
PHANTOM
 62
     2
 10
92.82481
 20
47.45024
 11
94.35212
 21
53.15025
  0
LINE
  8
0
  6
CONTINUOUS
 62
     7
 10
93.81621
 20
51.15022
 11
97.812
 21
51.15022
  0
LINE
  8
0
  6
CONTINUOUS
 62
     7
 10
93.36069
 20
49.45024
 11
97.812
 21
49.45024
  0
LINE
  8
0
  6
CENTER
 62
     2
 10
285.5612
 20
57.35014
 11
285.5612
 21
-46.14986
  0
LINE
  8
0
  6
CONTINUOUS
 62
     7
 10
272.0612
 20
24.80014
 11
272.0612
 21
-42.29985
  0
LINE
  8
0
  6
CONTINUOUS
 62
     7
 10
298.5612
 20
-42.79985
 11
272.5612
 21
-42.79985
  0
LINE
  8
0
  6
CONTINUOUS
 62
     7
 10
298.061
 20
25.80005
 11
299.061
 21
24.80005
  0
LINE
  8
0
  6
CONTINUOUS
 62
     7
 10
273.0611
 20
25.80011
 11
272.0611
 21
24.80011
  0
LINE
  8
0
  6
CONTINUOUS
 62
     7
 10
275.0612
 20
-0.05817
 11
272.0612
 21
-0.05817
  0
LINE
  8
0
  6
CONTINUOUS
 62
     7
 10
275.0612
 20
3.25847
 11
272.0612
 21
3.25847
  0
LINE
  8
0
  6
CONTINUOUS
 62
     7
 10
275.0612
 20
-0.05817
 11
275.0612
 21
3.25845
  0
LINE
  8
0
  6
CONTINUOUS
 62
     7
 10
298.0611
 20
25.80014
 11
264.3611
 21
25.80014
  0
LINE
  8
0
  6
CENTER
 62
     2
 10
296.0612
 20
-38.52457
 11
296.0612
 21
-43.97208
  0
LINE
  8
0
  6
CONTINUOUS
 62
     7
 10
293.3611
 20
-39.39986
 11
298.5612
 21
-39.39986
  0
LINE
  8
0
  6
CONTINUOUS
 62
     7
 10
292.8611
 20
-39.89986
 11
292.8611
 21
-42.29985
  0
LINE
  8
0
  6
CONTINUOUS
 62
     7
 10
293.2611
 20
-40.57169
 11
293.2611
 21
-39.39986
  0
LINE
  8
0
  6
CONTINUOUS
 62
     7
 10
298.8611
 20
-40.57169
 11
298.8611
 21
-39.39986
  0
LINE
  8
0
  6
CONTINUOUS
 62
     7
 10
299.0612
 20
24.80014
 11
272.0612
 21
24.80014
  0
LINE
  8
0
  6
CONTINUOUS
 62
     7
 10
299.0612
 20
-34.39986
 11
272.0612
 21
-34.39986
  0
LINE
  8
0
  6
CONTINUOUS
 62
     7
 10
299.0612
 20
24.80014
 11
299.0612
 21
-42.29985
  0
LINE
  8
0
  6
CONTINUOUS
 62
     7
 10
299.0612
 20
7.60014
 11
272.0612
 21
7.60014
  0
LINE
  8
0
  6
CONTINUOUS
 62
     7
 10
297.5612
 20
51.00014
 11
273.5612
 21
51.00014
  0
LINE
  8
0
  6
CONTINUOUS
 62
     7
 10
297.5612
 20
52.00014
 11
297.5612
 21
25.80014
  0
LINE
  8
0
  6
CONTINUOUS
 62
     7
 10
273.5612
 20
52.80016
 11
273.5612
 21
25.80014
  0
LINE
  8
0
  6
CONTINUOUS
 62
     7
 10
263.5612
 20
46.00014
 11
263.5612
 21
26.60014
  0
LINE
  8
0
  6
CONTINUOUS
 62
     7
 10
273.5612
 20
52.80016
 11
262.5612
 21
52.80016
  0
LINE
  8
0
  6
CONTINUOUS
 62
     7
 10
264.4612
 20
52.80016
 11
264.4612
 21
46.80016
  0
LINE
  8
0
  6
CONTINUOUS
 62
     7
 10
273.5612
 20
46.80016
 11
261.0612
 21
46.80016
  0
LINE
  8
0
  6
CONTINUOUS
 62
     7
 10
274.5612
 20
54.00014
 11
292.7354
 21
54.00014
  0
LINE
  8
0
  6
CONTINUOUS
 62
     7
 10
297.5612
 20
52.00014
 11
273.5612
 21
52.00014
  0
LINE
  8
0
  6
CONTINUOUS
 62
     7
 10
273.5611
 20
52.00011
 11
274.5612
 21
54.00012
  0
LINE
  8
0
  6
CONTINUOUS
 62
     7
 10
297.561
 20
52.00011
 11
296.561
 21
54.0001
  0
LINE
  8
0
  6
CONTINUOUS
 62
     7
 10
291.5612
 20
54.00014
 11
291.5612
 21
52.00014
  0
LINE
  8
0
  6
CENTER
 62
     2
 10
294.5612
 20
57.00014
 11
294.5612
 21
48.00014
  0
LINE
  8
0
  6
CONTINUOUS
 62
     7
 10
297.1111
 20
52.60014
 11
292.0111
 21
52.60014
  0
LINE
  8
0
  6
CONTINUOUS
 62
     7
 10
294.261
 20
52.0001
 11
294.1003
 21
52.60011
  0
LINE
  8
0
  6
CONTINUOUS
 62
     7
 10
294.861
 20
52.60012
 11
295.0218
 21
52.00012
  0
LINE
  8
0
  6
CONTINUOUS
 62
     7
 10
297.1111
 20
52.60014
 11
297.1111
 21
52.00014
  0
LINE
  8
0
  6
CONTINUOUS
 62
     7
 10
292.0111
 20
52.60014
 11
292.0111
 21
52.00014
  0
LINE
  8
0
  6
CONTINUOUS
 62
     7
 10
296.8111
 20
53.2939
 11
296.8111
 21
52.60014
  0
LINE
  8
0
  6
CONTINUOUS
 62
     7
 10
292.3112
 20
53.29387
 11
292.3112
 21
52.60014
  0
LINE
  8
0
  6
CONTINUOUS
 62
     7
 10
296.3869
 20
54.00014
 11
296.5611
 21
54.00014
  0
LINE
  8
0
  6
CENTER
 62
     2
 10
276.5612
 20
57.00014
 11
276.5612
 21
48.00014
  0
LINE
  8
0
  6
CONTINUOUS
 62
     7
 10
253.0612
 20
54.80016
 11
253.0612
 21
53.80016
  0
LINE
  8
0
  6
CONTINUOUS
 62
     7
 10
254.5612
 20
47.80016
 11
254.5612
 21
46.80016
  0
LINE
  8
0
  6
CONTINUOUS
 62
     7
 10
272.0612
 20
53.30016
 11
272.0612
 21
52.80016
  0
LINE
  8
0
  6
CONTINUOUS
 62
     7
 10
253.0612
 20
46.80016
 11
254.5612
 21
46.80016
  0
LINE
  8
0
  6
CONTINUOUS
 62
     7
 10
254.5612
 20
47.80016
 11
261.0612
 21
47.80016
  0
LINE
  8
0
  6
CONTINUOUS
 62
     7
 10
253.0612
 20
49.20015
 11
264.4612
 21
49.20015
  0
LINE
  8
0
  6
CONTINUOUS
 62
     7
 10
253.0612
 20
51.00014
 11
264.4612
 21
51.00014
  0
LINE
  8
0
  6
CONTINUOUS
 62
     7
 10
271.5612
 20
53.80016
 11
260.7324
 21
53.80016
  0
LINE
  8
0
  6
CONTINUOUS
 62
     7
 10
253.0612
 20
54.80016
 11
255.0612
 21
54.80016
  0
LINE
  8
0
  6
CONTINUOUS
 62
     7
 10
253.0612
 20
53.80016
 11
254.5612
 21
53.80016
  0
LINE
  8
0
  6
CONTINUOUS
 62
     7
 10
255.0611
 20
54.80005
 11
260.7324
 21
53.80005
  0
LINE
  8
0
  6
CONTINUOUS
 62
     7
 10
254.5611
 20
53.80011
 11
260.2324
 21
52.80011
  0
LINE
  8
0
  6
CONTINUOUS
 62
     7
 10
264.4612
 20
51.80016
 11
262.5612
 21
51.80016
  0
LINE
  8
0
  6
CONTINUOUS
 62
     7
 10
261.0612
 20
47.80016
 11
261.0612
 21
46.80016
  0
LINE
  8
0
  6
CONTINUOUS
 62
     7
 10
264.4612
 20
52.10014
 11
263.8611
 21
52.10014
  0
LINE
  8
0
  6
CONTINUOUS
 62
     7
 10
253.3612
 20
52.10003
 11
253.0612
 21
51.80002
  0
LINE
  8
0
  6
CONTINUOUS
 62
     7
 10
259.5612
 20
51.80021
 11
259.2612
 21
52.1002
  0
LINE
  8
0
  6
CONTINUOUS
 62
     7
 10
263.8611
 20
52.10017
 11
263.5611
 21
51.80017
  0
LINE
  8
0
  6
CONTINUOUS
 62
     7
 10
259.2611
 20
52.10014
 11
253.3611
 21
52.10014
  0
LINE
  8
0
  6
CONTINUOUS
 62
     7
 10
260.5612
 20
52.80016
 11
260.2324
 21
52.80016
  0
LINE
  8
0
  6
CONTINUOUS
 62
     7
 10
260.5612
 20
51.80016
 11
253.0612
 21
51.80016
  0
LINE
  8
0
  6
CONTINUOUS
 62
     7
 10
253.0612
 20
51.80016
 11
253.0612
 21
46.80016
  0
LINE
  8
0
  6
CONTINUOUS
 62
     7
 10
263.2611
 20
49.20015
 11
263.2611
 21
47.70015
  0
LINE
  8
0
  6
CONTINUOUS
 62
     7
 10
263.2611
 20
47.70015
 11
264.4612
 21
47.70015
  0
LINE
  8
0
  6
CENTER
 62
     2
 10
256.0612
 20
50.30016
 11
230.0611
 21
50.30016
  0
LINE
  8
0
  6
CONTINUOUS
 62
     7
 10
253.0612
 20
49.45015
 11
248.6098
 21
49.45015
  0
LINE
  8
0
  6
CONTINUOUS
 62
     7
 10
253.0612
 20
51.15013
 11
249.0654
 21
51.15013
  0
LINE
  8
0
  6
CONTINUOUS
 62
     7
 10
243.0612
 20
50.62013
 11
233.0611
 21
50.62013
  0
LINE
  8
0
  6
CONTINUOUS
 62
     7
 10
243.0612
 20
49.98015
 11
233.0611
 21
49.98015
  0
LINE
  8
0
  6
CONTINUOUS
 62
     7
 10
243.0612
 20
51.15013
 11
243.0612
 21
49.45015
  0
LINE
  8
0
  6
CONTINUOUS
 62
     7
 10
233.0611
 20
50.62013
 11
233.0611
 21
49.98015
  0
LINE
  8
0
  6
PHANTOM
 62
     2
 10
249.6013
 20
53.15015
 11
248.074
 21
47.45016
  0
LINE
  8
0
  6
PHANTOM
 62
     2
 10
248.0483
 20
53.15012
 11
246.521
 21
47.45013
  0
LINE
  8
0
  6
CONTINUOUS
 62
     7
 10
247.0569
 20
49.45015
 11
243.0612
 21
49.45015
  0
LINE
  8
0
  6
CONTINUOUS
 62
     7
 10
247.5125
 20
51.15013
 11
243.0612
 21
51.15013
  0
LINE
  8
0
  6
CENTER
 62
     2
 10
173.937
 20
-166.2066
 11
173.937
 21
-159.349
  0
LINE
  8
0
  6
CENTER
 62
     2
 10
163.937
 20
-184.8278
 11
163.937
 21
-178.3048
  0
LINE
  8
0
  6
CENTER
 62
     2
 10
170.5396
 20
-162.6791
 11
177.1184
 21
-162.6791
  0
LINE
  8
0
  6
CENTER
 62
     2
 10
160.6157
 20
-181.6791
 11
167.3617
 21
-181.6791
  0
LINE
  8
0
  6
CONTINUOUS
 62
     7
 10
163.7855
 20
-161.2549
 11
164.2098
 21
-160.8306
  0
LINE
  8
0
  6
CONTINUOUS
 62
     7
 10
162.5127
 20
-160.8306
 11
162.0885
 21
-160.4063
  0
LINE
  8
0
  6
CONTINUOUS
 62
     7
 10
162.0885
 20
-161.2548
 11
161.6642
 21
-160.8306
  0
LINE
  8
0
  6
CONTINUOUS
 62
     7
 10
161.6642
 20
-162.5277
 11
162.0885
 21
-162.1034
  0
LINE
  8
0
  6
CONTINUOUS
 62
     7
 10
162.0885
 20
-162.952
 11
162.5127
 21
-162.5277
  0
LINE
  8
0
  6
CONTINUOUS
 62
     7
 10
161.6642
 20
-160.8306
 11
162.0884
 21
-160.4063
  0
LINE
  8
0
  6
CONTINUOUS
 62
     7
 10
163.7855
 20
-162.952
 11
164.2098
 21
-162.5277
  0
LINE
  8
0
  6
CONTINUOUS
 62
     7
 10
163.3613
 20
-160.8306
 11
163.7855
 21
-160.4064
  0
LINE
  8
0
  6
CENTER
 62
     2
 10
157.187
 20
-172.1791
 11
181.1644
 21
-172.1791
  0
LINE
  8
0
  6
CENTER
 62
     2
 10
168.937
 20
-188.0754
 11
168.937
 21
-137.1663
  0
LINE
  8
0
  6
CONTINUOUS
 62
     7
 10
177.937
 20
-185.1791
 11
177.937
 21
-159.1791
  0
LINE
  8
0
  6
CONTINUOUS
 62
     7
 10
159.937
 20
-185.1791
 11
159.937
 21
-159.1791
  0
LINE
  8
0
  6
CONTINUOUS
 62
     7
 10
160.437
 20
-158.6791
 11
177.437
 21
-158.6791
  0
LINE
  8
0
  6
CONTINUOUS
 62
     7
 10
160.437
 20
-185.6791
 11
177.437
 21
-185.6791
  0
LINE
  8
0
  6
CENTER
 62
     2
 10
162.937
 20
-165.817
 11
162.937
 21
-157.5092
  0
LINE
  8
0
  6
CENTER
 62
     2
 10
174.937
 20
-186.8581
 11
174.937
 21
-178.5112
  0
LINE
  8
0
  6
CENTER
 62
     2
 10
170.9047
 20
-182.6791
 11
178.8467
 21
-182.6791
  0
LINE
  8
0
  6
CENTER
 62
     2
 10
159.0799
 20
-161.6791
 11
166.8042
 21
-161.6791
  0
LINE
  8
0
  6
CONTINUOUS
 62
     7
 10
174.937
 20
-179.4791
 11
177.437
 21
-179.4791
  0
LINE
  8
0
  6
CONTINUOUS
 62
     7
 10
171.737
 20
-185.1791
 11
171.737
 21
-182.6791
  0
LINE
  8
0
  6
CONTINUOUS
 62
     7
 10
166.137
 20
-161.6791
 11
166.137
 21
-159.1791
  0
LINE
  8
0
  6
CONTINUOUS
 62
     7
 10
160.437
 20
-164.8791
 11
162.937
 21
-164.8791
  0
LINE
  8
0
  6
CONTINUOUS
 62
     7
 10
174.0884
 20
-183.952
 11
173.6642
 21
-183.5277
  0
LINE
  8
0
  6
CONTINUOUS
 62
     7
 10
176.2097
 20
-181.8306
 11
175.7855
 21
-181.4064
  0
LINE
  8
0
  6
CONTINUOUS
 62
     7
 10
175.7855
 20
-183.9519
 11
175.3612
 21
-183.5277
  0
LINE
  8
0
  6
CONTINUOUS
 62
     7
 10
176.2097
 20
-183.5276
 11
175.7855
 21
-183.1034
  0
LINE
  8
0
  6
CONTINUOUS
 62
     7
 10
175.7855
 20
-183.9519
 11
176.2098
 21
-183.5277
  0
LINE
  8
0
  6
CONTINUOUS
 62
     7
 10
173.6642
 20
-181.8306
 11
174.0885
 21
-181.4064
  0
LINE
  8
0
  6
CONTINUOUS
 62
     7
 10
174.0884
 20
-183.9519
 11
174.5127
 21
-183.5277
  0
LINE
  8
0
  6
CONTINUOUS
 62
     7
 10
173.6642
 20
-183.5277
 11
174.0885
 21
-183.1034
  0
LINE
  8
0
  6
CONTINUOUS
 62
     7
 10
174.0885
 20
-182.2549
 11
173.6642
 21
-181.8306
  0
LINE
  8
0
  6
CONTINUOUS
 62
     7
 10
174.5127
 20
-181.8306
 11
174.0884
 21
-181.4063
  0
LINE
  8
0
  6
CONTINUOUS
 62
     7
 10
175.7855
 20
-182.2549
 11
176.2098
 21
-181.8306
  0
LINE
  8
0
  6
CONTINUOUS
 62
     7
 10
175.3613
 20
-181.8306
 11
175.7856
 21
-181.4064
  0
LINE
  8
0
  6
CONTINUOUS
 62
     7
 10
162.0885
 20
-162.9519
 11
161.6642
 21
-162.5276
  0
LINE
  8
0
  6
CONTINUOUS
 62
     7
 10
164.2098
 20
-160.8306
 11
163.7855
 21
-160.4063
  0
LINE
  8
0
  6
CONTINUOUS
 62
     7
 10
163.7855
 20
-162.9519
 11
163.3613
 21
-162.5276
  0
LINE
  8
0
  6
CONTINUOUS
 62
     7
 10
164.2098
 20
-162.5276
 11
163.7855
 21
-162.1034
  0
LINE
  8
0
  6
CONTINUOUS
 62
     7
 10
175.937
 20
-158.6791
 11
175.937
 21
-150.9791
  0
LINE
  8
0
  6
CONTINUOUS
 62
     7
 10
161.937
 20
-158.6791
 11
161.937
 21
-150.9791
  0
LINE
  8
0
  6
CONTINUOUS
 62
     7
 10
163.437
 20
-139.6791
 11
174.437
 21
-139.6791
  0
LINE
  8
0
  6
CONTINUOUS
 62
     7
 10
172.937
 20
-150.1791
 11
172.937
 21
-139.6791
  0
LINE
  8
0
  6
CONTINUOUS
 62
     7
 10
164.937
 20
-150.1791
 11
164.937
 21
-139.6791
  0
LINE
  8
0
  6
CONTINUOUS
 62
     7
 10
163.437
 20
-150.1791
 11
163.437
 21
-139.6791
  0
LINE
  8
0
  6
CONTINUOUS
 62
     7
 10
174.437
 20
-150.1791
 11
174.437
 21
-139.6791
  0
LINE
  8
0
  6
CONTINUOUS
 62
     7
 10
162.737
 20
-150.1791
 11
175.137
 21
-150.1791
  0
LINE
  8
0
  6
CENTER
 62
     2
 10
166.437
 20
-142.6791
 11
166.437
 21
-116.6791
  0
LINE
  8
0
  6
CENTER
 62
     2
 10
171.437
 20
-142.6791
 11
171.437
 21
-116.6791
  0
LINE
  8
0
  6
CONTINUOUS
 62
     7
 10
165.587
 20
-129.6791
 11
167.287
 21
-129.6791
  0
LINE
  8
0
  6
CONTINUOUS
 62
     7
 10
166.117
 20
-119.6791
 11
166.757
 21
-119.6791
  0
LINE
  8
0
  6
CONTINUOUS
 62
     7
 10
171.757
 20
-129.6791
 11
171.757
 21
-119.6791
  0
LINE
  8
0
  6
CONTINUOUS
 62
     7
 10
171.117
 20
-129.6791
 11
171.117
 21
-119.6791
  0
LINE
  8
0
  6
CONTINUOUS
 62
     7
 10
166.757
 20
-129.6791
 11
166.757
 21
-119.6791
  0
LINE
  8
0
  6
CONTINUOUS
 62
     7
 10
166.117
 20
-129.6791
 11
166.117
 21
-119.6791
  0
LINE
  8
0
  6
CONTINUOUS
 62
     7
 10
167.287
 20
-139.6791
 11
167.287
 21
-135.0135
  0
LINE
  8
0
  6
CONTINUOUS
 62
     7
 10
165.587
 20
-139.6791
 11
165.587
 21
-134.558
  0
LINE
  8
0
  6
CONTINUOUS
 62
     7
 10
170.587
 20
-139.6791
 11
170.587
 21
-135.8977
  0
LINE
  8
0
  6
CONTINUOUS
 62
     7
 10
172.287
 20
-139.6791
 11
172.287
 21
-136.3532
  0
LINE
  8
0
  6
CONTINUOUS
 62
     7
 10
170.587
 20
-129.6791
 11
172.287
 21
-129.6791
  0
LINE
  8
0
  6
CONTINUOUS
 62
     7
 10
171.117
 20
-119.6791
 11
171.757
 21
-119.6791
  0
LINE
  8
0
  6
CONTINUOUS
 62
     7
 10
164.937
 20
-141.1791
 11
172.937
 21
-141.1791
  0
LINE
  8
0
  6
CONTINUOUS
 62
     7
 10
164.937
 20
-147.6791
 11
172.937
 21
-147.6791
  0
LINE
  8
0
  6
PHANTOM
 62
     2
 10
174.2869
 20
-135.3362
 11
163.5869
 21
-132.4691
  0
LINE
  8
0
  6
PHANTOM
 62
     2
 10
174.287
 20
-136.8891
 11
163.587
 21
-134.022
  0
LINE
  8
0
  6
CONTINUOUS
 62
     7
 10
165.587
 20
-133.005
 11
165.587
 21
-129.6791
  0
LINE
  8
0
  6
CONTINUOUS
 62
     7
 10
167.287
 20
-133.4605
 11
167.287
 21
-129.6791
  0
LINE
  8
0
  6
CONTINUOUS
 62
     7
 10
170.587
 20
-134.3448
 11
170.587
 21
-129.6791
  0
LINE
  8
0
  6
CONTINUOUS
 62
     7
 10
172.287
 20
-134.8003
 11
172.287
 21
-129.6791
  0
ARC
  8
0
  6
CONTINUOUS
 62
     7
 10
273.0354
 20
-235.0457
 40
2.21188
 50
0.0
 51
89.99999
  0
ARC
  8
0
  6
CONTINUOUS
 62
     7
 10
291.2836
 20
-246.9346
 40
2.2119
 50
270.0
 51
0.0
  0
ARC
  8
0
  6
CONTINUOUS
 62
     7
 10
290.1776
 20
-236.1516
 40
3.31784
 50
0.0
 51
89.99999
  0
ARC
  8
0
  6
CONTINUOUS
 62
     7
 10
310.3611
 20
-236.8128
 40
2.21189
 50
295.0
 51
0.0
  0
ARC
  8
0
  6
CONTINUOUS
 62
     7
 10
310.3611
 20
-235.0457
 40
2.21188
 50
0.0
 51
89.99999
  0
ARC
  8
0
  6
CONTINUOUS
 62
     7
 10
327.5034
 20
-232.8338
 40
3.31784
 50
291.6884
 51
0.0
  0
ARC
  8
0
  6
CONTINUOUS
 62
     7
 10
326.3973
 20
-232.0834
 40
1.10595
 50
291.689
 51
0.0
  0
CIRCLE
  8
0
  6
CONTINUOUS
 62
     7
 10
-307.0613
 20
17.50017
 40
2.0
  0
ARC
  8
0
  6
CONTINUOUS
 62
     7
 10
-313.0613
 20
-36.79982
 40
5.00001
 50
240.5075
 51
299.4925
  0
ARC
  8
0
  6
CONTINUOUS
 62
     7
 10
-315.1946
 20
-40.57166
 40
0.66666
 50
180.0
 51
240.5067
  0
ARC
  8
0
  6
CONTINUOUS
 62
     7
 10
-310.928
 20
-40.57166
 40
0.66667
 50
299.4933
 51
0.0
  0
ARC
  8
0
  6
CONTINUOUS
 62
     7
 10
-315.5613
 20
-38.89983
 40
0.5
 50
180.0
 51
270.0
  0
ARC
  8
0
  6
CONTINUOUS
 62
     7
 10
-310.3613
 20
-39.89983
 40
0.5
 50
0.0
 51
89.99999
  0
CIRCLE
  8
0
  6
CONTINUOUS
 62
     7
 10
-307.0613
 20
17.50017
 40
2.65
  0
CIRCLE
  8
0
  6
CONTINUOUS
 62
     7
 10
-313.5613
 20
1.60017
 40
1.6
  0
CIRCLE
  8
0
  6
CONTINUOUS
 62
     7
 10
-300.5613
 20
-28.39983
 40
1.6
  0
ARC
  8
0
  6
CONTINUOUS
 62
     7
 10
-298.5613
 20
-42.29982
 40
0.5
 50
270.0
 51
0.0
  0
ARC
  8
0
  6
CONTINUOUS
 62
     7
 10
-315.5613
 20
-42.29982
 40
0.5
 50
180.0
 51
270.0
  0
ARC
  8
0
  6
CONTINUOUS
 62
     7
 10
-309.3613
 20
-42.29982
 40
0.5
 50
180.0
 51
270.0
  0
CIRCLE
  8
0
  6
CONTINUOUS
 62
     7
 10
-306.5613
 20
-0.19983
 40
4.86435
  0
CIRCLE
  8
0
  6
CONTINUOUS
 62
     7
 10
-306.5613
 20
-0.19983
 40
4.28325
  0
CIRCLE
  8
0
  6
CONTINUOUS
 62
     7
 10
-307.5613
 20
-26.59982
 40
4.86435
  0
CIRCLE
  8
0
  6
CONTINUOUS
 62
     7
 10
-307.5613
 20
-26.59982
 40
4.28325
  0
CIRCLE
  8
0
  6
CONTINUOUS
 62
     7
 10
-307.0613
 20
-13.39983
 40
4.86435
  0
CIRCLE
  8
0
  6
CONTINUOUS
 62
     7
 10
-307.0613
 20
-13.39983
 40
4.28325
  0
ARC
  8
0
  6
CONTINUOUS
 62
     7
 10
-311.5613
 20
48.30016
 40
6.0
 50
73.80876
 51
106.1912
  0
ARC
  8
0
  6
CONTINUOUS
 62
     7
 10
-310.1113
 20
53.2939
 40
0.79999
 50
0.0
 51
73.8082
  0
ARC
  8
0
  6
CONTINUOUS
 62
     7
 10
-313.0113
 20
53.2939
 40
0.8
 50
106.1918
 51
180.0
  0
ARC
  8
0
  6
CONTINUOUS
 62
     7
 10
-302.5613
 20
48.30016
 40
6.0
 50
73.80876
 51
106.1912
  0
ARC
  8
0
  6
CONTINUOUS
 62
     7
 10
-304.0113
 20
53.2939
 40
0.8
 50
106.1918
 51
118.0148
  0
ARC
  8
0
  6
CONTINUOUS
 62
     7
 10
-301.1113
 20
53.2939
 40
0.80001
 50
61.98524
 51
73.8082
  0
ARC
  8
0
  6
CONTINUOUS
 62
     7
 10
-310.5076
 20
46.75349
 40
0.35345
 50
0.0
 51
89.99999
  0
ARC
  8
0
  6
CONTINUOUS
 62
     7
 10
-307.5915
 20
44.85362
 40
0.35346
 50
270.0
 51
0.0
  0
ARC
  8
0
  6
CONTINUOUS
 62
     7
 10
-307.7682
 20
46.57677
 40
0.53018
 50
0.0
 51
89.99999
  0
ARC
  8
0
  6
CONTINUOUS
 62
     7
 10
-304.5429
 20
46.75349
 40
0.35345
 50
0.0
 51
89.99999
  0
ARC
  8
0
  6
CONTINUOUS
 62
     7
 10
-304.5429
 20
46.47112
 40
0.35347
 50
295.0005
 51
0.0
  0
ARC
  8
0
  6
CONTINUOUS
 62
     7
 10
-301.8036
 20
47.10695
 40
0.53019
 50
291.6869
 51
0.0
  0
ARC
  8
0
  6
CONTINUOUS
 62
     7
 10
-301.9803
 20
47.22685
 40
0.17673
 50
291.687
 51
0.0
  0
ARC
  8
0
  6
CONTINUOUS
 62
     7
 10
-194.9367
 20
135.2775
 40
0.5
 50
180.0
 51
270.0
  0
ARC
  8
0
  6
CONTINUOUS
 62
     7
 10
-168.9367
 20
135.2775
 40
0.5
 50
270.0
 51
0.0
  0
ARC
  8
0
  6
CONTINUOUS
 62
     7
 10
-168.9367
 20
152.2775
 40
0.5
 50
0.0
 51
89.99999
  0
ARC
  8
0
  6
CONTINUOUS
 62
     7
 10
-194.9367
 20
152.2775
 40
0.5
 50
89.99999
 51
180.0
  0
ARC
  8
0
  6
CONTINUOUS
 62
     7
 10
-172.9367
 20
139.2775
 40
3.0
 50
89.99999
 51
180.0
  0
ARC
  8
0
  6
CONTINUOUS
 62
     7
 10
-190.9367
 20
148.2775
 40
3.0
 50
270.0
 51
0.0
  0
ARC
  8
0
  6
CONTINUOUS
 62
     7
 10
-172.9367
 20
139.2775
 40
2.55
 50
276.7564
 51
263.2436
  0
ARC
  8
0
  6
CONTINUOUS
 62
     7
 10
-190.9367
 20
148.2775
 40
2.55
 50
96.7564
 51
83.24359
  0
CIRCLE
  8
0
  6
CONTINUOUS
 62
     7
 10
-172.9367
 20
139.2775
 40
2.25
  0
ARC
  8
0
  6
CONTINUOUS
 62
     7
 10
-172.9367
 20
140.3806
 40
0.51999
 50
225.0
 51
315.0
  0
ARC
  8
0
  6
CONTINUOUS
 62
     7
 10
-174.0398
 20
139.2775
 40
0.51999
 50
315.0
 51
45.0
  0
ARC
  8
0
  6
CONTINUOUS
 62
     7
 10
-171.8336
 20
139.2775
 40
0.51999
 50
135.0
 51
225.0
  0
ARC
  8
0
  6
CONTINUOUS
 62
     7
 10
-172.9367
 20
138.1745
 40
0.51999
 50
45.0
 51
135.0
  0
CIRCLE
  8
0
  6
CONTINUOUS
 62
     7
 10
-190.9367
 20
148.2775
 40
2.25
  0
ARC
  8
0
  6
CONTINUOUS
 62
     7
 10
-190.9367
 20
149.3806
 40
0.51999
 50
225.0
 51
315.0
  0
ARC
  8
0
  6
CONTINUOUS
 62
     7
 10
-192.0398
 20
148.2775
 40
0.51999
 50
315.0
 51
45.0
  0
ARC
  8
0
  6
CONTINUOUS
 62
     7
 10
-189.8336
 20
148.2775
 40
0.51999
 50
135.0
 51
225.0
  0
ARC
  8
0
  6
CONTINUOUS
 62
     7
 10
-190.9367
 20
147.1745
 40
0.51999
 50
45.0
 51
135.0
  0
ARC
  8
0
  6
CONTINUOUS
 62
     7
 10
-193.4367
 20
150.7775
 40
0.5
 50
89.99999
 51
180.0
  0
ARC
  8
0
  6
CONTINUOUS
 62
     7
 10
-193.4367
 20
136.7775
 40
0.5
 50
180.0
 51
270.0
  0
ARC
  8
0
  6
CONTINUOUS
 62
     7
 10
-160.7367
 20
149.9776
 40
0.8
 50
0.0
 51
89.99999
  0
ARC
  8
0
  6
CONTINUOUS
 62
     7
 10
-160.7367
 20
137.5775
 40
0.8
 50
270.0
 51
0.0
  0
ARC
  8
0
  6
CONTINUOUS
 62
     7
 10
-194.9368
 20
-42.29999
 40
0.5
 50
180.0
 51
270.0
  0
ARC
  8
0
  6
CONTINUOUS
 62
     7
 10
-168.9368
 20
-42.29999
 40
0.5
 50
270.0
 51
0.0
  0
ARC
  8
0
  6
CONTINUOUS
 62
     7
 10
-174.1368
 20
-39.89999
 40
0.5
 50
89.99999
 51
180.0
  0
ARC
  8
0
  6
CONTINUOUS
 62
     7
 10
-168.9368
 20
-38.89999
 40
0.5
 50
270.0
 51
0.0
  0
ARC
  8
0
  6
CONTINUOUS
 62
     7
 10
-175.1368
 20
-42.29999
 40
0.5
 50
270.0
 51
0.0
  0
ARC
  8
0
  6
CONTINUOUS
 62
     7
 10
-171.4368
 20
-36.8
 40
5.0
 50
240.5077
 51
299.4923
  0
ARC
  8
0
  6
CONTINUOUS
 62
     7
 10
-173.5701
 20
-40.57182
 40
0.66667
 50
180.0
 51
240.5079
  0
ARC
  8
0
  6
CONTINUOUS
 62
     7
 10
-169.3035
 20
-40.57182
 40
0.66666
 50
299.4921
 51
0.0
  0
CIRCLE
  8
0
  6
CONTINUOUS
 62
     7
 10
-174.4368
 20
1.60001
 40
1.6
  0
CIRCLE
  8
0
  6
CONTINUOUS
 62
     7
 10
-174.4368
 20
-28.39999
 40
1.6
  0
ARC
  8
0
  6
CONTINUOUS
 62
     7
 10
-160.7368
 20
46.00002
 40
0.8
 50
0.0
 51
89.99999
  0
ARC
  8
0
  6
CONTINUOUS
 62
     7
 10
-160.7368
 20
26.60002
 40
0.8
 50
270.0
 51
0.0
  0
ARC
  8
0
  6
CONTINUOUS
 62
     7
 10
-172.9368
 20
48.3
 40
6.0
 50
73.80861
 51
106.1912
  0
ARC
  8
0
  6
CONTINUOUS
 62
     7
 10
-171.4868
 20
53.29375
 40
0.8
 50
0.0
 51
73.8082
  0
ARC
  8
0
  6
CONTINUOUS
 62
     7
 10
-174.3868
 20
53.29375
 40
0.8
 50
106.1918
 51
180.0
  0
ARC
  8
0
  6
CONTINUOUS
 62
     7
 10
-190.9368
 20
48.3
 40
6.0
 50
73.80861
 51
106.1912
  0
ARC
  8
0
  6
CONTINUOUS
 62
     7
 10
-192.3868
 20
53.29375
 40
0.8
 50
106.1918
 51
118.0138
  0
ARC
  8
0
  6
CONTINUOUS
 62
     7
 10
-189.4868
 20
53.29375
 40
0.8
 50
61.98621
 51
73.8082
  0
ARC
  8
0
  6
CONTINUOUS
 62
     7
 10
-167.9368
 20
53.3
 40
0.5
 50
89.99999
 51
180.0
  0
ARC
  8
0
  6
CONTINUOUS
 62
     7
 10
-156.9368
 20
52.3
 40
0.5
 50
89.99999
 51
270.0
  0
ARC
  8
0
  6
CONTINUOUS
 62
     7
 10
-158.9368
 20
52.3
 40
0.5
 50
270.0
 51
89.99999
  0
ARC
  8
0
  6
CONTINUOUS
 62
     7
 10
-48.8123
 20
-36.79994
 40
5.0
 50
240.5076
 51
299.4923
  0
ARC
  8
0
  6
CONTINUOUS
 62
     7
 10
-50.94563
 20
-40.57178
 40
0.66667
 50
180.0
 51
240.5076
  0
ARC
  8
0
  6
CONTINUOUS
 62
     7
 10
-46.67897
 20
-40.57178
 40
0.66667
 50
299.4924
 51
0.0
  0
CIRCLE
  8
0
  6
CONTINUOUS
 62
     7
 10
-42.8123
 20
22.30006
 40
1.65
  0
ARC
  8
0
  6
CONTINUOUS
 62
     7
 10
-51.3123
 20
-42.29994
 40
0.5
 50
180.0
 51
270.0
  0
ARC
  8
0
  6
CONTINUOUS
 62
     7
 10
-34.3123
 20
-42.29994
 40
0.5
 50
270.0
 51
0.0
  0
CIRCLE
  8
0
  6
CONTINUOUS
 62
     7
 10
-49.3123
 20
-28.39995
 40
1.6
  0
CIRCLE
  8
0
  6
CONTINUOUS
 62
     7
 10
-36.3123
 20
1.60005
 40
1.6
  0
ARC
  8
0
  6
CONTINUOUS
 62
     7
 10
-36.3123
 20
1.60005
 40
3.0
 50
33.55732
 51
326.4427
  0
ARC
  8
0
  6
CONTINUOUS
 62
     7
 10
-49.3123
 20
-28.39995
 40
3.0
 50
0.0
 51
146.4427
  0
ARC
  8
0
  6
CONTINUOUS
 62
     7
 10
-49.3123
 20
-28.39995
 40
3.0
 50
213.5573
 51
0.0
  0
ARC
  8
0
  6
CONTINUOUS
 62
     7
 10
-46.11229
 20
-39.89995
 40
0.5
 50
0.0
 51
89.99999
  0
ARC
  8
0
  6
CONTINUOUS
 62
     7
 10
-51.3123
 20
-38.89995
 40
0.5
 50
180.0
 51
270.0
  0
ARC
  8
0
  6
CONTINUOUS
 62
     7
 10
-45.11229
 20
-42.29994
 40
0.5
 50
180.0
 51
270.0
  0
CIRCLE
  8
0
  6
CONTINUOUS
 62
     7
 10
-43.3123
 20
-21.39995
 40
4.86435
  0
CIRCLE
  8
0
  6
CONTINUOUS
 62
     7
 10
-43.3123
 20
-21.39995
 40
4.28325
  0
CIRCLE
  8
0
  6
CONTINUOUS
 62
     7
 10
-42.3123
 20
-5.39995
 40
4.86435
  0
CIRCLE
  8
0
  6
CONTINUOUS
 62
     7
 10
-42.3123
 20
-5.39995
 40
4.28325
  0
ARC
  8
0
  6
CONTINUOUS
 62
     7
 10
-49.01231
 20
46.00005
 40
0.8
 50
89.99999
 51
180.0
  0
ARC
  8
0
  6
CONTINUOUS
 62
     7
 10
-36.61229
 20
46.00005
 40
0.8
 50
0.0
 51
89.99999
  0
ARC
  8
0
  6
CONTINUOUS
 62
     7
 10
-49.01231
 20
26.60005
 40
0.8
 50
180.0
 51
270.0
  0
ARC
  8
0
  6
CONTINUOUS
 62
     7
 10
-36.61229
 20
26.60005
 40
0.8
 50
270.0
 51
0.0
  0
ARC
  8
0
  6
CONTINUOUS
 62
     7
 10
-47.3123
 20
48.30006
 40
6.0
 50
85.2198
 51
106.1913
  0
ARC
  8
0
  6
CONTINUOUS
 62
     7
 10
-48.76231
 20
53.29381
 40
0.8
 50
106.1913
 51
180.0
  0
ARC
  8
0
  6
CONTINUOUS
 62
     7
 10
-38.3123
 20
48.30003
 40
6.0
 50
73.80865
 51
94.78023
  0
ARC
  8
0
  6
CONTINUOUS
 62
     7
 10
-36.86229
 20
53.29378
 40
0.8
 50
61.98621
 51
73.80872
  0
CIRCLE
  8
0
  6
CONTINUOUS
 62
     7
 10
-45.3123
 20
50.30006
 40
0.85
  0
CIRCLE
  8
0
  6
CONTINUOUS
 62
     7
 10
-40.3123
 20
50.30006
 40
0.85
  0
ARC
  8
0
  6
CONTINUOUS
 62
     7
 10
-42.8123
 20
47.92506
 40
0.5
 50
45.0
 51
315.0
  0
CIRCLE
  8
0
  6
CONTINUOUS
 62
     7
 10
-172.4368
 20
-184.179
 40
1.5
  0
CIRCLE
  8
0
  6
CONTINUOUS
 62
     7
 10
-191.4368
 20
-174.179
 40
1.5
  0
CIRCLE
  8
0
  6
CONTINUOUS
 62
     7
 10
-191.4368
 20
-174.179
 40
1.0
  0
ARC
  8
0
  6
CONTINUOUS
 62
     7
 10
-194.9368
 20
-170.679
 40
0.5
 50
89.99999
 51
180.0
  0
ARC
  8
0
  6
CONTINUOUS
 62
     7
 10
-168.9368
 20
-170.679
 40
0.5
 50
0.0
 51
89.99999
  0
ARC
  8
0
  6
CONTINUOUS
 62
     7
 10
-168.9368
 20
-187.679
 40
0.5
 50
270.0
 51
0.0
  0
ARC
  8
0
  6
CONTINUOUS
 62
     7
 10
-194.9368
 20
-187.679
 40
0.5
 50
180.0
 51
270.0
  0
ARC
  8
0
  6
CONTINUOUS
 62
     7
 10
-171.4368
 20
-173.179
 40
3.2
 50
180.0
 51
270.0
  0
ARC
  8
0
  6
CONTINUOUS
 62
     7
 10
-192.4368
 20
-185.179
 40
3.2
 50
0.0
 51
89.99999
  0
ARC
  8
0
  6
CONTINUOUS
 62
     7
 10
-194.9368
 20
-181.479
 40
0.5
 50
180.0
 51
270.0
  0
ARC
  8
0
  6
CONTINUOUS
 62
     7
 10
-188.7367
 20
-187.679
 40
0.5
 50
180.0
 51
270.0
  0
ARC
  8
0
  6
CONTINUOUS
 62
     7
 10
-175.1368
 20
-170.679
 40
0.5
 50
0.0
 51
89.99999
  0
ARC
  8
0
  6
CONTINUOUS
 62
     7
 10
-168.9368
 20
-176.879
 40
0.5
 50
0.0
 51
89.99999
  0
CIRCLE
  8
0
  6
CONTINUOUS
 62
     7
 10
-192.4368
 20
-185.179
 40
2.8
  0
ARC
  8
0
  6
CONTINUOUS
 62
     7
 10
-192.4368
 20
-183.9062
 40
0.60001
 50
225.0
 51
315.0
  0
ARC
  8
0
  6
CONTINUOUS
 62
     7
 10
-193.7095
 20
-185.179
 40
0.60001
 50
315.0
 51
45.0
  0
ARC
  8
0
  6
CONTINUOUS
 62
     7
 10
-191.164
 20
-185.179
 40
0.60001
 50
135.0
 51
225.0
  0
ARC
  8
0
  6
CONTINUOUS
 62
     7
 10
-192.4368
 20
-186.4518
 40
0.60001
 50
45.0
 51
135.0
  0
CIRCLE
  8
0
  6
CONTINUOUS
 62
     7
 10
-171.4368
 20
-173.179
 40
2.8
  0
ARC
  8
0
  6
CONTINUOUS
 62
     7
 10
-171.4368
 20
-171.9062
 40
0.60001
 50
225.0
 51
315.0
  0
ARC
  8
0
  6
CONTINUOUS
 62
     7
 10
-172.7095
 20
-173.179
 40
0.60001
 50
315.0
 51
45.0
  0
ARC
  8
0
  6
CONTINUOUS
 62
     7
 10
-170.164
 20
-173.179
 40
0.60001
 50
135.0
 51
225.0
  0
ARC
  8
0
  6
CONTINUOUS
 62
     7
 10
-171.4368
 20
-174.4518
 40
0.60001
 50
45.0
 51
135.0
  0
CIRCLE
  8
0
  6
CONTINUOUS
 62
     7
 10
-191.4368
 20
-174.179
 40
2.35
  0
CIRCLE
  8
0
  6
CONTINUOUS
 62
     7
 10
-172.4368
 20
-184.179
 40
2.35
  0
CIRCLE
  8
0
  6
CONTINUOUS
 62
     7
 10
-172.4368
 20
-184.179
 40
1.0
  0
ARC
  8
0
  6
CONTINUOUS
 62
     7
 10
-160.7367
 20
-172.979
 40
0.8
 50
0.0
 51
89.99999
  0
ARC
  8
0
  6
CONTINUOUS
 62
     7
 10
-160.7367
 20
-185.379
 40
0.8
 50
270.0
 51
0.0
  0
ARC
  8
0
  6
CONTINUOUS
 62
     7
 10
164.4372
 20
127.7773
 40
3.0
 50
0.0
 51
89.99999
  0
ARC
  8
0
  6
CONTINUOUS
 62
     7
 10
173.4372
 20
145.7773
 40
3.0
 50
180.0
 51
270.0
  0
ARC
  8
0
  6
CONTINUOUS
 62
     7
 10
164.4372
 20
127.7773
 40
2.55
 50
186.7564
 51
173.2436
  0
ARC
  8
0
  6
CONTINUOUS
 62
     7
 10
173.4372
 20
145.7773
 40
2.55
 50
6.75641
 51
353.2436
  0
CIRCLE
  8
0
  6
CONTINUOUS
 62
     7
 10
164.4372
 20
127.7773
 40
2.25
  0
ARC
  8
0
  6
CONTINUOUS
 62
     7
 10
165.5403
 20
127.7773
 40
0.51999
 50
135.0
 51
225.0006
  0
ARC
  8
0
  6
CONTINUOUS
 62
     7
 10
164.4372
 20
128.8804
 40
0.51999
 50
225.0
 51
315.0
  0
ARC
  8
0
  6
CONTINUOUS
 62
     7
 10
164.4372
 20
126.6742
 40
0.52
 50
45.0006
 51
134.9994
  0
ARC
  8
0
  6
CONTINUOUS
 62
     7
 10
163.3341
 20
127.7773
 40
0.52
 50
314.9994
 51
45.0
  0
CIRCLE
  8
0
  6
CONTINUOUS
 62
     7
 10
173.4372
 20
145.7773
 40
2.25
  0
ARC
  8
0
  6
CONTINUOUS
 62
     7
 10
174.5403
 20
145.7773
 40
0.51999
 50
135.0
 51
225.0
  0
ARC
  8
0
  6
CONTINUOUS
 62
     7
 10
173.4372
 20
146.8804
 40
0.51999
 50
225.0
 51
315.0
  0
ARC
  8
0
  6
CONTINUOUS
 62
     7
 10
173.4372
 20
144.6742
 40
0.51999
 50
45.0
 51
135.0
  0
ARC
  8
0
  6
CONTINUOUS
 62
     7
 10
172.3341
 20
145.7773
 40
0.51999
 50
315.0
 51
45.0
  0
ARC
  8
0
  6
CONTINUOUS
 62
     7
 10
175.9372
 20
148.2773
 40
0.5
 50
0.0
 51
89.99999
  0
ARC
  8
0
  6
CONTINUOUS
 62
     7
 10
161.9372
 20
148.2773
 40
0.5
 50
89.99999
 51
180.0
  0
ARC
  8
0
  6
CONTINUOUS
 62
     7
 10
175.1372
 20
115.5773
 40
0.8
 50
270.0
 51
0.0
  0
ARC
  8
0
  6
CONTINUOUS
 62
     7
 10
162.7372
 20
115.5773
 40
0.8
 50
180.0
 51
270.0
  0
ARC
  8
0
  6
CONTINUOUS
 62
     7
 10
160.4372
 20
149.7773
 40
0.5
 50
89.99999
 51
180.0
  0
ARC
  8
0
  6
CONTINUOUS
 62
     7
 10
160.4372
 20
123.7773
 40
0.5
 50
180.0
 51
270.0
  0
ARC
  8
0
  6
CONTINUOUS
 62
     7
 10
177.4372
 20
123.7773
 40
0.5
 50
270.0
 51
0.0
  0
ARC
  8
0
  6
CONTINUOUS
 62
     7
 10
177.4372
 20
149.7773
 40
0.5
 50
0.0
 51
89.99999
  0
ARC
  8
0
  6
CONTINUOUS
 62
     7
 10
160.4368
 20
-42.29997
 40
0.5
 50
180.0
 51
270.0
  0
ARC
  8
0
  6
CONTINUOUS
 62
     7
 10
177.4368
 20
-42.29997
 40
0.5
 50
270.0
 51
0.0
  0
CIRCLE
  8
0
  6
CONTINUOUS
 62
     7
 10
162.4368
 20
-28.39998
 40
1.6
  0
CIRCLE
  8
0
  6
CONTINUOUS
 62
     7
 10
175.4368
 20
1.60002
 40
1.6
  0
ARC
  8
0
  6
CONTINUOUS
 62
     7
 10
175.4368
 20
1.60002
 40
3.0
 50
33.55732
 51
326.4427
  0
ARC
  8
0
  6
CONTINUOUS
 62
     7
 10
162.4368
 20
-28.39998
 40
3.0
 50
0.0
 51
146.4427
  0
ARC
  8
0
  6
CONTINUOUS
 62
     7
 10
162.4368
 20
-28.39998
 40
3.0
 50
213.5573
 51
0.0
  0
CIRCLE
  8
0
  6
CONTINUOUS
 62
     7
 10
168.9368
 20
22.30002
 40
1.65
  0
ARC
  8
0
  6
CONTINUOUS
 62
     7
 10
165.6368
 20
-39.89998
 40
0.5
 50
0.0
 51
89.99999
  0
ARC
  8
0
  6
CONTINUOUS
 62
     7
 10
160.4368
 20
-38.89998
 40
0.5
 50
180.0
 51
270.0
  0
ARC
  8
0
  6
CONTINUOUS
 62
     7
 10
166.6368
 20
-42.29997
 40
0.5
 50
180.0
 51
270.0
  0
ARC
  8
0
  6
CONTINUOUS
 62
     7
 10
162.9368
 20
-36.79997
 40
5.0
 50
240.5077
 51
299.4923
  0
ARC
  8
0
  6
CONTINUOUS
 62
     7
 10
160.8034
 20
-40.57181
 40
0.66667
 50
180.0
 51
240.5079
  0
ARC
  8
0
  6
CONTINUOUS
 62
     7
 10
165.0701
 20
-40.57181
 40
0.66666
 50
299.4921
 51
0.0
  0
ARC
  8
0
  6
CONTINUOUS
 62
     7
 10
162.7368
 20
46.00002
 40
0.8
 50
89.99999
 51
180.0
  0
ARC
  8
0
  6
CONTINUOUS
 62
     7
 10
175.1368
 20
46.00002
 40
0.8
 50
0.0
 51
89.99999
  0
ARC
  8
0
  6
CONTINUOUS
 62
     7
 10
162.7368
 20
26.60002
 40
0.8
 50
180.0
 51
270.0
  0
ARC
  8
0
  6
CONTINUOUS
 62
     7
 10
175.1368
 20
26.60002
 40
0.8
 50
270.0
 51
0.0
  0
ARC
  8
0
  6
CONTINUOUS
 62
     7
 10
164.4368
 20
48.30003
 40
6.0
 50
85.2198
 51
106.1914
  0
ARC
  8
0
  6
CONTINUOUS
 62
     7
 10
162.9868
 20
53.29375
 40
0.8
 50
106.1918
 51
180.0
  0
ARC
  8
0
  6
CONTINUOUS
 62
     7
 10
173.4368
 20
48.3
 40
6.0
 50
73.80862
 51
94.78019
  0
ARC
  8
0
  6
CONTINUOUS
 62
     7
 10
174.8868
 20
53.29375
 40
0.8
 50
61.98621
 51
73.8082
  0
CIRCLE
  8
0
  6
CONTINUOUS
 62
     7
 10
166.4368
 20
50.30003
 40
0.85
  0
CIRCLE
  8
0
  6
CONTINUOUS
 62
     7
 10
171.4368
 20
50.30003
 40
0.85
  0
ARC
  8
0
  6
CONTINUOUS
 62
     7
 10
168.9368
 20
47.92503
 40
0.5
 50
45.00062
 51
314.9994
  0
ARC
  8
0
  6
CONTINUOUS
 62
     7
 10
42.312
 20
-42.29976
 40
0.5
 50
180.0
 51
270.0
  0
ARC
  8
0
  6
CONTINUOUS
 62
     7
 10
68.312
 20
-42.29976
 40
0.5
 50
270.0
 51
0.0
  0
ARC
  8
0
  6
CONTINUOUS
 62
     7
 10
63.112
 20
-39.89977
 40
0.5
 50
89.99999
 51
180.0
  0
ARC
  8
0
  6
CONTINUOUS
 62
     7
 10
68.312
 20
-38.89977
 40
0.5
 50
270.0
 51
0.0
  0
ARC
  8
0
  6
CONTINUOUS
 62
     7
 10
62.112
 20
-42.29976
 40
0.5
 50
270.0
 51
0.0
  0
ARC
  8
0
  6
CONTINUOUS
 62
     7
 10
65.812
 20
-36.79976
 40
5.0
 50
240.5076
 51
299.4923
  0
ARC
  8
0
  6
CONTINUOUS
 62
     7
 10
63.67867
 20
-40.57159
 40
0.66667
 50
180.0
 51
240.5076
  0
ARC
  8
0
  6
CONTINUOUS
 62
     7
 10
67.94533
 20
-40.57159
 40
0.66666
 50
299.4921
 51
0.0
  0
ARC
  8
0
  6
CONTINUOUS
 62
     7
 10
76.51199
 20
46.00023
 40
0.8
 50
0.0
 51
89.99999
  0
ARC
  8
0
  6
CONTINUOUS
 62
     7
 10
76.51199
 20
26.60023
 40
0.8
 50
270.0
 51
0.0
  0
ARC
  8
0
  6
CONTINUOUS
 62
     7
 10
64.312
 20
48.30022
 40
6.0
 50
73.80869
 51
106.1913
  0
ARC
  8
0
  6
CONTINUOUS
 62
     7
 10
65.76199
 20
53.29399
 40
0.8
 50
0.0
 51
73.80872
  0
ARC
  8
0
  6
CONTINUOUS
 62
     7
 10
62.862
 20
53.29399
 40
0.8
 50
106.1913
 51
180.0
  0
ARC
  8
0
  6
CONTINUOUS
 62
     7
 10
46.312
 20
48.30022
 40
6.0
 50
73.80865
 51
106.1913
  0
ARC
  8
0
  6
CONTINUOUS
 62
     7
 10
44.862
 20
53.29396
 40
0.8
 50
106.1913
 51
118.0138
  0
ARC
  8
0
  6
CONTINUOUS
 62
     7
 10
47.76199
 20
53.29396
 40
0.8
 50
61.98621
 51
73.80872
  0
ARC
  8
0
  6
CONTINUOUS
 62
     7
 10
69.312
 20
53.30022
 40
0.5
 50
89.99999
 51
180.0
  0
ARC
  8
0
  6
CONTINUOUS
 62
     7
 10
80.312
 20
52.30022
 40
0.5
 50
89.99999
 51
270.0
  0
ARC
  8
0
  6
CONTINUOUS
 62
     7
 10
78.312
 20
52.30022
 40
0.5
 50
270.0
 51
89.99999
  0
ARC
  8
0
  6
CONTINUOUS
 62
     7
 10
298.5612
 20
-42.29985
 40
0.5
 50
270.0
 51
0.0
  0
ARC
  8
0
  6
CONTINUOUS
 62
     7
 10
272.5612
 20
-42.29985
 40
0.5
 50
180.0
 51
270.0
  0
ARC
  8
0
  6
CONTINUOUS
 62
     7
 10
293.3611
 20
-39.89986
 40
0.5
 50
89.99999
 51
180.0
  0
ARC
  8
0
  6
CONTINUOUS
 62
     7
 10
298.5612
 20
-38.89986
 40
0.5
 50
270.0
 51
0.0
  0
ARC
  8
0
  6
CONTINUOUS
 62
     7
 10
292.3611
 20
-42.29985
 40
0.5
 50
270.0
 51
0.0
  0
ARC
  8
0
  6
CONTINUOUS
 62
     7
 10
296.0612
 20
-36.79985
 40
5.00001
 50
240.5075
 51
299.4925
  0
ARC
  8
0
  6
CONTINUOUS
 62
     7
 10
293.9278
 20
-40.57169
 40
0.66666
 50
180.0
 51
240.5067
  0
ARC
  8
0
  6
CONTINUOUS
 62
     7
 10
298.1945
 20
-40.57169
 40
0.66667
 50
299.4933
 51
0.0
  0
ARC
  8
0
  6
CONTINUOUS
 62
     7
 10
264.3611
 20
46.00014
 40
0.8
 50
89.99999
 51
180.0
  0
ARC
  8
0
  6
CONTINUOUS
 62
     7
 10
264.3611
 20
26.60014
 40
0.79999
 50
180.0
 51
270.0
  0
ARC
  8
0
  6
CONTINUOUS
 62
     7
 10
294.5612
 20
48.30016
 40
6.0
 50
73.80876
 51
106.1912
  0
ARC
  8
0
  6
CONTINUOUS
 62
     7
 10
296.0111
 20
53.29387
 40
0.79999
 50
0.0
 51
73.8082
  0
ARC
  8
0
  6
CONTINUOUS
 62
     7
 10
293.1111
 20
53.29387
 40
0.8
 50
106.1918
 51
180.0
  0
ARC
  8
0
  6
CONTINUOUS
 62
     7
 10
276.5612
 20
48.30013
 40
6.0
 50
73.80876
 51
106.1912
  0
ARC
  8
0
  6
CONTINUOUS
 62
     7
 10
275.1111
 20
53.29387
 40
0.8
 50
106.1918
 51
118.0148
  0
ARC
  8
0
  6
CONTINUOUS
 62
     7
 10
278.0111
 20
53.29387
 40
0.80001
 50
61.98524
 51
73.8082
  0
ARC
  8
0
  6
CONTINUOUS
 62
     7
 10
271.5612
 20
53.30016
 40
0.5
 50
0.0
 51
89.99999
  0
ARC
  8
0
  6
CONTINUOUS
 62
     7
 10
260.5612
 20
52.30016
 40
0.5
 50
270.0
 51
89.99999
  0
ARC
  8
0
  6
CONTINUOUS
 62
     7
 10
262.5612
 20
52.30016
 40
0.5
 50
89.99999
 51
270.0
  0
CIRCLE
  8
0
  6
CONTINUOUS
 62
     7
 10
173.937
 20
-162.6791
 40
1.5
  0
CIRCLE
  8
0
  6
CONTINUOUS
 62
     7
 10
163.937
 20
-181.6791
 40
1.5
  0
CIRCLE
  8
0
  6
CONTINUOUS
 62
     7
 10
163.937
 20
-181.6791
 40
1.0
  0
ARC
  8
0
  6
CONTINUOUS
 62
     7
 10
160.437
 20
-185.1791
 40
0.5
 50
180.0
 51
270.0
  0
ARC
  8
0
  6
CONTINUOUS
 62
     7
 10
160.437
 20
-159.1791
 40
0.5
 50
89.99999
 51
180.0
  0
ARC
  8
0
  6
CONTINUOUS
 62
     7
 10
177.437
 20
-159.1791
 40
0.5
 50
0.0
 51
89.99999
  0
ARC
  8
0
  6
CONTINUOUS
 62
     7
 10
177.437
 20
-185.1791
 40
0.5
 50
270.0
 51
0.0
  0
ARC
  8
0
  6
CONTINUOUS
 62
     7
 10
162.937
 20
-161.6791
 40
3.2
 50
270.0
 51
0.0
  0
ARC
  8
0
  6
CONTINUOUS
 62
     7
 10
174.937
 20
-182.6791
 40
3.2
 50
89.99999
 51
180.0
  0
ARC
  8
0
  6
CONTINUOUS
 62
     7
 10
171.237
 20
-185.1791
 40
0.5
 50
270.0
 51
0.0
  0
ARC
  8
0
  6
CONTINUOUS
 62
     7
 10
177.437
 20
-178.9791
 40
0.5
 50
270.0
 51
0.0
  0
ARC
  8
0
  6
CONTINUOUS
 62
     7
 10
160.437
 20
-165.3791
 40
0.5
 50
89.99999
 51
180.0
  0
ARC
  8
0
  6
CONTINUOUS
 62
     7
 10
166.637
 20
-159.1791
 40
0.5
 50
89.99999
 51
180.0
  0
CIRCLE
  8
0
  6
CONTINUOUS
 62
     7
 10
174.937
 20
-182.6791
 40
2.8
  0
ARC
  8
0
  6
CONTINUOUS
 62
     7
 10
173.6642
 20
-182.6791
 40
0.60001
 50
315.0
 51
45.0
  0
ARC
  8
0
  6
CONTINUOUS
 62
     7
 10
174.937
 20
-183.9519
 40
0.60001
 50
45.0
 51
135.0
  0
ARC
  8
0
  6
CONTINUOUS
 62
     7
 10
174.937
 20
-181.4063
 40
0.60001
 50
225.0
 51
315.0
  0
ARC
  8
0
  6
CONTINUOUS
 62
     7
 10
176.2098
 20
-182.6791
 40
0.60001
 50
135.0
 51
225.0
  0
CIRCLE
  8
0
  6
CONTINUOUS
 62
     7
 10
162.937
 20
-161.6791
 40
2.8
  0
ARC
  8
0
  6
CONTINUOUS
 62
     7
 10
161.6642
 20
-161.6791
 40
0.60001
 50
315.0
 51
45.0
  0
ARC
  8
0
  6
CONTINUOUS
 62
     7
 10
162.937
 20
-162.9519
 40
0.60001
 50
45.0
 51
135.0
  0
ARC
  8
0
  6
CONTINUOUS
 62
     7
 10
162.937
 20
-160.4063
 40
0.60001
 50
225.0
 51
315.0
  0
ARC
  8
0
  6
CONTINUOUS
 62
     7
 10
164.2097
 20
-161.6791
 40
0.60001
 50
135.0
 51
225.0
  0
CIRCLE
  8
0
  6
CONTINUOUS
 62
     7
 10
163.937
 20
-181.6791
 40
2.35
  0
CIRCLE
  8
0
  6
CONTINUOUS
 62
     7
 10
173.937
 20
-162.6791
 40
2.35
  0
CIRCLE
  8
0
  6
CONTINUOUS
 62
     7
 10
173.937
 20
-162.6791
 40
1.0
  0
ARC
  8
0
  6
CONTINUOUS
 62
     7
 10
162.737
 20
-150.9791
 40
0.8
 50
89.99999
 51
180.0
  0
ARC
  8
0
  6
CONTINUOUS
 62
     7
 10
175.137
 20
-150.9791
 40
0.8
 50
0.0
 51
89.99999
  0
TEXT
  8
0
  6
CONTINUOUS
 62
     7
 10
-350.9787
 20
200.5946
 40
8.5
  1
MODEL : 180-4E1-PLL
 41
0.8
  7
STANDARD
  0
TEXT
  8
0
  6
CONTINUOUS
 62
     7
 10
229.0661
 20
236.2625
 40
8.5
  1
DATE : NOV ,1989
 41
0.8
  7
STANDARD
  0
TEXT
  8
0
  6
CONTINUOUS
 62
     7
 10
-366.8907
 20
235.5575
 40
10.0
  1
180 CONNECTOR,PLL
 41
0.69402
  7
STANDARD
  0
TEXT
  8
0
  6
CONTINUOUS
 62
     7
 10
19.88928
 20
200.5946
 40
8.5
  1
MODEL : A180-4E1-PLL
 41
0.8
  7
STANDARD
  0
TEXT
  8
0
  6
CONTINUOUS
 62
     7
 10
-312.8928
 20
4.66017
 40
2.0
  1
R1
 41
0.8
  7
STANDARD
  0
TEXT
  8
0
  6
CONTINUOUS
 62
     7
 10
-302.8928
 20
-20.33983
 40
2.0
  1
P
 41
0.8
  7
STANDARD
  0
TEXT
  8
0
  6
CONTINUOUS
 62
     7
 10
-304.8928
 20
-33.33982
 40
2.0
  1
R2
 41
0.8
  7
STANDARD
  0
TEXT
  8
0
  6
CONTINUOUS
 62
     7
 10
-39.14373
 20
-28.33995
 40
2.0
  1
B
 41
0.8
  7
STANDARD
  0
TEXT
  8
0
  6
CONTINUOUS
 62
     7
 10
-47.64373
 20
-0.33995
 40
2.0
  1
A
 41
0.8
  7
STANDARD
  0
ENDSEC
  0
EOF
