  0
SECTION
  2
HEADER
  9
$ACADVER
  1
AC1002
  9
$INSBASE
 10
0.0
 20
0.0
  9
$EXTMIN
 10
-370.8736
 20
-254.5585
  9
$EXTMAX
 10
370.8736
 20
254.5585
  9
$LIMMIN
 10
0.0
 20
0.0
  9
$LIMMAX
 10
12.0
 20
9.0
  9
$VIEWCTR
 10
28.6093211
 20
0.0
  9
$VIEWSIZE
 40
509.117
  9
$SNAPMODE
 70
     0
  9
$SNAPUNIT
 10
1.0
 20
1.0
  9
$SNAPBASE
 10
0.0
 20
0.0
  9
$SNAPANG
 50
0.0
  9
$SNAPSTYLE
 70
     0
  9
$SNAPISOPAIR
 70
     0
  9
$GRIDMODE
 70
     0
  9
$GRIDUNIT
 10
0.0
 20
0.0
  9
$ORTHOMODE
 70
     0
  9
$REGENMODE
 70
     1
  9
$FILLMODE
 70
     1
  9
$QTEXTMODE
 70
     0
  9
$DRAGMODE
 70
     2
  9
$LTSCALE
 40
1.0
  9
$OSMODE
 70
     0
  9
$ATTMODE
 70
     1
  9
$TEXTSIZE
 40
0.2
  9
$TRACEWID
 40
0.05
  9
$TEXTSTYLE
  7
AAA
  9
$CLAYER
  8
0
  9
$CELTYPE
  6
BYLAYER
  9
$CECOLOR
 62
   256
  9
$DIMSCALE
 40
1.0
  9
$DIMASZ
 40
0.18
  9
$DIMEXO
 40
0.0625
  9
$DIMDLI
 40
0.38
  9
$DIMRND
 40
0.0
  9
$DIMDLE
 40
0.0
  9
$DIMEXE
 40
0.18
  9
$DIMTP
 40
0.0
  9
$DIMTM
 40
0.0
  9
$DIMTXT
 40
0.18
  9
$DIMCEN
 40
0.09
  9
$DIMTSZ
 40
0.0
  9
$DIMTOL
 70
     0
  9
$DIMLIM
 70
     0
  9
$DIMTIH
 70
     1
  9
$DIMTOH
 70
     1
  9
$DIMSE1
 70
     0
  9
$DIMSE2
 70
     0
  9
$DIMTAD
 70
     0
  9
$DIMZIN
 70
     0
  9
$DIMBLK
  1

  9
$LUNITS
 70
     2
  9
$LUPREC
 70
     4
  9
$AXISMODE
 70
     0
  9
$AXISUNIT
 10
0.0
 20
0.0
  9
$SKETCHINC
 40
0.1
  9
$FILLETRAD
 40
0.0
  9
$AUNITS
 70
     0
  9
$AUPREC
 70
     0
  9
$MENU
  1
ACAD
  9
$ELEVATION
 40
0.0
  9
$THICKNESS
 40
0.0
  9
$VIEWDIR
 10
0.0
 20
0.0
 30
1.0
  9
$LIMCHECK
 70
     0
  9
$BLIPMODE
 70
     1
  9
$CHAMFERA
 40
0.0
  9
$CHAMFERB
 40
0.0
  9
$FASTZOOM
 70
     1
  9
$SKPOLY
 70
     0
  9
$TDCREATE
 40
2447882.4231019014
  9
$TDUPDATE
 40
2447882.4231019014
  9
$TDINDWG
 40
0.0096990741
  9
$TDUSRTIMER
 40
0.0096990741
  9
$USRTIMER
 70
     1
  9
$ANGBASE
 50
0.0
  9
$ANGDIR
 70
     0
  9
$PDMODE
 70
     0
  9
$PDSIZE
 40
0.0
  9
$PLINEWID
 40
0.0
  9
$COORDS
 70
     0
  9
$USERI1
 70
     0
  9
$USERI2
 70
     0
  9
$USERI3
 70
     0
  9
$USERI4
 70
     0
  9
$USERI5
 70
     0
  9
$USERR1
 40
0.0
  9
$USERR2
 40
0.0
  9
$USERR3
 40
0.0
  9
$USERR4
 40
0.0
  9
$USERR5
 40
0.0
  0
ENDSEC
  0
SECTION
  2
TABLES
  0
TABLE
  2
LTYPE
 70
     3
  0
LTYPE
  2
CONTINUOUS
 70
    64
  3
SOLID
 72
    65
 73
     0
 40
0.0
  0
LTYPE
  2
CENTER
 70
    64
  3
CENTER
 72
    65
 73
     4
 40
2.0
 49
1.25
 49
-0.25
 49
0.25
 49
-0.25
  0
LTYPE
  2
PHANTOM
 70
    64
  3
PHANTOM
 72
    65
 73
     6
 40
2.5
 49
1.25
 49
-0.25
 49
0.25
 49
-0.25
 49
0.25
 49
-0.25
  0
ENDTAB
  0
TABLE
  2
LAYER
 70
     1
  0
LAYER
  2
0
 70
    64
 62
     7
  6
CONTINUOUS
  0
ENDTAB
  0
TABLE
  2
STYLE
 70
     2
  0
STYLE
  2
AAA
 70
     0
 40
0.0
 41
1.0
 50
0.0
 71
     0
 42
0.2
  3
TXT
  4

  0
STYLE
  2
STANDARD
 70
    64
 40
0.0
 41
1.0
 50
0.0
 71
     0
 42
0.2
  3
TXT
  4
BIGFONT
  0
ENDTAB
  0
TABLE
  2
VIEW
 70
     0
  0
ENDTAB
  0
ENDSEC
  0
SECTION
  2
BLOCKS
  0
ENDSEC
  0
SECTION
  2
ENTITIES
  0
POINT
  8
0
  6
CONTINUOUS
 62
     7
 10
-168.4367
 20
148.6774
  0
POINT
  8
0
  6
CONTINUOUS
 62
     7
 10
-195.4367
 20
148.6774
  0
POINT
  8
0
  6
CONTINUOUS
 62
     7
 10
-298.0613
 20
0.00012
  0
POINT
  8
0
  6
CONTINUOUS
 62
     7
 10
-313.5613
 20
0.00012
  0
POINT
  8
0
  6
CONTINUOUS
 62
     7
 10
-307.5613
 20
-28.19989
  0
POINT
  8
0
  6
CONTINUOUS
 62
     7
 10
-306.5613
 20
-1.79987
  0
POINT
  8
0
  6
CONTINUOUS
 62
     7
 10
-307.0613
 20
-14.99988
  0
POINT
  8
0
  6
CONTINUOUS
 62
     7
 10
-195.4368
 20
0.0
  0
POINT
  8
0
  6
CONTINUOUS
 62
     7
 10
-168.4368
 20
0.0
  0
POINT
  8
0
  6
CONTINUOUS
 62
     7
 10
-168.4368
 20
-50.70001
  0
POINT
  8
0
  6
CONTINUOUS
 62
     7
 10
-168.4368
 20
20.7
  0
POINT
  8
0
  6
CONTINUOUS
 62
     7
 10
-36.31221
 20
0.00011
  0
POINT
  8
0
  6
CONTINUOUS
 62
     7
 10
-42.81221
 20
-50.69989
  0
POINT
  8
0
  6
CONTINUOUS
 62
     7
 10
-43.31221
 20
-22.99991
  0
POINT
  8
0
  6
CONTINUOUS
 62
     7
 10
-42.31221
 20
-6.99991
  0
POINT
  8
0
  6
CONTINUOUS
 62
     7
 10
-42.81221
 20
20.7001
  0
POINT
  8
0
  6
CONTINUOUS
 62
     7
 10
-195.4367
 20
-187.2791
  0
POINT
  8
0
  6
CONTINUOUS
 62
     7
 10
-168.4367
 20
-187.2791
  0
POINT
  8
0
  6
CONTINUOUS
 62
     7
 10
175.4371
 20
148.6773
  0
POINT
  8
0
  6
CONTINUOUS
 62
     7
 10
68.81203
 20
0.00018
  0
POINT
  8
0
  6
CONTINUOUS
 62
     7
 10
41.81203
 20
0.00018
  0
POINT
  8
0
  6
CONTINUOUS
 62
     7
 10
68.81197
 20
-50.69981
  0
POINT
  8
0
  6
CONTINUOUS
 62
     7
 10
68.81197
 20
20.70018
  0
POINT
  8
0
  6
CONTINUOUS
 62
     7
 10
175.4368
 20
0.0
  0
POINT
  8
0
  6
CONTINUOUS
 62
     7
 10
168.9368
 20
20.7
  0
POINT
  8
0
  6
CONTINUOUS
 62
     7
 10
168.9368
 20
-50.7
  0
POINT
  8
0
  6
CONTINUOUS
 62
     7
 10
175.437
 20
-187.2791
  0
POINT
  8
0
  6
CONTINUOUS
 62
     7
 10
299.0611
 20
0.00008
  0
POINT
  8
0
  6
CONTINUOUS
 62
     7
 10
272.0611
 20
20.70007
  0
POINT
  8
0
  6
CONTINUOUS
 62
     7
 10
272.0611
 20
-50.69992
  0
LINE
  8
0
  6
CONTINUOUS
 62
     7
 10
218.3292
 20
-225.9564
 11
370.8736
 21
-225.9564
  0
LINE
  8
0
  6
CONTINUOUS
 62
     7
 10
-218.3292
 20
225.9564
 11
-218.3292
 21
254.5585
  0
LINE
  8
0
  6
CONTINUOUS
 62
     7
 10
-370.8736
 20
225.9564
 11
-218.3292
 21
225.9564
  0
LINE
  8
0
  6
CONTINUOUS
 62
     7
 10
-370.8736
 20
254.5585
 11
370.8736
 21
254.5585
  0
LINE
  8
0
  6
CONTINUOUS
 62
     7
 10
-370.8736
 20
-254.5585
 11
370.8736
 21
-254.5585
  0
LINE
  8
0
  6
CONTINUOUS
 62
     7
 10
370.8736
 20
254.5585
 11
370.8736
 21
-254.5585
  0
LINE
  8
0
  6
CONTINUOUS
 62
     7
 10
-370.8736
 20
-254.5585
 11
-370.8736
 21
254.5585
  0
LINE
  8
0
  6
CONTINUOUS
 62
     7
 10
218.3292
 20
-225.9564
 11
218.3292
 21
-254.5585
  0
LINE
  8
0
  6
CONTINUOUS
 62
     7
 10
218.3292
 20
254.5585
 11
218.3292
 21
225.9564
  0
LINE
  8
0
  6
CONTINUOUS
 62
     7
 10
218.3292
 20
225.9564
 11
370.8736
 21
225.9564
  0
LINE
  8
0
  6
CONTINUOUS
 62
     7
 10
258.3816
 20
-232.8337
 11
258.3816
 21
-236.1516
  0
LINE
  8
0
  6
CONTINUOUS
 62
     7
 10
258.3816
 20
-236.1516
 11
270.8235
 21
-236.1516
  0
LINE
  8
0
  6
CONTINUOUS
 62
     7
 10
258.3816
 20
-249.1465
 11
275.2473
 21
-249.1465
  0
LINE
  8
0
  6
CONTINUOUS
 62
     7
 10
258.3816
 20
-245.8286
 11
270.8235
 21
-245.8286
  0
LINE
  8
0
  6
CONTINUOUS
 62
     7
 10
258.3816
 20
-232.8337
 11
273.0354
 21
-232.8337
  0
LINE
  8
0
  6
CONTINUOUS
 62
     7
 10
270.8235
 20
-236.1516
 11
270.8235
 21
-245.8286
  0
LINE
  8
0
  6
CONTINUOUS
 62
     7
 10
275.2473
 20
-235.0457
 11
275.2473
 21
-249.1465
  0
LINE
  8
0
  6
CONTINUOUS
 62
     7
 10
258.3816
 20
-245.8286
 11
258.3816
 21
-249.1465
  0
LINE
  8
0
  6
CONTINUOUS
 62
     7
 10
293.4954
 20
-236.1516
 11
293.4954
 21
-246.9346
  0
LINE
  8
0
  6
CONTINUOUS
 62
     7
 10
277.7357
 20
-232.8337
 11
277.7357
 21
-236.1516
  0
LINE
  8
0
  6
CONTINUOUS
 62
     7
 10
293.9378
 20
-232.585
 11
295.5138
 21
-232.585
  0
LINE
  8
0
  6
CONTINUOUS
 62
     7
 10
293.9378
 20
-230.373
 11
295.5138
 21
-230.373
  0
LINE
  8
0
  6
CONTINUOUS
 62
     7
 10
295.5138
 20
-230.373
 11
295.5138
 21
-232.585
  0
LINE
  8
0
  6
CONTINUOUS
 62
     7
 10
293.9378
 20
-230.373
 11
293.9378
 21
-232.585
  0
LINE
  8
0
  6
CONTINUOUS
 62
     7
 10
293.1083
 20
-230.373
 11
293.1083
 21
-232.585
  0
LINE
  8
0
  6
CONTINUOUS
 62
     7
 10
282.7661
 20
-230.373
 11
286.2009
 21
-230.373
  0
LINE
  8
0
  6
CONTINUOUS
 62
     7
 10
285.5413
 20
-232.8335
 11
286.2006
 21
-230.3727
  0
LINE
  8
0
  6
CONTINUOUS
 62
     7
 10
282.1067
 20
-232.8337
 11
282.766
 21
-230.373
  0
LINE
  8
0
  6
CONTINUOUS
 62
     7
 10
285.5416
 20
-232.8337
 11
290.1776
 21
-232.8337
  0
LINE
  8
0
  6
CONTINUOUS
 62
     7
 10
284.6526
 20
-236.1516
 11
289.0716
 21
-236.1516
  0
LINE
  8
0
  6
CONTINUOUS
 62
     7
 10
286.6429
 20
-249.1465
 11
291.2836
 21
-249.1465
  0
LINE
  8
0
  6
CONTINUOUS
 62
     7
 10
285.7537
 20
-245.8286
 11
286.6427
 21
-249.1463
  0
LINE
  8
0
  6
CONTINUOUS
 62
     7
 10
285.7538
 20
-245.8286
 11
289.0716
 21
-245.8286
  0
LINE
  8
0
  6
CONTINUOUS
 62
     7
 10
281.1707
 20
-249.1466
 11
284.6527
 21
-236.1517
  0
LINE
  8
0
  6
CONTINUOUS
 62
     7
 10
277.7357
 20
-236.1516
 11
281.2177
 21
-236.1516
  0
LINE
  8
0
  6
CONTINUOUS
 62
     7
 10
277.7354
 20
-249.1462
 11
281.2175
 21
-236.1513
  0
LINE
  8
0
  6
CONTINUOUS
 62
     7
 10
277.7357
 20
-249.1465
 11
281.1706
 21
-249.1465
  0
LINE
  8
0
  6
CONTINUOUS
 62
     7
 10
277.7357
 20
-232.8337
 11
282.1067
 21
-232.8337
  0
LINE
  8
0
  6
CONTINUOUS
 62
     7
 10
289.0716
 20
-236.1516
 11
289.0716
 21
-245.8286
  0
LINE
  8
0
  6
CONTINUOUS
 62
     7
 10
291.5323
 20
-230.373
 11
293.1083
 21
-230.373
  0
LINE
  8
0
  6
CONTINUOUS
 62
     7
 10
291.5323
 20
-232.585
 11
293.1083
 21
-232.585
  0
LINE
  8
0
  6
CONTINUOUS
 62
     7
 10
291.5323
 20
-230.373
 11
291.5323
 21
-232.585
  0
LINE
  8
0
  6
CONTINUOUS
 62
     7
 10
301.5135
 20
-230.373
 11
305.9373
 21
-230.373
  0
LINE
  8
0
  6
CONTINUOUS
 62
     7
 10
308.3423
 20
-240.1951
 11
311.2962
 21
-238.8176
  0
LINE
  8
0
  6
CONTINUOUS
 62
     7
 10
305.9373
 20
-242.7344
 11
305.9373
 21
-249.1465
  0
LINE
  8
0
  6
CONTINUOUS
 62
     7
 10
301.5135
 20
-243.379
 11
301.5135
 21
-249.1465
  0
LINE
  8
0
  6
CONTINUOUS
 62
     7
 10
305.9373
 20
-232.8337
 11
310.3611
 21
-232.8337
  0
LINE
  8
0
  6
CONTINUOUS
 62
     7
 10
305.9373
 20
-230.373
 11
305.9373
 21
-232.8337
  0
LINE
  8
0
  6
CONTINUOUS
 62
     7
 10
301.5135
 20
-230.373
 11
301.5135
 21
-232.8337
  0
LINE
  8
0
  6
CONTINUOUS
 62
     7
 10
312.573
 20
-235.0457
 11
312.573
 21
-236.8128
  0
LINE
  8
0
  6
CONTINUOUS
 62
     7
 10
308.3424
 20
-240.195
 11
312.5734
 21
-242.168
  0
LINE
  8
0
  6
CONTINUOUS
 62
     7
 10
305.9373
 20
-242.7343
 11
312.5731
 21
-245.8286
  0
LINE
  8
0
  6
CONTINUOUS
 62
     7
 10
296.2603
 20
-242.1678
 11
296.2603
 21
-245.8286
  0
LINE
  8
0
  6
CONTINUOUS
 62
     7
 10
296.2607
 20
-242.1682
 11
309.1626
 21
-236.1519
  0
LINE
  8
0
  6
CONTINUOUS
 62
     7
 10
296.2603
 20
-245.8286
 11
301.5136
 21
-243.3789
  0
LINE
  8
0
  6
CONTINUOUS
 62
     7
 10
312.573
 20
-242.1678
 11
312.573
 21
-245.8286
  0
LINE
  8
0
  6
CONTINUOUS
 62
     7
 10
296.2603
 20
-232.8337
 11
296.2603
 21
-236.1516
  0
LINE
  8
0
  6
CONTINUOUS
 62
     7
 10
301.5135
 20
-249.1465
 11
305.9373
 21
-249.1465
  0
LINE
  8
0
  6
CONTINUOUS
 62
     7
 10
296.2603
 20
-236.1516
 11
309.1621
 21
-236.1516
  0
LINE
  8
0
  6
CONTINUOUS
 62
     7
 10
296.2603
 20
-232.8337
 11
301.5135
 21
-232.8337
  0
LINE
  8
0
  6
CONTINUOUS
 62
     7
 10
327.504
 20
-236.4047
 11
328.73
 21
-235.9171
  0
LINE
  8
0
  6
CONTINUOUS
 62
     7
 10
327.5034
 20
-236.4044
 11
327.5034
 21
-249.1465
  0
LINE
  8
0
  6
CONTINUOUS
 62
     7
 10
323.0795
 20
-249.1465
 11
327.5034
 21
-249.1465
  0
LINE
  8
0
  6
CONTINUOUS
 62
     7
 10
313.9553
 20
-241.7925
 11
323.0794
 21
-238.1637
  0
LINE
  8
0
  6
CONTINUOUS
 62
     7
 10
313.9555
 20
-238.222
 11
326.8062
 21
-233.1111
  0
LINE
  8
0
  6
CONTINUOUS
 62
     7
 10
323.0795
 20
-238.1638
 11
323.0795
 21
-249.1465
  0
LINE
  8
0
  6
CONTINUOUS
 62
     7
 10
327.5034
 20
-231.3684
 11
327.5034
 21
-232.0834
  0
LINE
  8
0
  6
CONTINUOUS
 62
     7
 10
330.8211
 20
-231.3684
 11
330.8211
 21
-232.8338
  0
LINE
  8
0
  6
CONTINUOUS
 62
     7
 10
313.9554
 20
-238.2219
 11
313.9554
 21
-241.7925
  0
LINE
  8
0
  6
CONTINUOUS
 62
     7
 10
327.5034
 20
-231.3684
 11
330.8211
 21
-231.3684
  0
LINE
  8
0
  6
CONTINUOUS
 62
     7
 10
0.0
 20
254.5585
 11
0.0
 21
-254.5585
  0
LINE
  8
0
  6
CENTER
 62
     2
 10
-181.9368
 20
58.66667
 11
-181.9368
 21
-87.72025
  0
LINE
  8
0
  6
CONTINUOUS
 62
     7
 10
-168.4368
 20
23.2
 11
-168.4368
 21
-53.20001
  0
LINE
  8
0
  6
CONTINUOUS
 62
     7
 10
-195.4368
 20
23.2
 11
-195.4368
 21
-53.20001
  0
LINE
  8
0
  6
CONTINUOUS
 62
     7
 10
-195.4368
 20
-36.0
 11
-168.4368
 21
-36.0
  0
LINE
  8
0
  6
CONTINUOUS
 62
     7
 10
-195.4368
 20
6.0
 11
-168.4368
 21
6.0
  0
LINE
  8
0
  6
CONTINUOUS
 62
     7
 10
-194.4367
 20
24.19995
 11
-195.4367
 21
23.19997
  0
LINE
  8
0
  6
CONTINUOUS
 62
     7
 10
-169.4368
 20
24.2
 11
-168.4368
 21
23.2
  0
LINE
  8
0
  6
CONTINUOUS
 62
     7
 10
-171.4368
 20
-28.34167
 11
-168.4368
 21
-28.34167
  0
LINE
  8
0
  6
CONTINUOUS
 62
     7
 10
-171.4368
 20
-31.65833
 11
-168.4368
 21
-31.65833
  0
LINE
  8
0
  6
CONTINUOUS
 62
     7
 10
-171.4368
 20
-28.34167
 11
-171.4368
 21
-31.65833
  0
LINE
  8
0
  6
CONTINUOUS
 62
     7
 10
-194.4368
 20
24.2
 11
-150.4368
 21
24.2
  0
LINE
  8
0
  6
CONTINUOUS
 62
     7
 10
-195.4368
 20
23.2
 11
-168.4368
 21
23.2
  0
LINE
  8
0
  6
CONTINUOUS
 62
     7
 10
-195.4368
 20
-53.2
 11
-194.4368
 21
-54.2
  0
LINE
  8
0
  6
CONTINUOUS
 62
     7
 10
-168.4368
 20
-53.19999
 11
-169.4368
 21
-54.19999
  0
LINE
  8
0
  6
CONTINUOUS
 62
     7
 10
-195.4368
 20
-53.20001
 11
-168.4368
 21
-53.20001
  0
LINE
  8
0
  6
CONTINUOUS
 62
     7
 10
-194.4368
 20
-54.20001
 11
-150.4368
 21
-54.20001
  0
LINE
  8
0
  6
CENTER
 62
     2
 10
-174.4368
 20
3.20863
 11
-174.4368
 21
-3.15509
  0
LINE
  8
0
  6
CENTER
 62
     2
 10
-177.4665
 20
-30.0
 11
-167.453
 21
-30.0
  0
LINE
  8
0
  6
CENTER
 62
     2
 10
-177.4665
 20
0.0
 11
-171.3836
 21
0.0
  0
LINE
  8
0
  6
CENTER
 62
     2
 10
-174.4368
 20
-27.11261
 11
-174.4368
 21
-33.10199
  0
LINE
  8
0
  6
CONTINUOUS
 62
     7
 10
-193.9368
 20
49.39999
 11
-168.9368
 21
49.39999
  0
LINE
  8
0
  6
CONTINUOUS
 62
     7
 10
-193.9368
 20
54.89999
 11
-193.9368
 21
24.2
  0
LINE
  8
0
  6
CONTINUOUS
 62
     7
 10
-169.9368
 20
49.39999
 11
-169.9368
 21
24.2
  0
LINE
  8
0
  6
CONTINUOUS
 62
     7
 10
-175.6368
 20
50.39999
 11
-170.2368
 21
50.39999
  0
LINE
  8
0
  6
CENTER
 62
     2
 10
-172.9368
 20
57.90001
 11
-172.9368
 21
46.39999
  0
LINE
  8
0
  6
CONTINUOUS
 62
     7
 10
-170.3868
 20
51.0
 11
-175.4868
 21
51.0
  0
LINE
  8
0
  6
CONTINUOUS
 62
     7
 10
-173.2367
 20
50.40001
 11
-173.3975
 21
51.00001
  0
LINE
  8
0
  6
CONTINUOUS
 62
     7
 10
-172.6369
 20
50.99998
 11
-172.4761
 21
50.4
  0
LINE
  8
0
  6
CONTINUOUS
 62
     7
 10
-170.3868
 20
51.0
 11
-170.3868
 21
50.39999
  0
LINE
  8
0
  6
CONTINUOUS
 62
     7
 10
-175.4868
 20
51.0
 11
-175.4868
 21
50.39999
  0
LINE
  8
0
  6
CONTINUOUS
 62
     7
 10
-170.6868
 20
51.69376
 11
-170.6868
 21
51.0
  0
LINE
  8
0
  6
CONTINUOUS
 62
     7
 10
-175.1868
 20
51.69374
 11
-175.1868
 21
51.0
  0
LINE
  8
0
  6
CENTER
 62
     2
 10
-190.9368
 20
57.90001
 11
-190.9368
 21
46.39999
  0
LINE
  8
0
  6
CONTINUOUS
 62
     7
 10
-149.9368
 20
54.2
 11
-149.9368
 21
24.7
  0
LINE
  8
0
  6
CONTINUOUS
 62
     7
 10
-169.9368
 20
49.2
 11
-168.9368
 21
49.2
  0
LINE
  8
0
  6
CONTINUOUS
 62
     7
 10
-168.9368
 20
49.2
 11
-168.9368
 21
56.7
  0
LINE
  8
0
  6
CONTINUOUS
 62
     7
 10
-193.9368
 20
54.89999
 11
-168.9368
 21
54.89999
  0
LINE
  8
0
  6
CONTINUOUS
 62
     7
 10
-175.6368
 20
54.89999
 11
-175.6368
 21
50.39999
  0
LINE
  8
0
  6
CONTINUOUS
 62
     7
 10
-170.2368
 20
54.89999
 11
-170.2368
 21
50.39999
  0
LINE
  8
0
  6
CENTER
 62
     2
 10
-166.9368
 20
79.7
 11
-166.9368
 21
51.7
  0
LINE
  8
0
  6
CONTINUOUS
 62
     7
 10
-166.0868
 20
66.7
 11
-166.0868
 21
62.2487
  0
LINE
  8
0
  6
CONTINUOUS
 62
     7
 10
-167.7868
 20
66.7
 11
-167.7868
 21
62.70421
  0
LINE
  8
0
  6
CONTINUOUS
 62
     7
 10
-167.2568
 20
76.7
 11
-167.2568
 21
66.7
  0
LINE
  8
0
  6
CONTINUOUS
 62
     7
 10
-166.6168
 20
76.7
 11
-166.6168
 21
66.7
  0
LINE
  8
0
  6
CONTINUOUS
 62
     7
 10
-167.7868
 20
66.7
 11
-166.0868
 21
66.7
  0
LINE
  8
0
  6
CONTINUOUS
 62
     7
 10
-167.2568
 20
76.7
 11
-166.6168
 21
76.7
  0
LINE
  8
0
  6
PHANTOM
 62
     2
 10
-169.7868
 20
61.68723
 11
-164.0867
 21
60.15991
  0
LINE
  8
0
  6
PHANTOM
 62
     2
 10
-169.7868
 20
63.24014
 11
-164.0867
 21
61.71282
  0
LINE
  8
0
  6
CONTINUOUS
 62
     7
 10
-167.7868
 20
61.15129
 11
-167.7868
 21
56.7
  0
LINE
  8
0
  6
CONTINUOUS
 62
     7
 10
-166.0868
 20
60.69579
 11
-166.0868
 21
56.7
  0
LINE
  8
0
  6
CONTINUOUS
 62
     7
 10
-168.9368
 20
54.7
 11
-150.4368
 21
54.7
  0
LINE
  8
0
  6
CONTINUOUS
 62
     7
 10
-163.9368
 20
54.7
 11
-163.9368
 21
56.2
  0
LINE
  8
0
  6
CONTINUOUS
 62
     7
 10
-168.9368
 20
56.7
 11
-164.4368
 21
56.7
  0
LINE
  8
0
  6
CONTINUOUS
 62
     7
 10
-193.9368
 20
-79.39999
 11
-168.9368
 21
-79.39999
  0
LINE
  8
0
  6
CONTINUOUS
 62
     7
 10
-193.9368
 20
-84.89999
 11
-193.9368
 21
-54.19998
  0
LINE
  8
0
  6
CONTINUOUS
 62
     7
 10
-169.9368
 20
-79.39999
 11
-169.9368
 21
-54.20001
  0
LINE
  8
0
  6
CENTER
 62
     2
 10
-190.9368
 20
-87.89999
 11
-190.9368
 21
-76.39999
  0
LINE
  8
0
  6
CONTINUOUS
 62
     7
 10
-193.4868
 20
-81.0
 11
-188.3868
 21
-81.0
  0
LINE
  8
0
  6
CONTINUOUS
 62
     7
 10
-190.6368
 20
-80.39999
 11
-190.476
 21
-80.99998
  0
LINE
  8
0
  6
CONTINUOUS
 62
     7
 10
-191.2368
 20
-80.99996
 11
-191.3975
 21
-80.39996
  0
LINE
  8
0
  6
CONTINUOUS
 62
     7
 10
-193.4868
 20
-81.0
 11
-193.4868
 21
-80.39999
  0
LINE
  8
0
  6
CONTINUOUS
 62
     7
 10
-188.3868
 20
-81.0
 11
-188.3868
 21
-80.39999
  0
LINE
  8
0
  6
CONTINUOUS
 62
     7
 10
-193.1868
 20
-81.69376
 11
-193.1868
 21
-81.0
  0
LINE
  8
0
  6
CONTINUOUS
 62
     7
 10
-188.6868
 20
-81.69376
 11
-188.6868
 21
-81.0
  0
LINE
  8
0
  6
CENTER
 62
     2
 10
-172.9368
 20
-87.89999
 11
-172.9368
 21
-76.39999
  0
LINE
  8
0
  6
CONTINUOUS
 62
     7
 10
-149.9368
 20
-84.20001
 11
-149.9368
 21
-54.70001
  0
LINE
  8
0
  6
CONTINUOUS
 62
     7
 10
-168.9368
 20
-84.69998
 11
-150.4368
 21
-84.69998
  0
LINE
  8
0
  6
CONTINUOUS
 62
     7
 10
-168.9368
 20
-79.20001
 11
-168.9368
 21
-86.69998
  0
LINE
  8
0
  6
CONTINUOUS
 62
     7
 10
-193.9368
 20
-84.89999
 11
-168.9368
 21
-84.89999
  0
LINE
  8
0
  6
CONTINUOUS
 62
     7
 10
-188.2368
 20
-84.89999
 11
-188.2368
 21
-80.39999
  0
LINE
  8
0
  6
CENTER
 62
     2
 10
-166.9368
 20
-109.7
 11
-166.9368
 21
-81.69998
  0
LINE
  8
0
  6
CONTINUOUS
 62
     7
 10
-166.0868
 20
-96.70001
 11
-166.0868
 21
-92.70419
  0
LINE
  8
0
  6
CONTINUOUS
 62
     7
 10
-167.7868
 20
-96.70001
 11
-167.7868
 21
-92.24869
  0
LINE
  8
0
  6
CONTINUOUS
 62
     7
 10
-167.2568
 20
-106.7
 11
-167.2568
 21
-96.70001
  0
LINE
  8
0
  6
CONTINUOUS
 62
     7
 10
-166.6168
 20
-106.7
 11
-166.6168
 21
-96.70001
  0
LINE
  8
0
  6
CONTINUOUS
 62
     7
 10
-167.7868
 20
-96.69998
 11
-166.0868
 21
-96.69998
  0
LINE
  8
0
  6
CONTINUOUS
 62
     7
 10
-167.2568
 20
-106.7
 11
-166.6168
 21
-106.7
  0
LINE
  8
0
  6
CONTINUOUS
 62
     7
 10
-188.2368
 20
-80.39999
 11
-193.9368
 21
-80.39999
  0
LINE
  8
0
  6
CONTINUOUS
 62
     7
 10
-168.9368
 20
-79.19998
 11
-169.9368
 21
-79.19998
  0
LINE
  8
0
  6
PHANTOM
 62
     2
 10
-164.0868
 20
-93.23998
 11
-169.7867
 21
-91.71268
  0
LINE
  8
0
  6
PHANTOM
 62
     2
 10
-164.0868
 20
-91.6871
 11
-169.7868
 21
-90.15979
  0
LINE
  8
0
  6
CONTINUOUS
 62
     7
 10
-166.0868
 20
-91.15131
 11
-166.0868
 21
-86.70001
  0
LINE
  8
0
  6
CONTINUOUS
 62
     7
 10
-167.7868
 20
-90.6958
 11
-167.7868
 21
-86.70001
  0
LINE
  8
0
  6
CONTINUOUS
 62
     7
 10
-163.9368
 20
-84.69998
 11
-163.9368
 21
-86.19998
  0
LINE
  8
0
  6
CONTINUOUS
 62
     7
 10
-168.9368
 20
-86.69998
 11
-164.4368
 21
-86.69998
  0
LINE
  8
0
  6
CONTINUOUS
 62
     7
 10
-169.4367
 20
134.6774
 11
-169.4367
 21
134.1774
  0
LINE
  8
0
  6
CONTINUOUS
 62
     7
 10
-168.4367
 20
149.6774
 11
-168.4367
 21
150.6774
  0
LINE
  8
0
  6
CENTER
 62
     2
 10
-197.833
 20
142.1774
 11
-147.4939
 21
142.1774
  0
LINE
  8
0
  6
CONTINUOUS
 62
     7
 10
-194.9367
 20
151.1774
 11
-168.9367
 21
151.1774
  0
LINE
  8
0
  6
CONTINUOUS
 62
     7
 10
-194.9367
 20
133.1774
 11
-168.9367
 21
133.1774
  0
LINE
  8
0
  6
CONTINUOUS
 62
     7
 10
-168.4367
 20
133.6774
 11
-168.4367
 21
134.6774
  0
LINE
  8
0
  6
CONTINUOUS
 62
     7
 10
-195.4367
 20
133.6774
 11
-195.4367
 21
150.6774
  0
LINE
  8
0
  6
CENTER
 62
     2
 10
-181.9367
 20
130.4274
 11
-181.9367
 21
154.4049
  0
LINE
  8
0
  6
CONTINUOUS
 62
     7
 10
-194.4367
 20
150.1774
 11
-169.4367
 21
150.1774
  0
LINE
  8
0
  6
CONTINUOUS
 62
     7
 10
-194.4367
 20
134.1774
 11
-169.4367
 21
134.1774
  0
LINE
  8
0
  6
CONTINUOUS
 62
     7
 10
-194.4367
 20
150.1774
 11
-194.4367
 21
134.1774
  0
LINE
  8
0
  6
CONTINUOUS
 62
     7
 10
-169.4367
 20
150.1774
 11
-169.4367
 21
149.6774
  0
LINE
  8
0
  6
CONTINUOUS
 62
     7
 10
-169.4367
 20
134.1774
 11
-168.5831
 21
133.3239
  0
LINE
  8
0
  6
CONTINUOUS
 62
     7
 10
-194.4367
 20
134.1774
 11
-195.2903
 21
133.3239
  0
LINE
  8
0
  6
CONTINUOUS
 62
     7
 10
-169.4367
 20
150.1774
 11
-168.5832
 21
151.031
  0
LINE
  8
0
  6
CONTINUOUS
 62
     7
 10
-194.4367
 20
150.1775
 11
-195.2903
 21
151.031
  0
LINE
  8
0
  6
CONTINUOUS
 62
     7
 10
-169.9367
 20
149.6774
 11
-169.9367
 21
134.6774
  0
LINE
  8
0
  6
CONTINUOUS
 62
     7
 10
-172.6367
 20
135.4475
 11
-172.6367
 21
135.1451
  0
LINE
  8
0
  6
CONTINUOUS
 62
     7
 10
-173.2367
 20
135.4475
 11
-173.2367
 21
135.1451
  0
LINE
  8
0
  6
CONTINUOUS
 62
     7
 10
-173.3975
 20
135.1694
 11
-173.3975
 21
135.4751
  0
LINE
  8
0
  6
CONTINUOUS
 62
     7
 10
-191.2367
 20
148.9073
 11
-191.2367
 21
149.2097
  0
LINE
  8
0
  6
CONTINUOUS
 62
     7
 10
-190.6367
 20
148.9073
 11
-190.6367
 21
149.2097
  0
LINE
  8
0
  6
CONTINUOUS
 62
     7
 10
-190.4759
 20
149.1855
 11
-190.4759
 21
148.8797
  0
LINE
  8
0
  6
CONTINUOUS
 62
     7
 10
-174.0398
 20
136.9421
 11
-173.6721
 21
137.3098
  0
LINE
  8
0
  6
CONTINUOUS
 62
     7
 10
-173.6721
 20
136.5744
 11
-173.3045
 21
136.9421
  0
LINE
  8
0
  6
CONTINUOUS
 62
     7
 10
-174.0398
 20
136.9421
 11
-173.6721
 21
136.5744
  0
LINE
  8
0
  6
CONTINUOUS
 62
     7
 10
-172.2014
 20
138.7805
 11
-171.8337
 21
138.4128
  0
LINE
  8
0
  6
CONTINUOUS
 62
     7
 10
-174.7009
 20
139.0739
 11
-173.6721
 21
138.0451
  0
LINE
  8
0
  6
CONTINUOUS
 62
     7
 10
-174.3332
 20
139.4416
 11
-173.3044
 21
138.4128
  0
LINE
  8
0
  6
CONTINUOUS
 62
     7
 10
-172.569
 20
138.4129
 11
-172.2013
 21
138.7806
  0
LINE
  8
0
  6
CONTINUOUS
 62
     7
 10
-172.2014
 20
138.0452
 11
-171.8337
 21
138.4129
  0
LINE
  8
0
  6
CONTINUOUS
 62
     7
 10
-172.5691
 20
136.942
 11
-171.5403
 21
135.9132
  0
LINE
  8
0
  6
CONTINUOUS
 62
     7
 10
-172.2013
 20
137.3098
 11
-171.1725
 21
136.281
  0
LINE
  8
0
  6
CONTINUOUS
 62
     7
 10
-192.0398
 20
145.9421
 11
-191.6721
 21
146.3098
  0
LINE
  8
0
  6
CONTINUOUS
 62
     7
 10
-191.6721
 20
145.5744
 11
-191.3045
 21
145.9421
  0
LINE
  8
0
  6
CONTINUOUS
 62
     7
 10
-192.0398
 20
145.942
 11
-191.6721
 21
145.5743
  0
LINE
  8
0
  6
CONTINUOUS
 62
     7
 10
-190.2014
 20
147.7805
 11
-189.8337
 21
147.4128
  0
LINE
  8
0
  6
CONTINUOUS
 62
     7
 10
-192.7009
 20
148.0739
 11
-191.6721
 21
147.0451
  0
LINE
  8
0
  6
CONTINUOUS
 62
     7
 10
-192.3332
 20
148.4416
 11
-191.3044
 21
147.4128
  0
LINE
  8
0
  6
CONTINUOUS
 62
     7
 10
-190.569
 20
147.4129
 11
-190.2013
 21
147.7806
  0
LINE
  8
0
  6
CONTINUOUS
 62
     7
 10
-190.2014
 20
147.0452
 11
-189.8337
 21
147.4129
  0
LINE
  8
0
  6
CONTINUOUS
 62
     7
 10
-190.569
 20
145.942
 11
-189.5402
 21
144.9133
  0
LINE
  8
0
  6
CONTINUOUS
 62
     7
 10
-190.2014
 20
146.3097
 11
-189.1726
 21
145.2809
  0
LINE
  8
0
  6
CENTER
 62
     2
 10
-172.9367
 20
141.6774
 11
-172.9367
 21
133.6774
  0
LINE
  8
0
  6
CENTER
 62
     2
 10
-190.9367
 20
150.6774
 11
-190.9367
 21
142.6774
  0
LINE
  8
0
  6
CENTER
 62
     2
 10
-194.9367
 20
146.6774
 11
-186.9367
 21
146.6774
  0
LINE
  8
0
  6
CENTER
 62
     2
 10
-176.9367
 20
137.6774
 11
-168.9367
 21
137.6774
  0
LINE
  8
0
  6
CONTINUOUS
 62
     7
 10
-193.4367
 20
149.6774
 11
-150.4367
 21
149.6774
  0
LINE
  8
0
  6
CONTINUOUS
 62
     7
 10
-193.9367
 20
149.1774
 11
-193.9367
 21
135.1774
  0
LINE
  8
0
  6
CONTINUOUS
 62
     7
 10
-193.4367
 20
134.6774
 11
-150.4367
 21
134.6774
  0
LINE
  8
0
  6
CONTINUOUS
 62
     7
 10
-149.9367
 20
149.1774
 11
-149.9367
 21
135.1774
  0
LINE
  8
0
  6
CONTINUOUS
 62
     7
 10
-168.9367
 20
149.6774
 11
-168.9367
 21
134.6774
  0
LINE
  8
0
  6
CONTINUOUS
 62
     7
 10
-175.6367
 20
137.6774
 11
-175.6367
 21
134.6774
  0
LINE
  8
0
  6
CONTINUOUS
 62
     7
 10
-170.2367
 20
137.6774
 11
-170.2367
 21
134.6774
  0
LINE
  8
0
  6
CENTER
 62
     2
 10
-168.4367
 20
145.5774
 11
-165.4367
 21
145.5774
  0
LINE
  8
0
  6
CENTER
 62
     2
 10
-168.4367
 20
143.4274
 11
-165.4367
 21
143.4274
  0
LINE
  8
0
  6
CENTER
 62
     2
 10
-168.4367
 20
140.9274
 11
-165.4367
 21
140.9274
  0
LINE
  8
0
  6
CENTER
 62
     2
 10
-168.4367
 20
138.7774
 11
-165.4367
 21
138.7774
  0
LINE
  8
0
  6
CENTER
 62
     2
 10
-166.9367
 20
149.1774
 11
-166.9367
 21
135.1774
  0
LINE
  8
0
  6
CONTINUOUS
 62
     7
 10
-168.9367
 20
148.1774
 11
-165.9367
 21
148.1774
  0
LINE
  8
0
  6
CONTINUOUS
 62
     7
 10
-163.9367
 20
146.1774
 11
-163.9367
 21
138.1774
  0
LINE
  8
0
  6
CONTINUOUS
 62
     7
 10
-168.9367
 20
136.1774
 11
-165.9367
 21
136.1774
  0
LINE
  8
0
  6
CONTINUOUS
 62
     7
 10
-190.9367
 20
143.9774
 11
-193.9367
 21
143.9774
  0
LINE
  8
0
  6
CONTINUOUS
 62
     7
 10
-188.2367
 20
146.6774
 11
-188.2367
 21
149.6774
  0
LINE
  8
0
  6
CONTINUOUS
 62
     7
 10
-316.0613
 20
6.00012
 11
-298.0613
 21
6.00012
  0
LINE
  8
0
  6
CENTER
 62
     2
 10
-307.0613
 20
60.39146
 11
-307.0613
 21
-90.14542
  0
LINE
  8
0
  6
CONTINUOUS
 62
     7
 10
-298.0613
 20
23.20012
 11
-298.0613
 21
-53.19989
  0
LINE
  8
0
  6
CONTINUOUS
 62
     7
 10
-316.0613
 20
23.20012
 11
-316.0613
 21
-53.19989
  0
LINE
  8
0
  6
CONTINUOUS
 62
     7
 10
-316.0613
 20
-35.99988
 11
-298.0613
 21
-35.99988
  0
LINE
  8
0
  6
CONTINUOUS
 62
     7
 10
-315.0613
 20
24.2001
 11
-316.0613
 21
23.20008
  0
LINE
  8
0
  6
CONTINUOUS
 62
     7
 10
-299.0613
 20
24.20011
 11
-298.0613
 21
23.20012
  0
LINE
  8
0
  6
CENTER
 62
     2
 10
-313.4095
 20
-28.19989
 11
-301.144
 21
-28.19989
  0
LINE
  8
0
  6
CENTER
 62
     2
 10
-313.2701
 20
-14.99988
 11
-300.7258
 21
-14.99988
  0
LINE
  8
0
  6
CENTER
 62
     2
 10
-312.7822
 20
-1.79987
 11
-300.7258
 21
-1.79987
  0
LINE
  8
0
  6
CENTER
 62
     2
 10
-313.5613
 20
2.7516
 11
-313.5613
 21
-2.41412
  0
LINE
  8
0
  6
CENTER
 62
     2
 10
-300.5613
 20
-27.28159
 11
-300.5613
 21
-32.80771
  0
LINE
  8
0
  6
CENTER
 62
     2
 10
-303.1369
 20
-29.99988
 11
-298.0613
 21
-29.99988
  0
LINE
  8
0
  6
CENTER
 62
     2
 10
-316.0613
 20
0.00012
 11
-311.0657
 21
0.00012
  0
LINE
  8
0
  6
CENTER
 62
     2
 10
-310.8254
 20
15.90012
 11
-303.257
 21
15.90012
  0
LINE
  8
0
  6
CONTINUOUS
 62
     7
 10
-315.0613
 20
24.20012
 11
-299.0613
 21
24.20012
  0
LINE
  8
0
  6
CONTINUOUS
 62
     7
 10
-316.0613
 20
23.20012
 11
-298.0613
 21
23.20012
  0
LINE
  8
0
  6
CONTINUOUS
 62
     7
 10
-308.4756
 20
14.48588
 11
-305.6472
 21
17.31431
  0
LINE
  8
0
  6
CONTINUOUS
 62
     7
 10
-308.4756
 20
17.31427
 11
-305.6472
 21
14.48585
  0
LINE
  8
0
  6
CONTINUOUS
 62
     7
 10
-308.9932
 20
16.41776
 11
-306.5437
 21
13.96826
  0
LINE
  8
0
  6
CONTINUOUS
 62
     7
 10
-307.579
 20
17.83197
 11
-305.1295
 21
15.38247
  0
LINE
  8
0
  6
CONTINUOUS
 62
     7
 10
-308.9933
 20
15.38248
 11
-306.5438
 21
17.83197
  0
LINE
  8
0
  6
CONTINUOUS
 62
     7
 10
-307.5791
 20
13.9683
 11
-305.1296
 21
16.41779
  0
LINE
  8
0
  6
CONTINUOUS
 62
     7
 10
-316.0613
 20
-53.19988
 11
-315.0613
 21
-54.19988
  0
LINE
  8
0
  6
CONTINUOUS
 62
     7
 10
-298.0612
 20
-53.19986
 11
-299.0613
 21
-54.19988
  0
LINE
  8
0
  6
CONTINUOUS
 62
     7
 10
-316.0613
 20
-53.19989
 11
-298.0613
 21
-53.19989
  0
LINE
  8
0
  6
CONTINUOUS
 62
     7
 10
-299.0613
 20
-54.19989
 11
-315.0613
 21
-54.19989
  0
LINE
  8
0
  6
CENTER
 62
     2
 10
-302.8947
 20
-45.89987
 11
-311.228
 21
-45.89987
  0
LINE
  8
0
  6
CONTINUOUS
 62
     7
 10
-308.4756
 20
-47.31407
 11
-305.6471
 21
-44.48564
  0
LINE
  8
0
  6
CONTINUOUS
 62
     7
 10
-308.4756
 20
-44.48569
 11
-305.6471
 21
-47.31412
  0
LINE
  8
0
  6
CONTINUOUS
 62
     7
 10
-307.5791
 20
-43.96807
 11
-305.1296
 21
-46.41755
  0
LINE
  8
0
  6
CONTINUOUS
 62
     7
 10
-308.9933
 20
-45.38228
 11
-306.5438
 21
-47.83178
  0
LINE
  8
0
  6
CONTINUOUS
 62
     7
 10
-308.9932
 20
-46.41752
 11
-306.5437
 21
-43.96802
  0
LINE
  8
0
  6
CONTINUOUS
 62
     7
 10
-307.579
 20
-47.83173
 11
-305.1295
 21
-45.38224
  0
LINE
  8
0
  6
CENTER
 62
     2
 10
-307.5613
 20
-21.99988
 11
-307.5613
 21
-34.16449
  0
LINE
  8
0
  6
CENTER
 62
     2
 10
-306.5613
 20
4.02313
 11
-306.5613
 21
-7.8335
  0
LINE
  8
0
  6
CONTINUOUS
 62
     7
 10
-314.5613
 20
54.90012
 11
-314.5613
 21
24.20012
  0
LINE
  8
0
  6
CONTINUOUS
 62
     7
 10
-299.5613
 20
54.90013
 11
-299.5613
 21
24.20013
  0
LINE
  8
0
  6
CONTINUOUS
 62
     7
 10
-313.5613
 20
46.40012
 11
-300.5613
 21
46.40012
  0
LINE
  8
0
  6
CONTINUOUS
 62
     7
 10
-313.5613
 20
42.40012
 11
-300.5613
 21
42.40012
  0
LINE
  8
0
  6
CONTINUOUS
 62
     7
 10
-300.5613
 20
46.40013
 11
-300.5613
 21
42.40013
  0
LINE
  8
0
  6
CONTINUOUS
 62
     7
 10
-313.5613
 20
46.40012
 11
-313.5613
 21
42.40012
  0
LINE
  8
0
  6
CONTINUOUS
 62
     7
 10
-312.8493
 20
45.5069
 11
-310.5076
 21
45.5069
  0
LINE
  8
0
  6
CONTINUOUS
 62
     7
 10
-312.8493
 20
43.43031
 11
-310.8611
 21
43.43031
  0
LINE
  8
0
  6
CONTINUOUS
 62
     7
 10
-312.8493
 20
42.90012
 11
-310.1541
 21
42.90012
  0
LINE
  8
0
  6
CONTINUOUS
 62
     7
 10
-312.8493
 20
44.97672
 11
-310.8611
 21
44.97672
  0
LINE
  8
0
  6
CONTINUOUS
 62
     7
 10
-312.8493
 20
45.5069
 11
-312.8493
 21
44.97672
  0
LINE
  8
0
  6
CONTINUOUS
 62
     7
 10
-310.1541
 20
45.15344
 11
-310.1541
 21
42.90012
  0
LINE
  8
0
  6
CONTINUOUS
 62
     7
 10
-310.861
 20
44.97672
 11
-310.861
 21
43.43031
  0
LINE
  8
0
  6
CONTINUOUS
 62
     7
 10
-309.7565
 20
45.5069
 11
-309.7565
 21
44.97672
  0
LINE
  8
0
  6
CONTINUOUS
 62
     7
 10
-307.2381
 20
44.97672
 11
-307.2381
 21
43.25357
  0
LINE
  8
0
  6
CONTINUOUS
 62
     7
 10
-307.945
 20
44.97672
 11
-307.945
 21
43.43031
  0
LINE
  8
0
  6
CONTINUOUS
 62
     7
 10
-312.8493
 20
43.43031
 11
-312.8493
 21
42.90012
  0
LINE
  8
0
  6
CONTINUOUS
 62
     7
 10
-309.7565
 20
45.5069
 11
-309.058
 21
45.5069
  0
LINE
  8
0
  6
CONTINUOUS
 62
     7
 10
-309.7565
 20
42.90012
 11
-309.2076
 21
42.90012
  0
LINE
  8
0
  6
CONTINUOUS
 62
     7
 10
-309.7563
 20
42.90011
 11
-309.1999
 21
44.97669
  0
LINE
  8
0
  6
CONTINUOUS
 62
     7
 10
-309.7565
 20
44.97672
 11
-309.2001
 21
44.97672
  0
LINE
  8
0
  6
CONTINUOUS
 62
     7
 10
-309.2077
 20
42.90013
 11
-308.6512
 21
44.97672
  0
LINE
  8
0
  6
CONTINUOUS
 62
     7
 10
-308.4752
 20
43.43031
 11
-307.945
 21
43.43031
  0
LINE
  8
0
  6
CONTINUOUS
 62
     7
 10
-308.4754
 20
43.43027
 11
-308.3333
 21
42.90009
  0
LINE
  8
0
  6
CONTINUOUS
 62
     7
 10
-308.3331
 20
42.90012
 11
-307.5916
 21
42.90012
  0
LINE
  8
0
  6
CONTINUOUS
 62
     7
 10
-308.6512
 20
44.97672
 11
-307.945
 21
44.97672
  0
LINE
  8
0
  6
CONTINUOUS
 62
     7
 10
-308.5091
 20
45.5069
 11
-307.7682
 21
45.5069
  0
LINE
  8
0
  6
CONTINUOUS
 62
     7
 10
-309.058
 20
45.50687
 11
-308.9526
 21
45.90008
  0
LINE
  8
0
  6
CONTINUOUS
 62
     7
 10
-308.5089
 20
45.50691
 11
-308.4036
 21
45.90014
  0
LINE
  8
0
  6
CONTINUOUS
 62
     7
 10
-306.7963
 20
45.5069
 11
-305.9568
 21
45.5069
  0
LINE
  8
0
  6
CONTINUOUS
 62
     7
 10
-306.7963
 20
44.97672
 11
-304.7346
 21
44.97672
  0
LINE
  8
0
  6
CONTINUOUS
 62
     7
 10
-305.9568
 20
42.90012
 11
-305.2499
 21
42.90012
  0
LINE
  8
0
  6
CONTINUOUS
 62
     7
 10
-306.7963
 20
45.5069
 11
-306.7963
 21
44.97672
  0
LINE
  8
0
  6
CONTINUOUS
 62
     7
 10
-304.1895
 20
44.01532
 11
-304.1895
 21
43.43031
  0
LINE
  8
0
  6
CONTINUOUS
 62
     7
 10
-306.7963
 20
43.43034
 11
-305.9568
 21
43.8218
  0
LINE
  8
0
  6
CONTINUOUS
 62
     7
 10
-306.7962
 20
44.01535
 11
-304.7345
 21
44.97675
  0
LINE
  8
0
  6
CONTINUOUS
 62
     7
 10
-306.7963
 20
44.01532
 11
-306.7963
 21
43.43031
  0
LINE
  8
0
  6
CONTINUOUS
 62
     7
 10
-305.2498
 20
43.92488
 11
-304.1894
 21
43.43042
  0
LINE
  8
0
  6
CONTINUOUS
 62
     7
 10
-304.8655
 20
44.33062
 11
-304.1894
 21
44.01535
  0
LINE
  8
0
  6
CONTINUOUS
 62
     7
 10
-304.1895
 20
45.15344
 11
-304.1895
 21
44.87105
  0
LINE
  8
0
  6
CONTINUOUS
 62
     7
 10
-305.9568
 20
45.90012
 11
-305.9568
 21
45.5069
  0
LINE
  8
0
  6
CONTINUOUS
 62
     7
 10
-305.2499
 20
45.90012
 11
-305.2499
 21
45.5069
  0
LINE
  8
0
  6
CONTINUOUS
 62
     7
 10
-305.2499
 20
45.5069
 11
-304.5429
 21
45.5069
  0
LINE
  8
0
  6
CONTINUOUS
 62
     7
 10
-305.9568
 20
43.82176
 11
-305.9568
 21
42.90012
  0
LINE
  8
0
  6
CONTINUOUS
 62
     7
 10
-305.2499
 20
43.92477
 11
-305.2499
 21
42.90012
  0
LINE
  8
0
  6
CONTINUOUS
 62
     7
 10
-304.8655
 20
44.33056
 11
-304.3935
 21
44.55068
  0
LINE
  8
0
  6
CONTINUOUS
 62
     7
 10
-301.8036
 20
45.74106
 11
-301.2734
 21
45.74106
  0
LINE
  8
0
  6
CONTINUOUS
 62
     7
 10
-303.9686
 20
44.64587
 11
-303.9686
 21
44.07529
  0
LINE
  8
0
  6
CONTINUOUS
 62
     7
 10
-301.2734
 20
45.74106
 11
-301.2734
 21
45.5069
  0
LINE
  8
0
  6
CONTINUOUS
 62
     7
 10
-301.8036
 20
45.74106
 11
-301.8036
 21
45.62682
  0
LINE
  8
0
  6
CONTINUOUS
 62
     7
 10
-302.5105
 20
44.65517
 11
-302.5105
 21
42.90012
  0
LINE
  8
0
  6
CONTINUOUS
 62
     7
 10
-303.9684
 20
44.64584
 11
-301.9149
 21
45.46255
  0
LINE
  8
0
  6
CONTINUOUS
 62
     7
 10
-303.9685
 20
44.07529
 11
-302.5105
 21
44.65516
  0
LINE
  8
0
  6
CONTINUOUS
 62
     7
 10
-302.5105
 20
42.90012
 11
-301.8036
 21
42.90012
  0
LINE
  8
0
  6
CONTINUOUS
 62
     7
 10
-301.8036
 20
44.93631
 11
-301.8036
 21
42.90012
  0
LINE
  8
0
  6
CONTINUOUS
 62
     7
 10
-301.8035
 20
44.93624
 11
-301.6076
 21
45.01418
  0
LINE
  8
0
  6
CONTINUOUS
 62
     7
 10
-308.9526
 20
45.90012
 11
-308.4037
 21
45.90012
  0
LINE
  8
0
  6
CONTINUOUS
 62
     7
 10
-307.5253
 20
45.90012
 11
-307.2993
 21
45.90012
  0
LINE
  8
0
  6
CONTINUOUS
 62
     7
 10
-305.9568
 20
45.90012
 11
-305.2499
 21
45.90012
  0
LINE
  8
0
  6
CONTINUOUS
 62
     7
 10
-307.5253
 20
45.54666
 11
-307.2993
 21
45.54666
  0
LINE
  8
0
  6
CONTINUOUS
 62
     7
 10
-307.5253
 20
45.90012
 11
-307.5253
 21
45.54666
  0
LINE
  8
0
  6
CONTINUOUS
 62
     7
 10
-307.2993
 20
45.90012
 11
-307.2993
 21
45.54666
  0
LINE
  8
0
  6
CONTINUOUS
 62
     7
 10
-307.1415
 20
45.90012
 11
-307.1415
 21
45.54666
  0
LINE
  8
0
  6
CONTINUOUS
 62
     7
 10
-306.9155
 20
45.90012
 11
-306.9155
 21
45.54666
  0
LINE
  8
0
  6
CONTINUOUS
 62
     7
 10
-307.1415
 20
45.90012
 11
-306.9155
 21
45.90012
  0
LINE
  8
0
  6
CONTINUOUS
 62
     7
 10
-307.1415
 20
45.54666
 11
-306.9155
 21
45.54666
  0
LINE
  8
0
  6
CONTINUOUS
 62
     7
 10
-313.8113
 20
51.69385
 11
-313.8113
 21
51.00011
  0
LINE
  8
0
  6
CENTER
 62
     2
 10
-311.5613
 20
57.90013
 11
-311.5613
 21
47.40012
  0
LINE
  8
0
  6
CONTINUOUS
 62
     7
 10
-309.3113
 20
51.69386
 11
-309.3113
 21
51.00011
  0
LINE
  8
0
  6
CONTINUOUS
 62
     7
 10
-314.5613
 20
49.40012
 11
-299.5613
 21
49.40012
  0
LINE
  8
0
  6
CONTINUOUS
 62
     7
 10
-309.0114
 20
51.00011
 11
-314.1113
 21
51.00011
  0
LINE
  8
0
  6
CONTINUOUS
 62
     7
 10
-309.0114
 20
51.00011
 11
-309.0114
 21
50.40012
  0
LINE
  8
0
  6
CONTINUOUS
 62
     7
 10
-314.1113
 20
51.00011
 11
-314.1113
 21
50.4001
  0
LINE
  8
0
  6
CENTER
 62
     2
 10
-303.6613
 20
79.70012
 11
-303.6613
 21
51.90013
  0
LINE
  8
0
  6
CONTINUOUS
 62
     7
 10
-302.8113
 20
66.70012
 11
-302.8113
 21
61.3378
  0
LINE
  8
0
  6
CONTINUOUS
 62
     7
 10
-304.5114
 20
66.70012
 11
-304.5114
 21
61.7933
  0
LINE
  8
0
  6
CONTINUOUS
 62
     7
 10
-303.9813
 20
76.70012
 11
-303.9813
 21
66.70012
  0
LINE
  8
0
  6
CONTINUOUS
 62
     7
 10
-303.3413
 20
76.70012
 11
-303.3413
 21
66.70012
  0
LINE
  8
0
  6
CONTINUOUS
 62
     7
 10
-304.5114
 20
66.70012
 11
-302.8113
 21
66.70012
  0
LINE
  8
0
  6
CONTINUOUS
 62
     7
 10
-303.9813
 20
76.70012
 11
-303.3414
 21
76.70012
  0
LINE
  8
0
  6
CENTER
 62
     2
 10
-310.4614
 20
79.70012
 11
-310.4614
 21
51.90013
  0
LINE
  8
0
  6
CONTINUOUS
 62
     7
 10
-309.6113
 20
66.70012
 11
-309.6113
 21
63.15985
  0
LINE
  8
0
  6
CONTINUOUS
 62
     7
 10
-311.3113
 20
66.70012
 11
-311.3113
 21
63.61536
  0
LINE
  8
0
  6
CONTINUOUS
 62
     7
 10
-310.7813
 20
76.70012
 11
-310.7813
 21
66.70012
  0
LINE
  8
0
  6
CONTINUOUS
 62
     7
 10
-310.1414
 20
76.70012
 11
-310.1414
 21
66.70012
  0
LINE
  8
0
  6
CONTINUOUS
 62
     7
 10
-311.3113
 20
66.70012
 11
-309.6113
 21
66.70012
  0
LINE
  8
0
  6
CONTINUOUS
 62
     7
 10
-310.7814
 20
76.70012
 11
-310.1414
 21
76.70012
  0
LINE
  8
0
  6
CENTER
 62
     2
 10
-308.3113
 20
79.70012
 11
-308.3113
 21
51.90013
  0
LINE
  8
0
  6
CONTINUOUS
 62
     7
 10
-307.4614
 20
66.70012
 11
-307.4614
 21
62.58376
  0
LINE
  8
0
  6
CONTINUOUS
 62
     7
 10
-309.1613
 20
66.70012
 11
-309.1613
 21
63.03928
  0
LINE
  8
0
  6
CONTINUOUS
 62
     7
 10
-308.6313
 20
76.70012
 11
-308.6313
 21
66.70012
  0
LINE
  8
0
  6
CONTINUOUS
 62
     7
 10
-307.9913
 20
76.70012
 11
-307.9913
 21
66.70012
  0
LINE
  8
0
  6
CONTINUOUS
 62
     7
 10
-309.1613
 20
66.70012
 11
-307.4614
 21
66.70012
  0
LINE
  8
0
  6
CONTINUOUS
 62
     7
 10
-308.6313
 20
76.70012
 11
-307.9913
 21
76.70012
  0
LINE
  8
0
  6
CENTER
 62
     2
 10
-305.8113
 20
79.70012
 11
-305.8113
 21
51.90013
  0
LINE
  8
0
  6
CONTINUOUS
 62
     7
 10
-304.9614
 20
66.70012
 11
-304.9614
 21
61.91388
  0
LINE
  8
0
  6
CONTINUOUS
 62
     7
 10
-306.6613
 20
66.70012
 11
-306.6613
 21
62.3694
  0
LINE
  8
0
  6
CONTINUOUS
 62
     7
 10
-306.1313
 20
76.70012
 11
-306.1313
 21
66.70012
  0
LINE
  8
0
  6
CONTINUOUS
 62
     7
 10
-305.4913
 20
76.70012
 11
-305.4913
 21
66.70012
  0
LINE
  8
0
  6
CONTINUOUS
 62
     7
 10
-306.6613
 20
66.70012
 11
-304.9614
 21
66.70012
  0
LINE
  8
0
  6
CONTINUOUS
 62
     7
 10
-306.1313
 20
76.70012
 11
-305.4913
 21
76.70012
  0
LINE
  8
0
  6
CONTINUOUS
 62
     7
 10
-308.8613
 20
54.90013
 11
-308.8613
 21
50.40012
  0
LINE
  8
0
  6
CONTINUOUS
 62
     7
 10
-314.5613
 20
50.40012
 11
-308.8613
 21
50.40012
  0
LINE
  8
0
  6
PHANTOM
 62
     2
 10
-313.3113
 20
64.15128
 11
-300.8113
 21
60.80191
  0
LINE
  8
0
  6
PHANTOM
 62
     2
 10
-313.3113
 20
62.5984
 11
-300.8113
 21
59.24903
  0
LINE
  8
0
  6
CONTINUOUS
 62
     7
 10
-311.3113
 20
62.06244
 11
-311.3113
 21
56.70012
  0
LINE
  8
0
  6
CONTINUOUS
 62
     7
 10
-309.1613
 20
61.48636
 11
-309.1613
 21
56.70012
  0
LINE
  8
0
  6
CONTINUOUS
 62
     7
 10
-309.6113
 20
61.60693
 11
-309.6113
 21
56.70012
  0
LINE
  8
0
  6
CONTINUOUS
 62
     7
 10
-307.4614
 20
61.03084
 11
-307.4614
 21
56.70012
  0
LINE
  8
0
  6
CONTINUOUS
 62
     7
 10
-306.6613
 20
60.81648
 11
-306.6613
 21
56.70012
  0
LINE
  8
0
  6
CONTINUOUS
 62
     7
 10
-304.9614
 20
60.36098
 11
-304.9614
 21
56.70012
  0
LINE
  8
0
  6
CONTINUOUS
 62
     7
 10
-304.5114
 20
60.24039
 11
-304.5114
 21
56.70012
  0
LINE
  8
0
  6
CONTINUOUS
 62
     7
 10
-302.8113
 20
59.78488
 11
-302.8113
 21
56.70012
  0
LINE
  8
0
  6
CONTINUOUS
 62
     7
 10
-314.5613
 20
54.90013
 11
-299.5613
 21
54.90013
  0
LINE
  8
0
  6
CONTINUOUS
 62
     7
 10
-312.5613
 20
56.70012
 11
-301.5613
 21
56.70012
  0
LINE
  8
0
  6
CONTINUOUS
 62
     7
 10
-313.0613
 20
56.20012
 11
-313.0613
 21
54.90013
  0
LINE
  8
0
  6
CONTINUOUS
 62
     7
 10
-301.0613
 20
56.20012
 11
-301.0613
 21
54.90013
  0
LINE
  8
0
  6
CONTINUOUS
 62
     7
 10
-299.5613
 20
-84.89987
 11
-299.5613
 21
-54.19986
  0
LINE
  8
0
  6
CONTINUOUS
 62
     7
 10
-314.5613
 20
-84.89987
 11
-314.5613
 21
-54.19989
  0
LINE
  8
0
  6
CONTINUOUS
 62
     7
 10
-300.5613
 20
-76.39987
 11
-313.5613
 21
-76.39987
  0
LINE
  8
0
  6
CONTINUOUS
 62
     7
 10
-300.5613
 20
-72.39987
 11
-313.5613
 21
-72.39987
  0
LINE
  8
0
  6
CONTINUOUS
 62
     7
 10
-313.5613
 20
-76.39987
 11
-313.5613
 21
-72.39987
  0
LINE
  8
0
  6
CONTINUOUS
 62
     7
 10
-300.5613
 20
-76.39987
 11
-300.5613
 21
-72.39987
  0
LINE
  8
0
  6
CONTINUOUS
 62
     7
 10
-301.2734
 20
-75.50665
 11
-303.6151
 21
-75.50665
  0
LINE
  8
0
  6
CONTINUOUS
 62
     7
 10
-301.2734
 20
-73.43008
 11
-303.2617
 21
-73.43008
  0
LINE
  8
0
  6
CONTINUOUS
 62
     7
 10
-301.2734
 20
-72.89987
 11
-303.9686
 21
-72.89987
  0
LINE
  8
0
  6
CONTINUOUS
 62
     7
 10
-301.2734
 20
-74.97647
 11
-303.2617
 21
-74.97647
  0
LINE
  8
0
  6
CONTINUOUS
 62
     7
 10
-301.2734
 20
-75.50665
 11
-301.2734
 21
-74.97647
  0
LINE
  8
0
  6
CONTINUOUS
 62
     7
 10
-303.9686
 20
-75.1532
 11
-303.9686
 21
-72.89987
  0
LINE
  8
0
  6
CONTINUOUS
 62
     7
 10
-303.2617
 20
-74.97647
 11
-303.2617
 21
-73.43008
  0
LINE
  8
0
  6
CONTINUOUS
 62
     7
 10
-304.3662
 20
-75.50665
 11
-304.3662
 21
-74.97647
  0
LINE
  8
0
  6
CONTINUOUS
 62
     7
 10
-306.8846
 20
-74.97647
 11
-306.8846
 21
-73.25333
  0
LINE
  8
0
  6
CONTINUOUS
 62
     7
 10
-306.1777
 20
-74.97647
 11
-306.1777
 21
-73.43008
  0
LINE
  8
0
  6
CONTINUOUS
 62
     7
 10
-301.2734
 20
-73.43008
 11
-301.2734
 21
-72.89987
  0
LINE
  8
0
  6
CONTINUOUS
 62
     7
 10
-304.3662
 20
-75.50665
 11
-305.0647
 21
-75.50665
  0
LINE
  8
0
  6
CONTINUOUS
 62
     7
 10
-304.3662
 20
-72.89987
 11
-304.9151
 21
-72.89987
  0
LINE
  8
0
  6
CONTINUOUS
 62
     7
 10
-304.366
 20
-72.89988
 11
-304.9225
 21
-74.97646
  0
LINE
  8
0
  6
CONTINUOUS
 62
     7
 10
-304.3662
 20
-74.97647
 11
-304.9226
 21
-74.97647
  0
LINE
  8
0
  6
CONTINUOUS
 62
     7
 10
-304.9152
 20
-72.89978
 11
-305.4716
 21
-74.97637
  0
LINE
  8
0
  6
CONTINUOUS
 62
     7
 10
-305.6475
 20
-73.43008
 11
-306.1777
 21
-73.43008
  0
LINE
  8
0
  6
CONTINUOUS
 62
     7
 10
-305.6477
 20
-73.43015
 11
-305.7898
 21
-72.89996
  0
LINE
  8
0
  6
CONTINUOUS
 62
     7
 10
-305.7896
 20
-72.89987
 11
-306.5311
 21
-72.89987
  0
LINE
  8
0
  6
CONTINUOUS
 62
     7
 10
-305.4715
 20
-74.97647
 11
-306.1777
 21
-74.97647
  0
LINE
  8
0
  6
CONTINUOUS
 62
     7
 10
-305.6136
 20
-75.50665
 11
-306.3544
 21
-75.50665
  0
LINE
  8
0
  6
CONTINUOUS
 62
     7
 10
-305.0646
 20
-75.50665
 11
-305.1699
 21
-75.89986
  0
LINE
  8
0
  6
CONTINUOUS
 62
     7
 10
-305.6134
 20
-75.50673
 11
-305.7188
 21
-75.89996
  0
LINE
  8
0
  6
CONTINUOUS
 62
     7
 10
-307.3264
 20
-75.50665
 11
-308.1659
 21
-75.50665
  0
LINE
  8
0
  6
CONTINUOUS
 62
     7
 10
-307.3264
 20
-74.97647
 11
-309.3881
 21
-74.97647
  0
LINE
  8
0
  6
CONTINUOUS
 62
     7
 10
-308.1659
 20
-72.89987
 11
-308.8728
 21
-72.89987
  0
LINE
  8
0
  6
CONTINUOUS
 62
     7
 10
-307.3264
 20
-75.50665
 11
-307.3264
 21
-74.97647
  0
LINE
  8
0
  6
CONTINUOUS
 62
     7
 10
-309.9332
 20
-74.01508
 11
-309.9332
 21
-73.43008
  0
LINE
  8
0
  6
CONTINUOUS
 62
     7
 10
-307.3263
 20
-73.43008
 11
-308.1658
 21
-73.82154
  0
LINE
  8
0
  6
CONTINUOUS
 62
     7
 10
-307.3265
 20
-74.01508
 11
-309.3882
 21
-74.97648
  0
LINE
  8
0
  6
CONTINUOUS
 62
     7
 10
-307.3264
 20
-74.01508
 11
-307.3264
 21
-73.43008
  0
LINE
  8
0
  6
CONTINUOUS
 62
     7
 10
-308.8727
 20
-73.9244
 11
-309.9331
 21
-73.42994
  0
LINE
  8
0
  6
CONTINUOUS
 62
     7
 10
-309.2571
 20
-74.33024
 11
-309.9332
 21
-74.01496
  0
LINE
  8
0
  6
CONTINUOUS
 62
     7
 10
-309.9332
 20
-75.1532
 11
-309.9332
 21
-74.87082
  0
LINE
  8
0
  6
CONTINUOUS
 62
     7
 10
-308.1659
 20
-75.89987
 11
-308.1659
 21
-75.50665
  0
LINE
  8
0
  6
CONTINUOUS
 62
     7
 10
-308.8728
 20
-75.89987
 11
-308.8728
 21
-75.50665
  0
LINE
  8
0
  6
CONTINUOUS
 62
     7
 10
-308.8728
 20
-75.50665
 11
-309.5798
 21
-75.50665
  0
LINE
  8
0
  6
CONTINUOUS
 62
     7
 10
-308.1659
 20
-73.8215
 11
-308.1659
 21
-72.89987
  0
LINE
  8
0
  6
CONTINUOUS
 62
     7
 10
-308.8728
 20
-73.92453
 11
-308.8728
 21
-72.89987
  0
LINE
  8
0
  6
CONTINUOUS
 62
     7
 10
-309.2571
 20
-74.33035
 11
-309.7292
 21
-74.55045
  0
LINE
  8
0
  6
CONTINUOUS
 62
     7
 10
-312.3191
 20
-75.74081
 11
-312.8492
 21
-75.74081
  0
LINE
  8
0
  6
CONTINUOUS
 62
     7
 10
-310.1541
 20
-74.64563
 11
-310.1541
 21
-74.07504
  0
LINE
  8
0
  6
CONTINUOUS
 62
     7
 10
-312.8492
 20
-75.74081
 11
-312.8492
 21
-75.50665
  0
LINE
  8
0
  6
CONTINUOUS
 62
     7
 10
-312.3191
 20
-75.74081
 11
-312.3191
 21
-75.62656
  0
LINE
  8
0
  6
CONTINUOUS
 62
     7
 10
-311.6122
 20
-74.65494
 11
-311.6122
 21
-72.89987
  0
LINE
  8
0
  6
CONTINUOUS
 62
     7
 10
-310.1542
 20
-74.64558
 11
-312.2077
 21
-75.4623
  0
LINE
  8
0
  6
CONTINUOUS
 62
     7
 10
-310.1541
 20
-74.07505
 11
-311.6121
 21
-74.65492
  0
LINE
  8
0
  6
CONTINUOUS
 62
     7
 10
-311.6122
 20
-72.89987
 11
-312.3191
 21
-72.89987
  0
LINE
  8
0
  6
CONTINUOUS
 62
     7
 10
-312.3191
 20
-74.93607
 11
-312.3191
 21
-72.89987
  0
LINE
  8
0
  6
CONTINUOUS
 62
     7
 10
-312.3192
 20
-74.93597
 11
-312.5151
 21
-75.01391
  0
LINE
  8
0
  6
CONTINUOUS
 62
     7
 10
-305.17
 20
-75.89987
 11
-305.7189
 21
-75.89987
  0
LINE
  8
0
  6
CONTINUOUS
 62
     7
 10
-306.5974
 20
-75.89987
 11
-306.8234
 21
-75.89987
  0
LINE
  8
0
  6
CONTINUOUS
 62
     7
 10
-308.1659
 20
-75.89987
 11
-308.8728
 21
-75.89987
  0
LINE
  8
0
  6
CONTINUOUS
 62
     7
 10
-306.5974
 20
-75.54642
 11
-306.8234
 21
-75.54642
  0
LINE
  8
0
  6
CONTINUOUS
 62
     7
 10
-306.5974
 20
-75.89987
 11
-306.5974
 21
-75.54642
  0
LINE
  8
0
  6
CONTINUOUS
 62
     7
 10
-306.8234
 20
-75.89987
 11
-306.8234
 21
-75.54642
  0
LINE
  8
0
  6
CONTINUOUS
 62
     7
 10
-306.9811
 20
-75.89987
 11
-306.9811
 21
-75.54642
  0
LINE
  8
0
  6
CONTINUOUS
 62
     7
 10
-307.2072
 20
-75.89987
 11
-307.2072
 21
-75.54642
  0
LINE
  8
0
  6
CONTINUOUS
 62
     7
 10
-306.9811
 20
-75.89987
 11
-307.2072
 21
-75.89987
  0
LINE
  8
0
  6
CONTINUOUS
 62
     7
 10
-306.9811
 20
-75.54642
 11
-307.2072
 21
-75.54642
  0
LINE
  8
0
  6
CONTINUOUS
 62
     7
 10
-300.3113
 20
-81.6936
 11
-300.3113
 21
-80.99988
  0
LINE
  8
0
  6
CENTER
 62
     2
 10
-302.5613
 20
-87.89987
 11
-302.5613
 21
-77.39987
  0
LINE
  8
0
  6
CONTINUOUS
 62
     7
 10
-304.8113
 20
-81.69363
 11
-304.8113
 21
-80.99985
  0
LINE
  8
0
  6
CONTINUOUS
 62
     7
 10
-299.5613
 20
-79.39987
 11
-314.5613
 21
-79.39987
  0
LINE
  8
0
  6
CONTINUOUS
 62
     7
 10
-305.1113
 20
-80.99985
 11
-300.0114
 21
-80.99985
  0
LINE
  8
0
  6
CONTINUOUS
 62
     7
 10
-305.1113
 20
-80.99985
 11
-305.1113
 21
-80.39987
  0
LINE
  8
0
  6
CONTINUOUS
 62
     7
 10
-300.0114
 20
-80.99985
 11
-300.0114
 21
-80.39987
  0
LINE
  8
0
  6
CENTER
 62
     2
 10
-310.4614
 20
-109.6999
 11
-310.4614
 21
-81.89987
  0
LINE
  8
0
  6
CONTINUOUS
 62
     7
 10
-311.3113
 20
-96.69986
 11
-311.3113
 21
-91.33755
  0
LINE
  8
0
  6
CONTINUOUS
 62
     7
 10
-309.6113
 20
-96.69986
 11
-309.6113
 21
-91.79306
  0
LINE
  8
0
  6
CONTINUOUS
 62
     7
 10
-310.1414
 20
-106.6999
 11
-310.1414
 21
-96.69986
  0
LINE
  8
0
  6
CONTINUOUS
 62
     7
 10
-310.7814
 20
-106.6999
 11
-310.7814
 21
-96.69986
  0
LINE
  8
0
  6
CONTINUOUS
 62
     7
 10
-309.6113
 20
-96.69986
 11
-311.3113
 21
-96.69986
  0
LINE
  8
0
  6
CONTINUOUS
 62
     7
 10
-310.1414
 20
-106.6999
 11
-310.7814
 21
-106.6999
  0
LINE
  8
0
  6
CENTER
 62
     2
 10
-303.6613
 20
-109.6999
 11
-303.6613
 21
-81.89987
  0
LINE
  8
0
  6
CONTINUOUS
 62
     7
 10
-304.5114
 20
-96.69986
 11
-304.5114
 21
-93.15961
  0
LINE
  8
0
  6
CONTINUOUS
 62
     7
 10
-302.8113
 20
-96.69986
 11
-302.8113
 21
-93.61511
  0
LINE
  8
0
  6
CONTINUOUS
 62
     7
 10
-303.3414
 20
-106.6999
 11
-303.3414
 21
-96.69986
  0
LINE
  8
0
  6
CONTINUOUS
 62
     7
 10
-303.9813
 20
-106.6999
 11
-303.9813
 21
-96.69986
  0
LINE
  8
0
  6
CONTINUOUS
 62
     7
 10
-302.8113
 20
-96.69986
 11
-304.5114
 21
-96.69986
  0
LINE
  8
0
  6
CONTINUOUS
 62
     7
 10
-303.3413
 20
-106.6999
 11
-303.9813
 21
-106.6999
  0
LINE
  8
0
  6
CENTER
 62
     2
 10
-305.8113
 20
-109.6999
 11
-305.8113
 21
-81.89987
  0
LINE
  8
0
  6
CONTINUOUS
 62
     7
 10
-306.6613
 20
-96.69986
 11
-306.6613
 21
-92.58353
  0
LINE
  8
0
  6
CONTINUOUS
 62
     7
 10
-304.9614
 20
-96.69986
 11
-304.9614
 21
-93.03903
  0
LINE
  8
0
  6
CONTINUOUS
 62
     7
 10
-305.4913
 20
-106.6999
 11
-305.4913
 21
-96.69986
  0
LINE
  8
0
  6
CONTINUOUS
 62
     7
 10
-306.1313
 20
-106.6999
 11
-306.1313
 21
-96.69986
  0
LINE
  8
0
  6
CONTINUOUS
 62
     7
 10
-304.9614
 20
-96.69986
 11
-306.6613
 21
-96.69986
  0
LINE
  8
0
  6
CONTINUOUS
 62
     7
 10
-305.4913
 20
-106.6999
 11
-306.1313
 21
-106.6999
  0
LINE
  8
0
  6
CENTER
 62
     2
 10
-308.3113
 20
-109.6999
 11
-308.3113
 21
-81.89987
  0
LINE
  8
0
  6
CONTINUOUS
 62
     7
 10
-309.1613
 20
-96.69986
 11
-309.1613
 21
-91.91364
  0
LINE
  8
0
  6
CONTINUOUS
 62
     7
 10
-307.4614
 20
-96.69986
 11
-307.4614
 21
-92.36917
  0
LINE
  8
0
  6
CONTINUOUS
 62
     7
 10
-307.9913
 20
-106.6999
 11
-307.9913
 21
-96.69986
  0
LINE
  8
0
  6
CONTINUOUS
 62
     7
 10
-308.6313
 20
-106.6999
 11
-308.6313
 21
-96.69986
  0
LINE
  8
0
  6
CONTINUOUS
 62
     7
 10
-307.4614
 20
-96.69986
 11
-309.1613
 21
-96.69986
  0
LINE
  8
0
  6
CONTINUOUS
 62
     7
 10
-307.9913
 20
-106.6999
 11
-308.6313
 21
-106.6999
  0
LINE
  8
0
  6
CONTINUOUS
 62
     7
 10
-305.2614
 20
-84.89987
 11
-305.2614
 21
-80.39987
  0
LINE
  8
0
  6
CONTINUOUS
 62
     7
 10
-299.5613
 20
-80.39987
 11
-305.2614
 21
-80.39987
  0
LINE
  8
0
  6
PHANTOM
 62
     2
 10
-300.8113
 20
-94.15088
 11
-313.3112
 21
-90.80153
  0
LINE
  8
0
  6
PHANTOM
 62
     2
 10
-300.8112
 20
-92.59797
 11
-313.3112
 21
-89.24861
  0
LINE
  8
0
  6
CONTINUOUS
 62
     7
 10
-302.8113
 20
-92.06219
 11
-302.8113
 21
-86.69986
  0
LINE
  8
0
  6
CONTINUOUS
 62
     7
 10
-304.9614
 20
-91.48611
 11
-304.9614
 21
-86.69986
  0
LINE
  8
0
  6
CONTINUOUS
 62
     7
 10
-304.5114
 20
-91.60669
 11
-304.5114
 21
-86.69986
  0
LINE
  8
0
  6
CONTINUOUS
 62
     7
 10
-306.6613
 20
-91.03061
 11
-306.6613
 21
-86.69986
  0
LINE
  8
0
  6
CONTINUOUS
 62
     7
 10
-307.4614
 20
-90.81625
 11
-307.4614
 21
-86.69986
  0
LINE
  8
0
  6
CONTINUOUS
 62
     7
 10
-309.1613
 20
-90.36075
 11
-309.1613
 21
-86.69986
  0
LINE
  8
0
  6
CONTINUOUS
 62
     7
 10
-309.6113
 20
-90.24014
 11
-309.6113
 21
-86.69986
  0
LINE
  8
0
  6
CONTINUOUS
 62
     7
 10
-311.3113
 20
-89.78464
 11
-311.3113
 21
-86.69986
  0
LINE
  8
0
  6
CONTINUOUS
 62
     7
 10
-299.5613
 20
-84.89987
 11
-314.5613
 21
-84.89987
  0
LINE
  8
0
  6
CONTINUOUS
 62
     7
 10
-301.5613
 20
-86.69986
 11
-312.5613
 21
-86.69986
  0
LINE
  8
0
  6
CONTINUOUS
 62
     7
 10
-301.0613
 20
-86.19986
 11
-301.0613
 21
-84.89987
  0
LINE
  8
0
  6
CONTINUOUS
 62
     7
 10
-313.0613
 20
-86.19986
 11
-313.0613
 21
-84.89987
  0
LINE
  8
0
  6
CENTER
 62
     2
 10
-42.81221
 20
59.92242
 11
-42.81221
 21
-89.96005
  0
LINE
  8
0
  6
CONTINUOUS
 62
     7
 10
-33.81221
 20
23.2001
 11
-33.81221
 21
-53.19989
  0
LINE
  8
0
  6
CONTINUOUS
 62
     7
 10
-51.81221
 20
23.2001
 11
-51.81221
 21
-53.19989
  0
LINE
  8
0
  6
CONTINUOUS
 62
     7
 10
-51.81221
 20
6.00011
 11
-33.81221
 21
6.00011
  0
LINE
  8
0
  6
CONTINUOUS
 62
     7
 10
-51.81221
 20
-35.99991
 11
-33.81221
 21
-35.99991
  0
LINE
  8
0
  6
CONTINUOUS
 62
     7
 10
-50.81219
 20
24.20009
 11
-51.81219
 21
23.20009
  0
LINE
  8
0
  6
CONTINUOUS
 62
     7
 10
-34.81219
 20
24.20014
 11
-33.81219
 21
23.20013
  0
LINE
  8
0
  6
CENTER
 62
     2
 10
-48.89572
 20
-22.99991
 11
-36.73444
 21
-22.99991
  0
LINE
  8
0
  6
CENTER
 62
     2
 10
-48.45966
 20
-6.99991
 11
-36.83134
 21
-6.99991
  0
LINE
  8
0
  6
CENTER
 62
     2
 10
-36.31221
 20
4.5914
 11
-36.31221
 21
-4.41656
  0
LINE
  8
0
  6
CENTER
 62
     2
 10
-49.31221
 20
-25.88715
 11
-49.31221
 21
-34.29178
  0
LINE
  8
0
  6
CENTER
 62
     2
 10
-52.22441
 20
-29.99991
 11
-45.15384
 21
-29.99991
  0
LINE
  8
0
  6
CENTER
 62
     2
 10
-40.65881
 20
0.00011
 11
-33.22784
 21
0.00011
  0
LINE
  8
0
  6
CENTER
 62
     2
 10
-45.73392
 20
20.7001
 11
-39.90251
 21
20.7001
  0
LINE
  8
0
  6
CONTINUOUS
 62
     7
 10
-51.81221
 20
23.2001
 11
-33.81221
 21
23.2001
  0
LINE
  8
0
  6
CONTINUOUS
 62
     7
 10
-51.81227
 20
-53.19993
 11
-50.81226
 21
-54.19993
  0
LINE
  8
0
  6
CONTINUOUS
 62
     7
 10
-33.81223
 20
-53.19989
 11
-34.81223
 21
-54.19989
  0
LINE
  8
0
  6
CONTINUOUS
 62
     7
 10
-51.81221
 20
-53.19989
 11
-33.81221
 21
-53.19989
  0
LINE
  8
0
  6
CONTINUOUS
 62
     7
 10
-34.81221
 20
-54.19989
 11
-50.81219
 21
-54.19989
  0
LINE
  8
0
  6
CENTER
 62
     2
 10
-39.31221
 20
-50.69989
 11
-45.64555
 21
-50.69989
  0
LINE
  8
0
  6
CENTER
 62
     2
 10
-42.31221
 20
-0.66803
 11
-42.31221
 21
-13.14258
  0
LINE
  8
0
  6
CENTER
 62
     2
 10
-43.31221
 20
-16.69681
 11
-43.31221
 21
-29.03198
  0
LINE
  8
0
  6
CENTER
 62
     2
 10
-53.56841
 20
-14.99991
 11
-32.25645
 21
-14.99991
  0
LINE
  8
0
  6
CONTINUOUS
 62
     7
 10
-50.31221
 20
54.90012
 11
-50.31221
 21
24.2001
  0
LINE
  8
0
  6
CONTINUOUS
 62
     7
 10
-35.31221
 20
54.90012
 11
-35.31221
 21
24.2001
  0
LINE
  8
0
  6
CONTINUOUS
 62
     7
 10
-50.81221
 20
24.2001
 11
-34.81224
 21
24.2001
  0
LINE
  8
0
  6
CONTINUOUS
 62
     7
 10
-44.81221
 20
35.00011
 11
-40.81221
 21
35.00011
  0
LINE
  8
0
  6
CONTINUOUS
 62
     7
 10
-44.81221
 20
33.00011
 11
-40.81221
 21
33.00011
  0
LINE
  8
0
  6
CONTINUOUS
 62
     7
 10
-40.81221
 20
35.00011
 11
-40.81221
 21
33.00011
  0
LINE
  8
0
  6
CONTINUOUS
 62
     7
 10
-44.81221
 20
35.00011
 11
-44.81221
 21
33.00011
  0
LINE
  8
0
  6
CONTINUOUS
 62
     7
 10
-45.31221
 20
35.50011
 11
-40.31221
 21
35.50011
  0
LINE
  8
0
  6
CONTINUOUS
 62
     7
 10
-45.31221
 20
35.50011
 11
-45.31221
 21
32.50011
  0
LINE
  8
0
  6
CONTINUOUS
 62
     7
 10
-45.31221
 20
32.50011
 11
-40.31221
 21
32.50011
  0
LINE
  8
0
  6
CONTINUOUS
 62
     7
 10
-40.31221
 20
35.50011
 11
-40.31221
 21
32.50011
  0
LINE
  8
0
  6
CONTINUOUS
 62
     7
 10
-44.81218
 20
35.00012
 11
-45.31218
 21
35.50012
  0
LINE
  8
0
  6
CONTINUOUS
 62
     7
 10
-44.81219
 20
33.00014
 11
-45.31221
 21
32.50013
  0
LINE
  8
0
  6
CONTINUOUS
 62
     7
 10
-40.81218
 20
33.00012
 11
-40.31218
 21
32.50012
  0
LINE
  8
0
  6
CONTINUOUS
 62
     7
 10
-40.81221
 20
35.00012
 11
-40.3122
 21
35.50013
  0
LINE
  8
0
  6
CONTINUOUS
 62
     7
 10
-48.31221
 20
53.7001
 11
-37.31221
 21
53.7001
  0
LINE
  8
0
  6
CONTINUOUS
 62
     7
 10
-48.31221
 20
43.7001
 11
-37.31221
 21
43.7001
  0
LINE
  8
0
  6
CONTINUOUS
 62
     7
 10
-48.31221
 20
53.7001
 11
-48.31221
 21
43.7001
  0
LINE
  8
0
  6
CONTINUOUS
 62
     7
 10
-37.31221
 20
53.7001
 11
-37.31221
 21
43.7001
  0
LINE
  8
0
  6
CONTINUOUS
 62
     7
 10
-44.33957
 20
39.71833
 11
-43.83045
 21
40.22744
  0
LINE
  8
0
  6
CONTINUOUS
 62
     7
 10
-41.79398
 20
37.17274
 11
-41.28486
 21
37.68185
  0
LINE
  8
0
  6
CONTINUOUS
 62
     7
 10
-44.33959
 20
37.68187
 11
-43.83047
 21
38.19099
  0
LINE
  8
0
  6
CONTINUOUS
 62
     7
 10
-43.83046
 20
37.17274
 11
-43.32134
 21
37.68187
  0
LINE
  8
0
  6
CONTINUOUS
 62
     7
 10
-41.79402
 20
40.22743
 11
-41.2849
 21
39.71832
  0
LINE
  8
0
  6
CONTINUOUS
 62
     7
 10
-44.33956
 20
37.68186
 11
-43.83044
 21
37.17274
  0
LINE
  8
0
  6
CONTINUOUS
 62
     7
 10
-43.83042
 20
40.22747
 11
-43.3213
 21
39.71835
  0
LINE
  8
0
  6
CONTINUOUS
 62
     7
 10
-44.3396
 20
39.71832
 11
-43.83047
 21
39.2092
  0
LINE
  8
0
  6
CONTINUOUS
 62
     7
 10
-42.30313
 20
37.68185
 11
-41.79401
 21
37.17274
  0
LINE
  8
0
  6
CONTINUOUS
 62
     7
 10
-41.79396
 20
38.19101
 11
-41.28484
 21
37.68189
  0
LINE
  8
0
  6
CONTINUOUS
 62
     7
 10
-41.79399
 20
39.20922
 11
-41.28487
 21
39.71833
  0
LINE
  8
0
  6
CONTINUOUS
 62
     7
 10
-42.30312
 20
39.71834
 11
-41.794
 21
40.22746
  0
LINE
  8
0
  6
CENTER
 62
     2
 10
-39.41222
 20
79.7001
 11
-39.41222
 21
51.7001
  0
LINE
  8
0
  6
CONTINUOUS
 62
     7
 10
-38.56221
 20
66.7001
 11
-38.56221
 21
61.33778
  0
LINE
  8
0
  6
CONTINUOUS
 62
     7
 10
-40.26221
 20
66.7001
 11
-40.26221
 21
61.79329
  0
LINE
  8
0
  6
CONTINUOUS
 62
     7
 10
-39.73221
 20
76.7001
 11
-39.73221
 21
66.7001
  0
LINE
  8
0
  6
CONTINUOUS
 62
     7
 10
-39.09221
 20
76.7001
 11
-39.09221
 21
66.7001
  0
LINE
  8
0
  6
CONTINUOUS
 62
     7
 10
-40.26221
 20
66.7001
 11
-38.56221
 21
66.7001
  0
LINE
  8
0
  6
CONTINUOUS
 62
     7
 10
-39.73221
 20
76.7001
 11
-39.09221
 21
76.7001
  0
LINE
  8
0
  6
CENTER
 62
     2
 10
-46.2122
 20
79.7001
 11
-46.2122
 21
51.7001
  0
LINE
  8
0
  6
CONTINUOUS
 62
     7
 10
-45.36221
 20
66.7001
 11
-45.36221
 21
63.15984
  0
LINE
  8
0
  6
CONTINUOUS
 62
     7
 10
-47.06221
 20
66.7001
 11
-47.06221
 21
63.61536
  0
LINE
  8
0
  6
CONTINUOUS
 62
     7
 10
-46.53221
 20
76.7001
 11
-46.53221
 21
66.7001
  0
LINE
  8
0
  6
CONTINUOUS
 62
     7
 10
-45.89221
 20
76.7001
 11
-45.89221
 21
66.7001
  0
LINE
  8
0
  6
CONTINUOUS
 62
     7
 10
-47.06221
 20
66.7001
 11
-45.36221
 21
66.7001
  0
LINE
  8
0
  6
CONTINUOUS
 62
     7
 10
-46.53221
 20
76.7001
 11
-45.89221
 21
76.7001
  0
LINE
  8
0
  6
CENTER
 62
     2
 10
-44.06221
 20
79.7001
 11
-44.06221
 21
51.7001
  0
LINE
  8
0
  6
CONTINUOUS
 62
     7
 10
-43.2122
 20
66.7001
 11
-43.2122
 21
62.58374
  0
LINE
  8
0
  6
CONTINUOUS
 62
     7
 10
-44.91222
 20
66.7001
 11
-44.91222
 21
63.03926
  0
LINE
  8
0
  6
CONTINUOUS
 62
     7
 10
-44.38222
 20
76.7001
 11
-44.38222
 21
66.7001
  0
LINE
  8
0
  6
CONTINUOUS
 62
     7
 10
-43.7422
 20
76.7001
 11
-43.7422
 21
66.7001
  0
LINE
  8
0
  6
CONTINUOUS
 62
     7
 10
-44.91222
 20
66.7001
 11
-43.2122
 21
66.7001
  0
LINE
  8
0
  6
CONTINUOUS
 62
     7
 10
-44.38222
 20
76.7001
 11
-43.7422
 21
76.7001
  0
LINE
  8
0
  6
CENTER
 62
     2
 10
-41.56221
 20
79.7001
 11
-41.56221
 21
51.7001
  0
LINE
  8
0
  6
CONTINUOUS
 62
     7
 10
-40.7122
 20
66.7001
 11
-40.7122
 21
61.91388
  0
LINE
  8
0
  6
CONTINUOUS
 62
     7
 10
-42.41222
 20
66.7001
 11
-42.41222
 21
62.36938
  0
LINE
  8
0
  6
CONTINUOUS
 62
     7
 10
-41.88222
 20
76.7001
 11
-41.88222
 21
66.7001
  0
LINE
  8
0
  6
CONTINUOUS
 62
     7
 10
-41.2422
 20
76.7001
 11
-41.2422
 21
66.7001
  0
LINE
  8
0
  6
CONTINUOUS
 62
     7
 10
-42.41222
 20
66.7001
 11
-40.7122
 21
66.7001
  0
LINE
  8
0
  6
CONTINUOUS
 62
     7
 10
-41.88222
 20
76.7001
 11
-41.2422
 21
76.7001
  0
LINE
  8
0
  6
CONTINUOUS
 62
     7
 10
-36.81221
 20
54.90012
 11
-35.31221
 21
54.90012
  0
LINE
  8
0
  6
CONTINUOUS
 62
     7
 10
-50.31221
 20
54.90012
 11
-48.81221
 21
54.90012
  0
LINE
  8
0
  6
CENTER
 62
     2
 10
-46.81221
 20
34.00011
 11
-38.81221
 21
34.00011
  0
LINE
  8
0
  6
CENTER
 62
     2
 10
-47.81221
 20
38.7001
 11
-37.81221
 21
38.7001
  0
LINE
  8
0
  6
PHANTOM
 62
     2
 10
-49.0622
 20
64.15127
 11
-36.56219
 21
60.8019
  0
LINE
  8
0
  6
PHANTOM
 62
     2
 10
-49.06218
 20
62.59832
 11
-36.56219
 21
59.24896
  0
LINE
  8
0
  6
CONTINUOUS
 62
     7
 10
-47.06221
 20
62.06244
 11
-47.06221
 21
56.7001
  0
LINE
  8
0
  6
CONTINUOUS
 62
     7
 10
-45.36221
 20
61.60692
 11
-45.36221
 21
56.7001
  0
LINE
  8
0
  6
CONTINUOUS
 62
     7
 10
-44.91222
 20
61.48634
 11
-44.91222
 21
56.7001
  0
LINE
  8
0
  6
CONTINUOUS
 62
     7
 10
-43.2122
 20
61.03082
 11
-43.2122
 21
56.7001
  0
LINE
  8
0
  6
CONTINUOUS
 62
     7
 10
-42.41222
 20
60.81647
 11
-42.41222
 21
56.7001
  0
LINE
  8
0
  6
CONTINUOUS
 62
     7
 10
-40.7122
 20
60.36096
 11
-40.7122
 21
56.7001
  0
LINE
  8
0
  6
CONTINUOUS
 62
     7
 10
-40.26221
 20
60.24037
 11
-40.26221
 21
56.7001
  0
LINE
  8
0
  6
CONTINUOUS
 62
     7
 10
-38.56221
 20
59.78487
 11
-38.56221
 21
56.7001
  0
LINE
  8
0
  6
CONTINUOUS
 62
     7
 10
-49.81221
 20
54.7001
 11
-35.81221
 21
54.7001
  0
LINE
  8
0
  6
CONTINUOUS
 62
     7
 10
-48.31221
 20
56.7001
 11
-37.31221
 21
56.7001
  0
LINE
  8
0
  6
CONTINUOUS
 62
     7
 10
-48.81221
 20
56.2001
 11
-48.81221
 21
54.7001
  0
LINE
  8
0
  6
CONTINUOUS
 62
     7
 10
-36.81221
 20
56.2001
 11
-36.81221
 21
54.7001
  0
LINE
  8
0
  6
CONTINUOUS
 62
     7
 10
-35.31221
 20
-84.8999
 11
-35.31221
 21
-54.19989
  0
LINE
  8
0
  6
CONTINUOUS
 62
     7
 10
-50.31221
 20
-84.89987
 11
-50.31221
 21
-54.19989
  0
LINE
  8
0
  6
CONTINUOUS
 62
     7
 10
-40.81221
 20
-64.99991
 11
-44.81221
 21
-64.99991
  0
LINE
  8
0
  6
CONTINUOUS
 62
     7
 10
-40.81221
 20
-62.99988
 11
-44.81221
 21
-62.99988
  0
LINE
  8
0
  6
CONTINUOUS
 62
     7
 10
-44.81221
 20
-64.99991
 11
-44.81221
 21
-62.99988
  0
LINE
  8
0
  6
CONTINUOUS
 62
     7
 10
-40.81221
 20
-64.99991
 11
-40.81221
 21
-62.99988
  0
LINE
  8
0
  6
CONTINUOUS
 62
     7
 10
-40.31221
 20
-65.49991
 11
-45.31221
 21
-65.49991
  0
LINE
  8
0
  6
CONTINUOUS
 62
     7
 10
-40.31221
 20
-65.49991
 11
-40.31221
 21
-62.49988
  0
LINE
  8
0
  6
CONTINUOUS
 62
     7
 10
-40.31221
 20
-62.49988
 11
-45.31221
 21
-62.49988
  0
LINE
  8
0
  6
CONTINUOUS
 62
     7
 10
-45.31221
 20
-65.49991
 11
-45.31221
 21
-62.49988
  0
LINE
  8
0
  6
CONTINUOUS
 62
     7
 10
-40.81221
 20
-64.99987
 11
-40.31221
 21
-65.49987
  0
LINE
  8
0
  6
CONTINUOUS
 62
     7
 10
-40.81223
 20
-62.99989
 11
-40.31222
 21
-62.49988
  0
LINE
  8
0
  6
CONTINUOUS
 62
     7
 10
-44.81221
 20
-62.99986
 11
-45.31221
 21
-62.49986
  0
LINE
  8
0
  6
CONTINUOUS
 62
     7
 10
-44.81223
 20
-64.99989
 11
-45.31222
 21
-65.49988
  0
LINE
  8
0
  6
CONTINUOUS
 62
     7
 10
-37.31221
 20
-83.69989
 11
-48.31221
 21
-83.69989
  0
LINE
  8
0
  6
CONTINUOUS
 62
     7
 10
-37.31221
 20
-73.69989
 11
-48.31221
 21
-73.69989
  0
LINE
  8
0
  6
CONTINUOUS
 62
     7
 10
-37.31221
 20
-83.69989
 11
-37.31221
 21
-73.69989
  0
LINE
  8
0
  6
CONTINUOUS
 62
     7
 10
-48.31221
 20
-83.69989
 11
-48.31221
 21
-73.69989
  0
LINE
  8
0
  6
CONTINUOUS
 62
     7
 10
-41.28485
 20
-69.71815
 11
-41.79397
 21
-70.22726
  0
LINE
  8
0
  6
CONTINUOUS
 62
     7
 10
-43.83044
 20
-67.17256
 11
-44.33956
 21
-67.68168
  0
LINE
  8
0
  6
CONTINUOUS
 62
     7
 10
-41.28486
 20
-67.68167
 11
-41.79398
 21
-68.19079
  0
LINE
  8
0
  6
CONTINUOUS
 62
     7
 10
-41.79396
 20
-67.17253
 11
-42.30307
 21
-67.68165
  0
LINE
  8
0
  6
CONTINUOUS
 62
     7
 10
-43.83045
 20
-70.22726
 11
-44.33957
 21
-69.71814
  0
LINE
  8
0
  6
CONTINUOUS
 62
     7
 10
-41.28491
 20
-67.68169
 11
-41.79403
 21
-67.17258
  0
LINE
  8
0
  6
CONTINUOUS
 62
     7
 10
-41.79406
 20
-70.22729
 11
-42.30317
 21
-69.71817
  0
LINE
  8
0
  6
CONTINUOUS
 62
     7
 10
-41.28484
 20
-69.71812
 11
-41.79396
 21
-69.209
  0
LINE
  8
0
  6
CONTINUOUS
 62
     7
 10
-43.32131
 20
-67.68164
 11
-43.83043
 21
-67.17252
  0
LINE
  8
0
  6
CONTINUOUS
 62
     7
 10
-43.83052
 20
-68.19083
 11
-44.33963
 21
-67.68171
  0
LINE
  8
0
  6
CONTINUOUS
 62
     7
 10
-43.83043
 20
-69.209
 11
-44.33955
 21
-69.71812
  0
LINE
  8
0
  6
CONTINUOUS
 62
     7
 10
-43.32133
 20
-69.71814
 11
-43.83045
 21
-70.22726
  0
LINE
  8
0
  6
CENTER
 62
     2
 10
-46.2122
 20
-109.6999
 11
-46.2122
 21
-81.69989
  0
LINE
  8
0
  6
CONTINUOUS
 62
     7
 10
-47.06221
 20
-96.69989
 11
-47.06221
 21
-91.33755
  0
LINE
  8
0
  6
CONTINUOUS
 62
     7
 10
-45.36221
 20
-96.69989
 11
-45.36221
 21
-91.79306
  0
LINE
  8
0
  6
CONTINUOUS
 62
     7
 10
-45.89221
 20
-106.6999
 11
-45.89221
 21
-96.69989
  0
LINE
  8
0
  6
CONTINUOUS
 62
     7
 10
-46.53221
 20
-106.6999
 11
-46.53221
 21
-96.69989
  0
LINE
  8
0
  6
CONTINUOUS
 62
     7
 10
-45.36221
 20
-96.69989
 11
-47.06221
 21
-96.69989
  0
LINE
  8
0
  6
CONTINUOUS
 62
     7
 10
-45.89223
 20
-106.6999
 11
-46.53221
 21
-106.6999
  0
LINE
  8
0
  6
CENTER
 62
     2
 10
-39.41222
 20
-109.6999
 11
-39.41222
 21
-81.69989
  0
LINE
  8
0
  6
CONTINUOUS
 62
     7
 10
-40.26221
 20
-96.69989
 11
-40.26221
 21
-93.15964
  0
LINE
  8
0
  6
CONTINUOUS
 62
     7
 10
-38.56221
 20
-96.69989
 11
-38.56221
 21
-93.61514
  0
LINE
  8
0
  6
CONTINUOUS
 62
     7
 10
-39.09221
 20
-106.6999
 11
-39.09221
 21
-96.69989
  0
LINE
  8
0
  6
CONTINUOUS
 62
     7
 10
-39.73221
 20
-106.6999
 11
-39.73221
 21
-96.69989
  0
LINE
  8
0
  6
CONTINUOUS
 62
     7
 10
-38.56221
 20
-96.69989
 11
-40.26221
 21
-96.69989
  0
LINE
  8
0
  6
CONTINUOUS
 62
     7
 10
-39.09222
 20
-106.6999
 11
-39.73222
 21
-106.6999
  0
LINE
  8
0
  6
CENTER
 62
     2
 10
-41.56221
 20
-109.6999
 11
-41.56221
 21
-81.69989
  0
LINE
  8
0
  6
CONTINUOUS
 62
     7
 10
-42.41222
 20
-96.69989
 11
-42.41222
 21
-92.58353
  0
LINE
  8
0
  6
CONTINUOUS
 62
     7
 10
-40.7122
 20
-96.69989
 11
-40.7122
 21
-93.03903
  0
LINE
  8
0
  6
CONTINUOUS
 62
     7
 10
-41.2422
 20
-106.6999
 11
-41.2422
 21
-96.69989
  0
LINE
  8
0
  6
CONTINUOUS
 62
     7
 10
-41.88222
 20
-106.6999
 11
-41.88222
 21
-96.69989
  0
LINE
  8
0
  6
CONTINUOUS
 62
     7
 10
-40.71222
 20
-96.69989
 11
-42.41222
 21
-96.69989
  0
LINE
  8
0
  6
CONTINUOUS
 62
     7
 10
-41.24222
 20
-106.6999
 11
-41.88222
 21
-106.6999
  0
LINE
  8
0
  6
CENTER
 62
     2
 10
-44.06221
 20
-109.6999
 11
-44.06221
 21
-81.69989
  0
LINE
  8
0
  6
CONTINUOUS
 62
     7
 10
-44.91222
 20
-96.69989
 11
-44.91222
 21
-91.91367
  0
LINE
  8
0
  6
CONTINUOUS
 62
     7
 10
-43.2122
 20
-96.69989
 11
-43.2122
 21
-92.36917
  0
LINE
  8
0
  6
CONTINUOUS
 62
     7
 10
-43.7422
 20
-106.6999
 11
-43.7422
 21
-96.69989
  0
LINE
  8
0
  6
CONTINUOUS
 62
     7
 10
-44.38222
 20
-106.6999
 11
-44.38222
 21
-96.69989
  0
LINE
  8
0
  6
CONTINUOUS
 62
     7
 10
-43.21222
 20
-96.69989
 11
-44.91222
 21
-96.69989
  0
LINE
  8
0
  6
CONTINUOUS
 62
     7
 10
-43.74222
 20
-106.6999
 11
-44.38222
 21
-106.6999
  0
LINE
  8
0
  6
CONTINUOUS
 62
     7
 10
-48.81221
 20
-84.8999
 11
-50.31221
 21
-84.8999
  0
LINE
  8
0
  6
CONTINUOUS
 62
     7
 10
-35.31221
 20
-84.8999
 11
-36.81221
 21
-84.8999
  0
LINE
  8
0
  6
CENTER
 62
     2
 10
-38.81221
 20
-63.99988
 11
-46.81221
 21
-63.99988
  0
LINE
  8
0
  6
CENTER
 62
     2
 10
-37.81221
 20
-68.69989
 11
-47.81221
 21
-68.69989
  0
LINE
  8
0
  6
PHANTOM
 62
     2
 10
-36.56217
 20
-94.15092
 11
-49.06218
 21
-90.80156
  0
LINE
  8
0
  6
PHANTOM
 62
     2
 10
-36.56221
 20
-92.59801
 11
-49.06221
 21
-89.24865
  0
LINE
  8
0
  6
CONTINUOUS
 62
     7
 10
-38.56221
 20
-92.06223
 11
-38.56221
 21
-86.69989
  0
LINE
  8
0
  6
CONTINUOUS
 62
     7
 10
-40.26221
 20
-91.60672
 11
-40.26221
 21
-86.69989
  0
LINE
  8
0
  6
CONTINUOUS
 62
     7
 10
-40.7122
 20
-91.48611
 11
-40.7122
 21
-86.69989
  0
LINE
  8
0
  6
CONTINUOUS
 62
     7
 10
-42.41222
 20
-91.03061
 11
-42.41222
 21
-86.69989
  0
LINE
  8
0
  6
CONTINUOUS
 62
     7
 10
-43.2122
 20
-90.81625
 11
-43.2122
 21
-86.69989
  0
LINE
  8
0
  6
CONTINUOUS
 62
     7
 10
-44.91222
 20
-90.36075
 11
-44.91222
 21
-86.69989
  0
LINE
  8
0
  6
CONTINUOUS
 62
     7
 10
-45.36221
 20
-90.24014
 11
-45.36221
 21
-86.69989
  0
LINE
  8
0
  6
CONTINUOUS
 62
     7
 10
-47.06221
 20
-89.78464
 11
-47.06221
 21
-86.69989
  0
LINE
  8
0
  6
CONTINUOUS
 62
     7
 10
-35.81221
 20
-84.69989
 11
-49.81221
 21
-84.69989
  0
LINE
  8
0
  6
CONTINUOUS
 62
     7
 10
-37.31221
 20
-86.69989
 11
-48.31221
 21
-86.69989
  0
LINE
  8
0
  6
CONTINUOUS
 62
     7
 10
-36.81221
 20
-86.19989
 11
-36.81221
 21
-84.69989
  0
LINE
  8
0
  6
CONTINUOUS
 62
     7
 10
-48.81221
 20
-86.19989
 11
-48.81221
 21
-84.69989
  0
LINE
  8
0
  6
CONTINUOUS
 62
     7
 10
-169.4367
 20
-188.2791
 11
-169.4367
 21
-188.7791
  0
LINE
  8
0
  6
CONTINUOUS
 62
     7
 10
-168.4367
 20
-173.2791
 11
-168.4367
 21
-172.2791
  0
LINE
  8
0
  6
CENTER
 62
     2
 10
-197.833
 20
-180.7791
 11
-147.4939
 21
-180.7791
  0
LINE
  8
0
  6
CONTINUOUS
 62
     7
 10
-194.9367
 20
-171.7791
 11
-168.9367
 21
-171.7791
  0
LINE
  8
0
  6
CONTINUOUS
 62
     7
 10
-194.9367
 20
-189.7791
 11
-168.9367
 21
-189.7791
  0
LINE
  8
0
  6
CONTINUOUS
 62
     7
 10
-168.4367
 20
-189.2791
 11
-168.4367
 21
-188.2791
  0
LINE
  8
0
  6
CONTINUOUS
 62
     7
 10
-195.4367
 20
-189.2791
 11
-195.4367
 21
-172.2791
  0
LINE
  8
0
  6
CENTER
 62
     2
 10
-181.9367
 20
-192.5291
 11
-181.9367
 21
-168.5516
  0
LINE
  8
0
  6
CONTINUOUS
 62
     7
 10
-194.4367
 20
-172.7791
 11
-169.4367
 21
-172.7791
  0
LINE
  8
0
  6
CONTINUOUS
 62
     7
 10
-194.4367
 20
-188.7791
 11
-169.4367
 21
-188.7791
  0
LINE
  8
0
  6
CONTINUOUS
 62
     7
 10
-194.4367
 20
-172.7791
 11
-194.4367
 21
-188.7791
  0
LINE
  8
0
  6
CONTINUOUS
 62
     7
 10
-169.4367
 20
-172.7791
 11
-169.4367
 21
-173.2791
  0
LINE
  8
0
  6
CONTINUOUS
 62
     7
 10
-169.4366
 20
-188.779
 11
-168.5831
 21
-189.6325
  0
LINE
  8
0
  6
CONTINUOUS
 62
     7
 10
-194.4368
 20
-188.7791
 11
-195.2903
 21
-189.6326
  0
LINE
  8
0
  6
CONTINUOUS
 62
     7
 10
-169.4368
 20
-172.7791
 11
-168.5832
 21
-171.9255
  0
LINE
  8
0
  6
CONTINUOUS
 62
     7
 10
-194.4368
 20
-172.7791
 11
-195.2903
 21
-171.9256
  0
LINE
  8
0
  6
CONTINUOUS
 62
     7
 10
-169.9367
 20
-173.2791
 11
-169.9367
 21
-188.2791
  0
LINE
  8
0
  6
CONTINUOUS
 62
     7
 10
-172.6367
 20
-187.509
 11
-172.6367
 21
-187.8113
  0
LINE
  8
0
  6
CONTINUOUS
 62
     7
 10
-173.2367
 20
-187.5089
 11
-173.2367
 21
-187.8113
  0
LINE
  8
0
  6
CONTINUOUS
 62
     7
 10
-173.3975
 20
-187.7871
 11
-173.3975
 21
-187.4814
  0
LINE
  8
0
  6
CONTINUOUS
 62
     7
 10
-191.2367
 20
-174.0492
 11
-191.2367
 21
-173.7468
  0
LINE
  8
0
  6
CONTINUOUS
 62
     7
 10
-190.6367
 20
-174.0492
 11
-190.6367
 21
-173.7468
  0
LINE
  8
0
  6
CONTINUOUS
 62
     7
 10
-190.4759
 20
-173.771
 11
-190.4759
 21
-174.0768
  0
LINE
  8
0
  6
CONTINUOUS
 62
     7
 10
-174.0398
 20
-186.0145
 11
-173.6721
 21
-185.6468
  0
LINE
  8
0
  6
CONTINUOUS
 62
     7
 10
-173.6721
 20
-186.3822
 11
-173.3044
 21
-186.0145
  0
LINE
  8
0
  6
CONTINUOUS
 62
     7
 10
-174.0398
 20
-186.0145
 11
-173.6721
 21
-186.3822
  0
LINE
  8
0
  6
CONTINUOUS
 62
     7
 10
-172.2014
 20
-184.176
 11
-171.8336
 21
-184.5437
  0
LINE
  8
0
  6
CONTINUOUS
 62
     7
 10
-174.7009
 20
-183.8826
 11
-173.6721
 21
-184.9114
  0
LINE
  8
0
  6
CONTINUOUS
 62
     7
 10
-174.3332
 20
-183.5149
 11
-173.3044
 21
-184.5437
  0
LINE
  8
0
  6
CONTINUOUS
 62
     7
 10
-172.569
 20
-184.5437
 11
-172.2013
 21
-184.176
  0
LINE
  8
0
  6
CONTINUOUS
 62
     7
 10
-172.2013
 20
-184.9114
 11
-171.8336
 21
-184.5437
  0
LINE
  8
0
  6
CONTINUOUS
 62
     7
 10
-172.569
 20
-186.0145
 11
-171.5403
 21
-187.0432
  0
LINE
  8
0
  6
CONTINUOUS
 62
     7
 10
-172.2013
 20
-185.6468
 11
-171.1725
 21
-186.6756
  0
LINE
  8
0
  6
CONTINUOUS
 62
     7
 10
-192.0398
 20
-177.0144
 11
-191.6721
 21
-176.6467
  0
LINE
  8
0
  6
CONTINUOUS
 62
     7
 10
-191.6721
 20
-177.3821
 11
-191.3044
 21
-177.0144
  0
LINE
  8
0
  6
CONTINUOUS
 62
     7
 10
-192.0398
 20
-177.0145
 11
-191.6721
 21
-177.3822
  0
LINE
  8
0
  6
CONTINUOUS
 62
     7
 10
-190.2013
 20
-175.176
 11
-189.8336
 21
-175.5437
  0
LINE
  8
0
  6
CONTINUOUS
 62
     7
 10
-192.701
 20
-174.8826
 11
-191.6722
 21
-175.9114
  0
LINE
  8
0
  6
CONTINUOUS
 62
     7
 10
-192.3333
 20
-174.5149
 11
-191.3045
 21
-175.5437
  0
LINE
  8
0
  6
CONTINUOUS
 62
     7
 10
-190.569
 20
-175.5436
 11
-190.2014
 21
-175.176
  0
LINE
  8
0
  6
CONTINUOUS
 62
     7
 10
-190.2013
 20
-175.9113
 11
-189.8336
 21
-175.5437
  0
LINE
  8
0
  6
CONTINUOUS
 62
     7
 10
-190.5691
 20
-177.0145
 11
-189.5403
 21
-178.0433
  0
LINE
  8
0
  6
CONTINUOUS
 62
     7
 10
-190.2014
 20
-176.6468
 11
-189.1726
 21
-177.6756
  0
LINE
  8
0
  6
CENTER
 62
     2
 10
-172.9367
 20
-181.2791
 11
-172.9367
 21
-189.2791
  0
LINE
  8
0
  6
CENTER
 62
     2
 10
-190.9367
 20
-172.2791
 11
-190.9367
 21
-180.2791
  0
LINE
  8
0
  6
CENTER
 62
     2
 10
-194.9367
 20
-176.2791
 11
-186.9367
 21
-176.2791
  0
LINE
  8
0
  6
CENTER
 62
     2
 10
-176.9367
 20
-185.2791
 11
-168.9367
 21
-185.2791
  0
LINE
  8
0
  6
CONTINUOUS
 62
     7
 10
-193.4367
 20
-173.2791
 11
-150.4367
 21
-173.2791
  0
LINE
  8
0
  6
CONTINUOUS
 62
     7
 10
-193.9367
 20
-173.7791
 11
-193.9367
 21
-187.7791
  0
LINE
  8
0
  6
CONTINUOUS
 62
     7
 10
-193.4367
 20
-188.2791
 11
-150.4367
 21
-188.2791
  0
LINE
  8
0
  6
CONTINUOUS
 62
     7
 10
-149.9367
 20
-173.7791
 11
-149.9367
 21
-187.7791
  0
LINE
  8
0
  6
CONTINUOUS
 62
     7
 10
-168.9367
 20
-173.2791
 11
-168.9367
 21
-188.2791
  0
LINE
  8
0
  6
CONTINUOUS
 62
     7
 10
-175.6367
 20
-185.2791
 11
-175.6367
 21
-188.2791
  0
LINE
  8
0
  6
CONTINUOUS
 62
     7
 10
-170.2367
 20
-185.2791
 11
-170.2367
 21
-188.2791
  0
LINE
  8
0
  6
CENTER
 62
     2
 10
-168.4367
 20
-177.3791
 11
-165.4367
 21
-177.3791
  0
LINE
  8
0
  6
CENTER
 62
     2
 10
-168.4367
 20
-179.5291
 11
-165.4367
 21
-179.5291
  0
LINE
  8
0
  6
CENTER
 62
     2
 10
-168.4367
 20
-182.0291
 11
-165.4367
 21
-182.0291
  0
LINE
  8
0
  6
CENTER
 62
     2
 10
-168.4367
 20
-184.179
 11
-165.4367
 21
-184.179
  0
LINE
  8
0
  6
CENTER
 62
     2
 10
-166.9367
 20
-173.7791
 11
-166.9367
 21
-187.7791
  0
LINE
  8
0
  6
CONTINUOUS
 62
     7
 10
-168.9367
 20
-174.7791
 11
-165.9367
 21
-174.7791
  0
LINE
  8
0
  6
CONTINUOUS
 62
     7
 10
-163.9367
 20
-176.7791
 11
-163.9367
 21
-184.7791
  0
LINE
  8
0
  6
CONTINUOUS
 62
     7
 10
-168.9367
 20
-186.7791
 11
-165.9367
 21
-186.7791
  0
LINE
  8
0
  6
CONTINUOUS
 62
     7
 10
-190.9367
 20
-178.9791
 11
-193.9367
 21
-178.9791
  0
LINE
  8
0
  6
CONTINUOUS
 62
     7
 10
-188.2367
 20
-176.2791
 11
-188.2367
 21
-173.2791
  0
LINE
  8
0
  6
CENTER
 62
     2
 10
55.31197
 20
55.55019
 11
55.31197
 21
-84.60159
  0
LINE
  8
0
  6
CONTINUOUS
 62
     7
 10
42.81202
 20
24.20012
 11
41.81202
 21
23.20011
  0
LINE
  8
0
  6
CONTINUOUS
 62
     7
 10
67.81197
 20
24.20018
 11
68.81197
 21
23.20018
  0
LINE
  8
0
  6
CONTINUOUS
 62
     7
 10
65.81197
 20
-28.34151
 11
68.81197
 21
-28.34151
  0
LINE
  8
0
  6
CONTINUOUS
 62
     7
 10
65.81197
 20
-31.65813
 11
68.81197
 21
-31.65813
  0
LINE
  8
0
  6
CONTINUOUS
 62
     7
 10
65.81197
 20
-28.34151
 11
65.81197
 21
-31.65813
  0
LINE
  8
0
  6
CONTINUOUS
 62
     7
 10
42.812
 20
24.20018
 11
86.81197
 21
24.20018
  0
LINE
  8
0
  6
CONTINUOUS
 62
     7
 10
41.81197
 20
23.20018
 11
68.81197
 21
23.20018
  0
LINE
  8
0
  6
CONTINUOUS
 62
     7
 10
41.81203
 20
-35.99982
 11
68.81197
 21
-35.99982
  0
LINE
  8
0
  6
CONTINUOUS
 62
     7
 10
41.81203
 20
6.00018
 11
68.81197
 21
6.00018
  0
LINE
  8
0
  6
CONTINUOUS
 62
     7
 10
41.81203
 20
23.20018
 11
41.81203
 21
-53.19981
  0
LINE
  8
0
  6
CONTINUOUS
 62
     7
 10
41.81199
 20
-53.19983
 11
42.81199
 21
-54.19983
  0
LINE
  8
0
  6
CONTINUOUS
 62
     7
 10
68.81197
 20
23.20018
 11
68.81197
 21
-53.19981
  0
LINE
  8
0
  6
CONTINUOUS
 62
     7
 10
67.81199
 20
-54.19981
 11
68.81197
 21
-53.19983
  0
LINE
  8
0
  6
CONTINUOUS
 62
     7
 10
41.81203
 20
-53.19981
 11
68.81197
 21
-53.19981
  0
LINE
  8
0
  6
CONTINUOUS
 62
     7
 10
42.81203
 20
-54.19983
 11
86.81197
 21
-54.19983
  0
LINE
  8
0
  6
CENTER
 62
     2
 10
64.24217
 20
-29.99982
 11
70.09019
 21
-29.99982
  0
LINE
  8
0
  6
CENTER
 62
     2
 10
39.32112
 20
-14.99982
 11
70.97865
 21
-14.99982
  0
LINE
  8
0
  6
CONTINUOUS
 62
     7
 10
43.31197
 20
49.40019
 11
68.31197
 21
49.40019
  0
LINE
  8
0
  6
CONTINUOUS
 62
     7
 10
43.31197
 20
54.90019
 11
43.31197
 21
24.20018
  0
LINE
  8
0
  6
CONTINUOUS
 62
     7
 10
67.31197
 20
49.40019
 11
67.31197
 21
24.20018
  0
LINE
  8
0
  6
CONTINUOUS
 62
     7
 10
61.61198
 20
50.40019
 11
67.01198
 21
50.40019
  0
LINE
  8
0
  6
CENTER
 62
     2
 10
64.31197
 20
57.90019
 11
64.31197
 21
46.40019
  0
LINE
  8
0
  6
CONTINUOUS
 62
     7
 10
66.86198
 20
51.00017
 11
61.76198
 21
51.00017
  0
LINE
  8
0
  6
CONTINUOUS
 62
     7
 10
64.01197
 20
50.40017
 11
63.8512
 21
51.00018
  0
LINE
  8
0
  6
CONTINUOUS
 62
     7
 10
64.61211
 20
51.00021
 11
64.77288
 21
50.40021
  0
LINE
  8
0
  6
CONTINUOUS
 62
     7
 10
66.86198
 20
51.00017
 11
66.86198
 21
50.40019
  0
LINE
  8
0
  6
CONTINUOUS
 62
     7
 10
61.76198
 20
51.00017
 11
61.76198
 21
50.40019
  0
LINE
  8
0
  6
CONTINUOUS
 62
     7
 10
66.562
 20
51.69392
 11
66.562
 21
51.00017
  0
LINE
  8
0
  6
CONTINUOUS
 62
     7
 10
62.062
 20
51.69392
 11
62.062
 21
51.00017
  0
LINE
  8
0
  6
CENTER
 62
     2
 10
46.31197
 20
57.90019
 11
46.31197
 21
46.40019
  0
LINE
  8
0
  6
CONTINUOUS
 62
     7
 10
87.31197
 20
54.20018
 11
87.31197
 21
24.70018
  0
LINE
  8
0
  6
CONTINUOUS
 62
     7
 10
67.31197
 20
49.20018
 11
68.31197
 21
49.20018
  0
LINE
  8
0
  6
CONTINUOUS
 62
     7
 10
68.31197
 20
49.20018
 11
68.31197
 21
56.70018
  0
LINE
  8
0
  6
CONTINUOUS
 62
     7
 10
43.31197
 20
54.90019
 11
68.31197
 21
54.90019
  0
LINE
  8
0
  6
CONTINUOUS
 62
     7
 10
61.61198
 20
54.90019
 11
61.61198
 21
50.40019
  0
LINE
  8
0
  6
CONTINUOUS
 62
     7
 10
67.01198
 20
54.90019
 11
67.01198
 21
50.40019
  0
LINE
  8
0
  6
CENTER
 62
     2
 10
70.31197
 20
79.70018
 11
70.31197
 21
51.70018
  0
LINE
  8
0
  6
CONTINUOUS
 62
     7
 10
71.16197
 20
66.70018
 11
71.16197
 21
62.24889
  0
LINE
  8
0
  6
CONTINUOUS
 62
     7
 10
69.46199
 20
66.70018
 11
69.46199
 21
62.70439
  0
LINE
  8
0
  6
CONTINUOUS
 62
     7
 10
69.99199
 20
76.70018
 11
69.99199
 21
66.70018
  0
LINE
  8
0
  6
CONTINUOUS
 62
     7
 10
70.63197
 20
76.70018
 11
70.63197
 21
66.70018
  0
LINE
  8
0
  6
CONTINUOUS
 62
     7
 10
69.46199
 20
66.70018
 11
71.16197
 21
66.70018
  0
LINE
  8
0
  6
CONTINUOUS
 62
     7
 10
69.99199
 20
76.70018
 11
70.63197
 21
76.70018
  0
LINE
  8
0
  6
PHANTOM
 62
     2
 10
67.46199
 20
61.68734
 11
73.16198
 21
60.16003
  0
LINE
  8
0
  6
PHANTOM
 62
     2
 10
67.46198
 20
63.24022
 11
73.16197
 21
61.71291
  0
LINE
  8
0
  6
CONTINUOUS
 62
     7
 10
69.46199
 20
61.15147
 11
69.46199
 21
56.70018
  0
LINE
  8
0
  6
CONTINUOUS
 62
     7
 10
71.16197
 20
60.69597
 11
71.16197
 21
56.70018
  0
LINE
  8
0
  6
CONTINUOUS
 62
     7
 10
68.31197
 20
54.70018
 11
86.81197
 21
54.70018
  0
LINE
  8
0
  6
CONTINUOUS
 62
     7
 10
73.31197
 20
54.70018
 11
73.31197
 21
56.20018
  0
LINE
  8
0
  6
CONTINUOUS
 62
     7
 10
68.31197
 20
56.70018
 11
72.81197
 21
56.70018
  0
LINE
  8
0
  6
CONTINUOUS
 62
     7
 10
43.31197
 20
-79.39983
 11
68.31197
 21
-79.39983
  0
LINE
  8
0
  6
CONTINUOUS
 62
     7
 10
43.31197
 20
-84.89983
 11
43.31197
 21
-54.19981
  0
LINE
  8
0
  6
CONTINUOUS
 62
     7
 10
67.31197
 20
-79.39983
 11
67.31197
 21
-54.19981
  0
LINE
  8
0
  6
CENTER
 62
     2
 10
46.31197
 20
-87.89983
 11
46.31197
 21
-76.39983
  0
LINE
  8
0
  6
CONTINUOUS
 62
     7
 10
43.76198
 20
-80.99982
 11
48.86198
 21
-80.99982
  0
LINE
  8
0
  6
CONTINUOUS
 62
     7
 10
46.61191
 20
-80.39986
 11
46.77268
 21
-80.99985
  0
LINE
  8
0
  6
CONTINUOUS
 62
     7
 10
46.01189
 20
-80.99979
 11
45.85112
 21
-80.3998
  0
LINE
  8
0
  6
CONTINUOUS
 62
     7
 10
43.76198
 20
-80.99982
 11
43.76198
 21
-80.39983
  0
LINE
  8
0
  6
CONTINUOUS
 62
     7
 10
48.86198
 20
-80.99982
 11
48.86198
 21
-80.39983
  0
LINE
  8
0
  6
CONTINUOUS
 62
     7
 10
44.062
 20
-81.69356
 11
44.062
 21
-80.99982
  0
LINE
  8
0
  6
CONTINUOUS
 62
     7
 10
48.56197
 20
-81.69356
 11
48.56197
 21
-80.99982
  0
LINE
  8
0
  6
CENTER
 62
     2
 10
64.31197
 20
-87.89983
 11
64.31197
 21
-76.39983
  0
LINE
  8
0
  6
CONTINUOUS
 62
     7
 10
87.31197
 20
-84.19981
 11
87.31197
 21
-54.69981
  0
LINE
  8
0
  6
CONTINUOUS
 62
     7
 10
68.31197
 20
-84.69981
 11
86.81197
 21
-84.69981
  0
LINE
  8
0
  6
CONTINUOUS
 62
     7
 10
68.31197
 20
-79.19981
 11
68.31197
 21
-86.69981
  0
LINE
  8
0
  6
CONTINUOUS
 62
     7
 10
43.31197
 20
-84.89983
 11
68.31197
 21
-84.89983
  0
LINE
  8
0
  6
CONTINUOUS
 62
     7
 10
49.01198
 20
-84.89983
 11
49.01198
 21
-80.39983
  0
LINE
  8
0
  6
CENTER
 62
     2
 10
70.31197
 20
-109.6998
 11
70.31197
 21
-81.69981
  0
LINE
  8
0
  6
CONTINUOUS
 62
     7
 10
71.16197
 20
-96.69981
 11
71.16197
 21
-92.70403
  0
LINE
  8
0
  6
CONTINUOUS
 62
     7
 10
69.46199
 20
-96.69981
 11
69.46199
 21
-92.24852
  0
LINE
  8
0
  6
CONTINUOUS
 62
     7
 10
69.99199
 20
-106.6998
 11
69.99199
 21
-96.69981
  0
LINE
  8
0
  6
CONTINUOUS
 62
     7
 10
70.63197
 20
-106.6998
 11
70.63197
 21
-96.69981
  0
LINE
  8
0
  6
CONTINUOUS
 62
     7
 10
69.46199
 20
-96.69981
 11
71.16197
 21
-96.69981
  0
LINE
  8
0
  6
CONTINUOUS
 62
     7
 10
69.99196
 20
-106.6998
 11
70.63197
 21
-106.6998
  0
LINE
  8
0
  6
CONTINUOUS
 62
     7
 10
49.01198
 20
-80.39983
 11
43.31197
 21
-80.39983
  0
LINE
  8
0
  6
CONTINUOUS
 62
     7
 10
68.31197
 20
-79.19981
 11
67.31197
 21
-79.19981
  0
LINE
  8
0
  6
PHANTOM
 62
     2
 10
73.162
 20
-93.2399
 11
67.46198
 21
-91.71259
  0
LINE
  8
0
  6
PHANTOM
 62
     2
 10
73.16193
 20
-91.687
 11
67.46194
 21
-90.1597
  0
LINE
  8
0
  6
CONTINUOUS
 62
     7
 10
71.16197
 20
-91.15111
 11
71.16197
 21
-86.69981
  0
LINE
  8
0
  6
CONTINUOUS
 62
     7
 10
69.46199
 20
-90.6956
 11
69.46199
 21
-86.69981
  0
LINE
  8
0
  6
CONTINUOUS
 62
     7
 10
73.31197
 20
-84.69981
 11
73.31197
 21
-86.19981
  0
LINE
  8
0
  6
CONTINUOUS
 62
     7
 10
68.31197
 20
-86.69981
 11
72.81197
 21
-86.69981
  0
LINE
  8
0
  6
CONTINUOUS
 62
     7
 10
161.4371
 20
122.6773
 11
160.9371
 21
122.6773
  0
LINE
  8
0
  6
CONTINUOUS
 62
     7
 10
176.4371
 20
121.6773
 11
177.4371
 21
121.6773
  0
LINE
  8
0
  6
CENTER
 62
     2
 10
168.9371
 20
151.0735
 11
168.9371
 21
100.7345
  0
LINE
  8
0
  6
CONTINUOUS
 62
     7
 10
177.9371
 20
148.1773
 11
177.9371
 21
122.1773
  0
LINE
  8
0
  6
CONTINUOUS
 62
     7
 10
159.9371
 20
148.1773
 11
159.9371
 21
122.1773
  0
LINE
  8
0
  6
CONTINUOUS
 62
     7
 10
160.4371
 20
121.6773
 11
161.4371
 21
121.6773
  0
LINE
  8
0
  6
CONTINUOUS
 62
     7
 10
160.4371
 20
148.6773
 11
177.4371
 21
148.6773
  0
LINE
  8
0
  6
CENTER
 62
     2
 10
157.1871
 20
135.1773
 11
181.1646
 21
135.1773
  0
LINE
  8
0
  6
CONTINUOUS
 62
     7
 10
176.9371
 20
147.6772
 11
176.9371
 21
122.6773
  0
LINE
  8
0
  6
CONTINUOUS
 62
     7
 10
160.9371
 20
147.6772
 11
160.9371
 21
122.6773
  0
LINE
  8
0
  6
CONTINUOUS
 62
     7
 10
176.9371
 20
147.6772
 11
160.9371
 21
147.6772
  0
LINE
  8
0
  6
CONTINUOUS
 62
     7
 10
176.9371
 20
122.6773
 11
176.4371
 21
122.6773
  0
LINE
  8
0
  6
CONTINUOUS
 62
     7
 10
160.9371
 20
122.6773
 11
160.0835
 21
121.8237
  0
LINE
  8
0
  6
CONTINUOUS
 62
     7
 10
160.9371
 20
147.6772
 11
160.0836
 21
148.5308
  0
LINE
  8
0
  6
CONTINUOUS
 62
     7
 10
176.9371
 20
122.6772
 11
177.7906
 21
121.8237
  0
LINE
  8
0
  6
CONTINUOUS
 62
     7
 10
176.9371
 20
147.6773
 11
177.7907
 21
148.5308
  0
LINE
  8
0
  6
CONTINUOUS
 62
     7
 10
176.4371
 20
123.1773
 11
161.4371
 21
123.1773
  0
LINE
  8
0
  6
CONTINUOUS
 62
     7
 10
162.2072
 20
125.8773
 11
161.9048
 21
125.8773
  0
LINE
  8
0
  6
CONTINUOUS
 62
     7
 10
162.2072
 20
126.4772
 11
161.9048
 21
126.4772
  0
LINE
  8
0
  6
CONTINUOUS
 62
     7
 10
161.9291
 20
126.638
 11
162.2348
 21
126.638
  0
LINE
  8
0
  6
CONTINUOUS
 62
     7
 10
175.667
 20
144.4772
 11
175.9694
 21
144.4772
  0
LINE
  8
0
  6
CONTINUOUS
 62
     7
 10
175.667
 20
143.8773
 11
175.9694
 21
143.8773
  0
LINE
  8
0
  6
CONTINUOUS
 62
     7
 10
175.9451
 20
143.7165
 11
175.6394
 21
143.7165
  0
LINE
  8
0
  6
CONTINUOUS
 62
     7
 10
163.7018
 20
127.2804
 11
164.0695
 21
126.9127
  0
LINE
  8
0
  6
CONTINUOUS
 62
     7
 10
163.334
 20
126.9127
 11
163.7017
 21
126.545
  0
LINE
  8
0
  6
CONTINUOUS
 62
     7
 10
163.7018
 20
127.2803
 11
163.3341
 21
126.9127
  0
LINE
  8
0
  6
CONTINUOUS
 62
     7
 10
165.5402
 20
125.4418
 11
165.1725
 21
125.0742
  0
LINE
  8
0
  6
CONTINUOUS
 62
     7
 10
165.8336
 20
127.9415
 11
164.8048
 21
126.9127
  0
LINE
  8
0
  6
CONTINUOUS
 62
     7
 10
166.2014
 20
127.5738
 11
165.1726
 21
126.545
  0
LINE
  8
0
  6
CONTINUOUS
 62
     7
 10
165.1726
 20
125.8096
 11
165.5403
 21
125.4419
  0
LINE
  8
0
  6
CONTINUOUS
 62
     7
 10
164.8048
 20
125.4419
 11
165.1725
 21
125.0742
  0
LINE
  8
0
  6
CONTINUOUS
 62
     7
 10
163.7018
 20
125.8096
 11
162.673
 21
124.7808
  0
LINE
  8
0
  6
CONTINUOUS
 62
     7
 10
164.0695
 20
125.4419
 11
163.0407
 21
124.4131
  0
LINE
  8
0
  6
CONTINUOUS
 62
     7
 10
172.7018
 20
145.2804
 11
173.0695
 21
144.9127
  0
LINE
  8
0
  6
CONTINUOUS
 62
     7
 10
172.3341
 20
144.9127
 11
172.7018
 21
144.545
  0
LINE
  8
0
  6
CONTINUOUS
 62
     7
 10
172.7018
 20
145.2803
 11
172.3341
 21
144.9126
  0
LINE
  8
0
  6
CONTINUOUS
 62
     7
 10
174.5402
 20
143.4419
 11
174.1725
 21
143.0742
  0
LINE
  8
0
  6
CONTINUOUS
 62
     7
 10
174.8336
 20
145.9414
 11
173.8049
 21
144.9127
  0
LINE
  8
0
  6
CONTINUOUS
 62
     7
 10
175.2013
 20
145.5737
 11
174.1725
 21
144.5449
  0
LINE
  8
0
  6
CONTINUOUS
 62
     7
 10
174.1726
 20
143.8096
 11
174.5403
 21
143.4419
  0
LINE
  8
0
  6
CONTINUOUS
 62
     7
 10
173.8049
 20
143.442
 11
174.1726
 21
143.0743
  0
LINE
  8
0
  6
CONTINUOUS
 62
     7
 10
172.7018
 20
143.8096
 11
171.673
 21
142.7808
  0
LINE
  8
0
  6
CONTINUOUS
 62
     7
 10
173.0695
 20
143.4419
 11
172.0407
 21
142.4131
  0
LINE
  8
0
  6
CENTER
 62
     2
 10
168.4371
 20
126.1773
 11
160.4371
 21
126.1773
  0
LINE
  8
0
  6
CENTER
 62
     2
 10
177.4371
 20
144.1773
 11
169.4371
 21
144.1773
  0
LINE
  8
0
  6
CENTER
 62
     2
 10
173.4371
 20
148.1773
 11
173.4371
 21
140.1773
  0
LINE
  8
0
  6
CENTER
 62
     2
 10
164.4371
 20
130.1773
 11
164.4371
 21
122.1773
  0
LINE
  8
0
  6
CONTINUOUS
 62
     7
 10
176.4371
 20
146.6773
 11
176.4371
 21
103.6773
  0
LINE
  8
0
  6
CONTINUOUS
 62
     7
 10
175.9371
 20
147.1773
 11
161.9371
 21
147.1773
  0
LINE
  8
0
  6
CONTINUOUS
 62
     7
 10
161.4371
 20
146.6773
 11
161.4371
 21
103.6773
  0
LINE
  8
0
  6
CONTINUOUS
 62
     7
 10
175.9371
 20
103.1773
 11
161.9371
 21
103.1773
  0
LINE
  8
0
  6
CONTINUOUS
 62
     7
 10
176.4371
 20
122.1773
 11
161.4371
 21
122.1773
  0
LINE
  8
0
  6
CONTINUOUS
 62
     7
 10
164.4371
 20
128.8773
 11
161.4371
 21
128.8773
  0
LINE
  8
0
  6
CONTINUOUS
 62
     7
 10
164.4371
 20
123.4772
 11
161.4371
 21
123.4772
  0
LINE
  8
0
  6
CENTER
 62
     2
 10
172.3371
 20
121.6773
 11
172.3371
 21
118.6773
  0
LINE
  8
0
  6
CENTER
 62
     2
 10
170.1871
 20
121.6773
 11
170.1871
 21
118.6773
  0
LINE
  8
0
  6
CENTER
 62
     2
 10
167.6871
 20
121.6773
 11
167.6871
 21
118.6773
  0
LINE
  8
0
  6
CENTER
 62
     2
 10
165.5371
 20
121.6773
 11
165.5371
 21
118.6773
  0
LINE
  8
0
  6
CENTER
 62
     2
 10
175.9371
 20
120.1773
 11
161.9371
 21
120.1773
  0
LINE
  8
0
  6
CONTINUOUS
 62
     7
 10
174.9371
 20
122.1773
 11
174.9371
 21
119.1773
  0
LINE
  8
0
  6
CONTINUOUS
 62
     7
 10
172.9371
 20
117.1773
 11
164.9371
 21
117.1773
  0
LINE
  8
0
  6
CONTINUOUS
 62
     7
 10
162.9371
 20
122.1773
 11
162.9371
 21
119.1773
  0
LINE
  8
0
  6
CONTINUOUS
 62
     7
 10
170.7371
 20
144.1773
 11
170.7371
 21
147.1773
  0
LINE
  8
0
  6
CONTINUOUS
 62
     7
 10
173.4371
 20
141.4772
 11
176.4371
 21
141.4772
  0
LINE
  8
0
  6
CENTER
 62
     2
 10
168.9368
 20
59.78123
 11
168.9368
 21
-90.06047
  0
LINE
  8
0
  6
CONTINUOUS
 62
     7
 10
177.9368
 20
23.2
 11
177.9368
 21
-53.2
  0
LINE
  8
0
  6
CONTINUOUS
 62
     7
 10
159.9368
 20
6.0
 11
177.9368
 21
6.0
  0
LINE
  8
0
  6
CONTINUOUS
 62
     7
 10
159.9368
 20
-36.0
 11
177.9368
 21
-36.0
  0
LINE
  8
0
  6
CONTINUOUS
 62
     7
 10
160.9367
 20
24.19998
 11
159.9367
 21
23.2
  0
LINE
  8
0
  6
CONTINUOUS
 62
     7
 10
176.9367
 20
24.19999
 11
177.9367
 21
23.19999
  0
LINE
  8
0
  6
CENTER
 62
     2
 10
175.4368
 20
4.59129
 11
175.4368
 21
-4.41667
  0
LINE
  8
0
  6
CENTER
 62
     2
 10
162.4368
 20
-25.88725
 11
162.4368
 21
-34.29189
  0
LINE
  8
0
  6
CENTER
 62
     2
 10
159.5246
 20
-30.0
 11
166.6691
 21
-30.0
  0
LINE
  8
0
  6
CENTER
 62
     2
 10
171.0902
 20
0.0
 11
178.5211
 21
0.0
  0
LINE
  8
0
  6
CENTER
 62
     2
 10
166.0151
 20
20.7
 11
171.8465
 21
20.7
  0
LINE
  8
0
  6
CONTINUOUS
 62
     7
 10
160.9368
 20
24.2
 11
176.9368
 21
24.2
  0
LINE
  8
0
  6
CONTINUOUS
 62
     7
 10
159.9368
 20
23.2
 11
177.9368
 21
23.2
  0
LINE
  8
0
  6
CONTINUOUS
 62
     7
 10
159.9368
 20
23.2
 11
159.9368
 21
-53.2
  0
LINE
  8
0
  6
CONTINUOUS
 62
     7
 10
159.9368
 20
-53.20001
 11
160.9368
 21
-54.20001
  0
LINE
  8
0
  6
CONTINUOUS
 62
     7
 10
176.9367
 20
-54.19997
 11
177.9367
 21
-53.19994
  0
LINE
  8
0
  6
CONTINUOUS
 62
     7
 10
159.9368
 20
-53.2
 11
177.9368
 21
-53.2
  0
LINE
  8
0
  6
CONTINUOUS
 62
     7
 10
176.9368
 20
-54.2
 11
160.9368
 21
-54.2
  0
LINE
  8
0
  6
CENTER
 62
     2
 10
171.8812
 20
-50.7
 11
165.9702
 21
-50.7
  0
LINE
  8
0
  6
CENTER
 62
     2
 10
158.836
 20
-15.0
 11
179.6138
 21
-15.0
  0
LINE
  8
0
  6
CONTINUOUS
 62
     7
 10
161.4368
 20
54.90001
 11
161.4368
 21
24.2
  0
LINE
  8
0
  6
CONTINUOUS
 62
     7
 10
176.4368
 20
54.90001
 11
176.4368
 21
24.2
  0
LINE
  8
0
  6
CONTINUOUS
 62
     7
 10
166.9368
 20
34.99998
 11
170.9368
 21
34.99998
  0
LINE
  8
0
  6
CONTINUOUS
 62
     7
 10
166.9368
 20
32.99998
 11
170.9368
 21
32.99998
  0
LINE
  8
0
  6
CONTINUOUS
 62
     7
 10
170.9368
 20
34.99998
 11
170.9368
 21
32.99998
  0
LINE
  8
0
  6
CONTINUOUS
 62
     7
 10
166.9368
 20
34.99998
 11
166.9368
 21
32.99998
  0
LINE
  8
0
  6
CONTINUOUS
 62
     7
 10
166.4368
 20
35.49998
 11
171.4368
 21
35.49998
  0
LINE
  8
0
  6
CONTINUOUS
 62
     7
 10
166.4368
 20
35.49998
 11
166.4368
 21
32.49998
  0
LINE
  8
0
  6
CONTINUOUS
 62
     7
 10
166.4368
 20
32.49998
 11
171.4368
 21
32.49998
  0
LINE
  8
0
  6
CONTINUOUS
 62
     7
 10
171.4368
 20
35.49998
 11
171.4368
 21
32.49998
  0
LINE
  8
0
  6
CONTINUOUS
 62
     7
 10
166.9367
 20
34.99992
 11
166.4367
 21
35.49992
  0
LINE
  8
0
  6
CONTINUOUS
 62
     7
 10
166.9368
 20
33.00001
 11
166.4368
 21
32.50002
  0
LINE
  8
0
  6
CONTINUOUS
 62
     7
 10
170.9368
 20
32.99998
 11
171.4368
 21
32.49998
  0
LINE
  8
0
  6
CONTINUOUS
 62
     7
 10
170.9367
 20
34.99998
 11
171.4367
 21
35.49997
  0
LINE
  8
0
  6
CONTINUOUS
 62
     7
 10
163.4368
 20
53.7
 11
174.4368
 21
53.7
  0
LINE
  8
0
  6
CONTINUOUS
 62
     7
 10
163.4368
 20
43.7
 11
174.4368
 21
43.7
  0
LINE
  8
0
  6
CONTINUOUS
 62
     7
 10
163.4368
 20
53.7
 11
163.4368
 21
43.7
  0
LINE
  8
0
  6
CONTINUOUS
 62
     7
 10
174.4368
 20
53.7
 11
174.4368
 21
43.7
  0
LINE
  8
0
  6
CONTINUOUS
 62
     7
 10
167.4094
 20
39.7182
 11
167.9186
 21
40.22734
  0
LINE
  8
0
  6
CONTINUOUS
 62
     7
 10
169.955
 20
37.17262
 11
170.4642
 21
37.68176
  0
LINE
  8
0
  6
CONTINUOUS
 62
     7
 10
167.4094
 20
37.68173
 11
167.9186
 21
38.19087
  0
LINE
  8
0
  6
CONTINUOUS
 62
     7
 10
167.9185
 20
37.17262
 11
168.4277
 21
37.68176
  0
LINE
  8
0
  6
CONTINUOUS
 62
     7
 10
169.955
 20
40.22738
 11
170.4641
 21
39.71825
  0
LINE
  8
0
  6
CONTINUOUS
 62
     7
 10
167.4095
 20
37.68182
 11
167.9186
 21
37.1727
  0
LINE
  8
0
  6
CONTINUOUS
 62
     7
 10
167.9186
 20
40.22741
 11
168.4277
 21
39.71829
  0
LINE
  8
0
  6
CONTINUOUS
 62
     7
 10
167.4095
 20
39.71832
 11
167.9186
 21
39.2092
  0
LINE
  8
0
  6
CONTINUOUS
 62
     7
 10
169.446
 20
37.68186
 11
169.9551
 21
37.17274
  0
LINE
  8
0
  6
CONTINUOUS
 62
     7
 10
169.9551
 20
38.19094
 11
170.4642
 21
37.68183
  0
LINE
  8
0
  6
CONTINUOUS
 62
     7
 10
169.955
 20
39.2091
 11
170.4642
 21
39.71824
  0
LINE
  8
0
  6
CONTINUOUS
 62
     7
 10
169.4459
 20
39.7182
 11
169.9551
 21
40.22734
  0
LINE
  8
0
  6
CENTER
 62
     2
 10
172.3368
 20
79.7
 11
172.3368
 21
51.7
  0
LINE
  8
0
  6
CONTINUOUS
 62
     7
 10
173.1868
 20
66.7
 11
173.1868
 21
61.33769
  0
LINE
  8
0
  6
CONTINUOUS
 62
     7
 10
171.4868
 20
66.7
 11
171.4868
 21
61.7932
  0
LINE
  8
0
  6
CONTINUOUS
 62
     7
 10
172.0168
 20
76.7
 11
172.0168
 21
66.7
  0
LINE
  8
0
  6
CONTINUOUS
 62
     7
 10
172.6568
 20
76.7
 11
172.6568
 21
66.7
  0
LINE
  8
0
  6
CONTINUOUS
 62
     7
 10
171.4868
 20
66.7
 11
173.1868
 21
66.7
  0
LINE
  8
0
  6
CONTINUOUS
 62
     7
 10
172.0168
 20
76.7
 11
172.6568
 21
76.7
  0
LINE
  8
0
  6
CENTER
 62
     2
 10
165.5368
 20
79.7
 11
165.5368
 21
51.7
  0
LINE
  8
0
  6
CONTINUOUS
 62
     7
 10
166.3868
 20
66.7
 11
166.3868
 21
63.15974
  0
LINE
  8
0
  6
CONTINUOUS
 62
     7
 10
164.6868
 20
66.7
 11
164.6868
 21
63.61525
  0
LINE
  8
0
  6
CONTINUOUS
 62
     7
 10
165.2168
 20
76.7
 11
165.2168
 21
66.7
  0
LINE
  8
0
  6
CONTINUOUS
 62
     7
 10
165.8568
 20
76.7
 11
165.8568
 21
66.7
  0
LINE
  8
0
  6
CONTINUOUS
 62
     7
 10
164.6868
 20
66.7
 11
166.3868
 21
66.7
  0
LINE
  8
0
  6
CONTINUOUS
 62
     7
 10
165.2168
 20
76.7
 11
165.8568
 21
76.7
  0
LINE
  8
0
  6
CENTER
 62
     2
 10
167.6868
 20
79.7
 11
167.6868
 21
51.7
  0
LINE
  8
0
  6
CONTINUOUS
 62
     7
 10
168.5368
 20
66.7
 11
168.5368
 21
62.58363
  0
LINE
  8
0
  6
CONTINUOUS
 62
     7
 10
166.8368
 20
66.7
 11
166.8368
 21
63.03914
  0
LINE
  8
0
  6
CONTINUOUS
 62
     7
 10
167.3668
 20
76.7
 11
167.3668
 21
66.7
  0
LINE
  8
0
  6
CONTINUOUS
 62
     7
 10
168.0068
 20
76.7
 11
168.0068
 21
66.7
  0
LINE
  8
0
  6
CONTINUOUS
 62
     7
 10
166.8368
 20
66.7
 11
168.5368
 21
66.7
  0
LINE
  8
0
  6
CONTINUOUS
 62
     7
 10
167.3668
 20
76.7
 11
168.0068
 21
76.7
  0
LINE
  8
0
  6
CENTER
 62
     2
 10
170.1868
 20
79.7
 11
170.1868
 21
51.7
  0
LINE
  8
0
  6
CONTINUOUS
 62
     7
 10
171.0368
 20
66.7
 11
171.0368
 21
61.91377
  0
LINE
  8
0
  6
CONTINUOUS
 62
     7
 10
169.3368
 20
66.7
 11
169.3368
 21
62.36928
  0
LINE
  8
0
  6
CONTINUOUS
 62
     7
 10
169.8668
 20
76.7
 11
169.8668
 21
66.7
  0
LINE
  8
0
  6
CONTINUOUS
 62
     7
 10
170.5068
 20
76.7
 11
170.5068
 21
66.7
  0
LINE
  8
0
  6
CONTINUOUS
 62
     7
 10
169.3368
 20
66.7
 11
171.0368
 21
66.7
  0
LINE
  8
0
  6
CONTINUOUS
 62
     7
 10
169.8668
 20
76.7
 11
170.5068
 21
76.7
  0
LINE
  8
0
  6
CONTINUOUS
 62
     7
 10
174.9368
 20
54.90001
 11
176.4368
 21
54.90001
  0
LINE
  8
0
  6
CONTINUOUS
 62
     7
 10
161.4368
 20
54.90001
 11
162.9368
 21
54.90001
  0
LINE
  8
0
  6
CENTER
 62
     2
 10
164.9368
 20
33.99998
 11
172.9368
 21
33.99998
  0
LINE
  8
0
  6
CENTER
 62
     2
 10
163.9368
 20
38.7
 11
173.9368
 21
38.7
  0
LINE
  8
0
  6
PHANTOM
 62
     2
 10
162.6868
 20
64.15108
 11
175.1867
 21
60.80171
  0
LINE
  8
0
  6
PHANTOM
 62
     2
 10
162.6868
 20
62.5982
 11
175.1868
 21
59.24884
  0
LINE
  8
0
  6
CONTINUOUS
 62
     7
 10
164.6868
 20
62.06233
 11
164.6868
 21
56.7
  0
LINE
  8
0
  6
CONTINUOUS
 62
     7
 10
166.3868
 20
61.60683
 11
166.3868
 21
56.7
  0
LINE
  8
0
  6
CONTINUOUS
 62
     7
 10
166.8368
 20
61.48622
 11
166.8368
 21
56.7
  0
LINE
  8
0
  6
CONTINUOUS
 62
     7
 10
168.5368
 20
61.03072
 11
168.5368
 21
56.7
  0
LINE
  8
0
  6
CONTINUOUS
 62
     7
 10
169.3368
 20
60.81636
 11
169.3368
 21
56.7
  0
LINE
  8
0
  6
CONTINUOUS
 62
     7
 10
171.0368
 20
60.36086
 11
171.0368
 21
56.7
  0
LINE
  8
0
  6
CONTINUOUS
 62
     7
 10
171.4868
 20
60.24028
 11
171.4868
 21
56.7
  0
LINE
  8
0
  6
CONTINUOUS
 62
     7
 10
173.1868
 20
59.78474
 11
173.1868
 21
56.7
  0
LINE
  8
0
  6
CONTINUOUS
 62
     7
 10
161.9368
 20
54.7
 11
175.9368
 21
54.7
  0
LINE
  8
0
  6
CONTINUOUS
 62
     7
 10
163.4368
 20
56.7
 11
174.4368
 21
56.7
  0
LINE
  8
0
  6
CONTINUOUS
 62
     7
 10
162.9368
 20
56.2
 11
162.9368
 21
54.7
  0
LINE
  8
0
  6
CONTINUOUS
 62
     7
 10
174.9368
 20
56.2
 11
174.9368
 21
54.7
  0
LINE
  8
0
  6
CONTINUOUS
 62
     7
 10
176.4368
 20
-84.90001
 11
176.4368
 21
-54.2
  0
LINE
  8
0
  6
CONTINUOUS
 62
     7
 10
161.4368
 20
-84.90001
 11
161.4368
 21
-54.2
  0
LINE
  8
0
  6
CONTINUOUS
 62
     7
 10
170.9368
 20
-65.0
 11
166.9368
 21
-65.0
  0
LINE
  8
0
  6
CONTINUOUS
 62
     7
 10
170.9368
 20
-63.0
 11
166.9368
 21
-63.0
  0
LINE
  8
0
  6
CONTINUOUS
 62
     7
 10
166.9368
 20
-65.0
 11
166.9368
 21
-63.0
  0
LINE
  8
0
  6
CONTINUOUS
 62
     7
 10
170.9368
 20
-65.0
 11
170.9368
 21
-63.0
  0
LINE
  8
0
  6
CONTINUOUS
 62
     7
 10
171.4368
 20
-65.5
 11
166.4368
 21
-65.5
  0
LINE
  8
0
  6
CONTINUOUS
 62
     7
 10
171.4368
 20
-65.5
 11
171.4368
 21
-62.5
  0
LINE
  8
0
  6
CONTINUOUS
 62
     7
 10
171.4368
 20
-62.5
 11
166.4368
 21
-62.5
  0
LINE
  8
0
  6
CONTINUOUS
 62
     7
 10
166.4368
 20
-65.5
 11
166.4368
 21
-62.5
  0
LINE
  8
0
  6
CONTINUOUS
 62
     7
 10
170.9368
 20
-65.00002
 11
171.4368
 21
-65.50001
  0
LINE
  8
0
  6
CONTINUOUS
 62
     7
 10
170.9368
 20
-62.99999
 11
171.4368
 21
-62.49998
  0
LINE
  8
0
  6
CONTINUOUS
 62
     7
 10
166.9368
 20
-63.00002
 11
166.4368
 21
-62.50002
  0
LINE
  8
0
  6
CONTINUOUS
 62
     7
 10
166.9368
 20
-65.00001
 11
166.4368
 21
-65.49999
  0
LINE
  8
0
  6
CONTINUOUS
 62
     7
 10
174.4368
 20
-83.7
 11
163.4368
 21
-83.7
  0
LINE
  8
0
  6
CONTINUOUS
 62
     7
 10
174.4368
 20
-73.7
 11
163.4368
 21
-73.7
  0
LINE
  8
0
  6
CONTINUOUS
 62
     7
 10
174.4368
 20
-83.7
 11
174.4368
 21
-73.7
  0
LINE
  8
0
  6
CONTINUOUS
 62
     7
 10
163.4368
 20
-83.7
 11
163.4368
 21
-73.7
  0
LINE
  8
0
  6
CONTINUOUS
 62
     7
 10
170.4642
 20
-69.71825
 11
169.955
 21
-70.22737
  0
LINE
  8
0
  6
CONTINUOUS
 62
     7
 10
167.9186
 20
-67.17268
 11
167.4095
 21
-67.68179
  0
LINE
  8
0
  6
CONTINUOUS
 62
     7
 10
170.4641
 20
-67.68176
 11
169.955
 21
-68.19088
  0
LINE
  8
0
  6
CONTINUOUS
 62
     7
 10
169.9551
 20
-67.17269
 11
169.446
 21
-67.68182
  0
LINE
  8
0
  6
CONTINUOUS
 62
     7
 10
167.9186
 20
-70.22733
 11
167.4095
 21
-69.71821
  0
LINE
  8
0
  6
CONTINUOUS
 62
     7
 10
170.4641
 20
-67.6817
 11
169.955
 21
-67.17258
  0
LINE
  8
0
  6
CONTINUOUS
 62
     7
 10
169.955
 20
-70.22734
 11
169.4459
 21
-69.71822
  0
LINE
  8
0
  6
CONTINUOUS
 62
     7
 10
170.4642
 20
-69.7182
 11
169.955
 21
-69.20908
  0
LINE
  8
0
  6
CONTINUOUS
 62
     7
 10
168.4277
 20
-67.68173
 11
167.9186
 21
-67.17262
  0
LINE
  8
0
  6
CONTINUOUS
 62
     7
 10
167.9186
 20
-68.19087
 11
167.4094
 21
-67.68176
  0
LINE
  8
0
  6
CONTINUOUS
 62
     7
 10
167.9186
 20
-69.20917
 11
167.4095
 21
-69.71828
  0
LINE
  8
0
  6
CONTINUOUS
 62
     7
 10
168.4277
 20
-69.71823
 11
167.9185
 21
-70.22735
  0
LINE
  8
0
  6
CENTER
 62
     2
 10
165.5368
 20
-109.7
 11
165.5368
 21
-81.7
  0
LINE
  8
0
  6
CONTINUOUS
 62
     7
 10
164.6868
 20
-96.7
 11
164.6868
 21
-91.33768
  0
LINE
  8
0
  6
CONTINUOUS
 62
     7
 10
166.3868
 20
-96.7
 11
166.3868
 21
-91.79318
  0
LINE
  8
0
  6
CONTINUOUS
 62
     7
 10
165.8568
 20
-106.7
 11
165.8568
 21
-96.7
  0
LINE
  8
0
  6
CONTINUOUS
 62
     7
 10
165.2168
 20
-106.7
 11
165.2168
 21
-96.7
  0
LINE
  8
0
  6
CONTINUOUS
 62
     7
 10
166.3868
 20
-96.7
 11
164.6868
 21
-96.7
  0
LINE
  8
0
  6
CONTINUOUS
 62
     7
 10
165.8568
 20
-106.7
 11
165.2168
 21
-106.7
  0
LINE
  8
0
  6
CENTER
 62
     2
 10
172.3368
 20
-109.7
 11
172.3368
 21
-81.7
  0
LINE
  8
0
  6
CONTINUOUS
 62
     7
 10
171.4868
 20
-96.7
 11
171.4868
 21
-93.15973
  0
LINE
  8
0
  6
CONTINUOUS
 62
     7
 10
173.1868
 20
-96.7
 11
173.1868
 21
-93.61525
  0
LINE
  8
0
  6
CONTINUOUS
 62
     7
 10
172.6568
 20
-106.7
 11
172.6568
 21
-96.7
  0
LINE
  8
0
  6
CONTINUOUS
 62
     7
 10
172.0168
 20
-106.7
 11
172.0168
 21
-96.7
  0
LINE
  8
0
  6
CONTINUOUS
 62
     7
 10
173.1868
 20
-96.7
 11
171.4868
 21
-96.7
  0
LINE
  8
0
  6
CONTINUOUS
 62
     7
 10
172.6568
 20
-106.7
 11
172.0168
 21
-106.7
  0
LINE
  8
0
  6
CENTER
 62
     2
 10
170.1868
 20
-109.7
 11
170.1868
 21
-81.7
  0
LINE
  8
0
  6
CONTINUOUS
 62
     7
 10
169.3368
 20
-96.7
 11
169.3368
 21
-92.58363
  0
LINE
  8
0
  6
CONTINUOUS
 62
     7
 10
171.0368
 20
-96.7
 11
171.0368
 21
-93.03915
  0
LINE
  8
0
  6
CONTINUOUS
 62
     7
 10
170.5068
 20
-106.7
 11
170.5068
 21
-96.7
  0
LINE
  8
0
  6
CONTINUOUS
 62
     7
 10
169.8668
 20
-106.7
 11
169.8668
 21
-96.7
  0
LINE
  8
0
  6
CONTINUOUS
 62
     7
 10
171.0368
 20
-96.7
 11
169.3368
 21
-96.7
  0
LINE
  8
0
  6
CONTINUOUS
 62
     7
 10
170.5068
 20
-106.7
 11
169.8668
 21
-106.7
  0
LINE
  8
0
  6
CENTER
 62
     2
 10
167.6868
 20
-109.7
 11
167.6868
 21
-81.7
  0
LINE
  8
0
  6
CONTINUOUS
 62
     7
 10
166.8368
 20
-96.7
 11
166.8368
 21
-91.91377
  0
LINE
  8
0
  6
CONTINUOUS
 62
     7
 10
168.5368
 20
-96.7
 11
168.5368
 21
-92.36928
  0
LINE
  8
0
  6
CONTINUOUS
 62
     7
 10
168.0068
 20
-106.7
 11
168.0068
 21
-96.7
  0
LINE
  8
0
  6
CONTINUOUS
 62
     7
 10
167.3668
 20
-106.7
 11
167.3668
 21
-96.7
  0
LINE
  8
0
  6
CONTINUOUS
 62
     7
 10
168.5368
 20
-96.7
 11
166.8368
 21
-96.7
  0
LINE
  8
0
  6
CONTINUOUS
 62
     7
 10
168.0068
 20
-106.7
 11
167.3668
 21
-106.7
  0
LINE
  8
0
  6
CONTINUOUS
 62
     7
 10
162.9368
 20
-84.90001
 11
161.4368
 21
-84.90001
  0
LINE
  8
0
  6
CONTINUOUS
 62
     7
 10
176.4368
 20
-84.90001
 11
174.9368
 21
-84.90001
  0
LINE
  8
0
  6
CENTER
 62
     2
 10
172.9368
 20
-64.0
 11
164.9368
 21
-64.0
  0
LINE
  8
0
  6
CENTER
 62
     2
 10
173.9368
 20
-68.7
 11
163.9368
 21
-68.7
  0
LINE
  8
0
  6
PHANTOM
 62
     2
 10
175.1868
 20
-94.15117
 11
162.6868
 21
-90.8018
  0
LINE
  8
0
  6
PHANTOM
 62
     2
 10
175.1868
 20
-92.59825
 11
162.6867
 21
-89.24889
  0
LINE
  8
0
  6
CONTINUOUS
 62
     7
 10
173.1868
 20
-92.06233
 11
173.1868
 21
-86.7
  0
LINE
  8
0
  6
CONTINUOUS
 62
     7
 10
171.4868
 20
-91.60681
 11
171.4868
 21
-86.7
  0
LINE
  8
0
  6
CONTINUOUS
 62
     7
 10
171.0368
 20
-91.48624
 11
171.0368
 21
-86.7
  0
LINE
  8
0
  6
CONTINUOUS
 62
     7
 10
169.3368
 20
-91.03072
 11
169.3368
 21
-86.7
  0
LINE
  8
0
  6
CONTINUOUS
 62
     7
 10
168.5368
 20
-90.81636
 11
168.5368
 21
-86.7
  0
LINE
  8
0
  6
CONTINUOUS
 62
     7
 10
166.8368
 20
-90.36086
 11
166.8368
 21
-86.7
  0
LINE
  8
0
  6
CONTINUOUS
 62
     7
 10
166.3868
 20
-90.24026
 11
166.3868
 21
-86.7
  0
LINE
  8
0
  6
CONTINUOUS
 62
     7
 10
164.6868
 20
-89.78476
 11
164.6868
 21
-86.7
  0
LINE
  8
0
  6
CONTINUOUS
 62
     7
 10
175.9368
 20
-84.7
 11
161.9368
 21
-84.7
  0
LINE
  8
0
  6
CONTINUOUS
 62
     7
 10
174.4368
 20
-86.7
 11
163.4368
 21
-86.7
  0
LINE
  8
0
  6
CONTINUOUS
 62
     7
 10
174.9368
 20
-86.2
 11
174.9368
 21
-84.7
  0
LINE
  8
0
  6
CONTINUOUS
 62
     7
 10
162.9368
 20
-86.2
 11
162.9368
 21
-84.7
  0
LINE
  8
0
  6
CENTER
 62
     2
 10
285.5611
 20
55.55009
 11
285.5611
 21
-83.99771
  0
LINE
  8
0
  6
CONTINUOUS
 62
     7
 10
272.0611
 20
23.20007
 11
272.0611
 21
-53.19992
  0
LINE
  8
0
  6
CONTINUOUS
 62
     7
 10
299.0611
 20
23.20007
 11
299.0611
 21
-53.19992
  0
LINE
  8
0
  6
CONTINUOUS
 62
     7
 10
298.061
 20
24.19998
 11
299.061
 21
23.19998
  0
LINE
  8
0
  6
CONTINUOUS
 62
     7
 10
273.0612
 20
24.20009
 11
272.0611
 21
23.20006
  0
LINE
  8
0
  6
CONTINUOUS
 62
     7
 10
275.0611
 20
1.65839
 11
272.0611
 21
1.65839
  0
LINE
  8
0
  6
CONTINUOUS
 62
     7
 10
275.0611
 20
-1.65823
 11
272.0611
 21
-1.65823
  0
LINE
  8
0
  6
CONTINUOUS
 62
     7
 10
275.0611
 20
1.65839
 11
275.0611
 21
-1.65823
  0
LINE
  8
0
  6
CONTINUOUS
 62
     7
 10
298.0611
 20
24.20007
 11
254.0611
 21
24.20007
  0
LINE
  8
0
  6
CONTINUOUS
 62
     7
 10
299.0611
 20
23.20007
 11
272.0611
 21
23.20007
  0
LINE
  8
0
  6
CENTER
 62
     2
 10
269.5611
 20
-14.99992
 11
301.5176
 21
-14.99992
  0
LINE
  8
0
  6
CONTINUOUS
 62
     7
 10
299.0611
 20
-35.99992
 11
272.0611
 21
-35.99992
  0
LINE
  8
0
  6
CONTINUOUS
 62
     7
 10
299.0611
 20
6.00008
 11
272.0611
 21
6.00008
  0
LINE
  8
0
  6
CONTINUOUS
 62
     7
 10
272.0612
 20
-53.19994
 11
273.0612
 21
-54.19997
  0
LINE
  8
0
  6
CONTINUOUS
 62
     7
 10
299.061
 20
-53.19987
 11
298.061
 21
-54.19989
  0
LINE
  8
0
  6
CONTINUOUS
 62
     7
 10
272.0611
 20
-53.19992
 11
299.0611
 21
-53.19992
  0
LINE
  8
0
  6
CONTINUOUS
 62
     7
 10
298.0611
 20
-54.19991
 11
254.0611
 21
-54.19991
  0
LINE
  8
0
  6
CENTER
 62
     2
 10
270.5372
 20
0.00008
 11
276.0939
 21
0.00008
  0
LINE
  8
0
  6
CONTINUOUS
 62
     7
 10
297.5611
 20
-79.39992
 11
272.5611
 21
-79.39992
  0
LINE
  8
0
  6
CONTINUOUS
 62
     7
 10
297.5611
 20
-84.89992
 11
297.5611
 21
-54.19992
  0
LINE
  8
0
  6
CONTINUOUS
 62
     7
 10
273.5611
 20
-79.39992
 11
273.5611
 21
-54.19992
  0
LINE
  8
0
  6
CONTINUOUS
 62
     7
 10
279.2611
 20
-80.39992
 11
273.8611
 21
-80.39992
  0
LINE
  8
0
  6
CENTER
 62
     2
 10
276.5611
 20
-87.89992
 11
276.5611
 21
-76.39992
  0
LINE
  8
0
  6
CONTINUOUS
 62
     7
 10
274.0111
 20
-80.99992
 11
279.1111
 21
-80.99992
  0
LINE
  8
0
  6
CONTINUOUS
 62
     7
 10
276.8612
 20
-80.39994
 11
277.0219
 21
-80.99993
  0
LINE
  8
0
  6
CONTINUOUS
 62
     7
 10
276.2614
 20
-80.99988
 11
276.1006
 21
-80.39989
  0
LINE
  8
0
  6
CONTINUOUS
 62
     7
 10
274.0111
 20
-80.99992
 11
274.0111
 21
-80.39992
  0
LINE
  8
0
  6
CONTINUOUS
 62
     7
 10
279.1111
 20
-80.99992
 11
279.1111
 21
-80.39992
  0
LINE
  8
0
  6
CONTINUOUS
 62
     7
 10
274.3111
 20
-81.69366
 11
274.3111
 21
-80.99992
  0
LINE
  8
0
  6
CONTINUOUS
 62
     7
 10
278.8111
 20
-81.69366
 11
278.8111
 21
-80.99992
  0
LINE
  8
0
  6
CENTER
 62
     2
 10
294.5611
 20
-87.89992
 11
294.5611
 21
-76.39992
  0
LINE
  8
0
  6
CONTINUOUS
 62
     7
 10
253.5611
 20
-84.19991
 11
253.5611
 21
-54.69992
  0
LINE
  8
0
  6
CONTINUOUS
 62
     7
 10
273.5611
 20
-79.19992
 11
272.5611
 21
-79.19992
  0
LINE
  8
0
  6
CONTINUOUS
 62
     7
 10
272.5611
 20
-79.19992
 11
272.5611
 21
-86.69992
  0
LINE
  8
0
  6
CONTINUOUS
 62
     7
 10
297.5611
 20
-84.89992
 11
272.5611
 21
-84.89992
  0
LINE
  8
0
  6
CONTINUOUS
 62
     7
 10
279.2611
 20
-84.89992
 11
279.2611
 21
-80.39992
  0
LINE
  8
0
  6
CONTINUOUS
 62
     7
 10
273.8611
 20
-84.89992
 11
273.8611
 21
-80.39992
  0
LINE
  8
0
  6
CENTER
 62
     2
 10
270.5611
 20
-109.6999
 11
270.5611
 21
-81.69991
  0
LINE
  8
0
  6
CONTINUOUS
 62
     7
 10
269.7111
 20
-96.69991
 11
269.7111
 21
-92.24861
  0
LINE
  8
0
  6
CONTINUOUS
 62
     7
 10
271.4111
 20
-96.69991
 11
271.4111
 21
-92.70413
  0
LINE
  8
0
  6
CONTINUOUS
 62
     7
 10
270.8811
 20
-106.6999
 11
270.8811
 21
-96.69991
  0
LINE
  8
0
  6
CONTINUOUS
 62
     7
 10
270.2411
 20
-106.6999
 11
270.2411
 21
-96.69991
  0
LINE
  8
0
  6
CONTINUOUS
 62
     7
 10
271.4111
 20
-96.69992
 11
269.7111
 21
-96.69992
  0
LINE
  8
0
  6
CONTINUOUS
 62
     7
 10
270.8811
 20
-106.6999
 11
270.2411
 21
-106.6999
  0
LINE
  8
0
  6
PHANTOM
 62
     2
 10
273.4111
 20
-91.68716
 11
267.7111
 21
-90.15984
  0
LINE
  8
0
  6
PHANTOM
 62
     2
 10
273.4111
 20
-93.24003
 11
267.7111
 21
-91.71271
  0
LINE
  8
0
  6
CONTINUOUS
 62
     7
 10
271.4111
 20
-91.15121
 11
271.4111
 21
-86.69992
  0
LINE
  8
0
  6
CONTINUOUS
 62
     7
 10
269.7111
 20
-90.69569
 11
269.7111
 21
-86.69992
  0
LINE
  8
0
  6
CONTINUOUS
 62
     7
 10
272.5611
 20
-84.69992
 11
254.0611
 21
-84.69992
  0
LINE
  8
0
  6
CONTINUOUS
 62
     7
 10
267.5611
 20
-84.69991
 11
267.5611
 21
-86.19991
  0
LINE
  8
0
  6
CONTINUOUS
 62
     7
 10
272.5611
 20
-86.69992
 11
268.0611
 21
-86.69992
  0
LINE
  8
0
  6
CONTINUOUS
 62
     7
 10
297.5611
 20
49.40007
 11
272.5611
 21
49.40007
  0
LINE
  8
0
  6
CONTINUOUS
 62
     7
 10
297.5611
 20
54.90007
 11
297.5611
 21
24.20007
  0
LINE
  8
0
  6
CONTINUOUS
 62
     7
 10
273.5611
 20
49.40007
 11
273.5611
 21
24.20009
  0
LINE
  8
0
  6
CENTER
 62
     2
 10
294.5611
 20
57.90007
 11
294.5611
 21
46.40007
  0
LINE
  8
0
  6
CONTINUOUS
 62
     7
 10
297.1111
 20
51.00008
 11
292.0111
 21
51.00008
  0
LINE
  8
0
  6
CONTINUOUS
 62
     7
 10
294.261
 20
50.40005
 11
294.1003
 21
51.00006
  0
LINE
  8
0
  6
CONTINUOUS
 62
     7
 10
294.8611
 20
51.00006
 11
295.0218
 21
50.40005
  0
LINE
  8
0
  6
CONTINUOUS
 62
     7
 10
297.1111
 20
51.00008
 11
297.1111
 21
50.40007
  0
LINE
  8
0
  6
CONTINUOUS
 62
     7
 10
292.0111
 20
51.00008
 11
292.0111
 21
50.40007
  0
LINE
  8
0
  6
CONTINUOUS
 62
     7
 10
296.8111
 20
51.69383
 11
296.8111
 21
51.00008
  0
LINE
  8
0
  6
CONTINUOUS
 62
     7
 10
292.3111
 20
51.69383
 11
292.3111
 21
51.00008
  0
LINE
  8
0
  6
CENTER
 62
     2
 10
276.5611
 20
57.90007
 11
276.5611
 21
46.40007
  0
LINE
  8
0
  6
CONTINUOUS
 62
     7
 10
253.5611
 20
54.20009
 11
253.5611
 21
24.70009
  0
LINE
  8
0
  6
CONTINUOUS
 62
     7
 10
272.5611
 20
54.70006
 11
254.0611
 21
54.70006
  0
LINE
  8
0
  6
CONTINUOUS
 62
     7
 10
272.5611
 20
49.20009
 11
272.5611
 21
56.70009
  0
LINE
  8
0
  6
CONTINUOUS
 62
     7
 10
297.5611
 20
54.90007
 11
272.5611
 21
54.90007
  0
LINE
  8
0
  6
CONTINUOUS
 62
     7
 10
291.8611
 20
54.90007
 11
291.8611
 21
50.40007
  0
LINE
  8
0
  6
CENTER
 62
     2
 10
270.5611
 20
79.70009
 11
270.5611
 21
51.70006
  0
LINE
  8
0
  6
CONTINUOUS
 62
     7
 10
269.7111
 20
66.70009
 11
269.7111
 21
62.7043
  0
LINE
  8
0
  6
CONTINUOUS
 62
     7
 10
271.4111
 20
66.70009
 11
271.4111
 21
62.24879
  0
LINE
  8
0
  6
CONTINUOUS
 62
     7
 10
270.8811
 20
76.70009
 11
270.8811
 21
66.70009
  0
LINE
  8
0
  6
CONTINUOUS
 62
     7
 10
270.2411
 20
76.70009
 11
270.2411
 21
66.70009
  0
LINE
  8
0
  6
CONTINUOUS
 62
     7
 10
271.4111
 20
66.70006
 11
269.7111
 21
66.70006
  0
LINE
  8
0
  6
CONTINUOUS
 62
     7
 10
270.8811
 20
76.70006
 11
270.2411
 21
76.70006
  0
LINE
  8
0
  6
CONTINUOUS
 62
     7
 10
291.8611
 20
50.40007
 11
297.5611
 21
50.40007
  0
LINE
  8
0
  6
CONTINUOUS
 62
     7
 10
272.5611
 20
49.20006
 11
273.5611
 21
49.20006
  0
LINE
  8
0
  6
PHANTOM
 62
     2
 10
267.7111
 20
63.24001
 11
273.4111
 21
61.71269
  0
LINE
  8
0
  6
PHANTOM
 62
     2
 10
267.711
 20
61.68714
 11
273.411
 21
60.15983
  0
LINE
  8
0
  6
CONTINUOUS
 62
     7
 10
269.7111
 20
61.15138
 11
269.7111
 21
56.70009
  0
LINE
  8
0
  6
CONTINUOUS
 62
     7
 10
271.4111
 20
60.69588
 11
271.4111
 21
56.70009
  0
LINE
  8
0
  6
CONTINUOUS
 62
     7
 10
267.5611
 20
54.70006
 11
267.5611
 21
56.20006
  0
LINE
  8
0
  6
CONTINUOUS
 62
     7
 10
272.5611
 20
56.70006
 11
268.0611
 21
56.70006
  0
LINE
  8
0
  6
CONTINUOUS
 62
     7
 10
176.437
 20
-161.2791
 11
176.937
 21
-161.2791
  0
LINE
  8
0
  6
CONTINUOUS
 62
     7
 10
161.437
 20
-160.2791
 11
160.437
 21
-160.2791
  0
LINE
  8
0
  6
CENTER
 62
     2
 10
168.937
 20
-189.6754
 11
168.937
 21
-139.3363
  0
LINE
  8
0
  6
CONTINUOUS
 62
     7
 10
159.937
 20
-186.7791
 11
159.937
 21
-160.7791
  0
LINE
  8
0
  6
CONTINUOUS
 62
     7
 10
177.937
 20
-186.7791
 11
177.937
 21
-160.7791
  0
LINE
  8
0
  6
CONTINUOUS
 62
     7
 10
177.437
 20
-160.2791
 11
176.437
 21
-160.2791
  0
LINE
  8
0
  6
CONTINUOUS
 62
     7
 10
177.437
 20
-187.2791
 11
160.437
 21
-187.2791
  0
LINE
  8
0
  6
CENTER
 62
     2
 10
180.687
 20
-173.7791
 11
156.7095
 21
-173.7791
  0
LINE
  8
0
  6
CONTINUOUS
 62
     7
 10
160.937
 20
-186.2791
 11
160.937
 21
-161.2791
  0
LINE
  8
0
  6
CONTINUOUS
 62
     7
 10
176.937
 20
-186.2791
 11
176.937
 21
-161.2791
  0
LINE
  8
0
  6
CONTINUOUS
 62
     7
 10
160.937
 20
-186.2791
 11
176.937
 21
-186.2791
  0
LINE
  8
0
  6
CONTINUOUS
 62
     7
 10
160.937
 20
-161.2791
 11
161.437
 21
-161.2791
  0
LINE
  8
0
  6
CONTINUOUS
 62
     7
 10
176.9369
 20
-161.2791
 11
177.7904
 21
-160.4255
  0
LINE
  8
0
  6
CONTINUOUS
 62
     7
 10
176.9369
 20
-186.2791
 11
177.7905
 21
-187.1327
  0
LINE
  8
0
  6
CONTINUOUS
 62
     7
 10
160.9369
 20
-161.2792
 11
160.0834
 21
-160.4256
  0
LINE
  8
0
  6
CONTINUOUS
 62
     7
 10
160.9369
 20
-186.2792
 11
160.0834
 21
-187.1327
  0
LINE
  8
0
  6
CONTINUOUS
 62
     7
 10
161.437
 20
-161.7791
 11
176.437
 21
-161.7791
  0
LINE
  8
0
  6
CONTINUOUS
 62
     7
 10
175.6669
 20
-164.4791
 11
175.9693
 21
-164.4791
  0
LINE
  8
0
  6
CONTINUOUS
 62
     7
 10
175.6669
 20
-165.0791
 11
175.9693
 21
-165.0791
  0
LINE
  8
0
  6
CONTINUOUS
 62
     7
 10
175.945
 20
-165.2399
 11
175.6393
 21
-165.2399
  0
LINE
  8
0
  6
CONTINUOUS
 62
     7
 10
162.207
 20
-183.0791
 11
161.9047
 21
-183.0791
  0
LINE
  8
0
  6
CONTINUOUS
 62
     7
 10
162.207
 20
-182.4791
 11
161.9047
 21
-182.4791
  0
LINE
  8
0
  6
CONTINUOUS
 62
     7
 10
161.9289
 20
-182.3184
 11
162.2347
 21
-182.3184
  0
LINE
  8
0
  6
CONTINUOUS
 62
     7
 10
174.1724
 20
-165.8822
 11
173.8047
 21
-165.5145
  0
LINE
  8
0
  6
CONTINUOUS
 62
     7
 10
174.5401
 20
-165.5145
 11
174.1724
 21
-165.1468
  0
LINE
  8
0
  6
CONTINUOUS
 62
     7
 10
174.1724
 20
-165.8823
 11
174.5401
 21
-165.5146
  0
LINE
  8
0
  6
CONTINUOUS
 62
     7
 10
172.3339
 20
-164.0438
 11
172.7016
 21
-163.6761
  0
LINE
  8
0
  6
CONTINUOUS
 62
     7
 10
172.0405
 20
-166.5434
 11
173.0693
 21
-165.5146
  0
LINE
  8
0
  6
CONTINUOUS
 62
     7
 10
171.6728
 20
-166.1757
 11
172.7016
 21
-165.1469
  0
LINE
  8
0
  6
CONTINUOUS
 62
     7
 10
172.7016
 20
-164.4114
 11
172.3339
 21
-164.0437
  0
LINE
  8
0
  6
CONTINUOUS
 62
     7
 10
173.0693
 20
-164.0437
 11
172.7016
 21
-163.676
  0
LINE
  8
0
  6
CONTINUOUS
 62
     7
 10
174.1724
 20
-164.4115
 11
175.2012
 21
-163.3827
  0
LINE
  8
0
  6
CONTINUOUS
 62
     7
 10
173.8047
 20
-164.0438
 11
174.8335
 21
-163.015
  0
LINE
  8
0
  6
CONTINUOUS
 62
     7
 10
165.1723
 20
-183.8823
 11
164.8046
 21
-183.5146
  0
LINE
  8
0
  6
CONTINUOUS
 62
     7
 10
165.5401
 20
-183.5146
 11
165.1724
 21
-183.1469
  0
LINE
  8
0
  6
CONTINUOUS
 62
     7
 10
165.1723
 20
-183.8823
 11
165.5401
 21
-183.5146
  0
LINE
  8
0
  6
CONTINUOUS
 62
     7
 10
163.3339
 20
-182.0438
 11
163.7016
 21
-181.6761
  0
LINE
  8
0
  6
CONTINUOUS
 62
     7
 10
163.0405
 20
-184.5434
 11
164.0693
 21
-183.5146
  0
LINE
  8
0
  6
CONTINUOUS
 62
     7
 10
162.6728
 20
-184.1756
 11
163.7016
 21
-183.1469
  0
LINE
  8
0
  6
CONTINUOUS
 62
     7
 10
163.7016
 20
-182.4115
 11
163.3339
 21
-182.0438
  0
LINE
  8
0
  6
CONTINUOUS
 62
     7
 10
164.0693
 20
-182.0438
 11
163.7016
 21
-181.6761
  0
LINE
  8
0
  6
CONTINUOUS
 62
     7
 10
165.1724
 20
-182.4115
 11
166.2012
 21
-181.3827
  0
LINE
  8
0
  6
CONTINUOUS
 62
     7
 10
164.8047
 20
-182.0438
 11
165.8335
 21
-181.015
  0
LINE
  8
0
  6
CENTER
 62
     2
 10
169.437
 20
-164.7791
 11
177.437
 21
-164.7791
  0
LINE
  8
0
  6
CENTER
 62
     2
 10
160.437
 20
-182.7791
 11
168.437
 21
-182.7791
  0
LINE
  8
0
  6
CENTER
 62
     2
 10
164.437
 20
-186.7791
 11
164.437
 21
-178.7791
  0
LINE
  8
0
  6
CENTER
 62
     2
 10
173.437
 20
-168.7791
 11
173.437
 21
-160.7791
  0
LINE
  8
0
  6
CONTINUOUS
 62
     7
 10
161.437
 20
-185.2791
 11
161.437
 21
-142.2791
  0
LINE
  8
0
  6
CONTINUOUS
 62
     7
 10
161.937
 20
-185.7791
 11
175.937
 21
-185.7791
  0
LINE
  8
0
  6
CONTINUOUS
 62
     7
 10
176.437
 20
-185.2791
 11
176.437
 21
-142.2791
  0
LINE
  8
0
  6
CONTINUOUS
 62
     7
 10
161.937
 20
-141.7791
 11
175.937
 21
-141.7791
  0
LINE
  8
0
  6
CONTINUOUS
 62
     7
 10
161.437
 20
-160.7791
 11
176.437
 21
-160.7791
  0
LINE
  8
0
  6
CONTINUOUS
 62
     7
 10
173.437
 20
-167.4791
 11
176.437
 21
-167.4791
  0
LINE
  8
0
  6
CONTINUOUS
 62
     7
 10
173.437
 20
-162.0791
 11
176.437
 21
-162.0791
  0
LINE
  8
0
  6
CENTER
 62
     2
 10
165.537
 20
-160.2791
 11
165.537
 21
-157.2791
  0
LINE
  8
0
  6
CENTER
 62
     2
 10
167.687
 20
-160.2791
 11
167.687
 21
-157.2791
  0
LINE
  8
0
  6
CENTER
 62
     2
 10
170.187
 20
-160.2791
 11
170.187
 21
-157.2791
  0
LINE
  8
0
  6
CENTER
 62
     2
 10
172.337
 20
-160.2791
 11
172.337
 21
-157.2791
  0
LINE
  8
0
  6
CENTER
 62
     2
 10
161.937
 20
-158.7791
 11
175.937
 21
-158.7791
  0
LINE
  8
0
  6
CONTINUOUS
 62
     7
 10
162.937
 20
-160.7791
 11
162.937
 21
-157.7791
  0
LINE
  8
0
  6
CONTINUOUS
 62
     7
 10
164.937
 20
-155.7791
 11
172.937
 21
-155.7791
  0
LINE
  8
0
  6
CONTINUOUS
 62
     7
 10
174.937
 20
-160.7791
 11
174.937
 21
-157.7791
  0
LINE
  8
0
  6
CONTINUOUS
 62
     7
 10
167.137
 20
-182.7791
 11
167.137
 21
-185.7791
  0
LINE
  8
0
  6
CONTINUOUS
 62
     7
 10
164.437
 20
-180.0791
 11
161.437
 21
-180.0791
  0
ARC
  8
0
  6
CONTINUOUS
 62
     7
 10
273.0354
 20
-235.0457
 40
2.21188
 50
0.0
 51
89.99999
  0
ARC
  8
0
  6
CONTINUOUS
 62
     7
 10
291.2836
 20
-246.9346
 40
2.2119
 50
270.0
 51
0.0
  0
ARC
  8
0
  6
CONTINUOUS
 62
     7
 10
290.1776
 20
-236.1516
 40
3.31784
 50
0.0
 51
89.99999
  0
ARC
  8
0
  6
CONTINUOUS
 62
     7
 10
310.3611
 20
-236.8128
 40
2.21189
 50
295.0
 51
0.0
  0
ARC
  8
0
  6
CONTINUOUS
 62
     7
 10
310.3611
 20
-235.0457
 40
2.21188
 50
0.0
 51
89.99999
  0
ARC
  8
0
  6
CONTINUOUS
 62
     7
 10
327.5034
 20
-232.8338
 40
3.31784
 50
291.6884
 51
0.0
  0
ARC
  8
0
  6
CONTINUOUS
 62
     7
 10
326.3973
 20
-232.0834
 40
1.10595
 50
291.689
 51
0.0
  0
CIRCLE
  8
0
  6
CONTINUOUS
 62
     7
 10
-174.4368
 20
0.0
 40
1.6
  0
CIRCLE
  8
0
  6
CONTINUOUS
 62
     7
 10
-174.4368
 20
-30.0
 40
1.6
  0
ARC
  8
0
  6
CONTINUOUS
 62
     7
 10
-172.9368
 20
46.7
 40
6.0
 50
73.80862
 51
106.1914
  0
ARC
  8
0
  6
CONTINUOUS
 62
     7
 10
-171.4868
 20
51.69376
 40
0.8
 50
0.0
 51
73.8082
  0
ARC
  8
0
  6
CONTINUOUS
 62
     7
 10
-174.3868
 20
51.69376
 40
0.8
 50
106.1918
 51
180.0
  0
ARC
  8
0
  6
CONTINUOUS
 62
     7
 10
-150.4368
 20
54.2
 40
0.5
 50
0.0
 51
89.99999
  0
ARC
  8
0
  6
CONTINUOUS
 62
     7
 10
-150.4368
 20
24.7
 40
0.5
 50
270.0
 51
0.0
  0
ARC
  8
0
  6
CONTINUOUS
 62
     7
 10
-164.4368
 20
56.2
 40
0.5
 50
0.0
 51
89.99999
  0
ARC
  8
0
  6
CONTINUOUS
 62
     7
 10
-190.9368
 20
-76.69998
 40
6.0
 50
253.8088
 51
286.1914
  0
ARC
  8
0
  6
CONTINUOUS
 62
     7
 10
-192.3868
 20
-81.69376
 40
0.8
 50
180.0
 51
253.8083
  0
ARC
  8
0
  6
CONTINUOUS
 62
     7
 10
-189.4868
 20
-81.69376
 40
0.8
 50
286.1919
 51
0.0
  0
ARC
  8
0
  6
CONTINUOUS
 62
     7
 10
-150.4368
 20
-54.70001
 40
0.5
 50
0.0
 51
89.99999
  0
ARC
  8
0
  6
CONTINUOUS
 62
     7
 10
-150.4368
 20
-84.20001
 40
0.5
 50
270.0
 51
0.0
  0
ARC
  8
0
  6
CONTINUOUS
 62
     7
 10
-164.4368
 20
-86.19998
 40
0.5
 50
270.0
 51
0.0
  0
ARC
  8
0
  6
CONTINUOUS
 62
     7
 10
-194.9367
 20
133.6774
 40
0.5
 50
180.0
 51
270.0
  0
ARC
  8
0
  6
CONTINUOUS
 62
     7
 10
-168.9367
 20
133.6774
 40
0.5
 50
270.0
 51
0.0
  0
ARC
  8
0
  6
CONTINUOUS
 62
     7
 10
-168.9367
 20
150.6774
 40
0.5
 50
0.0
 51
89.99999
  0
ARC
  8
0
  6
CONTINUOUS
 62
     7
 10
-194.9367
 20
150.6774
 40
0.5
 50
89.99999
 51
180.0
  0
ARC
  8
0
  6
CONTINUOUS
 62
     7
 10
-172.9367
 20
137.6774
 40
2.55
 50
276.7564
 51
263.2436
  0
ARC
  8
0
  6
CONTINUOUS
 62
     7
 10
-190.9367
 20
146.6774
 40
2.55
 50
96.7564
 51
83.24359
  0
CIRCLE
  8
0
  6
CONTINUOUS
 62
     7
 10
-172.9367
 20
137.6774
 40
2.25
  0
ARC
  8
0
  6
CONTINUOUS
 62
     7
 10
-172.9367
 20
138.7805
 40
0.51999
 50
225.0
 51
315.0
  0
ARC
  8
0
  6
CONTINUOUS
 62
     7
 10
-174.0398
 20
137.6774
 40
0.51999
 50
315.0
 51
45.0
  0
ARC
  8
0
  6
CONTINUOUS
 62
     7
 10
-171.8336
 20
137.6774
 40
0.51999
 50
135.0
 51
225.0
  0
ARC
  8
0
  6
CONTINUOUS
 62
     7
 10
-172.9367
 20
136.5743
 40
0.51999
 50
45.0
 51
135.0
  0
CIRCLE
  8
0
  6
CONTINUOUS
 62
     7
 10
-190.9367
 20
146.6774
 40
2.25
  0
ARC
  8
0
  6
CONTINUOUS
 62
     7
 10
-190.9367
 20
147.7805
 40
0.51999
 50
225.0
 51
315.0
  0
ARC
  8
0
  6
CONTINUOUS
 62
     7
 10
-192.0398
 20
146.6774
 40
0.51999
 50
315.0
 51
45.0
  0
ARC
  8
0
  6
CONTINUOUS
 62
     7
 10
-189.8336
 20
146.6774
 40
0.51999
 50
135.0
 51
225.0
  0
ARC
  8
0
  6
CONTINUOUS
 62
     7
 10
-190.9367
 20
145.5743
 40
0.51999
 50
45.0
 51
135.0
  0
ARC
  8
0
  6
CONTINUOUS
 62
     7
 10
-193.4367
 20
149.1774
 40
0.5
 50
89.99999
 51
180.0
  0
ARC
  8
0
  6
CONTINUOUS
 62
     7
 10
-193.4367
 20
135.1774
 40
0.5
 50
180.0
 51
270.0
  0
ARC
  8
0
  6
CONTINUOUS
 62
     7
 10
-172.9367
 20
137.6774
 40
2.7
 50
0.0
 51
180.0
  0
ARC
  8
0
  6
CONTINUOUS
 62
     7
 10
-150.4367
 20
135.1774
 40
0.5
 50
270.0
 51
0.0
  0
ARC
  8
0
  6
CONTINUOUS
 62
     7
 10
-150.4367
 20
149.1774
 40
0.5
 50
0.0
 51
89.99999
  0
ARC
  8
0
  6
CONTINUOUS
 62
     7
 10
-165.9367
 20
146.1774
 40
2.0
 50
0.0
 51
89.99999
  0
ARC
  8
0
  6
CONTINUOUS
 62
     7
 10
-165.9367
 20
138.1774
 40
2.0
 50
270.0
 51
0.0
  0
CIRCLE
  8
0
  6
CONTINUOUS
 62
     7
 10
-166.9367
 20
138.7774
 40
0.85
  0
CIRCLE
  8
0
  6
CONTINUOUS
 62
     7
 10
-166.9367
 20
140.9274
 40
0.85
  0
CIRCLE
  8
0
  6
CONTINUOUS
 62
     7
 10
-166.9367
 20
143.4274
 40
0.85
  0
CIRCLE
  8
0
  6
CONTINUOUS
 62
     7
 10
-166.9367
 20
145.5774
 40
0.85
  0
ARC
  8
0
  6
CONTINUOUS
 62
     7
 10
-190.9367
 20
146.6774
 40
2.7
 50
270.0
 51
0.0
  0
CIRCLE
  8
0
  6
CONTINUOUS
 62
     7
 10
-300.5613
 20
-29.99988
 40
1.6
  0
CIRCLE
  8
0
  6
CONTINUOUS
 62
     7
 10
-313.5613
 20
0.00012
 40
1.6
  0
CIRCLE
  8
0
  6
CONTINUOUS
 62
     7
 10
-307.0613
 20
15.90012
 40
2.65
  0
CIRCLE
  8
0
  6
CONTINUOUS
 62
     7
 10
-306.5613
 20
-1.79987
 40
4.86435
  0
CIRCLE
  8
0
  6
CONTINUOUS
 62
     7
 10
-306.5613
 20
-1.79987
 40
4.28325
  0
CIRCLE
  8
0
  6
CONTINUOUS
 62
     7
 10
-307.5613
 20
-28.19989
 40
4.86435
  0
CIRCLE
  8
0
  6
CONTINUOUS
 62
     7
 10
-307.5613
 20
-28.19989
 40
4.28325
  0
CIRCLE
  8
0
  6
CONTINUOUS
 62
     7
 10
-307.0613
 20
-14.99988
 40
4.86435
  0
CIRCLE
  8
0
  6
CONTINUOUS
 62
     7
 10
-307.0613
 20
-14.99988
 40
4.28325
  0
CIRCLE
  8
0
  6
CONTINUOUS
 62
     7
 10
-307.0613
 20
15.90012
 40
2.0
  0
CIRCLE
  8
0
  6
CONTINUOUS
 62
     7
 10
-307.0613
 20
-45.89987
 40
2.65
  0
CIRCLE
  8
0
  6
CONTINUOUS
 62
     7
 10
-307.0613
 20
-45.89987
 40
2.0
  0
ARC
  8
0
  6
CONTINUOUS
 62
     7
 10
-310.5076
 20
45.15344
 40
0.35345
 50
0.0
 51
89.99999
  0
ARC
  8
0
  6
CONTINUOUS
 62
     7
 10
-307.5916
 20
43.25357
 40
0.35346
 50
270.0
 51
0.0
  0
ARC
  8
0
  6
CONTINUOUS
 62
     7
 10
-307.7682
 20
44.97672
 40
0.53018
 50
0.0
 51
89.99999
  0
ARC
  8
0
  6
CONTINUOUS
 62
     7
 10
-304.5429
 20
45.15344
 40
0.35345
 50
0.0
 51
89.99999
  0
ARC
  8
0
  6
CONTINUOUS
 62
     7
 10
-304.5429
 20
44.87105
 40
0.35347
 50
295.0005
 51
0.0
  0
ARC
  8
0
  6
CONTINUOUS
 62
     7
 10
-301.8036
 20
45.5069
 40
0.53019
 50
291.6869
 51
0.0
  0
ARC
  8
0
  6
CONTINUOUS
 62
     7
 10
-301.9803
 20
45.62682
 40
0.17673
 50
291.687
 51
0.0
  0
ARC
  8
0
  6
CONTINUOUS
 62
     7
 10
-313.0114
 20
51.69385
 40
0.8
 50
106.1918
 51
180.0
  0
ARC
  8
0
  6
CONTINUOUS
 62
     7
 10
-311.5613
 20
46.7001
 40
6.0
 50
73.80876
 51
106.1912
  0
ARC
  8
0
  6
CONTINUOUS
 62
     7
 10
-310.1113
 20
51.69386
 40
0.79999
 50
0.0
 51
73.8082
  0
ARC
  8
0
  6
CONTINUOUS
 62
     7
 10
-312.5613
 20
56.20012
 40
0.5
 50
89.99999
 51
180.0
  0
ARC
  8
0
  6
CONTINUOUS
 62
     7
 10
-301.5613
 20
56.20012
 40
0.5
 50
0.0
 51
89.99999
  0
ARC
  8
0
  6
CONTINUOUS
 62
     7
 10
-303.6151
 20
-75.1532
 40
0.35345
 50
180.0
 51
270.0
  0
ARC
  8
0
  6
CONTINUOUS
 62
     7
 10
-306.5311
 20
-73.25333
 40
0.35346
 50
89.99999
 51
180.0
  0
ARC
  8
0
  6
CONTINUOUS
 62
     7
 10
-306.3544
 20
-74.97647
 40
0.53018
 50
180.0
 51
270.0
  0
ARC
  8
0
  6
CONTINUOUS
 62
     7
 10
-309.5798
 20
-75.1532
 40
0.35345
 50
180.0
 51
270.0
  0
ARC
  8
0
  6
CONTINUOUS
 62
     7
 10
-309.5798
 20
-74.87082
 40
0.35346
 50
115.0008
 51
180.0
  0
ARC
  8
0
  6
CONTINUOUS
 62
     7
 10
-312.3191
 20
-75.50665
 40
0.53019
 50
111.6869
 51
180.0
  0
ARC
  8
0
  6
CONTINUOUS
 62
     7
 10
-312.1423
 20
-75.62656
 40
0.17673
 50
111.6866
 51
180.0
  0
ARC
  8
0
  6
CONTINUOUS
 62
     7
 10
-301.1113
 20
-81.6936
 40
0.8
 50
286.1919
 51
0.0
  0
ARC
  8
0
  6
CONTINUOUS
 62
     7
 10
-302.5613
 20
-76.69986
 40
6.0
 50
253.8088
 51
286.1915
  0
ARC
  8
0
  6
CONTINUOUS
 62
     7
 10
-304.0114
 20
-81.69363
 40
0.79999
 50
180.0
 51
253.8083
  0
ARC
  8
0
  6
CONTINUOUS
 62
     7
 10
-301.5613
 20
-86.19986
 40
0.5
 50
270.0
 51
0.0
  0
ARC
  8
0
  6
CONTINUOUS
 62
     7
 10
-312.5613
 20
-86.19986
 40
0.5
 50
180.0
 51
270.0
  0
CIRCLE
  8
0
  6
CONTINUOUS
 62
     7
 10
-49.31221
 20
-29.99991
 40
1.6
  0
CIRCLE
  8
0
  6
CONTINUOUS
 62
     7
 10
-36.31221
 20
0.00011
 40
1.6
  0
ARC
  8
0
  6
CONTINUOUS
 62
     7
 10
-36.31221
 20
0.00011
 40
3.0
 50
33.55732
 51
326.4427
  0
ARC
  8
0
  6
CONTINUOUS
 62
     7
 10
-49.31221
 20
-29.99991
 40
3.0
 50
0.0
 51
146.4427
  0
ARC
  8
0
  6
CONTINUOUS
 62
     7
 10
-49.31221
 20
-29.99991
 40
3.0
 50
213.5573
 51
0.0
  0
CIRCLE
  8
0
  6
CONTINUOUS
 62
     7
 10
-42.81221
 20
20.7001
 40
1.65
  0
CIRCLE
  8
0
  6
CONTINUOUS
 62
     7
 10
-43.31221
 20
-22.99991
 40
4.86435
  0
CIRCLE
  8
0
  6
CONTINUOUS
 62
     7
 10
-43.31221
 20
-22.99991
 40
4.28325
  0
CIRCLE
  8
0
  6
CONTINUOUS
 62
     7
 10
-42.31221
 20
-6.99991
 40
4.86435
  0
CIRCLE
  8
0
  6
CONTINUOUS
 62
     7
 10
-42.31221
 20
-6.99991
 40
4.28325
  0
CIRCLE
  8
0
  6
CONTINUOUS
 62
     7
 10
-42.81221
 20
-50.69989
 40
1.65
  0
ARC
  8
0
  6
CONTINUOUS
 62
     7
 10
-42.81221
 20
38.7001
 40
3.25
 50
280.0633
 51
259.9366
  0
ARC
  8
0
  6
CONTINUOUS
 62
     7
 10
-49.81221
 20
54.2001
 40
0.5
 50
89.99999
 51
180.0
  0
ARC
  8
0
  6
CONTINUOUS
 62
     7
 10
-35.81221
 20
54.2001
 40
0.5
 50
0.0
 51
89.99999
  0
CIRCLE
  8
0
  6
CONTINUOUS
 62
     7
 10
-42.81221
 20
38.7001
 40
3.0
  0
ARC
  8
0
  6
CONTINUOUS
 62
     7
 10
-42.81221
 20
40.22746
 40
0.72
 50
225.0
 51
315.0
  0
ARC
  8
0
  6
CONTINUOUS
 62
     7
 10
-44.33955
 20
38.7001
 40
0.72
 50
315.0
 51
45.0
  0
ARC
  8
0
  6
CONTINUOUS
 62
     7
 10
-42.81221
 20
37.17276
 40
0.72
 50
45.0
 51
135.0
  0
ARC
  8
0
  6
CONTINUOUS
 62
     7
 10
-41.28487
 20
38.7001
 40
0.72
 50
135.0
 51
225.0
  0
ARC
  8
0
  6
CONTINUOUS
 62
     7
 10
-48.31221
 20
56.2001
 40
0.5
 50
89.99999
 51
180.0
  0
ARC
  8
0
  6
CONTINUOUS
 62
     7
 10
-37.31221
 20
56.2001
 40
0.5
 50
0.0
 51
89.99999
  0
ARC
  8
0
  6
CONTINUOUS
 62
     7
 10
-42.81221
 20
-68.69989
 40
3.25
 50
100.0633
 51
79.93666
  0
ARC
  8
0
  6
CONTINUOUS
 62
     7
 10
-35.81221
 20
-84.19989
 40
0.5
 50
270.0
 51
0.0
  0
ARC
  8
0
  6
CONTINUOUS
 62
     7
 10
-49.81221
 20
-84.19989
 40
0.5
 50
180.0
 51
270.0
  0
CIRCLE
  8
0
  6
CONTINUOUS
 62
     7
 10
-42.81221
 20
-68.69989
 40
3.0
  0
ARC
  8
0
  6
CONTINUOUS
 62
     7
 10
-42.81221
 20
-70.22723
 40
0.72
 50
45.0
 51
135.0
  0
ARC
  8
0
  6
CONTINUOUS
 62
     7
 10
-41.28487
 20
-68.69989
 40
0.72
 50
135.0
 51
225.0
  0
ARC
  8
0
  6
CONTINUOUS
 62
     7
 10
-42.81221
 20
-67.17255
 40
0.72
 50
225.0
 51
315.0
  0
ARC
  8
0
  6
CONTINUOUS
 62
     7
 10
-44.33957
 20
-68.69989
 40
0.72
 50
315.0
 51
45.0
  0
ARC
  8
0
  6
CONTINUOUS
 62
     7
 10
-37.31221
 20
-86.19989
 40
0.5
 50
270.0
 51
0.0
  0
ARC
  8
0
  6
CONTINUOUS
 62
     7
 10
-48.31221
 20
-86.19989
 40
0.5
 50
180.0
 51
270.0
  0
ARC
  8
0
  6
CONTINUOUS
 62
     7
 10
-194.9367
 20
-189.2791
 40
0.5
 50
180.0
 51
270.0
  0
ARC
  8
0
  6
CONTINUOUS
 62
     7
 10
-168.9367
 20
-189.2791
 40
0.5
 50
270.0
 51
0.0
  0
ARC
  8
0
  6
CONTINUOUS
 62
     7
 10
-168.9367
 20
-172.2791
 40
0.5
 50
0.0
 51
89.99999
  0
ARC
  8
0
  6
CONTINUOUS
 62
     7
 10
-194.9367
 20
-172.2791
 40
0.5
 50
89.99999
 51
180.0
  0
ARC
  8
0
  6
CONTINUOUS
 62
     7
 10
-172.9367
 20
-185.2791
 40
2.55
 50
276.7564
 51
263.2436
  0
ARC
  8
0
  6
CONTINUOUS
 62
     7
 10
-190.9367
 20
-176.2791
 40
2.55
 50
96.7564
 51
83.24359
  0
CIRCLE
  8
0
  6
CONTINUOUS
 62
     7
 10
-172.9367
 20
-185.2791
 40
2.25
  0
ARC
  8
0
  6
CONTINUOUS
 62
     7
 10
-172.9367
 20
-184.176
 40
0.51999
 50
225.0
 51
315.0
  0
ARC
  8
0
  6
CONTINUOUS
 62
     7
 10
-174.0398
 20
-185.2791
 40
0.51999
 50
315.0
 51
45.0
  0
ARC
  8
0
  6
CONTINUOUS
 62
     7
 10
-171.8336
 20
-185.2791
 40
0.51999
 50
135.0
 51
225.0
  0
ARC
  8
0
  6
CONTINUOUS
 62
     7
 10
-172.9367
 20
-186.3821
 40
0.51999
 50
45.0
 51
135.0
  0
CIRCLE
  8
0
  6
CONTINUOUS
 62
     7
 10
-190.9367
 20
-176.2791
 40
2.25
  0
ARC
  8
0
  6
CONTINUOUS
 62
     7
 10
-190.9367
 20
-175.176
 40
0.51999
 50
225.0
 51
315.0
  0
ARC
  8
0
  6
CONTINUOUS
 62
     7
 10
-192.0398
 20
-176.2791
 40
0.51999
 50
315.0
 51
45.0
  0
ARC
  8
0
  6
CONTINUOUS
 62
     7
 10
-189.8336
 20
-176.2791
 40
0.51999
 50
135.0
 51
225.0
  0
ARC
  8
0
  6
CONTINUOUS
 62
     7
 10
-190.9367
 20
-177.3821
 40
0.51999
 50
45.0
 51
135.0
  0
ARC
  8
0
  6
CONTINUOUS
 62
     7
 10
-193.4367
 20
-173.7791
 40
0.5
 50
89.99999
 51
180.0
  0
ARC
  8
0
  6
CONTINUOUS
 62
     7
 10
-193.4367
 20
-187.7791
 40
0.5
 50
180.0
 51
270.0
  0
ARC
  8
0
  6
CONTINUOUS
 62
     7
 10
-172.9367
 20
-185.2791
 40
2.7
 50
0.0
 51
180.0
  0
ARC
  8
0
  6
CONTINUOUS
 62
     7
 10
-150.4367
 20
-187.7791
 40
0.5
 50
270.0
 51
0.0
  0
ARC
  8
0
  6
CONTINUOUS
 62
     7
 10
-150.4367
 20
-173.7791
 40
0.5
 50
0.0
 51
89.99999
  0
ARC
  8
0
  6
CONTINUOUS
 62
     7
 10
-165.9367
 20
-176.7791
 40
2.0
 50
0.0
 51
89.99999
  0
ARC
  8
0
  6
CONTINUOUS
 62
     7
 10
-165.9367
 20
-184.7791
 40
2.0
 50
270.0
 51
0.0
  0
CIRCLE
  8
0
  6
CONTINUOUS
 62
     7
 10
-166.9367
 20
-184.179
 40
0.85
  0
CIRCLE
  8
0
  6
CONTINUOUS
 62
     7
 10
-166.9367
 20
-182.0291
 40
0.85
  0
CIRCLE
  8
0
  6
CONTINUOUS
 62
     7
 10
-166.9367
 20
-179.5291
 40
0.85
  0
CIRCLE
  8
0
  6
CONTINUOUS
 62
     7
 10
-166.9367
 20
-177.3791
 40
0.85
  0
ARC
  8
0
  6
CONTINUOUS
 62
     7
 10
-190.9367
 20
-176.2791
 40
2.7
 50
270.0
 51
0.0
  0
ARC
  8
0
  6
CONTINUOUS
 62
     7
 10
72.81197
 20
56.20018
 40
0.5
 50
0.0
 51
89.99999
  0
ARC
  8
0
  6
CONTINUOUS
 62
     7
 10
64.31197
 20
46.70018
 40
6.0
 50
73.80869
 51
106.1913
  0
ARC
  8
0
  6
CONTINUOUS
 62
     7
 10
65.76198
 20
51.69392
 40
0.8
 50
0.0
 51
73.80872
  0
ARC
  8
0
  6
CONTINUOUS
 62
     7
 10
62.86198
 20
51.69392
 40
0.8
 50
106.1913
 51
180.0
  0
ARC
  8
0
  6
CONTINUOUS
 62
     7
 10
86.81197
 20
54.20018
 40
0.5
 50
0.0
 51
89.99999
  0
ARC
  8
0
  6
CONTINUOUS
 62
     7
 10
86.81197
 20
24.70018
 40
0.5
 50
270.0
 51
0.0
  0
ARC
  8
0
  6
CONTINUOUS
 62
     7
 10
72.81197
 20
-86.19981
 40
0.5
 50
270.0
 51
0.0
  0
ARC
  8
0
  6
CONTINUOUS
 62
     7
 10
47.76198
 20
-81.69356
 40
0.8
 50
286.1913
 51
0.0
  0
ARC
  8
0
  6
CONTINUOUS
 62
     7
 10
86.81197
 20
-54.69981
 40
0.5
 50
0.0
 51
89.99999
  0
ARC
  8
0
  6
CONTINUOUS
 62
     7
 10
86.81197
 20
-84.19981
 40
0.5
 50
270.0
 51
0.0
  0
ARC
  8
0
  6
CONTINUOUS
 62
     7
 10
46.31197
 20
-76.69981
 40
6.0
 50
253.8087
 51
286.1913
  0
ARC
  8
0
  6
CONTINUOUS
 62
     7
 10
44.86198
 20
-81.69356
 40
0.8
 50
180.0
 51
253.8088
  0
ARC
  8
0
  6
CONTINUOUS
 62
     7
 10
160.4371
 20
148.1773
 40
0.5
 50
89.99999
 51
180.0
  0
ARC
  8
0
  6
CONTINUOUS
 62
     7
 10
160.4371
 20
122.1773
 40
0.5
 50
180.0
 51
270.0
  0
ARC
  8
0
  6
CONTINUOUS
 62
     7
 10
177.4371
 20
122.1773
 40
0.5
 50
270.0
 51
0.0
  0
ARC
  8
0
  6
CONTINUOUS
 62
     7
 10
177.4371
 20
148.1773
 40
0.5
 50
0.0
 51
89.99999
  0
ARC
  8
0
  6
CONTINUOUS
 62
     7
 10
164.4371
 20
126.1773
 40
2.55
 50
186.7564
 51
173.2438
  0
ARC
  8
0
  6
CONTINUOUS
 62
     7
 10
173.4371
 20
144.1773
 40
2.55
 50
6.75641
 51
353.2436
  0
CIRCLE
  8
0
  6
CONTINUOUS
 62
     7
 10
164.4371
 20
126.1773
 40
2.25
  0
ARC
  8
0
  6
CONTINUOUS
 62
     7
 10
165.5402
 20
126.1773
 40
0.52
 50
134.9994
 51
225.0006
  0
ARC
  8
0
  6
CONTINUOUS
 62
     7
 10
164.4371
 20
127.2803
 40
0.52
 50
225.0006
 51
314.9994
  0
ARC
  8
0
  6
CONTINUOUS
 62
     7
 10
164.4371
 20
125.0742
 40
0.52
 50
45.0006
 51
134.9994
  0
ARC
  8
0
  6
CONTINUOUS
 62
     7
 10
163.334
 20
126.1773
 40
0.52
 50
314.9994
 51
45.0006
  0
CIRCLE
  8
0
  6
CONTINUOUS
 62
     7
 10
173.4371
 20
144.1773
 40
2.25
  0
ARC
  8
0
  6
CONTINUOUS
 62
     7
 10
174.5402
 20
144.1773
 40
0.51999
 50
135.0
 51
225.0
  0
ARC
  8
0
  6
CONTINUOUS
 62
     7
 10
173.4371
 20
145.2803
 40
0.51999
 50
225.0
 51
315.0
  0
ARC
  8
0
  6
CONTINUOUS
 62
     7
 10
173.4371
 20
143.0742
 40
0.51999
 50
45.0
 51
135.0
  0
ARC
  8
0
  6
CONTINUOUS
 62
     7
 10
172.334
 20
144.1773
 40
0.51999
 50
315.0
 51
45.0
  0
ARC
  8
0
  6
CONTINUOUS
 62
     7
 10
175.9371
 20
146.6773
 40
0.5
 50
0.0
 51
89.99999
  0
ARC
  8
0
  6
CONTINUOUS
 62
     7
 10
161.9371
 20
146.6773
 40
0.5
 50
89.99999
 51
180.0
  0
ARC
  8
0
  6
CONTINUOUS
 62
     7
 10
164.4371
 20
126.1773
 40
2.7
 50
270.0
 51
89.99999
  0
ARC
  8
0
  6
CONTINUOUS
 62
     7
 10
161.9371
 20
103.6773
 40
0.5
 50
180.0
 51
270.0
  0
ARC
  8
0
  6
CONTINUOUS
 62
     7
 10
175.9371
 20
103.6773
 40
0.5
 50
270.0
 51
0.0
  0
ARC
  8
0
  6
CONTINUOUS
 62
     7
 10
172.9371
 20
119.1773
 40
2.0
 50
270.0
 51
0.0
  0
ARC
  8
0
  6
CONTINUOUS
 62
     7
 10
164.9371
 20
119.1773
 40
2.0
 50
180.0
 51
270.0
  0
CIRCLE
  8
0
  6
CONTINUOUS
 62
     7
 10
165.5371
 20
120.1773
 40
0.85
  0
CIRCLE
  8
0
  6
CONTINUOUS
 62
     7
 10
167.6871
 20
120.1773
 40
0.85
  0
CIRCLE
  8
0
  6
CONTINUOUS
 62
     7
 10
170.1871
 20
120.1773
 40
0.85
  0
CIRCLE
  8
0
  6
CONTINUOUS
 62
     7
 10
172.3371
 20
120.1773
 40
0.85
  0
ARC
  8
0
  6
CONTINUOUS
 62
     7
 10
173.4371
 20
144.1773
 40
2.7
 50
180.0
 51
270.0
  0
CIRCLE
  8
0
  6
CONTINUOUS
 62
     7
 10
162.4368
 20
-30.0
 40
1.6
  0
CIRCLE
  8
0
  6
CONTINUOUS
 62
     7
 10
175.4368
 20
0.0
 40
1.6
  0
ARC
  8
0
  6
CONTINUOUS
 62
     7
 10
175.4368
 20
0.0
 40
3.0
 50
33.55732
 51
326.4427
  0
ARC
  8
0
  6
CONTINUOUS
 62
     7
 10
162.4368
 20
-30.0
 40
3.0
 50
0.0
 51
146.4427
  0
ARC
  8
0
  6
CONTINUOUS
 62
     7
 10
162.4368
 20
-30.0
 40
3.0
 50
213.5573
 51
0.0
  0
CIRCLE
  8
0
  6
CONTINUOUS
 62
     7
 10
168.9368
 20
20.7
 40
1.65
  0
CIRCLE
  8
0
  6
CONTINUOUS
 62
     7
 10
168.9368
 20
-50.7
 40
1.65
  0
ARC
  8
0
  6
CONTINUOUS
 62
     7
 10
168.9368
 20
38.7
 40
3.25
 50
280.0635
 51
259.9365
  0
ARC
  8
0
  6
CONTINUOUS
 62
     7
 10
161.9368
 20
54.2
 40
0.5
 50
89.99999
 51
180.0
  0
ARC
  8
0
  6
CONTINUOUS
 62
     7
 10
175.9368
 20
54.2
 40
0.5
 50
0.0
 51
89.99999
  0
CIRCLE
  8
0
  6
CONTINUOUS
 62
     7
 10
168.9368
 20
38.7
 40
3.0
  0
ARC
  8
0
  6
CONTINUOUS
 62
     7
 10
168.9368
 20
40.22734
 40
0.71999
 50
225.0004
 51
314.9995
  0
ARC
  8
0
  6
CONTINUOUS
 62
     7
 10
167.4094
 20
38.7
 40
0.71999
 50
314.9995
 51
45.00043
  0
ARC
  8
0
  6
CONTINUOUS
 62
     7
 10
168.9368
 20
37.17265
 40
0.71999
 50
45.00043
 51
134.9996
  0
ARC
  8
0
  6
CONTINUOUS
 62
     7
 10
170.4641
 20
38.7
 40
0.71999
 50
134.9996
 51
224.9996
  0
ARC
  8
0
  6
CONTINUOUS
 62
     7
 10
163.4368
 20
56.2
 40
0.5
 50
89.99999
 51
180.0
  0
ARC
  8
0
  6
CONTINUOUS
 62
     7
 10
174.4368
 20
56.2
 40
0.5
 50
0.0
 51
89.99999
  0
ARC
  8
0
  6
CONTINUOUS
 62
     7
 10
168.9368
 20
-68.7
 40
3.25
 50
100.0635
 51
79.93653
  0
ARC
  8
0
  6
CONTINUOUS
 62
     7
 10
175.9368
 20
-84.2
 40
0.5
 50
270.0
 51
0.0
  0
ARC
  8
0
  6
CONTINUOUS
 62
     7
 10
161.9368
 20
-84.2
 40
0.5
 50
180.0
 51
270.0
  0
CIRCLE
  8
0
  6
CONTINUOUS
 62
     7
 10
168.9368
 20
-68.7
 40
3.0
  0
ARC
  8
0
  6
CONTINUOUS
 62
     7
 10
168.9368
 20
-70.22736
 40
0.71999
 50
45.00043
 51
134.9996
  0
ARC
  8
0
  6
CONTINUOUS
 62
     7
 10
170.4641
 20
-68.7
 40
0.71999
 50
134.9996
 51
225.0004
  0
ARC
  8
0
  6
CONTINUOUS
 62
     7
 10
168.9368
 20
-67.17265
 40
0.71999
 50
225.0004
 51
314.9995
  0
ARC
  8
0
  6
CONTINUOUS
 62
     7
 10
167.4094
 20
-68.7
 40
0.71999
 50
314.9995
 51
44.99957
  0
ARC
  8
0
  6
CONTINUOUS
 62
     7
 10
174.4368
 20
-86.2
 40
0.5
 50
270.0
 51
0.0
  0
ARC
  8
0
  6
CONTINUOUS
 62
     7
 10
163.4368
 20
-86.2
 40
0.5
 50
180.0
 51
270.0
  0
ARC
  8
0
  6
CONTINUOUS
 62
     7
 10
268.0611
 20
-86.19991
 40
0.5
 50
180.0
 51
270.0
  0
ARC
  8
0
  6
CONTINUOUS
 62
     7
 10
276.5611
 20
-76.69992
 40
6.0
 50
253.8088
 51
286.1912
  0
ARC
  8
0
  6
CONTINUOUS
 62
     7
 10
275.1111
 20
-81.69366
 40
0.79999
 50
180.0
 51
253.8083
  0
ARC
  8
0
  6
CONTINUOUS
 62
     7
 10
278.0111
 20
-81.69366
 40
0.8
 50
286.1919
 51
0.0
  0
ARC
  8
0
  6
CONTINUOUS
 62
     7
 10
254.0611
 20
-84.19991
 40
0.5
 50
180.0
 51
270.0
  0
ARC
  8
0
  6
CONTINUOUS
 62
     7
 10
254.0611
 20
-54.69992
 40
0.5
 50
89.99999
 51
180.0
  0
ARC
  8
0
  6
CONTINUOUS
 62
     7
 10
268.0611
 20
56.20006
 40
0.5
 50
89.99999
 51
180.0
  0
ARC
  8
0
  6
CONTINUOUS
 62
     7
 10
293.1111
 20
51.69383
 40
0.8
 50
106.1918
 51
180.0
  0
ARC
  8
0
  6
CONTINUOUS
 62
     7
 10
254.0611
 20
24.70009
 40
0.5
 50
180.0
 51
270.0
  0
ARC
  8
0
  6
CONTINUOUS
 62
     7
 10
254.0611
 20
54.20009
 40
0.5
 50
89.99999
 51
180.0
  0
ARC
  8
0
  6
CONTINUOUS
 62
     7
 10
294.5611
 20
46.70006
 40
6.0
 50
73.80876
 51
106.1912
  0
ARC
  8
0
  6
CONTINUOUS
 62
     7
 10
296.0111
 20
51.69383
 40
0.79999
 50
0.0
 51
73.8082
  0
ARC
  8
0
  6
CONTINUOUS
 62
     7
 10
177.437
 20
-186.7791
 40
0.5
 50
270.0
 51
0.0
  0
ARC
  8
0
  6
CONTINUOUS
 62
     7
 10
177.437
 20
-160.7791
 40
0.5
 50
0.0
 51
89.99999
  0
ARC
  8
0
  6
CONTINUOUS
 62
     7
 10
160.437
 20
-160.7791
 40
0.5
 50
89.99999
 51
180.0
  0
ARC
  8
0
  6
CONTINUOUS
 62
     7
 10
160.437
 20
-186.7791
 40
0.5
 50
180.0
 51
270.0
  0
ARC
  8
0
  6
CONTINUOUS
 62
     7
 10
173.437
 20
-164.7791
 40
2.55
 50
6.75641
 51
353.2436
  0
ARC
  8
0
  6
CONTINUOUS
 62
     7
 10
164.437
 20
-182.7791
 40
2.55
 50
186.7564
 51
173.2436
  0
CIRCLE
  8
0
  6
CONTINUOUS
 62
     7
 10
173.437
 20
-164.7791
 40
2.25
  0
ARC
  8
0
  6
CONTINUOUS
 62
     7
 10
172.3339
 20
-164.7791
 40
0.51999
 50
315.0
 51
45.0
  0
ARC
  8
0
  6
CONTINUOUS
 62
     7
 10
173.437
 20
-165.8822
 40
0.51999
 50
45.0
 51
135.0
  0
ARC
  8
0
  6
CONTINUOUS
 62
     7
 10
173.437
 20
-163.6761
 40
0.51999
 50
225.0
 51
315.0
  0
ARC
  8
0
  6
CONTINUOUS
 62
     7
 10
174.5401
 20
-164.7791
 40
0.51999
 50
135.0
 51
225.0
  0
CIRCLE
  8
0
  6
CONTINUOUS
 62
     7
 10
164.437
 20
-182.7791
 40
2.25
  0
ARC
  8
0
  6
CONTINUOUS
 62
     7
 10
163.3339
 20
-182.7791
 40
0.51999
 50
315.0
 51
45.0
  0
ARC
  8
0
  6
CONTINUOUS
 62
     7
 10
164.437
 20
-183.8822
 40
0.51999
 50
45.0
 51
135.0
  0
ARC
  8
0
  6
CONTINUOUS
 62
     7
 10
164.437
 20
-181.6761
 40
0.51999
 50
225.0
 51
315.0
  0
ARC
  8
0
  6
CONTINUOUS
 62
     7
 10
165.5401
 20
-182.7791
 40
0.51999
 50
135.0
 51
225.0
  0
ARC
  8
0
  6
CONTINUOUS
 62
     7
 10
161.937
 20
-185.2791
 40
0.5
 50
180.0
 51
270.0
  0
ARC
  8
0
  6
CONTINUOUS
 62
     7
 10
175.937
 20
-185.2791
 40
0.5
 50
270.0
 51
0.0
  0
ARC
  8
0
  6
CONTINUOUS
 62
     7
 10
173.437
 20
-164.7791
 40
2.7
 50
89.99999
 51
270.0
  0
ARC
  8
0
  6
CONTINUOUS
 62
     7
 10
175.937
 20
-142.2791
 40
0.5
 50
0.0
 51
89.99999
  0
ARC
  8
0
  6
CONTINUOUS
 62
     7
 10
161.937
 20
-142.2791
 40
0.5
 50
89.99999
 51
180.0
  0
ARC
  8
0
  6
CONTINUOUS
 62
     7
 10
164.937
 20
-157.7791
 40
2.0
 50
89.99999
 51
180.0
  0
ARC
  8
0
  6
CONTINUOUS
 62
     7
 10
172.937
 20
-157.7791
 40
2.0
 50
0.0
 51
89.99999
  0
CIRCLE
  8
0
  6
CONTINUOUS
 62
     7
 10
172.337
 20
-158.7791
 40
0.85
  0
CIRCLE
  8
0
  6
CONTINUOUS
 62
     7
 10
170.187
 20
-158.7791
 40
0.85
  0
CIRCLE
  8
0
  6
CONTINUOUS
 62
     7
 10
167.687
 20
-158.7791
 40
0.85
  0
CIRCLE
  8
0
  6
CONTINUOUS
 62
     7
 10
165.537
 20
-158.7791
 40
0.85
  0
ARC
  8
0
  6
CONTINUOUS
 62
     7
 10
164.437
 20
-182.7791
 40
2.7
 50
0.0
 51
89.99999
  0
TEXT
  8
0
  6
CONTINUOUS
 62
     7
 10
-350.9787
 20
200.5946
 40
8.5
  1
MODEL : 180-4E2-FA
 41
0.8
  7
STANDARD
  0
TEXT
  8
0
  6
CONTINUOUS
 62
     7
 10
229.0661
 20
236.2625
 40
8.5
  1
DATE : NOV ,1989
 41
0.8
  7
STANDARD
  0
TEXT
  8
0
  6
CONTINUOUS
 62
     7
 10
-366.8907
 20
235.5575
 40
10.0
  1
180 CONNECTOR,-FA
 41
0.69402
  7
STANDARD
  0
TEXT
  8
0
  6
CONTINUOUS
 62
     7
 10
19.88928
 20
200.5946
 40
8.5
  1
MODEL : A180-4E2-FA
 41
0.8
  7
STANDARD
  0
TEXT
  8
0
  6
CONTINUOUS
 62
     7
 10
-304.8928
 20
-34.93988
 40
2.0
  1
R2
 41
0.8
  7
STANDARD
  0
TEXT
  8
0
  6
CONTINUOUS
 62
     7
 10
-302.8928
 20
-21.93988
 40
2.0
  1
P
 41
0.8
  7
STANDARD
  0
TEXT
  8
0
  6
CONTINUOUS
 62
     7
 10
-312.8928
 20
3.06012
 40
2.0
  1
R1
 41
0.8
  7
STANDARD
  0
TEXT
  8
0
  6
CONTINUOUS
 62
     7
 10
-39.14364
 20
-29.93991
 40
2.0
  1
B
 41
0.8
  7
STANDARD
  0
TEXT
  8
0
  6
CONTINUOUS
 62
     7
 10
-49.08935
 20
-1.93991
 40
2.0
  1
A
 41
0.8
  7
STANDARD
  0
ENDSEC
  0
EOF
