  0
SECTION
  2
HEADER
  0
ENDSEC
  0
SECTION
  2
TABLES
  0
TABLE
  2
LTYPE
 70
     4
  0
LTYPE
  2
CONTINUOUS
 70
    64
  3
Solid line
 72
    65
 73
     0
 40
0.000000
  0
LTYPE
  2
DASHED
 70
    64
  3
__ __ __ __ __ __ __ __ __ __ __ __ __ __ __
 72
    65
 73
     2
 40
3.500000
 49
2.000000
 49
-1.500000
  0
LTYPE
  2
CENTER
 70
    64
  3
____ _ ____ _ ____ _ ____ _ ____ _ ____ _ ____
 72
    65
 73
     4
 40
17.500000
 49
13.000000
 49
-1.500000
 49
1.500000
 49
-1.500000
  0
LTYPE
  2
PHANTOM
 70
    64
  3
_____ _ _ _____ _ _ _____ _ _ _____ _ _ ____  
 72
    65
 73
     6
 40
15.500000
 49
8.000000
 49
-1.500000
 49
1.500000
 49
-1.500000
 49
1.500000
 49
-1.500000
  0
LTYPE
  2
DASHED1
 70
    64
  3
__ __ __ __ __ __ __ __ __ __ __ __ __ __ __
 72
    65
 73
     2
 40
1.500000
 49
1.000000
 49
-0.500000
  0
LTYPE
  2
DASHED2
 70
    64
  3
__ __ __ __ __ __ __ __ __ __ __ __ __ __ __
 72
    65
 73
     2
 40
3.500000
 49
2.500000
 49
-1.000000
  0
LTYPE
  2
DASHED3
 70
    64
  3
__ __ __ __ __ __ __ __ __ __ __ __ __ __ __
 72
    65
 73
     2
 40
6.000000
 49
4.000000
 49
-2.000000
  0
LTYPE
  2
DASHED4
 70
    64
  3
__ __ __ __ __ __ __ __ __ __ __ __ __ __ __
 72
    65
 73
     2
 40
12.000000
 49
10.000000
 49
-2.000000
  0
LTYPE
  2
DASHED5
 70
    64
  3
__ __ __ __ __ __ __ __ __ __ __ __ __ __ __
 72
    65
 73
     2
 40
17.000000
 49
15.000000
 49
-2.000000
  0
LTYPE
  2
DASHED6
 70
    64
  3
__ __ __ __ __ __ __ __ __ __ __ __ __ __ __
 72
    65
 73
     2
 40
29.000000
 49
27.000000
 49
-2.000000
  0
LTYPE
  2
PHANTOM1
 70
    64
  3
_____ _ _ _____ _ _ _____ _ _ _____ _ _ ____  
 72
    65
 73
     6
 40
31.000000
 49
25.000000
 49
-1.500000
 49
1.000000
 49
-1.000000
 49
1.000000
 49
-1.500000
  0
LTYPE
  2
PHANTOM2
 70
    64
  3
_____ _ _ _____ _ _ _____ _ _ _____ _ _ ____  
 72
    65
 73
     6
 40
36.000000
 49
27.000000
 49
-1.500000
 49
2.500000
 49
-1.000000
 49
2.500000
 49
-1.500000
  0
LTYPE
  2
PHANTOM3
 70
    64
  3
_____ _ _ _____ _ _ _____ _ _ _____ _ _ ____  
 72
    65
 73
     6
 40
78.000000
 49
64.000000
 49
-2.000000
 49
4.000000
 49
-2.000000
 49
4.000000
 49
-2.000000
  0
LTYPE
  2
CENTER1
 70
    64
  3
____ _ ____ _ ____ _ ____ _ ____ _ ____ _ ____
 72
    65
 73
     4
 40
19.000000
 49
14.000000
 49
-1.000000
 49
3.000000
 49
-1.000000
  0
LTYPE
  2
CENTER2
 70
    64
  3
____ _ ____ _ ____ _ ____ _ ____ _ ____ _ ____
 72
    65
 73
     4
 40
28.500000
 49
25.000000
 49
-1.000000
 49
1.500000
 49
-1.000000
  0
LTYPE
  2
CENTER3
 70
    64
  3
____ _ ____ _ ____ _ ____ _ ____ _ ____ _ ____
 72
    65
 73
     4
 40
31.500000
 49
27.000000
 49
-1.000000
 49
2.500000
 49
-1.000000
  0
LTYPE
  2
CENTER4
 70
    64
  3
____ _ ____ _ ____ _ ____ _ ____ _ ____ _ ____
 72
    65
 73
     4
 40
50.000000
 49
45.000000
 49
-1.000000
 49
3.000000
 49
-1.000000
  0
LTYPE
  2
CENTER5
 70
    64
  3
____ _ ____ _ ____ _ ____ _ ____ _ ____ _ ____
 72
    65
 73
     4
 40
100.000000
 49
92.000000
 49
-2.000000
 49
4.000000
 49
-2.000000
  0
LTYPE
  2
SBK1
 70
    64
  3
______ _ _ _ ______ _ _ _ ______ _ _ _ _____  
 72
    65
 73
     8
 40
60.500000
 49
45.000000
 49
-2.000000
 49
2.500000
 49
-2.000000
 49
2.500000
 49
-2.000000
 49
2.500000
 49
-2.000000
  0
LTYPE
  2
SBK2
 70
    64
  3
______ _ _ _ ______ _ _ _ ______ _ _ _ _____  
 72
    65
 73
     8
 40
84.000000
 49
64.000000
 49
-2.000000
 49
4.000000
 49
-2.000000
 49
4.000000
 49
-2.000000
 49
4.000000
 49
-2.000000
  0
LTYPE
  2
STCH
 70
    64
  3
__ __ __ __ __ __ __ __ __ __ __ __ __ __ __
 72
    65
 73
     2
 40
3.000000
 49
1.000000
 49
-2.000000
  0
LTYPE
  2
MTCH
 70
    64
  3
_____ _ _ _____ _ _ _____ _ _ _____ _ _ ____  
 72
    65
 73
     6
 40
80.000000
 49
66.000000
 49
-2.000000
 49
4.000000
 49
-2.000000
 49
4.000000
 49
-2.000000
  0
ENDTAB
  0
TABLE
  2
LAYER
 70
     1
  0
LAYER
  2
0
 70
     0
 62
     7
  6
CONTINUOUS
  0
ENDTAB
  0
TABLE
  2
STYLE
 70
     1
  0
STYLE
  2
STANDARD
 70
     0
 40
0.000000
 41
1.000000
 50
0.000000
 71
     0
 42
0.200000
  3
txt
  4
BIGFONT
  0
ENDTAB
  0
TABLE
  2
VIEW
 70
     0
  0
ENDTAB
  0
ENDSEC
  0
SECTION
  2
BLOCKS
  0
ENDSEC
  0
SECTION
  2
ENTITIES
  0
LINE
  8
0
 10
-85.320000
 20
21.000000
 11
-67.320000
 21
21.000000
  0
LINE
  8
0
  6
CENTER
 62
     2
 10
-76.320000
 20
38.200001
 11
-76.320000
 21
-38.430000
  0
LINE
  8
0
 10
-67.320000
 20
35.000000
 11
-67.320000
 21
-35.000000
  0
LINE
  8
0
 10
-85.320000
 20
35.000000
 11
-85.320000
 21
-35.000000
  0
LINE
  8
0
 10
-85.320000
 20
-21.000000
 11
-67.320000
 21
-21.000000
  0
LINE
  8
0
  6
CENTER
 62
     2
 10
-84.129997
 20
-13.200000
 11
-70.400002
 21
-13.200000
  0
LINE
  8
0
  6
CENTER
 62
     2
 10
-87.610001
 20
0.000000
 11
-65.110001
 21
0.000000
  0
LINE
  8
0
  6
CENTER
 62
     2
 10
-83.300003
 20
13.200000
 11
-69.980003
 21
13.200000
  0
LINE
  8
0
  6
CENTER
 62
     2
 10
-82.820000
 20
17.750000
 11
-82.820000
 21
12.580000
  0
LINE
  8
0
  6
CENTER
 62
     2
 10
-69.820000
 20
-12.290000
 11
-69.820000
 21
-17.809999
  0
LINE
  8
0
  6
CENTER
 62
     2
 10
-72.389999
 20
-15.000000
 11
-67.320000
 21
-15.000000
  0
LINE
  8
0
  6
CENTER
 62
     2
 10
-85.320000
 20
15.000000
 11
-80.320000
 21
15.000000
  0
LINE
  8
0
  6
CENTER
 62
     2
 10
-75.820000
 20
19.610001
 11
-75.820000
 21
6.950000
  0
LINE
  8
0
  6
CENTER
 62
     2
 10
-76.820000
 20
-6.650000
 11
-76.820000
 21
-19.240000
  0
LINE
  8
0
 10
-85.320000
 20
35.000000
 11
-67.320000
 21
35.000000
  0
LINE
  8
0
  6
CENTER
 62
     2
 10
0.000000
 20
37.000000
 11
0.000000
 21
-37.180000
  0
LINE
  8
0
 10
13.500000
 20
35.000000
 11
13.500000
 21
-35.000000
  0
LINE
  8
0
 10
-13.490000
 20
35.000000
 11
-13.490000
 21
-35.000000
  0
LINE
  8
0
 10
-13.490000
 20
-21.000000
 11
13.500000
 21
-21.000000
  0
LINE
  8
0
 10
-13.490000
 20
21.000000
 11
13.500000
 21
21.000000
  0
LINE
  8
0
 10
10.500000
 20
-13.350000
 11
13.500000
 21
-13.350000
  0
LINE
  8
0
 10
10.500000
 20
-16.660000
 11
13.500000
 21
-16.660000
  0
LINE
  8
0
 10
10.500000
 20
-13.350000
 11
10.500000
 21
-16.660000
  0
LINE
  8
0
  6
CENTER
 62
     2
 10
4.500000
 20
-15.000000
 11
14.530000
 21
-15.000000
  0
LINE
  8
0
  6
CENTER
 62
     2
 10
4.500000
 20
15.000000
 11
10.840000
 21
15.000000
  0
LINE
  8
0
  6
CENTER
 62
     2
 10
7.500000
 20
18.530001
 11
7.500000
 21
11.860000
  0
LINE
  8
0
  6
CENTER
 62
     2
 10
7.500000
 20
-11.470000
 11
7.500000
 21
-18.469999
  0
LINE
  8
0
 10
-13.490000
 20
35.000000
 11
13.500000
 21
35.000000
  0
LINE
  8
0
  6
CENTER
 62
     2
 10
80.000000
 20
37.880001
 11
80.000000
 21
-37.599998
  0
LINE
  8
0
 10
89.000000
 20
35.000000
 11
89.000000
 21
-35.000000
  0
LINE
  8
0
 10
71.000000
 20
35.000000
 11
71.000000
 21
-35.000000
  0
LINE
  8
0
 10
71.000000
 20
21.000000
 11
89.000000
 21
21.000000
  0
LINE
  8
0
 10
71.000000
 20
-21.000000
 11
89.000000
 21
-21.000000
  0
LINE
  8
0
  6
CENTER
 62
     2
 10
73.919998
 20
-8.000000
 11
86.080002
 21
-8.000000
  0
LINE
  8
0
  6
CENTER
 62
     2
 10
74.360001
 20
8.000000
 11
85.980003
 21
8.000000
  0
LINE
  8
0
  6
CENTER
 62
     2
 10
86.500000
 20
19.590000
 11
86.500000
 21
10.580000
  0
LINE
  8
0
  6
CENTER
 62
     2
 10
73.500000
 20
-10.890000
 11
73.500000
 21
-19.299999
  0
LINE
  8
0
  6
CENTER
 62
     2
 10
70.589996
 20
-15.000000
 11
77.660004
 21
-15.000000
  0
LINE
  8
0
  6
CENTER
 62
     2
 10
79.500000
 20
-1.420000
 11
79.500000
 21
-14.160000
  0
LINE
  8
0
  6
CENTER
 62
     2
 10
80.500000
 20
14.130000
 11
80.500000
 21
1.550000
  0
LINE
  8
0
  6
CENTER
 62
     2
 10
82.244514
 20
15.000000
 11
89.589996
 21
15.000000
  0
LINE
  8
0
 10
71.000000
 20
35.000000
 11
89.000000
 21
35.000000
  0
LINE
  8
0
  6
DASHED
 62
     2
 10
75.719994
 20
35.000000
 11
76.110001
 21
28.700001
  0
LINE
  8
0
  6
DASHED
 62
     2
 10
84.289993
 20
35.000000
 11
83.889992
 21
28.700001
  0
LINE
  8
0
  6
DASHED
 62
     2
 10
75.139999
 20
35.000000
 11
75.529999
 21
28.699999
  0
LINE
  8
0
  6
DASHED
 62
     2
 10
84.869995
 20
34.999996
 11
84.469994
 21
28.700001
  0
LINE
  8
0
  6
DASHED
 62
     2
 10
-80.599998
 20
35.000000
 11
-80.199997
 21
28.699997
  0
LINE
  8
0
  6
DASHED
 62
     2
 10
-81.180000
 20
35.000000
 11
-80.790001
 21
28.699997
  0
LINE
  8
0
  6
DASHED
 62
     2
 10
-71.450005
 20
35.000000
 11
-71.849998
 21
28.699999
  0
LINE
  8
0
  6
DASHED
 62
     2
 10
-72.029999
 20
35.000000
 11
-72.430000
 21
28.700001
  0
LINE
  8
0
  6
DASHED
 62
     2
 10
-4.270000
 20
35.000000
 11
-3.880000
 21
28.699999
  0
LINE
  8
0
  6
DASHED
 62
     2
 10
-4.850000
 20
35.000000
 11
-4.460000
 21
28.699999
  0
LINE
  8
0
  6
DASHED
 62
     2
 10
4.870000
 20
35.000000
 11
4.470000
 21
28.700001
  0
LINE
  8
0
  6
DASHED
 62
     2
 10
4.290000
 20
35.000000
 11
3.890000
 21
28.699999
  0
LINE
  8
0
  6
DASHED
 62
     2
 10
-71.450005
 20
-35.000000
 11
-71.849998
 21
-28.699999
  0
LINE
  8
0
  6
DASHED
 62
     2
 10
-72.029999
 20
-35.000000
 11
-72.430000
 21
-28.700001
  0
LINE
  8
0
  6
DASHED
 62
     2
 10
-80.599998
 20
-35.000000
 11
-80.199997
 21
-28.699997
  0
LINE
  8
0
  6
DASHED
 62
     2
 10
-81.180000
 20
-35.000000
 11
-80.790001
 21
-28.699997
  0
LINE
  8
0
 10
-85.320000
 20
-35.000000
 11
-67.320000
 21
-35.000000
  0
LINE
  8
0
  6
DASHED
 62
     2
 10
-4.270000
 20
-35.000000
 11
-3.880000
 21
-28.699999
  0
LINE
  8
0
  6
DASHED
 62
     2
 10
-4.850000
 20
-35.000000
 11
-4.460000
 21
-28.699999
  0
LINE
  8
0
  6
DASHED
 62
     2
 10
4.870000
 20
-35.000000
 11
4.470000
 21
-28.700001
  0
LINE
  8
0
  6
DASHED
 62
     2
 10
4.290000
 20
-35.000000
 11
3.890000
 21
-28.699999
  0
LINE
  8
0
 10
-13.490000
 20
-35.000000
 11
13.500000
 21
-35.000000
  0
LINE
  8
0
  6
CENTER
 62
     2
 10
-16.680000
 20
0.000000
 11
16.469999
 21
0.000000
  0
LINE
  8
0
  6
CENTER
 62
     2
 10
68.010002
 20
0.000000
 11
91.669998
 21
0.000000
  0
LINE
  8
0
 10
71.000000
 20
-35.000000
 11
89.000000
 21
-35.000000
  0
LINE
  8
0
  6
DASHED
 62
     2
 10
75.719994
 20
-35.000000
 11
76.110001
 21
-28.700001
  0
LINE
  8
0
  6
DASHED
 62
     2
 10
75.139999
 20
-35.000000
 11
75.529999
 21
-28.699999
  0
LINE
  8
0
  6
DASHED
 62
     2
 10
84.289993
 20
-35.000000
 11
83.889992
 21
-28.700001
  0
LINE
  8
0
  6
DASHED
 62
     2
 10
84.869995
 20
-34.999996
 11
84.469994
 21
-28.700001
  0
LINE
  8
0
 10
-138.399994
 20
94.500000
 11
138.350006
 21
94.500000
  0
LINE
  8
0
 10
138.350006
 20
94.500000
 11
138.350006
 21
-94.800003
  0
LINE
  8
0
 10
-138.399994
 20
-94.800003
 11
138.350006
 21
-94.800003
  0
LINE
  8
0
 10
-138.399994
 20
94.500000
 11
-138.399994
 21
-94.800003
  0
CIRCLE
  8
0
 10
-69.820000
 20
-15.000000
 40
1.599999
  0
CIRCLE
  8
0
 10
-82.820000
 20
15.000000
 40
1.599999
  0
CIRCLE
  8
0
 62
     2
 10
-75.820000
 20
13.199997
 40
4.864349
  0
CIRCLE
  8
0
 10
-75.820000
 20
13.199997
 40
4.283250
  0
CIRCLE
  8
0
 62
     2
 10
-76.820000
 20
-13.200012
 40
4.864349
  0
CIRCLE
  8
0
 10
-76.820000
 20
-13.200012
 40
4.283250
  0
CIRCLE
  8
0
 62
     2
 10
-76.320000
 20
0.000000
 40
4.864349
  0
CIRCLE
  8
0
 10
-76.320000
 20
0.000000
 40
4.283250
  0
CIRCLE
  8
0
 10
7.507148
 20
15.000000
 40
1.599999
  0
CIRCLE
  8
0
 10
7.507148
 20
-15.000000
 40
1.599999
  0
CIRCLE
  8
0
 10
73.507149
 20
-15.000000
 40
1.599999
  0
CIRCLE
  8
0
 10
86.507149
 20
15.000000
 40
1.599999
  0
ARC
  8
0
 10
86.507149
 20
14.995000
 40
2.992212
 50
33.580116
 51
326.419952
  0
ARC
  8
0
 10
73.502884
 20
-14.998721
 40
2.997116
 50
359.975555
 51
146.625946
  0
ARC
  8
0
 10
73.500130
 20
-15.002116
 40
2.999871
 50
213.549118
 51
0.040418
  0
CIRCLE
  8
0
 62
     2
 10
79.507149
 20
-8.000000
 40
4.864349
  0
CIRCLE
  8
0
 10
79.507149
 20
-8.000000
 40
4.283250
  0
CIRCLE
  8
0
 62
     2
 10
80.507149
 20
8.000000
 40
4.864349
  0
CIRCLE
  8
0
 10
80.507149
 20
8.000000
 40
4.283250
  0
TEXT
  8
0
 10
89.707352
 20
-92.850006
 40
4.500000
  1
180-4A2
 50
0.000000
 41
1.052632
 51
0.000000
  7
STANDARD
  0
ENDSEC
  0
EOF
