  0
SECTION
  2
HEADER
  9
$ACADVER
  1
AC1002
  9
$INSBASE
 10
0.0
 20
0.0
  9
$EXTMIN
 10
-185.4368
 20
-127.2792
  9
$EXTMAX
 10
185.4368
 20
127.2792
  9
$LIMMIN
 10
0.0
 20
0.0
  9
$LIMMAX
 10
12.0
 20
9.0
  9
$VIEWCTR
 10
14.30458208
 20
0.0
  9
$VIEWSIZE
 40
254.5584
  9
$SNAPMODE
 70
     0
  9
$SNAPUNIT
 10
1.0
 20
1.0
  9
$SNAPBASE
 10
0.0
 20
0.0
  9
$SNAPANG
 50
0.0
  9
$SNAPSTYLE
 70
     0
  9
$SNAPISOPAIR
 70
     0
  9
$GRIDMODE
 70
     0
  9
$GRIDUNIT
 10
0.0
 20
0.0
  9
$ORTHOMODE
 70
     0
  9
$REGENMODE
 70
     1
  9
$FILLMODE
 70
     1
  9
$QTEXTMODE
 70
     0
  9
$DRAGMODE
 70
     2
  9
$LTSCALE
 40
1.0
  9
$OSMODE
 70
     0
  9
$ATTMODE
 70
     1
  9
$TEXTSIZE
 40
0.2
  9
$TRACEWID
 40
0.05
  9
$TEXTSTYLE
  7
AAA
  9
$CLAYER
  8
0
  9
$CELTYPE
  6
BYLAYER
  9
$CECOLOR
 62
   256
  9
$DIMSCALE
 40
1.0
  9
$DIMASZ
 40
0.18
  9
$DIMEXO
 40
0.0625
  9
$DIMDLI
 40
0.38
  9
$DIMRND
 40
0.0
  9
$DIMDLE
 40
0.0
  9
$DIMEXE
 40
0.18
  9
$DIMTP
 40
0.0
  9
$DIMTM
 40
0.0
  9
$DIMTXT
 40
0.18
  9
$DIMCEN
 40
0.09
  9
$DIMTSZ
 40
0.0
  9
$DIMTOL
 70
     0
  9
$DIMLIM
 70
     0
  9
$DIMTIH
 70
     1
  9
$DIMTOH
 70
     1
  9
$DIMSE1
 70
     0
  9
$DIMSE2
 70
     0
  9
$DIMTAD
 70
     0
  9
$DIMZIN
 70
     0
  9
$DIMBLK
  1

  9
$LUNITS
 70
     2
  9
$LUPREC
 70
     4
  9
$AXISMODE
 70
     0
  9
$AXISUNIT
 10
0.0
 20
0.0
  9
$SKETCHINC
 40
0.1
  9
$FILLETRAD
 40
0.0
  9
$AUNITS
 70
     0
  9
$AUPREC
 70
     0
  9
$MENU
  1
ACAD
  9
$ELEVATION
 40
0.0
  9
$THICKNESS
 40
0.0
  9
$VIEWDIR
 10
0.0
 20
0.0
 30
1.0
  9
$LIMCHECK
 70
     0
  9
$BLIPMODE
 70
     1
  9
$CHAMFERA
 40
0.0
  9
$CHAMFERB
 40
0.0
  9
$FASTZOOM
 70
     1
  9
$SKPOLY
 70
     0
  9
$TDCREATE
 40
2447863.6046181052
  9
$TDUPDATE
 40
2447863.6046181052
  9
$TDINDWG
 40
0.0161458333
  9
$TDUSRTIMER
 40
0.0161458333
  9
$USRTIMER
 70
     1
  9
$ANGBASE
 50
0.0
  9
$ANGDIR
 70
     0
  9
$PDMODE
 70
     0
  9
$PDSIZE
 40
0.0
  9
$PLINEWID
 40
0.0
  9
$COORDS
 70
     0
  9
$USERI1
 70
     0
  9
$USERI2
 70
     0
  9
$USERI3
 70
     0
  9
$USERI4
 70
     0
  9
$USERI5
 70
     0
  9
$USERR1
 40
0.0
  9
$USERR2
 40
0.0
  9
$USERR3
 40
0.0
  9
$USERR4
 40
0.0
  9
$USERR5
 40
0.0
  0
ENDSEC
  0
SECTION
  2
TABLES
  0
TABLE
  2
LTYPE
 70
     3
  0
LTYPE
  2
CONTINUOUS
 70
    64
  3
SOLID
 72
    65
 73
     0
 40
0.0
  0
LTYPE
  2
CENTER
 70
    64
  3
CENTER
 72
    65
 73
     4
 40
2.0
 49
1.25
 49
-0.25
 49
0.25
 49
-0.25
  0
LTYPE
  2
PHANTOM
 70
    64
  3
PHANTOM
 72
    65
 73
     6
 40
2.5
 49
1.25
 49
-0.25
 49
0.25
 49
-0.25
 49
0.25
 49
-0.25
  0
ENDTAB
  0
TABLE
  2
LAYER
 70
     1
  0
LAYER
  2
0
 70
    64
 62
     7
  6
CONTINUOUS
  0
ENDTAB
  0
TABLE
  2
STYLE
 70
     2
  0
STYLE
  2
AAA
 70
     0
 40
0.0
 41
1.0
 50
0.0
 71
     0
 42
0.2
  3
TXT
  4

  0
STYLE
  2
STANDARD
 70
    64
 40
0.0
 41
1.0
 50
0.0
 71
     0
 42
0.2
  3
TXT
  4
BIGFONT
  0
ENDTAB
  0
TABLE
  2
VIEW
 70
     0
  0
ENDTAB
  0
ENDSEC
  0
SECTION
  2
BLOCKS
  0
ENDSEC
  0
SECTION
  2
ENTITIES
  0
POINT
  8
0
  6
CONTINUOUS
 62
     7
 10
-25.0
 20
90.0
  0
POINT
  8
0
  6
CONTINUOUS
 62
     7
 10
-1.0
 20
90.0
  0
POINT
  8
0
  6
CONTINUOUS
 62
     7
 10
-0.99998
 20
10.0
  0
POINT
  8
0
  6
CONTINUOUS
 62
     7
 10
-24.99999
 20
10.0
  0
POINT
  8
0
  6
CONTINUOUS
 62
     7
 10
-0.99999
 20
30.5
  0
POINT
  8
0
  6
CONTINUOUS
 62
     7
 10
-0.99999
 20
-36.50002
  0
POINT
  8
0
  6
CONTINUOUS
 62
     7
 10
-108.5
 20
11.0
  0
POINT
  8
0
  6
CONTINUOUS
 62
     7
 10
-105.5
 20
1.0
  0
POINT
  8
0
  6
CONTINUOUS
 62
     7
 10
-102.5
 20
-8.99999
  0
POINT
  8
0
  6
CONTINUOUS
 62
     7
 10
-100.0
 20
10.0
  0
POINT
  8
0
  6
CONTINUOUS
 62
     7
 10
85.00002
 20
10.0
  0
POINT
  8
0
  6
CONTINUOUS
 62
     7
 10
98.00002
 20
10.0
  0
POINT
  8
0
  6
CONTINUOUS
 62
     7
 10
90.50002
 20
30.5
  0
POINT
  8
0
  6
CONTINUOUS
 62
     7
 10
90.50002
 20
-36.49999
  0
POINT
  8
0
  6
CONTINUOUS
 62
     7
 10
93.50002
 20
6.0
  0
POINT
  8
0
  6
CONTINUOUS
 62
     7
 10
87.50002
 20
-4.0
  0
POINT
  8
0
  6
CONTINUOUS
 62
     7
 10
-24.99998
 20
-89.99998
  0
POINT
  8
0
  6
CONTINUOUS
 62
     7
 10
-0.99998
 20
-89.99998
  0
LINE
  8
0
  6
CONTINUOUS
 62
     7
 10
-185.4368
 20
-127.2792
 11
-185.4368
 21
127.2792
  0
LINE
  8
0
  6
CONTINUOUS
 62
     7
 10
185.4368
 20
127.2792
 11
185.4368
 21
-127.2792
  0
LINE
  8
0
  6
CONTINUOUS
 62
     7
 10
-185.4368
 20
-127.2792
 11
185.4368
 21
-127.2792
  0
LINE
  8
0
  6
CONTINUOUS
 62
     7
 10
-185.4368
 20
127.2792
 11
185.4368
 21
127.2792
  0
LINE
  8
0
  6
CONTINUOUS
 62
     7
 10
-185.4368
 20
112.9782
 11
-109.1646
 21
112.9782
  0
LINE
  8
0
  6
CONTINUOUS
 62
     7
 10
-109.1646
 20
112.9782
 11
-109.1646
 21
127.2792
  0
LINE
  8
0
  6
CONTINUOUS
 62
     7
 10
109.1646
 20
-112.9782
 11
185.4368
 21
-112.9782
  0
LINE
  8
0
  6
CONTINUOUS
 62
     7
 10
129.1908
 20
-116.4169
 11
136.5177
 21
-116.4169
  0
LINE
  8
0
  6
CONTINUOUS
 62
     7
 10
129.1908
 20
-122.9143
 11
135.4118
 21
-122.9143
  0
LINE
  8
0
  6
CONTINUOUS
 62
     7
 10
129.1908
 20
-124.5732
 11
137.6237
 21
-124.5732
  0
LINE
  8
0
  6
CONTINUOUS
 62
     7
 10
129.1908
 20
-118.0758
 11
135.4118
 21
-118.0758
  0
LINE
  8
0
  6
CONTINUOUS
 62
     7
 10
129.1908
 20
-116.4169
 11
129.1908
 21
-118.0758
  0
LINE
  8
0
  6
CONTINUOUS
 62
     7
 10
137.6237
 20
-117.5228
 11
137.6237
 21
-124.5732
  0
LINE
  8
0
  6
CONTINUOUS
 62
     7
 10
135.4118
 20
-118.0758
 11
135.4118
 21
-122.9143
  0
LINE
  8
0
  6
CONTINUOUS
 62
     7
 10
138.8678
 20
-116.4169
 11
138.8678
 21
-118.0758
  0
LINE
  8
0
  6
CONTINUOUS
 62
     7
 10
146.7477
 20
-118.0758
 11
146.7477
 21
-123.4673
  0
LINE
  8
0
  6
CONTINUOUS
 62
     7
 10
144.5358
 20
-118.0758
 11
144.5358
 21
-122.9143
  0
LINE
  8
0
  6
CONTINUOUS
 62
     7
 10
129.1908
 20
-122.9143
 11
129.1908
 21
-124.5732
  0
LINE
  8
0
  6
CONTINUOUS
 62
     7
 10
138.8678
 20
-116.4169
 11
141.0533
 21
-116.4169
  0
LINE
  8
0
  6
CONTINUOUS
 62
     7
 10
138.8678
 20
-124.5732
 11
140.5853
 21
-124.5732
  0
LINE
  8
0
  6
CONTINUOUS
 62
     7
 10
138.8677
 20
-124.5732
 11
140.6088
 21
-118.0757
  0
LINE
  8
0
  6
CONTINUOUS
 62
     7
 10
138.8678
 20
-118.0758
 11
140.6088
 21
-118.0758
  0
LINE
  8
0
  6
CONTINUOUS
 62
     7
 10
140.5854
 20
-124.5734
 11
142.3264
 21
-118.0759
  0
LINE
  8
0
  6
CONTINUOUS
 62
     7
 10
142.8769
 20
-122.9143
 11
144.5358
 21
-122.9143
  0
LINE
  8
0
  6
CONTINUOUS
 62
     7
 10
142.8769
 20
-122.9143
 11
143.3214
 21
-124.5732
  0
LINE
  8
0
  6
CONTINUOUS
 62
     7
 10
143.3214
 20
-124.5732
 11
145.6418
 21
-124.5732
  0
LINE
  8
0
  6
CONTINUOUS
 62
     7
 10
142.3263
 20
-118.0758
 11
144.5358
 21
-118.0758
  0
LINE
  8
0
  6
CONTINUOUS
 62
     7
 10
142.7708
 20
-116.4169
 11
145.0888
 21
-116.4169
  0
LINE
  8
0
  6
CONTINUOUS
 62
     7
 10
141.0534
 20
-116.4169
 11
141.3831
 21
-115.1866
  0
LINE
  8
0
  6
CONTINUOUS
 62
     7
 10
142.7707
 20
-116.4168
 11
143.1003
 21
-115.1864
  0
LINE
  8
0
  6
CONTINUOUS
 62
     7
 10
148.1301
 20
-116.4169
 11
150.7568
 21
-116.4169
  0
LINE
  8
0
  6
CONTINUOUS
 62
     7
 10
148.1301
 20
-118.0758
 11
154.581
 21
-118.0758
  0
LINE
  8
0
  6
CONTINUOUS
 62
     7
 10
150.7568
 20
-124.5732
 11
152.9686
 21
-124.5732
  0
LINE
  8
0
  6
CONTINUOUS
 62
     7
 10
148.1301
 20
-116.4169
 11
148.1301
 21
-118.0758
  0
LINE
  8
0
  6
CONTINUOUS
 62
     7
 10
156.2865
 20
-121.0839
 11
156.2865
 21
-122.9143
  0
LINE
  8
0
  6
CONTINUOUS
 62
     7
 10
148.13
 20
-122.9142
 11
150.7567
 21
-121.6894
  0
LINE
  8
0
  6
CONTINUOUS
 62
     7
 10
148.1303
 20
-121.0841
 11
154.5812
 21
-118.0759
  0
LINE
  8
0
  6
CONTINUOUS
 62
     7
 10
148.1301
 20
-121.0839
 11
148.1301
 21
-122.9143
  0
LINE
  8
0
  6
CONTINUOUS
 62
     7
 10
152.9686
 20
-121.3672
 11
156.2865
 21
-122.9143
  0
LINE
  8
0
  6
CONTINUOUS
 62
     7
 10
154.1712
 20
-120.0975
 11
156.2867
 21
-121.084
  0
LINE
  8
0
  6
CONTINUOUS
 62
     7
 10
156.2865
 20
-117.5228
 11
156.2865
 21
-118.4064
  0
LINE
  8
0
  6
CONTINUOUS
 62
     7
 10
150.7568
 20
-115.1865
 11
150.7568
 21
-116.4169
  0
LINE
  8
0
  6
CONTINUOUS
 62
     7
 10
152.9686
 20
-115.1865
 11
152.9686
 21
-116.4169
  0
LINE
  8
0
  6
CONTINUOUS
 62
     7
 10
152.9686
 20
-116.4169
 11
155.1806
 21
-116.4169
  0
LINE
  8
0
  6
CONTINUOUS
 62
     7
 10
150.7568
 20
-121.6895
 11
150.7568
 21
-124.5732
  0
LINE
  8
0
  6
CONTINUOUS
 62
     7
 10
152.9686
 20
-121.3672
 11
152.9686
 21
-124.5732
  0
LINE
  8
0
  6
CONTINUOUS
 62
     7
 10
154.1712
 20
-120.0976
 11
155.6482
 21
-119.4089
  0
LINE
  8
0
  6
CONTINUOUS
 62
     7
 10
163.7517
 20
-115.6842
 11
165.4106
 21
-115.6842
  0
LINE
  8
0
  6
CONTINUOUS
 62
     7
 10
156.9777
 20
-119.1109
 11
156.9777
 21
-120.8962
  0
LINE
  8
0
  6
CONTINUOUS
 62
     7
 10
165.4106
 20
-115.6842
 11
165.4106
 21
-116.4169
  0
LINE
  8
0
  6
CONTINUOUS
 62
     7
 10
163.7517
 20
-115.6842
 11
163.7517
 21
-116.0417
  0
LINE
  8
0
  6
CONTINUOUS
 62
     7
 10
161.5397
 20
-119.0819
 11
161.5397
 21
-124.5732
  0
LINE
  8
0
  6
CONTINUOUS
 62
     7
 10
156.9778
 20
-119.111
 11
163.4031
 21
-116.5556
  0
LINE
  8
0
  6
CONTINUOUS
 62
     7
 10
156.9778
 20
-120.8963
 11
161.5398
 21
-119.0819
  0
LINE
  8
0
  6
CONTINUOUS
 62
     7
 10
161.5397
 20
-124.5732
 11
163.7517
 21
-124.5732
  0
LINE
  8
0
  6
CONTINUOUS
 62
     7
 10
163.7517
 20
-118.2022
 11
163.7517
 21
-124.5732
  0
LINE
  8
0
  6
CONTINUOUS
 62
     7
 10
163.7518
 20
-118.2023
 11
164.3649
 21
-117.9584
  0
LINE
  8
0
  6
CONTINUOUS
 62
     7
 10
141.2497
 20
-115.1865
 11
143.1004
 21
-115.1865
  0
LINE
  8
0
  6
CONTINUOUS
 62
     7
 10
145.8491
 20
-115.1865
 11
146.5541
 21
-115.1865
  0
LINE
  8
0
  6
CONTINUOUS
 62
     7
 10
150.7568
 20
-115.1865
 11
152.9686
 21
-115.1865
  0
LINE
  8
0
  6
CONTINUOUS
 62
     7
 10
145.8491
 20
-116.2925
 11
146.5541
 21
-116.2925
  0
LINE
  8
0
  6
CONTINUOUS
 62
     7
 10
145.8491
 20
-115.1865
 11
145.8491
 21
-116.2925
  0
LINE
  8
0
  6
CONTINUOUS
 62
     7
 10
146.5541
 20
-115.1865
 11
146.5541
 21
-116.2925
  0
LINE
  8
0
  6
CONTINUOUS
 62
     7
 10
146.9689
 20
-115.1865
 11
146.9689
 21
-116.2925
  0
LINE
  8
0
  6
CONTINUOUS
 62
     7
 10
147.7569
 20
-115.1865
 11
147.7569
 21
-116.2925
  0
LINE
  8
0
  6
CONTINUOUS
 62
     7
 10
146.9689
 20
-115.1865
 11
147.7569
 21
-115.1865
  0
LINE
  8
0
  6
CONTINUOUS
 62
     7
 10
146.9689
 20
-116.2925
 11
147.7569
 21
-116.2925
  0
LINE
  8
0
  6
CONTINUOUS
 62
     7
 10
109.1646
 20
112.9782
 11
185.4368
 21
112.9782
  0
LINE
  8
0
  6
CONTINUOUS
 62
     7
 10
109.1646
 20
127.2792
 11
109.1646
 21
112.9782
  0
LINE
  8
0
  6
CONTINUOUS
 62
     7
 10
109.1646
 20
-112.9782
 11
109.1646
 21
-127.2792
  0
LINE
  8
0
  6
CENTER
 62
     2
 10
11.81416
 20
95.5
 11
-27.0
 21
95.5
  0
LINE
  8
0
  6
CENTER
 62
     2
 10
24.0
 20
94.20001
 11
-3.99999
 21
94.20001
  0
LINE
  8
0
  6
CONTINUOUS
 62
     7
 10
11.0
 20
95.04999
 11
6.65588
 21
95.04999
  0
LINE
  8
0
  6
CONTINUOUS
 62
     7
 10
11.0
 20
93.35001
 11
6.20036
 21
93.35001
  0
LINE
  8
0
  6
CONTINUOUS
 62
     7
 10
21.0
 20
94.51999
 11
11.0
 21
94.51999
  0
LINE
  8
0
  6
CONTINUOUS
 62
     7
 10
21.0
 20
93.88
 11
11.0
 21
93.88
  0
LINE
  8
0
  6
CONTINUOUS
 62
     7
 10
11.0
 20
93.35001
 11
11.0
 21
95.05002
  0
LINE
  8
0
  6
CONTINUOUS
 62
     7
 10
21.0
 20
93.88
 11
21.0
 21
94.52002
  0
LINE
  8
0
  6
CENTER
 62
     2
 10
23.89096
 20
96.79999
 11
-3.99999
 21
96.79999
  0
LINE
  8
0
  6
CONTINUOUS
 62
     7
 10
11.0
 20
97.64999
 11
7.35255
 21
97.64999
  0
LINE
  8
0
  6
CONTINUOUS
 62
     7
 10
11.0
 20
95.95
 11
6.89703
 21
95.95
  0
LINE
  8
0
  6
CONTINUOUS
 62
     7
 10
21.0
 20
97.12
 11
11.0
 21
97.12
  0
LINE
  8
0
  6
CONTINUOUS
 62
     7
 10
21.0
 20
96.48
 11
11.0
 21
96.48
  0
LINE
  8
0
  6
CONTINUOUS
 62
     7
 10
11.0
 20
95.95001
 11
11.0
 21
97.64999
  0
LINE
  8
0
  6
CONTINUOUS
 62
     7
 10
21.0
 20
96.48001
 11
21.0
 21
97.12001
  0
LINE
  8
0
  6
PHANTOM
 62
     2
 10
6.33555
 20
99.64997
 11
4.11157
 21
91.34998
  0
LINE
  8
0
  6
PHANTOM
 62
     2
 10
7.88845
 20
99.64999
 11
5.66447
 21
91.35001
  0
LINE
  8
0
  6
CONTINUOUS
 62
     7
 10
5.79964
 20
97.64999
 11
1.0
 21
97.64999
  0
LINE
  8
0
  6
CONTINUOUS
 62
     7
 10
5.34412
 20
95.95
 11
1.0
 21
95.95
  0
LINE
  8
0
  6
CONTINUOUS
 62
     7
 10
5.10297
 20
95.04999
 11
1.0
 21
95.04999
  0
LINE
  8
0
  6
CONTINUOUS
 62
     7
 10
4.64745
 20
93.35001
 11
1.0
 21
93.35001
  0
LINE
  8
0
  6
CONTINUOUS
 62
     7
 10
-0.98418
 20
98.47595
 11
0.51582
 21
98.47595
  0
LINE
  8
0
  6
CONTINUOUS
 62
     7
 10
1.01582
 20
97.97595
 11
1.01582
 21
92.97595
  0
LINE
  8
0
  6
CONTINUOUS
 62
     7
 10
-0.98418
 20
92.47595
 11
0.51582
 21
92.47595
  0
LINE
  8
0
  6
CENTER
 62
     2
 10
-13.00005
 20
85.55165
 11
-13.00005
 21
105.4878
  0
LINE
  8
0
  6
CONTINUOUS
 62
     7
 10
-4.00005
 20
94.0
 11
-1.00005
 21
94.0
  0
LINE
  8
0
  6
CONTINUOUS
 62
     7
 10
-22.00005
 20
97.0
 11
-25.00005
 21
97.0
  0
LINE
  8
0
  6
CONTINUOUS
 62
     7
 10
-19.00005
 20
100.0
 11
-19.00005
 21
103.0
  0
LINE
  8
0
  6
CONTINUOUS
 62
     7
 10
-7.00005
 20
91.0
 11
-7.00005
 21
88.0
  0
LINE
  8
0
  6
CONTINUOUS
 62
     7
 10
-24.00005
 20
97.0
 11
-24.00005
 21
89.0
  0
LINE
  8
0
  6
CONTINUOUS
 62
     7
 10
-2.00005
 20
102.0
 11
-2.00005
 21
94.0
  0
LINE
  8
0
  6
CONTINUOUS
 62
     7
 10
-19.00005
 20
102.0
 11
-2.00005
 21
102.0
  0
LINE
  8
0
  6
CONTINUOUS
 62
     7
 10
-24.00005
 20
89.0
 11
-7.00005
 21
89.0
  0
LINE
  8
0
  6
CONTINUOUS
 62
     7
 10
-3.70004
 20
88.7701
 11
-3.70004
 21
88.46771
  0
LINE
  8
0
  6
CONTINUOUS
 62
     7
 10
-4.30004
 20
88.7701
 11
-4.30004
 21
88.46771
  0
LINE
  8
0
  6
CONTINUOUS
 62
     7
 10
-4.46081
 20
88.49197
 11
-4.46081
 21
88.79769
  0
LINE
  8
0
  6
CONTINUOUS
 62
     7
 10
-22.30004
 20
102.2299
 11
-22.30004
 21
102.5323
  0
LINE
  8
0
  6
CONTINUOUS
 62
     7
 10
-21.70004
 20
102.2299
 11
-21.70004
 21
102.5323
  0
LINE
  8
0
  6
CONTINUOUS
 62
     7
 10
-21.53928
 20
102.508
 11
-21.53928
 21
102.2023
  0
LINE
  8
0
  6
CONTINUOUS
 62
     7
 10
-5.10313
 20
90.26462
 11
-4.73543
 21
90.63232
  0
LINE
  8
0
  6
CONTINUOUS
 62
     7
 10
-4.73544
 20
89.89693
 11
-4.36774
 21
90.26463
  0
LINE
  8
0
  6
CONTINUOUS
 62
     7
 10
-5.10312
 20
90.26463
 11
-4.73542
 21
89.89693
  0
LINE
  8
0
  6
CONTINUOUS
 62
     7
 10
-3.26463
 20
92.10311
 11
-2.89693
 21
91.73541
  0
LINE
  8
0
  6
CONTINUOUS
 62
     7
 10
-5.76421
 20
92.39651
 11
-4.73542
 21
91.36772
  0
LINE
  8
0
  6
CONTINUOUS
 62
     7
 10
-5.39652
 20
92.7642
 11
-4.36773
 21
91.73541
  0
LINE
  8
0
  6
CONTINUOUS
 62
     7
 10
-3.63234
 20
91.7354
 11
-3.26465
 21
92.1031
  0
LINE
  8
0
  6
CONTINUOUS
 62
     7
 10
-3.26465
 20
91.36771
 11
-2.89695
 21
91.7354
  0
LINE
  8
0
  6
CONTINUOUS
 62
     7
 10
-3.63234
 20
90.26463
 11
-2.60355
 21
89.23585
  0
LINE
  8
0
  6
CONTINUOUS
 62
     7
 10
-3.26465
 20
90.63232
 11
-2.23586
 21
89.60354
  0
LINE
  8
0
  6
CONTINUOUS
 62
     7
 10
-23.10315
 20
99.26463
 11
-22.73545
 21
99.63232
  0
LINE
  8
0
  6
CONTINUOUS
 62
     7
 10
-22.73545
 20
98.89693
 11
-22.36776
 21
99.26462
  0
LINE
  8
0
  6
CONTINUOUS
 62
     7
 10
-23.10313
 20
99.26462
 11
-22.73543
 21
98.89693
  0
LINE
  8
0
  6
CONTINUOUS
 62
     7
 10
-21.26465
 20
101.1031
 11
-20.89695
 21
100.7354
  0
LINE
  8
0
  6
CONTINUOUS
 62
     7
 10
-23.76422
 20
101.3965
 11
-22.73543
 21
100.3677
  0
LINE
  8
0
  6
CONTINUOUS
 62
     7
 10
-23.39652
 20
101.7642
 11
-22.36773
 21
100.7354
  0
LINE
  8
0
  6
CONTINUOUS
 62
     7
 10
-21.63236
 20
100.7354
 11
-21.26467
 21
101.1031
  0
LINE
  8
0
  6
CONTINUOUS
 62
     7
 10
-21.26468
 20
100.3677
 11
-20.89698
 21
100.7354
  0
LINE
  8
0
  6
CONTINUOUS
 62
     7
 10
-21.63234
 20
99.26463
 11
-20.60355
 21
98.23583
  0
LINE
  8
0
  6
CONTINUOUS
 62
     7
 10
-21.26464
 20
99.63232
 11
-20.23585
 21
98.60353
  0
LINE
  8
0
  6
CENTER
 62
     2
 10
-4.00005
 20
95.0
 11
-4.00005
 21
87.0
  0
LINE
  8
0
  6
CENTER
 62
     2
 10
-22.00005
 20
104.0
 11
-22.00005
 21
96.0
  0
LINE
  8
0
  6
CENTER
 62
     2
 10
-26.00005
 20
100.0
 11
-18.00005
 21
100.0
  0
LINE
  8
0
  6
CENTER
 62
     2
 10
-8.00005
 20
91.0
 11
-0.00005
 21
91.0
  0
LINE
  8
0
  6
CONTINUOUS
 62
     7
 10
-25.00005
 20
102.5
 11
-25.00005
 21
88.5
  0
LINE
  8
0
  6
CONTINUOUS
 62
     7
 10
-24.50005
 20
103.0
 11
-1.00005
 21
103.0
  0
LINE
  8
0
  6
CONTINUOUS
 62
     7
 10
-24.50005
 20
88.0
 11
-1.00005
 21
88.0
  0
LINE
  8
0
  6
CONTINUOUS
 62
     7
 10
-1.00005
 20
103.0
 11
-1.00005
 21
88.0
  0
LINE
  8
0
  6
CONTINUOUS
 62
     7
 10
-24.99998
 20
15.0
 11
-0.99998
 21
15.0
  0
LINE
  8
0
  6
CENTER
 62
     2
 10
-12.99998
 20
65.77065
 11
-12.99998
 21
-71.6225
  0
LINE
  8
0
  6
CONTINUOUS
 62
     7
 10
-24.99998
 20
-12.99999
 11
-0.99998
 21
-12.99999
  0
LINE
  8
0
  6
CENTER
 62
     2
 10
-5.41592
 20
10.0
 11
0.26863
 21
10.0
  0
LINE
  8
0
  6
CONTINUOUS
 62
     7
 10
-3.99998
 20
11.81385
 11
-0.99998
 21
11.81385
  0
LINE
  8
0
  6
CONTINUOUS
 62
     7
 10
-3.99998
 20
8.18617
 11
-0.99998
 21
8.18617
  0
LINE
  8
0
  6
CONTINUOUS
 62
     7
 10
-3.99998
 20
11.81383
 11
-3.99998
 21
8.18617
  0
LINE
  8
0
  6
CENTER
 62
     2
 10
-22.49998
 20
6.00001
 11
-17.49998
 21
6.00001
  0
LINE
  8
0
  6
CENTER
 62
     2
 10
-22.49998
 20
-3.99999
 11
-17.49998
 21
-3.99999
  0
LINE
  8
0
  6
CENTER
 62
     2
 10
-19.99999
 20
-1.49999
 11
-19.99999
 21
-6.49999
  0
LINE
  8
0
  6
CENTER
 62
     2
 10
-19.99998
 20
8.50001
 11
-19.99998
 21
3.50001
  0
LINE
  8
0
  6
CONTINUOUS
 62
     7
 10
-24.99999
 20
33.99999
 11
-24.99999
 21
-39.99999
  0
LINE
  8
0
  6
CONTINUOUS
 62
     7
 10
-0.99999
 20
33.99999
 11
-0.99999
 21
-39.99999
  0
LINE
  8
0
  6
CONTINUOUS
 62
     7
 10
-24.99998
 20
59.2
 11
-0.99999
 21
59.2
  0
LINE
  8
0
  6
CONTINUOUS
 62
     7
 10
-24.99998
 20
34.0
 11
-0.99999
 21
34.0
  0
LINE
  8
0
  6
CONTINUOUS
 62
     7
 10
-24.99999
 20
60.2
 11
-24.99999
 21
33.99999
  0
LINE
  8
0
  6
CONTINUOUS
 62
     7
 10
-0.99999
 20
60.2
 11
-0.99999
 21
53.7
  0
LINE
  8
0
  6
CONTINUOUS
 62
     7
 10
-23.99999
 20
62.2
 11
-5.82576
 21
62.2
  0
LINE
  8
0
  6
CONTINUOUS
 62
     7
 10
-24.99998
 20
60.2
 11
-0.99999
 21
60.2
  0
LINE
  8
0
  6
CONTINUOUS
 62
     7
 10
-24.99998
 20
60.2
 11
-23.99998
 21
62.2
  0
LINE
  8
0
  6
CONTINUOUS
 62
     7
 10
-1.00002
 20
60.19998
 11
-2.00002
 21
62.19998
  0
LINE
  8
0
  6
CONTINUOUS
 62
     7
 10
-6.99998
 20
62.2
 11
-6.99998
 21
60.2
  0
LINE
  8
0
  6
CENTER
 62
     2
 10
-3.99999
 20
65.2
 11
-3.99999
 21
56.2
  0
LINE
  8
0
  6
CONTINUOUS
 62
     7
 10
-1.44999
 20
60.8
 11
-6.54999
 21
60.8
  0
LINE
  8
0
  6
CONTINUOUS
 62
     7
 10
-4.3
 20
60.2
 11
-4.46077
 21
60.8
  0
LINE
  8
0
  6
CONTINUOUS
 62
     7
 10
-3.69982
 20
60.80005
 11
-3.53905
 21
60.20005
  0
LINE
  8
0
  6
CONTINUOUS
 62
     7
 10
-1.44999
 20
60.79999
 11
-1.44999
 21
60.19999
  0
LINE
  8
0
  6
CONTINUOUS
 62
     7
 10
-6.54998
 20
60.8
 11
-6.54998
 21
60.2
  0
LINE
  8
0
  6
CONTINUOUS
 62
     7
 10
-1.74995
 20
61.49374
 11
-1.74995
 21
60.79999
  0
LINE
  8
0
  6
CONTINUOUS
 62
     7
 10
-6.24995
 20
61.49374
 11
-6.24995
 21
60.8
  0
LINE
  8
0
  6
CONTINUOUS
 62
     7
 10
-2.17421
 20
62.2
 11
-1.99999
 21
62.2
  0
LINE
  8
0
  6
CENTER
 62
     2
 10
-21.99998
 20
65.2
 11
-21.99998
 21
56.2
  0
LINE
  8
0
  6
CENTER
 62
     2
 10
24.00001
 20
52.0
 11
-3.99998
 21
52.0
  0
LINE
  8
0
  6
CONTINUOUS
 62
     7
 10
11.00001
 20
52.84999
 11
7.00423
 21
52.84999
  0
LINE
  8
0
  6
CONTINUOUS
 62
     7
 10
11.00001
 20
51.15001
 11
6.54872
 21
51.15001
  0
LINE
  8
0
  6
CONTINUOUS
 62
     7
 10
21.00002
 20
52.32
 11
11.00001
 21
52.32
  0
LINE
  8
0
  6
CONTINUOUS
 62
     7
 10
21.00002
 20
51.68
 11
11.00001
 21
51.68
  0
LINE
  8
0
  6
CONTINUOUS
 62
     7
 10
11.00002
 20
51.15
 11
11.00002
 21
52.84999
  0
LINE
  8
0
  6
CONTINUOUS
 62
     7
 10
21.00002
 20
51.68
 11
21.00002
 21
52.31999
  0
LINE
  8
0
  6
PHANTOM
 62
     2
 10
7.54015
 20
54.84999
 11
6.01283
 21
49.14999
  0
LINE
  8
0
  6
PHANTOM
 62
     2
 10
5.98723
 20
54.84999
 11
4.45992
 21
49.14999
  0
LINE
  8
0
  6
CONTINUOUS
 62
     7
 10
5.45131
 20
52.84999
 11
1.00001
 21
52.84999
  0
LINE
  8
0
  6
CONTINUOUS
 62
     7
 10
4.9958
 20
51.15001
 11
1.00001
 21
51.15001
  0
LINE
  8
0
  6
CONTINUOUS
 62
     7
 10
-0.99999
 20
50.3
 11
-0.99999
 21
33.99999
  0
LINE
  8
0
  6
CONTINUOUS
 62
     7
 10
-24.99997
 20
-65.20003
 11
-0.99997
 21
-65.20003
  0
LINE
  8
0
  6
CONTINUOUS
 62
     7
 10
-24.99998
 20
-40.00002
 11
-0.99998
 21
-40.00002
  0
LINE
  8
0
  6
CONTINUOUS
 62
     7
 10
-24.99998
 20
-66.20003
 11
-24.99998
 21
-40.0
  0
LINE
  8
0
  6
CONTINUOUS
 62
     7
 10
-0.99999
 20
-66.20003
 11
-0.99999
 21
-59.69998
  0
LINE
  8
0
  6
CONTINUOUS
 62
     7
 10
-1.99996
 20
-68.20003
 11
-20.1742
 21
-68.20003
  0
LINE
  8
0
  6
CONTINUOUS
 62
     7
 10
-24.99996
 20
-66.20003
 11
-0.99997
 21
-66.20003
  0
LINE
  8
0
  6
CONTINUOUS
 62
     7
 10
-0.99999
 20
-66.19997
 11
-1.99999
 21
-68.19997
  0
LINE
  8
0
  6
CONTINUOUS
 62
     7
 10
-24.99996
 20
-66.2
 11
-23.99996
 21
-68.2
  0
LINE
  8
0
  6
CONTINUOUS
 62
     7
 10
-18.99998
 20
-68.2
 11
-18.99998
 21
-66.19999
  0
LINE
  8
0
  6
CENTER
 62
     2
 10
-21.99998
 20
-71.2
 11
-21.99998
 21
-62.2
  0
LINE
  8
0
  6
CONTINUOUS
 62
     7
 10
-24.54996
 20
-66.80002
 11
-19.44997
 21
-66.80002
  0
LINE
  8
0
  6
CONTINUOUS
 62
     7
 10
-21.70006
 20
-66.2
 11
-21.53928
 21
-66.8
  0
LINE
  8
0
  6
CONTINUOUS
 62
     7
 10
-22.30004
 20
-66.8
 11
-22.46081
 21
-66.2
  0
LINE
  8
0
  6
CONTINUOUS
 62
     7
 10
-24.54998
 20
-66.8
 11
-24.54998
 21
-66.2
  0
LINE
  8
0
  6
CONTINUOUS
 62
     7
 10
-19.44999
 20
-66.8
 11
-19.44999
 21
-66.19999
  0
LINE
  8
0
  6
CONTINUOUS
 62
     7
 10
-24.24998
 20
-67.49375
 11
-24.24998
 21
-66.8
  0
LINE
  8
0
  6
CONTINUOUS
 62
     7
 10
-19.74998
 20
-67.49374
 11
-19.74998
 21
-66.8
  0
LINE
  8
0
  6
CONTINUOUS
 62
     7
 10
-23.82573
 20
-68.20003
 11
-23.99996
 21
-68.20003
  0
LINE
  8
0
  6
CENTER
 62
     2
 10
-3.99998
 20
-71.2
 11
-3.99998
 21
-62.19999
  0
LINE
  8
0
  6
CENTER
 62
     2
 10
24.00002
 20
-58.00002
 11
-3.99998
 21
-58.00002
  0
LINE
  8
0
  6
CONTINUOUS
 62
     7
 10
11.00002
 20
-57.15002
 11
7.00423
 21
-57.15002
  0
LINE
  8
0
  6
CONTINUOUS
 62
     7
 10
11.00001
 20
-58.85002
 11
6.54871
 21
-58.85002
  0
LINE
  8
0
  6
CONTINUOUS
 62
     7
 10
21.00002
 20
-57.68002
 11
11.00002
 21
-57.68002
  0
LINE
  8
0
  6
CONTINUOUS
 62
     7
 10
21.00002
 20
-58.32002
 11
11.00002
 21
-58.32002
  0
LINE
  8
0
  6
CONTINUOUS
 62
     7
 10
11.00002
 20
-58.84998
 11
11.00002
 21
-57.14998
  0
LINE
  8
0
  6
CONTINUOUS
 62
     7
 10
21.00002
 20
-58.31997
 11
21.00002
 21
-57.67997
  0
LINE
  8
0
  6
PHANTOM
 62
     2
 10
7.54015
 20
-55.14998
 11
6.01284
 21
-60.84998
  0
LINE
  8
0
  6
PHANTOM
 62
     2
 10
5.98727
 20
-55.14998
 11
4.45996
 21
-60.84998
  0
LINE
  8
0
  6
CONTINUOUS
 62
     7
 10
4.9958
 20
-58.85002
 11
1.00001
 21
-58.85002
  0
LINE
  8
0
  6
CONTINUOUS
 62
     7
 10
5.45132
 20
-57.15002
 11
1.00002
 21
-57.15002
  0
LINE
  8
0
  6
CONTINUOUS
 62
     7
 10
-0.99999
 20
-56.29999
 11
-0.99999
 21
-39.99998
  0
LINE
  8
0
  6
CENTER
 62
     2
 10
-28.4019
 20
1.0
 11
2.00002
 21
1.0
  0
LINE
  8
0
  6
CONTINUOUS
 62
     7
 10
-0.99999
 20
53.7
 11
-0.99999
 21
50.3
  0
LINE
  8
0
  6
CONTINUOUS
 62
     7
 10
0.50001
 20
53.7
 11
-0.99999
 21
53.7
  0
LINE
  8
0
  6
CONTINUOUS
 62
     7
 10
1.00001
 20
50.8
 11
1.00001
 21
53.2
  0
LINE
  8
0
  6
CONTINUOUS
 62
     7
 10
0.50001
 20
50.3
 11
-0.99999
 21
50.3
  0
LINE
  8
0
  6
CONTINUOUS
 62
     7
 10
-0.99998
 20
-56.29998
 11
-0.99998
 21
-59.69997
  0
LINE
  8
0
  6
CONTINUOUS
 62
     7
 10
0.50002
 20
-56.29998
 11
-0.99998
 21
-56.29998
  0
LINE
  8
0
  6
CONTINUOUS
 62
     7
 10
1.00002
 20
-59.19997
 11
1.00002
 21
-56.79997
  0
LINE
  8
0
  6
CONTINUOUS
 62
     7
 10
0.50002
 20
-59.69997
 11
-0.99998
 21
-59.69997
  0
LINE
  8
0
  6
CONTINUOUS
 62
     7
 10
-113.0
 20
15.0
 11
-98.0
 21
15.0
  0
LINE
  8
0
  6
CENTER
 62
     2
 10
-105.5
 20
65.67479
 11
-105.5
 21
-71.23672
  0
LINE
  8
0
  6
CONTINUOUS
 62
     7
 10
-113.0
 20
-12.99999
 11
-98.0
 21
-12.99999
  0
LINE
  8
0
  6
CENTER
 62
     2
 10
-111.0
 20
-5.5
 11
-111.0
 21
-10.5
  0
LINE
  8
0
  6
CENTER
 62
     2
 10
-100.0
 20
12.5
 11
-100.0
 21
7.5
  0
LINE
  8
0
  6
CENTER
 62
     2
 10
-113.5
 20
-8.0
 11
-108.5
 21
-8.0
  0
LINE
  8
0
  6
CENTER
 62
     2
 10
-102.5
 20
10.0
 11
-97.5
 21
10.0
  0
LINE
  8
0
  6
CENTER
 62
     2
 10
-112.0
 20
11.0
 11
-105.0
 21
11.0
  0
LINE
  8
0
  6
CENTER
 62
     2
 10
-115.2151
 20
1.0
 11
-96.03697
 21
1.0
  0
LINE
  8
0
  6
CENTER
 62
     2
 10
-109.0
 20
-21.99999
 11
-102.0
 21
-21.99999
  0
LINE
  8
0
  6
CONTINUOUS
 62
     7
 10
-113.0
 20
33.99999
 11
-113.0
 21
-39.99999
  0
LINE
  8
0
  6
CONTINUOUS
 62
     7
 10
-98.0
 20
33.99999
 11
-98.0
 21
-39.99999
  0
LINE
  8
0
  6
CONTINUOUS
 62
     7
 10
-106.9142
 20
-20.58582
 11
-104.0858
 21
-23.41424
  0
LINE
  8
0
  6
CONTINUOUS
 62
     7
 10
-106.0177
 20
-20.06815
 11
-103.5682
 21
-22.51764
  0
LINE
  8
0
  6
CONTINUOUS
 62
     7
 10
-107.4319
 20
-21.48239
 11
-104.9824
 21
-23.93188
  0
LINE
  8
0
  6
CONTINUOUS
 62
     7
 10
-106.9143
 20
-23.41415
 11
-104.0858
 21
-20.58573
  0
LINE
  8
0
  6
CONTINUOUS
 62
     7
 10
-106.0177
 20
-23.9318
 11
-103.5682
 21
-21.48232
  0
LINE
  8
0
  6
CONTINUOUS
 62
     7
 10
-107.4319
 20
-22.51759
 11
-104.9824
 21
-20.0681
  0
LINE
  8
0
  6
CONTINUOUS
 62
     7
 10
-113.0
 20
60.2
 11
-113.0
 21
33.99999
  0
LINE
  8
0
  6
CONTINUOUS
 62
     7
 10
-113.0
 20
34.0
 11
-98.0
 21
34.0
  0
LINE
  8
0
  6
CONTINUOUS
 62
     7
 10
-98.0
 20
60.2
 11
-98.0
 21
33.99999
  0
LINE
  8
0
  6
CONTINUOUS
 62
     7
 10
-107.0
 20
62.2
 11
-107.0
 21
60.19999
  0
LINE
  8
0
  6
CONTINUOUS
 62
     7
 10
-99.0
 20
-62.19993
 11
-112.0
 21
-62.19993
  0
LINE
  8
0
  6
CONTINUOUS
 62
     7
 10
-99.0
 20
-58.19994
 11
-112.0
 21
-58.19994
  0
LINE
  8
0
  6
CONTINUOUS
 62
     7
 10
-112.0
 20
-62.19993
 11
-112.0
 21
-58.19994
  0
LINE
  8
0
  6
CONTINUOUS
 62
     7
 10
-99.0
 20
-62.19993
 11
-99.0
 21
-58.19994
  0
LINE
  8
0
  6
CONTINUOUS
 62
     7
 10
-99.71208
 20
-61.3067
 11
-102.0538
 21
-61.3067
  0
LINE
  8
0
  6
CONTINUOUS
 62
     7
 10
-99.71208
 20
-59.23012
 11
-101.7003
 21
-59.23012
  0
LINE
  8
0
  6
CONTINUOUS
 62
     7
 10
-99.71208
 20
-58.69994
 11
-102.4072
 21
-58.69994
  0
LINE
  8
0
  6
CONTINUOUS
 62
     7
 10
-99.71208
 20
-60.77651
 11
-101.7003
 21
-60.77651
  0
LINE
  8
0
  6
CONTINUOUS
 62
     7
 10
-99.71207
 20
-61.3067
 11
-99.71207
 21
-60.77651
  0
LINE
  8
0
  6
CONTINUOUS
 62
     7
 10
-102.4072
 20
-60.95325
 11
-102.4072
 21
-58.69994
  0
LINE
  8
0
  6
CONTINUOUS
 62
     7
 10
-101.7003
 20
-60.77651
 11
-101.7003
 21
-59.23012
  0
LINE
  8
0
  6
CONTINUOUS
 62
     7
 10
-102.8049
 20
-61.3067
 11
-102.8049
 21
-60.77651
  0
LINE
  8
0
  6
CONTINUOUS
 62
     7
 10
-105.3233
 20
-60.77651
 11
-105.3233
 21
-59.05338
  0
LINE
  8
0
  6
CONTINUOUS
 62
     7
 10
-104.6163
 20
-60.77651
 11
-104.6163
 21
-59.23012
  0
LINE
  8
0
  6
CONTINUOUS
 62
     7
 10
-99.71207
 20
-59.23012
 11
-99.71207
 21
-58.69994
  0
LINE
  8
0
  6
CONTINUOUS
 62
     7
 10
-102.8049
 20
-61.3067
 11
-103.5033
 21
-61.3067
  0
LINE
  8
0
  6
CONTINUOUS
 62
     7
 10
-102.8049
 20
-58.69994
 11
-103.3538
 21
-58.69994
  0
LINE
  8
0
  6
CONTINUOUS
 62
     7
 10
-102.805
 20
-58.69988
 11
-103.3614
 21
-60.77648
  0
LINE
  8
0
  6
CONTINUOUS
 62
     7
 10
-102.8049
 20
-60.77651
 11
-103.3613
 21
-60.77651
  0
LINE
  8
0
  6
CONTINUOUS
 62
     7
 10
-103.3537
 20
-58.69993
 11
-103.9101
 21
-60.77651
  0
LINE
  8
0
  6
CONTINUOUS
 62
     7
 10
-104.0862
 20
-59.23012
 11
-104.6164
 21
-59.23012
  0
LINE
  8
0
  6
CONTINUOUS
 62
     7
 10
-104.0861
 20
-59.23009
 11
-104.2281
 21
-58.6999
  0
LINE
  8
0
  6
CONTINUOUS
 62
     7
 10
-104.2282
 20
-58.69994
 11
-104.9698
 21
-58.69994
  0
LINE
  8
0
  6
CONTINUOUS
 62
     7
 10
-103.9102
 20
-60.77651
 11
-104.6164
 21
-60.77651
  0
LINE
  8
0
  6
CONTINUOUS
 62
     7
 10
-104.0523
 20
-61.3067
 11
-104.7931
 21
-61.3067
  0
LINE
  8
0
  6
CONTINUOUS
 62
     7
 10
-103.5034
 20
-61.30671
 11
-103.6087
 21
-61.69991
  0
LINE
  8
0
  6
CONTINUOUS
 62
     7
 10
-104.0524
 20
-61.30668
 11
-104.1577
 21
-61.69991
  0
LINE
  8
0
  6
CONTINUOUS
 62
     7
 10
-105.7651
 20
-61.3067
 11
-106.6046
 21
-61.3067
  0
LINE
  8
0
  6
CONTINUOUS
 62
     7
 10
-105.7651
 20
-60.77651
 11
-107.8268
 21
-60.77651
  0
LINE
  8
0
  6
CONTINUOUS
 62
     7
 10
-106.6046
 20
-58.69994
 11
-107.3115
 21
-58.69994
  0
LINE
  8
0
  6
CONTINUOUS
 62
     7
 10
-105.7651
 20
-61.3067
 11
-105.7651
 21
-60.77651
  0
LINE
  8
0
  6
CONTINUOUS
 62
     7
 10
-108.3719
 20
-59.81512
 11
-108.3719
 21
-59.23012
  0
LINE
  8
0
  6
CONTINUOUS
 62
     7
 10
-105.7652
 20
-59.22993
 11
-106.6046
 21
-59.62139
  0
LINE
  8
0
  6
CONTINUOUS
 62
     7
 10
-105.7651
 20
-59.81509
 11
-107.8269
 21
-60.77649
  0
LINE
  8
0
  6
CONTINUOUS
 62
     7
 10
-105.7651
 20
-59.81512
 11
-105.7651
 21
-59.23012
  0
LINE
  8
0
  6
CONTINUOUS
 62
     7
 10
-107.3114
 20
-59.7246
 11
-108.3719
 21
-59.23012
  0
LINE
  8
0
  6
CONTINUOUS
 62
     7
 10
-107.6958
 20
-60.13038
 11
-108.3719
 21
-59.81509
  0
LINE
  8
0
  6
CONTINUOUS
 62
     7
 10
-108.3719
 20
-60.95325
 11
-108.3719
 21
-60.67086
  0
LINE
  8
0
  6
CONTINUOUS
 62
     7
 10
-106.6046
 20
-61.69993
 11
-106.6046
 21
-61.3067
  0
LINE
  8
0
  6
CONTINUOUS
 62
     7
 10
-107.3115
 20
-61.69993
 11
-107.3115
 21
-61.3067
  0
LINE
  8
0
  6
CONTINUOUS
 62
     7
 10
-107.3115
 20
-61.3067
 11
-108.0184
 21
-61.3067
  0
LINE
  8
0
  6
CONTINUOUS
 62
     7
 10
-106.6046
 20
-59.62156
 11
-106.6046
 21
-58.69994
  0
LINE
  8
0
  6
CONTINUOUS
 62
     7
 10
-107.3115
 20
-59.72458
 11
-107.3115
 21
-58.69994
  0
LINE
  8
0
  6
CONTINUOUS
 62
     7
 10
-107.6959
 20
-60.1302
 11
-108.1679
 21
-60.35031
  0
LINE
  8
0
  6
CONTINUOUS
 62
     7
 10
-110.7578
 20
-61.54087
 11
-111.2879
 21
-61.54087
  0
LINE
  8
0
  6
CONTINUOUS
 62
     7
 10
-108.5928
 20
-60.44568
 11
-108.5928
 21
-59.87509
  0
LINE
  8
0
  6
CONTINUOUS
 62
     7
 10
-111.2879
 20
-61.54087
 11
-111.2879
 21
-61.3067
  0
LINE
  8
0
  6
CONTINUOUS
 62
     7
 10
-110.7578
 20
-61.54087
 11
-110.7578
 21
-61.42661
  0
LINE
  8
0
  6
CONTINUOUS
 62
     7
 10
-110.0508
 20
-60.45497
 11
-110.0508
 21
-58.69994
  0
LINE
  8
0
  6
CONTINUOUS
 62
     7
 10
-108.5928
 20
-60.44566
 11
-110.6464
 21
-61.26237
  0
LINE
  8
0
  6
CONTINUOUS
 62
     7
 10
-108.5928
 20
-59.87525
 11
-110.0508
 21
-60.45513
  0
LINE
  8
0
  6
CONTINUOUS
 62
     7
 10
-110.0508
 20
-58.69994
 11
-110.7578
 21
-58.69994
  0
LINE
  8
0
  6
CONTINUOUS
 62
     7
 10
-110.7578
 20
-60.73611
 11
-110.7578
 21
-58.69994
  0
LINE
  8
0
  6
CONTINUOUS
 62
     7
 10
-110.7579
 20
-60.7359
 11
-110.9538
 21
-60.81384
  0
LINE
  8
0
  6
CONTINUOUS
 62
     7
 10
-103.6087
 20
-61.69993
 11
-104.1576
 21
-61.69993
  0
LINE
  8
0
  6
CONTINUOUS
 62
     7
 10
-105.0361
 20
-61.69993
 11
-105.2621
 21
-61.69993
  0
LINE
  8
0
  6
CONTINUOUS
 62
     7
 10
-106.6046
 20
-61.69993
 11
-107.3115
 21
-61.69993
  0
LINE
  8
0
  6
CONTINUOUS
 62
     7
 10
-105.0361
 20
-61.34647
 11
-105.2621
 21
-61.34647
  0
LINE
  8
0
  6
CONTINUOUS
 62
     7
 10
-105.0361
 20
-61.69993
 11
-105.0361
 21
-61.34646
  0
LINE
  8
0
  6
CONTINUOUS
 62
     7
 10
-105.2621
 20
-61.69993
 11
-105.2621
 21
-61.34646
  0
LINE
  8
0
  6
CONTINUOUS
 62
     7
 10
-105.4198
 20
-61.69993
 11
-105.4198
 21
-61.34646
  0
LINE
  8
0
  6
CONTINUOUS
 62
     7
 10
-105.6458
 20
-61.69993
 11
-105.6458
 21
-61.34646
  0
LINE
  8
0
  6
CONTINUOUS
 62
     7
 10
-105.4198
 20
-61.69993
 11
-105.6458
 21
-61.69993
  0
LINE
  8
0
  6
CONTINUOUS
 62
     7
 10
-105.4198
 20
-61.34647
 11
-105.6458
 21
-61.34647
  0
LINE
  8
0
  6
CONTINUOUS
 62
     7
 10
-113.0
 20
60.19997
 11
-112.0
 21
62.19997
  0
LINE
  8
0
  6
CONTINUOUS
 62
     7
 10
-112.25
 20
61.49371
 11
-112.25
 21
60.79996
  0
LINE
  8
0
  6
CENTER
 62
     2
 10
-110.0
 20
65.2
 11
-110.0
 21
57.0
  0
LINE
  8
0
  6
CONTINUOUS
 62
     7
 10
-112.0
 20
62.2
 11
-111.8257
 21
62.2
  0
LINE
  8
0
  6
CONTINUOUS
 62
     7
 10
-107.75
 20
61.49373
 11
-107.75
 21
60.79998
  0
LINE
  8
0
  6
CONTINUOUS
 62
     7
 10
-108.1743
 20
62.2
 11
-98.99998
 21
62.2
  0
LINE
  8
0
  6
CENTER
 62
     2
 10
-101.0
 20
65.2
 11
-101.0
 21
57.0
  0
LINE
  8
0
  6
CONTINUOUS
 62
     7
 10
-97.99998
 20
60.2
 11
-98.99998
 21
62.20002
  0
LINE
  8
0
  6
CONTINUOUS
 62
     7
 10
-113.0
 20
60.2
 11
-98.0
 21
60.2
  0
LINE
  8
0
  6
CONTINUOUS
 62
     7
 10
-113.0
 20
59.2
 11
-98.0
 21
59.2
  0
LINE
  8
0
  6
CONTINUOUS
 62
     7
 10
-107.45
 20
60.8
 11
-112.55
 21
60.8
  0
LINE
  8
0
  6
CONTINUOUS
 62
     7
 10
-107.45
 20
60.79999
 11
-107.45
 21
60.19999
  0
LINE
  8
0
  6
CONTINUOUS
 62
     7
 10
-112.55
 20
60.79999
 11
-112.55
 21
60.19999
  0
LINE
  8
0
  6
CENTER
 62
     2
 10
-106.0
 20
-8.99999
 11
-98.99998
 21
-8.99999
  0
LINE
  8
0
  6
CENTER
 62
     2
 10
-102.5
 20
-5.49999
 11
-102.5
 21
-12.49999
  0
LINE
  8
0
  6
CONTINUOUS
 62
     7
 10
-98.0
 20
-66.19992
 11
-98.0
 21
-39.99999
  0
LINE
  8
0
  6
CONTINUOUS
 62
     7
 10
-98.0
 20
-39.99994
 11
-113.0
 21
-39.99994
  0
LINE
  8
0
  6
CONTINUOUS
 62
     7
 10
-113.0
 20
-66.19992
 11
-113.0
 21
-40.0
  0
LINE
  8
0
  6
CONTINUOUS
 62
     7
 10
-104.0
 20
-68.19999
 11
-104.0
 21
-66.19997
  0
LINE
  8
0
  6
CONTINUOUS
 62
     7
 10
-97.99998
 20
-66.19998
 11
-98.99998
 21
-68.2
  0
LINE
  8
0
  6
CONTINUOUS
 62
     7
 10
-98.75002
 20
-67.49371
 11
-98.75002
 21
-66.79997
  0
LINE
  8
0
  6
CENTER
 62
     2
 10
-101.0
 20
-71.19998
 11
-101.0
 21
-63.19999
  0
LINE
  8
0
  6
CONTINUOUS
 62
     7
 10
-98.99998
 20
-68.19994
 11
-99.17422
 21
-68.19994
  0
LINE
  8
0
  6
CONTINUOUS
 62
     7
 10
-103.25
 20
-67.49373
 11
-103.25
 21
-66.79997
  0
LINE
  8
0
  6
CONTINUOUS
 62
     7
 10
-102.8257
 20
-68.19994
 11
-112.0
 21
-68.19994
  0
LINE
  8
0
  6
CENTER
 62
     2
 10
-110.0
 20
-71.2
 11
-110.0
 21
-63.2
  0
LINE
  8
0
  6
CONTINUOUS
 62
     7
 10
-112.9999
 20
-66.19993
 11
-111.9999
 21
-68.19993
  0
LINE
  8
0
  6
CONTINUOUS
 62
     7
 10
-97.99998
 20
-66.19992
 11
-113.0
 21
-66.19992
  0
LINE
  8
0
  6
CONTINUOUS
 62
     7
 10
-97.99998
 20
-65.19994
 11
-113.0
 21
-65.19994
  0
LINE
  8
0
  6
CONTINUOUS
 62
     7
 10
-103.55
 20
-66.79992
 11
-98.44998
 21
-66.79992
  0
LINE
  8
0
  6
CONTINUOUS
 62
     7
 10
-103.55
 20
-66.79998
 11
-103.55
 21
-66.19997
  0
LINE
  8
0
  6
CONTINUOUS
 62
     7
 10
-98.45
 20
-66.79997
 11
-98.45
 21
-66.19997
  0
LINE
  8
0
  6
CENTER
 62
     2
 10
-109.0
 20
24.0
 11
-102.0
 21
24.0
  0
LINE
  8
0
  6
CONTINUOUS
 62
     7
 10
-107.4319
 20
23.4824
 11
-104.9824
 21
25.93189
  0
LINE
  8
0
  6
CONTINUOUS
 62
     7
 10
-107.4319
 20
24.51763
 11
-104.9824
 21
22.06813
  0
LINE
  8
0
  6
CONTINUOUS
 62
     7
 10
-106.9143
 20
22.58585
 11
-104.0858
 21
25.41428
  0
LINE
  8
0
  6
CONTINUOUS
 62
     7
 10
-106.0177
 20
22.0682
 11
-103.5682
 21
24.51769
  0
LINE
  8
0
  6
CONTINUOUS
 62
     7
 10
-106.9142
 20
25.41419
 11
-104.0858
 21
22.58577
  0
LINE
  8
0
  6
CONTINUOUS
 62
     7
 10
-106.0177
 20
25.93183
 11
-103.5682
 21
23.48235
  0
LINE
  8
0
  6
CENTER
 62
     2
 10
-108.5
 20
14.5
 11
-108.5
 21
7.66077
  0
LINE
  8
0
  6
CONTINUOUS
 62
     7
 10
-112.0
 20
56.2
 11
-98.99998
 21
56.2
  0
LINE
  8
0
  6
CONTINUOUS
 62
     7
 10
-112.0
 20
52.2
 11
-98.99998
 21
52.2
  0
LINE
  8
0
  6
CONTINUOUS
 62
     7
 10
-99.0
 20
56.2
 11
-99.0
 21
52.2
  0
LINE
  8
0
  6
CONTINUOUS
 62
     7
 10
-112.0
 20
56.2
 11
-112.0
 21
52.2
  0
LINE
  8
0
  6
CONTINUOUS
 62
     7
 10
-111.2879
 20
55.30677
 11
-108.9462
 21
55.30677
  0
LINE
  8
0
  6
CONTINUOUS
 62
     7
 10
-111.2879
 20
53.23019
 11
-109.2997
 21
53.23019
  0
LINE
  8
0
  6
CONTINUOUS
 62
     7
 10
-111.2879
 20
52.7
 11
-108.5928
 21
52.7
  0
LINE
  8
0
  6
CONTINUOUS
 62
     7
 10
-111.2879
 20
54.77658
 11
-109.2997
 21
54.77658
  0
LINE
  8
0
  6
CONTINUOUS
 62
     7
 10
-111.2879
 20
55.30677
 11
-111.2879
 21
54.77658
  0
LINE
  8
0
  6
CONTINUOUS
 62
     7
 10
-108.5928
 20
54.95332
 11
-108.5928
 21
52.7
  0
LINE
  8
0
  6
CONTINUOUS
 62
     7
 10
-109.2997
 20
54.77658
 11
-109.2997
 21
53.23019
  0
LINE
  8
0
  6
CONTINUOUS
 62
     7
 10
-108.1951
 20
55.30677
 11
-108.1951
 21
54.77658
  0
LINE
  8
0
  6
CONTINUOUS
 62
     7
 10
-105.6767
 20
54.77658
 11
-105.6767
 21
53.05345
  0
LINE
  8
0
  6
CONTINUOUS
 62
     7
 10
-106.3837
 20
54.77658
 11
-106.3837
 21
53.23019
  0
LINE
  8
0
  6
CONTINUOUS
 62
     7
 10
-111.2879
 20
53.23019
 11
-111.2879
 21
52.7
  0
LINE
  8
0
  6
CONTINUOUS
 62
     7
 10
-108.1951
 20
55.30677
 11
-107.4967
 21
55.30677
  0
LINE
  8
0
  6
CONTINUOUS
 62
     7
 10
-108.1951
 20
52.7
 11
-107.6462
 21
52.7
  0
LINE
  8
0
  6
CONTINUOUS
 62
     7
 10
-108.195
 20
52.69995
 11
-107.6386
 21
54.77654
  0
LINE
  8
0
  6
CONTINUOUS
 62
     7
 10
-108.1951
 20
54.77658
 11
-107.6387
 21
54.77658
  0
LINE
  8
0
  6
CONTINUOUS
 62
     7
 10
-107.6464
 20
52.70001
 11
-107.0899
 21
54.77659
  0
LINE
  8
0
  6
CONTINUOUS
 62
     7
 10
-106.9138
 20
53.23019
 11
-106.3836
 21
53.23019
  0
LINE
  8
0
  6
CONTINUOUS
 62
     7
 10
-106.914
 20
53.23015
 11
-106.7719
 21
52.69996
  0
LINE
  8
0
  6
CONTINUOUS
 62
     7
 10
-106.7718
 20
52.7
 11
-106.0302
 21
52.7
  0
LINE
  8
0
  6
CONTINUOUS
 62
     7
 10
-107.0898
 20
54.77658
 11
-106.3836
 21
54.77658
  0
LINE
  8
0
  6
CONTINUOUS
 62
     7
 10
-106.9477
 20
55.30677
 11
-106.2069
 21
55.30677
  0
LINE
  8
0
  6
CONTINUOUS
 62
     7
 10
-107.4966
 20
55.30677
 11
-107.3913
 21
55.69998
  0
LINE
  8
0
  6
CONTINUOUS
 62
     7
 10
-106.9476
 20
55.30676
 11
-106.8423
 21
55.69999
  0
LINE
  8
0
  6
CONTINUOUS
 62
     7
 10
-105.2349
 20
55.30677
 11
-104.3954
 21
55.30677
  0
LINE
  8
0
  6
CONTINUOUS
 62
     7
 10
-105.2349
 20
54.77658
 11
-103.1732
 21
54.77658
  0
LINE
  8
0
  6
CONTINUOUS
 62
     7
 10
-104.3954
 20
52.7
 11
-103.6885
 21
52.7
  0
LINE
  8
0
  6
CONTINUOUS
 62
     7
 10
-105.2349
 20
55.30677
 11
-105.2349
 21
54.77658
  0
LINE
  8
0
  6
CONTINUOUS
 62
     7
 10
-102.6281
 20
53.81519
 11
-102.6281
 21
53.23019
  0
LINE
  8
0
  6
CONTINUOUS
 62
     7
 10
-105.2348
 20
53.22999
 11
-104.3953
 21
53.62145
  0
LINE
  8
0
  6
CONTINUOUS
 62
     7
 10
-105.2349
 20
53.81515
 11
-103.1731
 21
54.77655
  0
LINE
  8
0
  6
CONTINUOUS
 62
     7
 10
-105.2349
 20
53.81519
 11
-105.2349
 21
53.23019
  0
LINE
  8
0
  6
CONTINUOUS
 62
     7
 10
-103.6885
 20
53.72467
 11
-102.6281
 21
53.23019
  0
LINE
  8
0
  6
CONTINUOUS
 62
     7
 10
-103.3042
 20
54.13045
 11
-102.6281
 21
53.81516
  0
LINE
  8
0
  6
CONTINUOUS
 62
     7
 10
-102.6281
 20
54.95332
 11
-102.6281
 21
54.67093
  0
LINE
  8
0
  6
CONTINUOUS
 62
     7
 10
-104.3954
 20
55.7
 11
-104.3954
 21
55.30677
  0
LINE
  8
0
  6
CONTINUOUS
 62
     7
 10
-103.6885
 20
55.7
 11
-103.6885
 21
55.30677
  0
LINE
  8
0
  6
CONTINUOUS
 62
     7
 10
-103.6885
 20
55.30677
 11
-102.9816
 21
55.30677
  0
LINE
  8
0
  6
CONTINUOUS
 62
     7
 10
-104.3954
 20
53.62163
 11
-104.3954
 21
52.7
  0
LINE
  8
0
  6
CONTINUOUS
 62
     7
 10
-103.6885
 20
53.72465
 11
-103.6885
 21
52.7
  0
LINE
  8
0
  6
CONTINUOUS
 62
     7
 10
-103.3041
 20
54.13027
 11
-102.8321
 21
54.35038
  0
LINE
  8
0
  6
CONTINUOUS
 62
     7
 10
-100.2422
 20
55.54094
 11
-99.71207
 21
55.54094
  0
LINE
  8
0
  6
CONTINUOUS
 62
     7
 10
-102.4072
 20
54.44575
 11
-102.4072
 21
53.87516
  0
LINE
  8
0
  6
CONTINUOUS
 62
     7
 10
-99.71207
 20
55.54094
 11
-99.71207
 21
55.30677
  0
LINE
  8
0
  6
CONTINUOUS
 62
     7
 10
-100.2422
 20
55.54094
 11
-100.2422
 21
55.42668
  0
LINE
  8
0
  6
CONTINUOUS
 62
     7
 10
-100.9492
 20
54.45504
 11
-100.9492
 21
52.7
  0
LINE
  8
0
  6
CONTINUOUS
 62
     7
 10
-102.4072
 20
54.44572
 11
-100.3536
 21
55.26244
  0
LINE
  8
0
  6
CONTINUOUS
 62
     7
 10
-102.4073
 20
53.87532
 11
-100.9492
 21
54.4552
  0
LINE
  8
0
  6
CONTINUOUS
 62
     7
 10
-100.9492
 20
52.7
 11
-100.2422
 21
52.7
  0
LINE
  8
0
  6
CONTINUOUS
 62
     7
 10
-100.2422
 20
54.73618
 11
-100.2422
 21
52.7
  0
LINE
  8
0
  6
CONTINUOUS
 62
     7
 10
-100.2421
 20
54.73598
 11
-100.0462
 21
54.81391
  0
LINE
  8
0
  6
CONTINUOUS
 62
     7
 10
-107.3913
 20
55.7
 11
-106.8424
 21
55.7
  0
LINE
  8
0
  6
CONTINUOUS
 62
     7
 10
-105.9639
 20
55.7
 11
-105.7379
 21
55.7
  0
LINE
  8
0
  6
CONTINUOUS
 62
     7
 10
-104.3954
 20
55.7
 11
-103.6885
 21
55.7
  0
LINE
  8
0
  6
CONTINUOUS
 62
     7
 10
-105.9639
 20
55.34653
 11
-105.7379
 21
55.34653
  0
LINE
  8
0
  6
CONTINUOUS
 62
     7
 10
-105.9639
 20
55.7
 11
-105.9639
 21
55.34653
  0
LINE
  8
0
  6
CONTINUOUS
 62
     7
 10
-105.7379
 20
55.7
 11
-105.7379
 21
55.34653
  0
LINE
  8
0
  6
CONTINUOUS
 62
     7
 10
-105.5802
 20
55.7
 11
-105.5802
 21
55.34653
  0
LINE
  8
0
  6
CONTINUOUS
 62
     7
 10
-105.3542
 20
55.7
 11
-105.3542
 21
55.34653
  0
LINE
  8
0
  6
CONTINUOUS
 62
     7
 10
-105.5802
 20
55.7
 11
-105.3542
 21
55.7
  0
LINE
  8
0
  6
CONTINUOUS
 62
     7
 10
-105.5802
 20
55.34653
 11
-105.3542
 21
55.34653
  0
LINE
  8
0
  6
CONTINUOUS
 62
     7
 10
83.00002
 20
15.0
 11
98.00002
 21
15.0
  0
LINE
  8
0
  6
CENTER
 62
     2
 10
90.50002
 20
65.99105
 11
90.50002
 21
-72.0929
  0
LINE
  8
0
  6
CENTER
 62
     2
 10
88.11507
 20
-36.49999
 11
92.96165
 21
-36.49999
  0
LINE
  8
0
  6
CENTER
 62
     2
 10
82.42921
 20
10.0
 11
88.53807
 21
10.0
  0
LINE
  8
0
  6
CENTER
 62
     2
 10
96.00002
 20
-4.47299
 11
96.00002
 21
-11.41017
  0
LINE
  8
0
  6
CENTER
 62
     2
 10
85.00002
 20
13.43939
 11
85.00002
 21
6.65753
  0
LINE
  8
0
  6
CONTINUOUS
 62
     7
 10
83.00002
 20
-12.99999
 11
98.00002
 21
-12.99999
  0
LINE
  8
0
  6
CENTER
 62
     2
 10
87.50002
 20
-0.5
 11
87.50002
 21
-7.5
  0
LINE
  8
0
  6
CENTER
 62
     2
 10
84.00002
 20
-4.0
 11
91.00002
 21
-4.0
  0
LINE
  8
0
  6
CONTINUOUS
 62
     7
 10
83.00002
 20
34.0
 11
83.00002
 21
-39.99999
  0
LINE
  8
0
  6
CONTINUOUS
 62
     7
 10
98.00002
 20
34.0
 11
98.00002
 21
-39.99999
  0
LINE
  8
0
  6
CONTINUOUS
 62
     7
 10
83.00002
 20
60.2
 11
83.00002
 21
34.0
  0
LINE
  8
0
  6
CONTINUOUS
 62
     7
 10
83.00002
 20
59.20001
 11
98.00002
 21
59.20001
  0
LINE
  8
0
  6
CONTINUOUS
 62
     7
 10
98.00002
 20
60.2
 11
98.00002
 21
34.0
  0
LINE
  8
0
  6
CONTINUOUS
 62
     7
 10
83.00002
 20
34.0
 11
98.00002
 21
34.0
  0
LINE
  8
0
  6
CONTINUOUS
 62
     7
 10
83.00002
 20
60.2
 11
98.00002
 21
60.2
  0
LINE
  8
0
  6
CONTINUOUS
 62
     7
 10
84.00002
 20
62.20001
 11
84.17427
 21
62.20001
  0
LINE
  8
0
  6
CONTINUOUS
 62
     7
 10
97.99989
 20
60.19995
 11
96.99989
 21
62.19995
  0
LINE
  8
0
  6
CONTINUOUS
 62
     7
 10
82.99998
 20
60.2
 11
83.99999
 21
62.20002
  0
LINE
  8
0
  6
CENTER
 62
     2
 10
86.00002
 20
65.00001
 11
86.00002
 21
56.2
  0
LINE
  8
0
  6
CONTINUOUS
 62
     7
 10
88.55
 20
60.8
 11
83.45003
 21
60.8
  0
LINE
  8
0
  6
CONTINUOUS
 62
     7
 10
83.45003
 20
60.79999
 11
83.45003
 21
60.19999
  0
LINE
  8
0
  6
CONTINUOUS
 62
     7
 10
83.75002
 20
61.49374
 11
83.75002
 21
60.79999
  0
LINE
  8
0
  6
CONTINUOUS
 62
     7
 10
87.82576
 20
62.20001
 11
97.00002
 21
62.20001
  0
LINE
  8
0
  6
CENTER
 62
     2
 10
95.00002
 20
65.00001
 11
95.00002
 21
56.2
  0
LINE
  8
0
  6
CONTINUOUS
 62
     7
 10
88.55
 20
60.79999
 11
88.55
 21
60.19999
  0
LINE
  8
0
  6
CONTINUOUS
 62
     7
 10
88.25002
 20
61.49374
 11
88.25002
 21
60.79999
  0
LINE
  8
0
  6
CONTINUOUS
 62
     7
 10
89.00002
 20
62.20001
 11
89.00002
 21
60.19999
  0
LINE
  8
0
  6
CENTER
 62
     2
 10
89.20003
 20
55.0
 11
89.20003
 21
49.0
  0
LINE
  8
0
  6
CENTER
 62
     2
 10
91.8
 20
55.0
 11
91.8
 21
49.0
  0
LINE
  8
0
  6
CENTER
 62
     2
 10
86.50002
 20
52.0
 11
94.50002
 21
52.0
  0
LINE
  8
0
  6
CONTINUOUS
 62
     7
 10
98.00002
 20
-66.2001
 11
98.00002
 21
-39.99998
  0
LINE
  8
0
  6
CONTINUOUS
 62
     7
 10
98.00005
 20
-65.20013
 11
83.00005
 21
-65.20013
  0
LINE
  8
0
  6
CONTINUOUS
 62
     7
 10
83.00002
 20
-66.2001
 11
83.00002
 21
-39.99999
  0
LINE
  8
0
  6
CONTINUOUS
 62
     7
 10
98.00002
 20
-40.00013
 11
83.00002
 21
-40.00013
  0
LINE
  8
0
  6
CONTINUOUS
 62
     7
 10
98.00005
 20
-66.2001
 11
83.00002
 21
-66.2001
  0
LINE
  8
0
  6
CONTINUOUS
 62
     7
 10
97.00002
 20
-68.20011
 11
96.82576
 21
-68.20011
  0
LINE
  8
0
  6
CONTINUOUS
 62
     7
 10
82.99995
 20
-66.20004
 11
83.99996
 21
-68.20005
  0
LINE
  8
0
  6
CONTINUOUS
 62
     7
 10
98.00002
 20
-66.19998
 11
97.00002
 21
-68.19999
  0
LINE
  8
0
  6
CENTER
 62
     2
 10
95.00002
 20
-71.19999
 11
95.00002
 21
-62.19999
  0
LINE
  8
0
  6
CONTINUOUS
 62
     7
 10
92.45003
 20
-66.80011
 11
97.55003
 21
-66.80011
  0
LINE
  8
0
  6
CONTINUOUS
 62
     7
 10
97.55003
 20
-66.79996
 11
97.55003
 21
-66.19997
  0
LINE
  8
0
  6
CONTINUOUS
 62
     7
 10
97.25002
 20
-67.49372
 11
97.25002
 21
-66.79998
  0
LINE
  8
0
  6
CONTINUOUS
 62
     7
 10
93.17427
 20
-68.20011
 11
84.00002
 21
-68.20011
  0
LINE
  8
0
  6
CENTER
 62
     2
 10
86.00005
 20
-71.19999
 11
86.00005
 21
-62.19999
  0
LINE
  8
0
  6
CONTINUOUS
 62
     7
 10
92.45003
 20
-66.79996
 11
92.45003
 21
-66.19997
  0
LINE
  8
0
  6
CONTINUOUS
 62
     7
 10
92.75002
 20
-67.49371
 11
92.75002
 21
-66.79996
  0
LINE
  8
0
  6
CONTINUOUS
 62
     7
 10
92.00005
 20
-68.19998
 11
92.00005
 21
-66.19997
  0
LINE
  8
0
  6
CENTER
 62
     2
 10
91.80006
 20
-60.99998
 11
91.80006
 21
-54.99998
  0
LINE
  8
0
  6
CENTER
 62
     2
 10
89.20003
 20
-60.99999
 11
89.20003
 21
-54.99998
  0
LINE
  8
0
  6
CENTER
 62
     2
 10
94.50002
 20
-58.00013
 11
86.50002
 21
-58.00013
  0
LINE
  8
0
  6
CENTER
 62
     2
 10
88.11507
 20
30.5
 11
92.96165
 21
30.5
  0
LINE
  8
0
  6
CENTER
 62
     2
 10
93.50002
 20
9.5
 11
93.50002
 21
2.5
  0
LINE
  8
0
  6
CENTER
 62
     2
 10
90.00002
 20
6.0
 11
97.00002
 21
6.0
  0
LINE
  8
0
  6
CENTER
 62
     2
 10
80.00002
 20
1.00001
 11
101.0
 21
1.00001
  0
LINE
  8
0
  6
CENTER
 62
     2
 10
91.12392
 20
-7.99999
 11
98.58144
 21
-7.99999
  0
LINE
  8
0
  6
CONTINUOUS
 62
     7
 10
89.20003
 20
53.7
 11
91.8
 21
53.7
  0
LINE
  8
0
  6
CONTINUOUS
 62
     7
 10
89.20003
 20
50.3
 11
91.8
 21
50.3
  0
LINE
  8
0
  6
CONTINUOUS
 62
     7
 10
89.20003
 20
-56.29998
 11
91.8
 21
-56.29998
  0
LINE
  8
0
  6
CONTINUOUS
 62
     7
 10
89.20003
 20
-59.69999
 11
91.8
 21
-59.69999
  0
LINE
  8
0
  6
CENTER
 62
     2
 10
11.81418
 20
-95.49998
 11
-26.99998
 21
-95.49998
  0
LINE
  8
0
  6
CENTER
 62
     2
 10
24.00002
 20
-96.79996
 11
-3.99998
 21
-96.79996
  0
LINE
  8
0
  6
CONTINUOUS
 62
     7
 10
11.00002
 20
-95.94999
 11
6.6559
 21
-95.94999
  0
LINE
  8
0
  6
CONTINUOUS
 62
     7
 10
11.00002
 20
-97.64997
 11
6.20038
 21
-97.64997
  0
LINE
  8
0
  6
CONTINUOUS
 62
     7
 10
21.00002
 20
-96.47999
 11
11.00002
 21
-96.47999
  0
LINE
  8
0
  6
CONTINUOUS
 62
     7
 10
21.00002
 20
-97.11997
 11
11.00002
 21
-97.11997
  0
LINE
  8
0
  6
CONTINUOUS
 62
     7
 10
11.00002
 20
-97.64997
 11
11.00002
 21
-95.94996
  0
LINE
  8
0
  6
CONTINUOUS
 62
     7
 10
21.00002
 20
-97.11997
 11
21.00002
 21
-96.47996
  0
LINE
  8
0
  6
CENTER
 62
     2
 10
23.89098
 20
-94.19999
 11
-3.99998
 21
-94.19999
  0
LINE
  8
0
  6
CONTINUOUS
 62
     7
 10
11.00002
 20
-93.34998
 11
7.35256
 21
-93.34998
  0
LINE
  8
0
  6
CONTINUOUS
 62
     7
 10
11.00002
 20
-95.04998
 11
6.89705
 21
-95.04998
  0
LINE
  8
0
  6
CONTINUOUS
 62
     7
 10
21.00002
 20
-93.87998
 11
11.00002
 21
-93.87998
  0
LINE
  8
0
  6
CONTINUOUS
 62
     7
 10
21.00002
 20
-94.51998
 11
11.00002
 21
-94.51998
  0
LINE
  8
0
  6
CONTINUOUS
 62
     7
 10
11.00002
 20
-95.04996
 11
11.00002
 21
-93.34998
  0
LINE
  8
0
  6
CONTINUOUS
 62
     7
 10
21.00002
 20
-94.51997
 11
21.00002
 21
-93.87997
  0
LINE
  8
0
  6
PHANTOM
 62
     2
 10
6.33557
 20
-91.34998
 11
4.11159
 21
-99.64998
  0
LINE
  8
0
  6
PHANTOM
 62
     2
 10
7.88846
 20
-91.34997
 11
5.66448
 21
-99.64996
  0
LINE
  8
0
  6
CONTINUOUS
 62
     7
 10
5.79965
 20
-93.34998
 11
1.00002
 21
-93.34998
  0
LINE
  8
0
  6
CONTINUOUS
 62
     7
 10
5.34413
 20
-95.04998
 11
1.00002
 21
-95.04998
  0
LINE
  8
0
  6
CONTINUOUS
 62
     7
 10
5.10298
 20
-95.94999
 11
1.00002
 21
-95.94999
  0
LINE
  8
0
  6
CONTINUOUS
 62
     7
 10
4.64747
 20
-97.64997
 11
1.00002
 21
-97.64997
  0
LINE
  8
0
  6
CONTINUOUS
 62
     7
 10
-0.98417
 20
-92.52402
 11
0.51583
 21
-92.52402
  0
LINE
  8
0
  6
CONTINUOUS
 62
     7
 10
1.01583
 20
-93.02402
 11
1.01583
 21
-98.02402
  0
LINE
  8
0
  6
CONTINUOUS
 62
     7
 10
-0.98417
 20
-98.52402
 11
0.51583
 21
-98.52402
  0
LINE
  8
0
  6
CENTER
 62
     2
 10
-13.00003
 20
-105.4483
 11
-13.00003
 21
-85.51219
  0
LINE
  8
0
  6
CONTINUOUS
 62
     7
 10
-4.00003
 20
-96.99998
 11
-1.00003
 21
-96.99998
  0
LINE
  8
0
  6
CONTINUOUS
 62
     7
 10
-22.00003
 20
-93.99998
 11
-25.00003
 21
-93.99998
  0
LINE
  8
0
  6
CONTINUOUS
 62
     7
 10
-19.00003
 20
-90.99998
 11
-19.00003
 21
-87.99998
  0
LINE
  8
0
  6
CONTINUOUS
 62
     7
 10
-7.00003
 20
-99.99998
 11
-7.00003
 21
-103.0
  0
LINE
  8
0
  6
CONTINUOUS
 62
     7
 10
-24.00003
 20
-93.99998
 11
-24.00003
 21
-102.0
  0
LINE
  8
0
  6
CONTINUOUS
 62
     7
 10
-2.00003
 20
-88.99998
 11
-2.00003
 21
-96.99998
  0
LINE
  8
0
  6
CONTINUOUS
 62
     7
 10
-19.00003
 20
-88.99998
 11
-2.00003
 21
-88.99998
  0
LINE
  8
0
  6
CONTINUOUS
 62
     7
 10
-24.00003
 20
-102.0
 11
-7.00003
 21
-102.0
  0
LINE
  8
0
  6
CONTINUOUS
 62
     7
 10
-3.70003
 20
-102.2299
 11
-3.70003
 21
-102.5323
  0
LINE
  8
0
  6
CONTINUOUS
 62
     7
 10
-4.30003
 20
-102.2299
 11
-4.30003
 21
-102.5323
  0
LINE
  8
0
  6
CONTINUOUS
 62
     7
 10
-4.4608
 20
-102.508
 11
-4.4608
 21
-102.2023
  0
LINE
  8
0
  6
CONTINUOUS
 62
     7
 10
-22.30002
 20
-88.77007
 11
-22.30002
 21
-88.46768
  0
LINE
  8
0
  6
CONTINUOUS
 62
     7
 10
-21.70003
 20
-88.77007
 11
-21.70003
 21
-88.46768
  0
LINE
  8
0
  6
CONTINUOUS
 62
     7
 10
-21.53926
 20
-88.49195
 11
-21.53926
 21
-88.79766
  0
LINE
  8
0
  6
CONTINUOUS
 62
     7
 10
-5.1031
 20
-100.7354
 11
-4.73541
 21
-100.3677
  0
LINE
  8
0
  6
CONTINUOUS
 62
     7
 10
-4.73542
 20
-101.1031
 11
-4.36772
 21
-100.7354
  0
LINE
  8
0
  6
CONTINUOUS
 62
     7
 10
-5.10311
 20
-100.7354
 11
-4.73541
 21
-101.1031
  0
LINE
  8
0
  6
CONTINUOUS
 62
     7
 10
-3.26462
 20
-98.89687
 11
-2.89692
 21
-99.26457
  0
LINE
  8
0
  6
CONTINUOUS
 62
     7
 10
-5.7642
 20
-98.60348
 11
-4.73541
 21
-99.63226
  0
LINE
  8
0
  6
CONTINUOUS
 62
     7
 10
-5.39651
 20
-98.23579
 11
-4.36772
 21
-99.26457
  0
LINE
  8
0
  6
CONTINUOUS
 62
     7
 10
-3.63232
 20
-99.26459
 11
-3.26463
 21
-98.89689
  0
LINE
  8
0
  6
CONTINUOUS
 62
     7
 10
-3.26463
 20
-99.63229
 11
-2.89693
 21
-99.2646
  0
LINE
  8
0
  6
CONTINUOUS
 62
     7
 10
-3.63233
 20
-100.7354
 11
-2.60353
 21
-101.7641
  0
LINE
  8
0
  6
CONTINUOUS
 62
     7
 10
-3.26463
 20
-100.3677
 11
-2.23584
 21
-101.3965
  0
LINE
  8
0
  6
CONTINUOUS
 62
     7
 10
-23.10313
 20
-91.73536
 11
-22.73544
 21
-91.36767
  0
LINE
  8
0
  6
CONTINUOUS
 62
     7
 10
-22.73543
 20
-92.10306
 11
-22.36774
 21
-91.73537
  0
LINE
  8
0
  6
CONTINUOUS
 62
     7
 10
-23.10311
 20
-91.73537
 11
-22.73542
 21
-92.10307
  0
LINE
  8
0
  6
CONTINUOUS
 62
     7
 10
-21.26464
 20
-89.89688
 11
-20.89694
 21
-90.26457
  0
LINE
  8
0
  6
CONTINUOUS
 62
     7
 10
-23.7642
 20
-89.60349
 11
-22.73541
 21
-90.63227
  0
LINE
  8
0
  6
CONTINUOUS
 62
     7
 10
-23.3965
 20
-89.23577
 11
-22.36771
 21
-90.26456
  0
LINE
  8
0
  6
CONTINUOUS
 62
     7
 10
-21.63235
 20
-90.26457
 11
-21.26466
 21
-89.89688
  0
LINE
  8
0
  6
CONTINUOUS
 62
     7
 10
-21.26466
 20
-90.63228
 11
-20.89696
 21
-90.26458
  0
LINE
  8
0
  6
CONTINUOUS
 62
     7
 10
-21.63233
 20
-91.73536
 11
-20.60354
 21
-92.76415
  0
LINE
  8
0
  6
CONTINUOUS
 62
     7
 10
-21.26463
 20
-91.36765
 11
-20.23584
 21
-92.39644
  0
LINE
  8
0
  6
CENTER
 62
     2
 10
-4.00003
 20
-95.99998
 11
-4.00003
 21
-104.0
  0
LINE
  8
0
  6
CENTER
 62
     2
 10
-22.00003
 20
-86.99998
 11
-22.00003
 21
-94.99998
  0
LINE
  8
0
  6
CENTER
 62
     2
 10
-26.00003
 20
-90.99998
 11
-18.00003
 21
-90.99998
  0
LINE
  8
0
  6
CENTER
 62
     2
 10
-8.00003
 20
-99.99998
 11
-0.00003
 21
-99.99998
  0
LINE
  8
0
  6
CONTINUOUS
 62
     7
 10
-25.00003
 20
-88.49998
 11
-25.00003
 21
-102.5
  0
LINE
  8
0
  6
CONTINUOUS
 62
     7
 10
-24.50003
 20
-87.99998
 11
-1.00003
 21
-87.99998
  0
LINE
  8
0
  6
CONTINUOUS
 62
     7
 10
-24.50003
 20
-103.0
 11
-1.00003
 21
-103.0
  0
LINE
  8
0
  6
CONTINUOUS
 62
     7
 10
-1.00003
 20
-87.99998
 11
-1.00003
 21
-103.0
  0
ARC
  8
0
  6
CONTINUOUS
 62
     7
 10
136.5177
 20
-117.5228
 40
1.10594
 50
0.0
 51
89.99999
  0
ARC
  8
0
  6
CONTINUOUS
 62
     7
 10
145.6418
 20
-123.4673
 40
1.10595
 50
270.0
 51
0.0
  0
ARC
  8
0
  6
CONTINUOUS
 62
     7
 10
145.0888
 20
-118.0758
 40
1.65892
 50
0.0
 51
89.99999
  0
ARC
  8
0
  6
CONTINUOUS
 62
     7
 10
155.1806
 20
-117.5228
 40
1.10594
 50
0.0
 51
89.99999
  0
ARC
  8
0
  6
CONTINUOUS
 62
     7
 10
155.1806
 20
-118.4064
 40
1.10595
 50
295.0
 51
0.0
  0
ARC
  8
0
  6
CONTINUOUS
 62
     7
 10
163.7517
 20
-116.4169
 40
1.65892
 50
291.6884
 51
0.0
  0
ARC
  8
0
  6
CONTINUOUS
 62
     7
 10
163.1987
 20
-116.0417
 40
0.55297
 50
291.689
 51
0.0
  0
ARC
  8
0
  6
CONTINUOUS
 62
     7
 10
0.51582
 20
97.97595
 40
0.5
 50
0.0
 51
89.99998
  0
ARC
  8
0
  6
CONTINUOUS
 62
     7
 10
0.51582
 20
92.97595
 40
0.5
 50
270.0
 51
0.0
  0
ARC
  8
0
  6
CONTINUOUS
 62
     7
 10
-4.00005
 20
91.0
 40
3.0
 50
89.99998
 51
180.0
  0
ARC
  8
0
  6
CONTINUOUS
 62
     7
 10
-22.00005
 20
100.0
 40
3.0
 50
270.0
 51
0.0
  0
ARC
  8
0
  6
CONTINUOUS
 62
     7
 10
-4.00005
 20
91.0
 40
2.55
 50
276.7563
 51
263.2437
  0
ARC
  8
0
  6
CONTINUOUS
 62
     7
 10
-22.00005
 20
100.0
 40
2.55
 50
96.75634
 51
83.2437
  0
CIRCLE
  8
0
  6
CONTINUOUS
 62
     7
 10
-4.00005
 20
91.0
 40
2.25
  0
ARC
  8
0
  6
CONTINUOUS
 62
     7
 10
-4.00005
 20
92.10309
 40
0.52
 50
225.0002
 51
314.9998
  0
ARC
  8
0
  6
CONTINUOUS
 62
     7
 10
-5.10313
 20
91.0
 40
0.52
 50
314.9998
 51
45.00026
  0
ARC
  8
0
  6
CONTINUOUS
 62
     7
 10
-2.89696
 20
91.0
 40
0.52
 50
134.9997
 51
225.0002
  0
ARC
  8
0
  6
CONTINUOUS
 62
     7
 10
-4.00005
 20
89.89691
 40
0.52
 50
45.00024
 51
134.9997
  0
CIRCLE
  8
0
  6
CONTINUOUS
 62
     7
 10
-22.00005
 20
100.0
 40
2.25
  0
ARC
  8
0
  6
CONTINUOUS
 62
     7
 10
-22.00005
 20
101.1031
 40
0.52
 50
225.0003
 51
314.9997
  0
ARC
  8
0
  6
CONTINUOUS
 62
     7
 10
-23.10313
 20
100.0
 40
0.52
 50
314.9997
 51
45.0003
  0
ARC
  8
0
  6
CONTINUOUS
 62
     7
 10
-20.89696
 20
100.0
 40
0.52
 50
134.9997
 51
225.0001
  0
ARC
  8
0
  6
CONTINUOUS
 62
     7
 10
-22.00005
 20
98.89691
 40
0.52
 50
45.0003
 51
134.9997
  0
ARC
  8
0
  6
CONTINUOUS
 62
     7
 10
-24.50005
 20
102.5
 40
0.5
 50
89.99999
 51
180.0
  0
ARC
  8
0
  6
CONTINUOUS
 62
     7
 10
-24.50005
 20
88.5
 40
0.5
 50
180.0
 51
270.0
  0
CIRCLE
  8
0
  6
CONTINUOUS
 62
     7
 10
-19.99999
 20
6.00001
 40
1.6
  0
CIRCLE
  8
0
  6
CONTINUOUS
 62
     7
 10
-19.99999
 20
-3.99999
 40
1.6
  0
ARC
  8
0
  6
CONTINUOUS
 62
     7
 10
-3.99999
 20
56.50001
 40
6.0
 50
73.80868
 51
106.1913
  0
ARC
  8
0
  6
CONTINUOUS
 62
     7
 10
-2.54998
 20
61.49374
 40
0.8
 50
0.0
 51
73.80867
  0
ARC
  8
0
  6
CONTINUOUS
 62
     7
 10
-5.44999
 20
61.49374
 40
0.8
 50
106.1913
 51
180.0
  0
ARC
  8
0
  6
CONTINUOUS
 62
     7
 10
-21.99998
 20
56.49998
 40
6.0
 50
73.80865
 51
106.1913
  0
ARC
  8
0
  6
CONTINUOUS
 62
     7
 10
-23.44998
 20
61.49374
 40
0.8
 50
106.1914
 51
118.0138
  0
ARC
  8
0
  6
CONTINUOUS
 62
     7
 10
-20.54998
 20
61.49374
 40
0.8
 50
61.98621
 51
73.80872
  0
ARC
  8
0
  6
CONTINUOUS
 62
     7
 10
-21.99996
 20
-62.5
 40
6.0
 50
253.8087
 51
286.1913
  0
ARC
  8
0
  6
CONTINUOUS
 62
     7
 10
-23.44997
 20
-67.49374
 40
0.8
 50
180.0
 51
253.8088
  0
ARC
  8
0
  6
CONTINUOUS
 62
     7
 10
-20.54996
 20
-67.49374
 40
0.8
 50
286.1915
 51
0.0
  0
ARC
  8
0
  6
CONTINUOUS
 62
     7
 10
-3.99997
 20
-62.49997
 40
6.0
 50
253.8087
 51
286.1913
  0
ARC
  8
0
  6
CONTINUOUS
 62
     7
 10
-2.54996
 20
-67.49371
 40
0.8
 50
286.1915
 51
298.0138
  0
ARC
  8
0
  6
CONTINUOUS
 62
     7
 10
-5.44997
 20
-67.49371
 40
0.8
 50
241.9862
 51
253.8088
  0
ARC
  8
0
  6
CONTINUOUS
 62
     7
 10
0.50001
 20
53.2
 40
0.5
 50
0.0
 51
89.99992
  0
ARC
  8
0
  6
CONTINUOUS
 62
     7
 10
0.50001
 20
50.8
 40
0.5
 50
270.0
 51
0.0
  0
ARC
  8
0
  6
CONTINUOUS
 62
     7
 10
0.50002
 20
-56.79998
 40
0.5
 50
0.0
 51
89.99992
  0
ARC
  8
0
  6
CONTINUOUS
 62
     7
 10
0.50002
 20
-59.19997
 40
0.5
 50
270.0
 51
0.0
  0
CIRCLE
  8
0
  6
CONTINUOUS
 62
     7
 10
-100.0
 20
10.0
 40
1.4
  0
CIRCLE
  8
0
  6
CONTINUOUS
 62
     7
 10
-111.0
 20
-8.0
 40
1.4
  0
CIRCLE
  8
0
  6
CONTINUOUS
 62
     7
 10
-108.5
 20
11.0
 40
2.5
  0
CIRCLE
  8
0
  6
CONTINUOUS
 62
     7
 10
-105.5
 20
1.0
 40
2.5
  0
CIRCLE
  8
0
  6
CONTINUOUS
 62
     7
 10
-105.5
 20
-21.99999
 40
2.65
  0
CIRCLE
  8
0
  6
CONTINUOUS
 62
     7
 10
-105.5
 20
-21.99999
 40
2.0
  0
ARC
  8
0
  6
CONTINUOUS
 62
     7
 10
-102.45
 20
61.49374
 40
0.8
 50
106.1913
 51
118.0138
  0
ARC
  8
0
  6
CONTINUOUS
 62
     7
 10
-99.55
 20
61.49374
 40
0.8
 50
61.98621
 51
73.80872
  0
ARC
  8
0
  6
CONTINUOUS
 62
     7
 10
-102.0538
 20
-60.95325
 40
0.35346
 50
180.0
 51
270.0
  0
ARC
  8
0
  6
CONTINUOUS
 62
     7
 10
-104.9698
 20
-59.05338
 40
0.35346
 50
89.99999
 51
180.0
  0
ARC
  8
0
  6
CONTINUOUS
 62
     7
 10
-104.7931
 20
-60.77651
 40
0.53019
 50
180.0
 51
270.0
  0
ARC
  8
0
  6
CONTINUOUS
 62
     7
 10
-108.0184
 20
-60.95325
 40
0.35346
 50
180.0
 51
270.0
  0
ARC
  8
0
  6
CONTINUOUS
 62
     7
 10
-108.0184
 20
-60.67086
 40
0.35346
 50
114.9994
 51
180.0
  0
ARC
  8
0
  6
CONTINUOUS
 62
     7
 10
-110.7578
 20
-61.3067
 40
0.53019
 50
111.6884
 51
180.0
  0
ARC
  8
0
  6
CONTINUOUS
 62
     7
 10
-110.581
 20
-61.42662
 40
0.17673
 50
111.6893
 51
180.0
  0
ARC
  8
0
  6
CONTINUOUS
 62
     7
 10
-111.45
 20
61.49374
 40
0.8
 50
106.1913
 51
180.0
  0
ARC
  8
0
  6
CONTINUOUS
 62
     7
 10
-110.0
 20
56.49998
 40
6.0
 50
73.80869
 51
106.1913
  0
ARC
  8
0
  6
CONTINUOUS
 62
     7
 10
-108.55
 20
61.49374
 40
0.8
 50
0.0
 51
73.80872
  0
ARC
  8
0
  6
CONTINUOUS
 62
     7
 10
-101.0
 20
56.49998
 40
6.0
 50
73.80862
 51
106.1913
  0
ARC
  8
0
  6
CONTINUOUS
 62
     7
 10
-102.45
 20
61.49374
 40
0.8
 50
106.1913
 51
118.0138
  0
ARC
  8
0
  6
CONTINUOUS
 62
     7
 10
-99.55
 20
61.49374
 40
0.8
 50
61.98621
 51
73.80872
  0
CIRCLE
  8
0
  6
CONTINUOUS
 62
     7
 10
-102.5
 20
-8.99999
 40
2.5
  0
ARC
  8
0
  6
CONTINUOUS
 62
     7
 10
-99.54997
 20
-67.49372
 40
0.8
 50
286.1913
 51
0.0
  0
ARC
  8
0
  6
CONTINUOUS
 62
     7
 10
-101.0
 20
-62.49998
 40
6.0
 50
253.8087
 51
286.1914
  0
ARC
  8
0
  6
CONTINUOUS
 62
     7
 10
-102.45
 20
-67.49373
 40
0.8
 50
180.0
 51
253.8088
  0
ARC
  8
0
  6
CONTINUOUS
 62
     7
 10
-110.0
 20
-62.49998
 40
6.0
 50
253.8087
 51
286.1914
  0
ARC
  8
0
  6
CONTINUOUS
 62
     7
 10
-108.55
 20
-67.49373
 40
0.8
 50
286.1913
 51
298.0138
  0
ARC
  8
0
  6
CONTINUOUS
 62
     7
 10
-111.45
 20
-67.49373
 40
0.8
 50
241.9862
 51
253.8088
  0
CIRCLE
  8
0
  6
CONTINUOUS
 62
     7
 10
-105.5
 20
24.0
 40
2.65
  0
CIRCLE
  8
0
  6
CONTINUOUS
 62
     7
 10
-105.5
 20
24.0
 40
2.0
  0
CIRCLE
  8
0
  6
CONTINUOUS
 62
     7
 10
-108.5
 20
11.0
 40
1.75001
  0
CIRCLE
  8
0
  6
CONTINUOUS
 62
     7
 10
-105.5
 20
1.0
 40
1.75001
  0
CIRCLE
  8
0
  6
CONTINUOUS
 62
     7
 10
-102.5
 20
-8.99999
 40
1.75001
  0
ARC
  8
0
  6
CONTINUOUS
 62
     7
 10
-100.419
 20
55.42669
 40
0.17673
 50
291.6893
 51
0.0
  0
ARC
  8
0
  6
CONTINUOUS
 62
     7
 10
-108.9462
 20
54.95332
 40
0.35346
 50
0.0
 51
89.99999
  0
ARC
  8
0
  6
CONTINUOUS
 62
     7
 10
-106.0302
 20
53.05345
 40
0.35346
 50
270.0
 51
0.0
  0
ARC
  8
0
  6
CONTINUOUS
 62
     7
 10
-106.2069
 20
54.77658
 40
0.53019
 50
0.0
 51
89.99999
  0
ARC
  8
0
  6
CONTINUOUS
 62
     7
 10
-102.9816
 20
54.95332
 40
0.35346
 50
0.0
 51
89.99999
  0
ARC
  8
0
  6
CONTINUOUS
 62
     7
 10
-102.9816
 20
54.67093
 40
0.35346
 50
294.9994
 51
0.0
  0
ARC
  8
0
  6
CONTINUOUS
 62
     7
 10
-100.2422
 20
55.30677
 40
0.53019
 50
291.6884
 51
0.0
  0
ARC
  8
0
  6
CONTINUOUS
 62
     7
 10
96.00002
 20
-7.99999
 40
2.7
 50
42.20544
 51
317.7946
  0
ARC
  8
0
  6
CONTINUOUS
 62
     7
 10
85.00002
 20
10.0
 40
2.7
 50
0.0
 51
137.7946
  0
ARC
  8
0
  6
CONTINUOUS
 62
     7
 10
85.00002
 20
10.0
 40
2.7
 50
222.2054
 51
0.0
  0
CIRCLE
  8
0
  6
CONTINUOUS
 62
     7
 10
85.00002
 20
10.0
 40
1.4
  0
CIRCLE
  8
0
  6
CONTINUOUS
 62
     7
 10
96.00002
 20
-7.99999
 40
1.4
  0
CIRCLE
  8
0
  6
CONTINUOUS
 62
     7
 10
87.50002
 20
-4.0
 40
2.5
  0
CIRCLE
  8
0
  6
CONTINUOUS
 62
     7
 10
90.50002
 20
-36.49999
 40
1.5
  0
ARC
  8
0
  6
CONTINUOUS
 62
     7
 10
86.00002
 20
56.49999
 40
6.0
 50
73.80869
 51
106.1913
  0
ARC
  8
0
  6
CONTINUOUS
 62
     7
 10
87.45003
 20
61.49375
 40
0.8
 50
0.0
 51
73.80872
  0
ARC
  8
0
  6
CONTINUOUS
 62
     7
 10
84.55
 20
61.49375
 40
0.8
 50
106.1913
 51
180.0
  0
ARC
  8
0
  6
CONTINUOUS
 62
     7
 10
95.00002
 20
56.49999
 40
6.0
 50
73.80862
 51
106.1913
  0
ARC
  8
0
  6
CONTINUOUS
 62
     7
 10
93.55003
 20
61.49375
 40
0.8
 50
106.1913
 51
118.0138
  0
ARC
  8
0
  6
CONTINUOUS
 62
     7
 10
96.45003
 20
61.49375
 40
0.8
 50
61.98621
 51
73.80872
  0
ARC
  8
0
  6
CONTINUOUS
 62
     7
 10
95.00002
 20
-62.49998
 40
6.0
 50
253.8087
 51
286.1914
  0
ARC
  8
0
  6
CONTINUOUS
 62
     7
 10
93.55003
 20
-67.49372
 40
0.8
 50
180.0
 51
253.8088
  0
ARC
  8
0
  6
CONTINUOUS
 62
     7
 10
96.45003
 20
-67.49372
 40
0.8
 50
286.1913
 51
0.0
  0
ARC
  8
0
  6
CONTINUOUS
 62
     7
 10
86.00005
 20
-62.49998
 40
6.0
 50
253.8087
 51
286.1914
  0
ARC
  8
0
  6
CONTINUOUS
 62
     7
 10
87.45003
 20
-67.49372
 40
0.8
 50
286.1913
 51
298.0138
  0
ARC
  8
0
  6
CONTINUOUS
 62
     7
 10
84.55006
 20
-67.49372
 40
0.8
 50
241.9862
 51
253.8088
  0
CIRCLE
  8
0
  6
CONTINUOUS
 62
     7
 10
90.50002
 20
30.5
 40
1.5
  0
CIRCLE
  8
0
  6
CONTINUOUS
 62
     7
 10
93.50002
 20
6.0
 40
2.5
  0
CIRCLE
  8
0
  6
CONTINUOUS
 62
     7
 10
87.50002
 20
-4.0
 40
1.75001
  0
CIRCLE
  8
0
  6
CONTINUOUS
 62
     7
 10
93.50002
 20
6.0
 40
1.75001
  0
ARC
  8
0
  6
CONTINUOUS
 62
     7
 10
89.20003
 20
52.0
 40
1.7
 50
89.99999
 51
270.0
  0
ARC
  8
0
  6
CONTINUOUS
 62
     7
 10
91.80003
 20
52.0
 40
1.7
 50
270.0
 51
89.99999
  0
CIRCLE
  8
0
  6
CONTINUOUS
 62
     7
 10
89.20003
 20
52.0
 40
0.85
  0
CIRCLE
  8
0
  6
CONTINUOUS
 62
     7
 10
91.80003
 20
52.0
 40
0.85
  0
ARC
  8
0
  6
CONTINUOUS
 62
     7
 10
89.20003
 20
-57.99999
 40
1.7
 50
89.99999
 51
270.0
  0
ARC
  8
0
  6
CONTINUOUS
 62
     7
 10
91.80003
 20
-57.99999
 40
1.7
 50
270.0
 51
89.99999
  0
CIRCLE
  8
0
  6
CONTINUOUS
 62
     7
 10
89.20003
 20
-57.99999
 40
0.85
  0
CIRCLE
  8
0
  6
CONTINUOUS
 62
     7
 10
91.80003
 20
-57.99999
 40
0.85
  0
ARC
  8
0
  6
CONTINUOUS
 62
     7
 10
0.51583
 20
-93.02402
 40
0.5
 50
0.0
 51
89.99998
  0
ARC
  8
0
  6
CONTINUOUS
 62
     7
 10
0.51583
 20
-98.02402
 40
0.5
 50
270.0
 51
0.0
  0
ARC
  8
0
  6
CONTINUOUS
 62
     7
 10
-4.00003
 20
-99.99998
 40
3.0
 50
89.99998
 51
180.0
  0
ARC
  8
0
  6
CONTINUOUS
 62
     7
 10
-22.00003
 20
-90.99998
 40
3.0
 50
270.0
 51
0.0
  0
ARC
  8
0
  6
CONTINUOUS
 62
     7
 10
-4.00003
 20
-99.99998
 40
2.55
 50
276.7563
 51
263.2437
  0
ARC
  8
0
  6
CONTINUOUS
 62
     7
 10
-22.00003
 20
-90.99998
 40
2.55
 50
96.75634
 51
83.2437
  0
CIRCLE
  8
0
  6
CONTINUOUS
 62
     7
 10
-4.00003
 20
-99.99998
 40
2.25
  0
ARC
  8
0
  6
CONTINUOUS
 62
     7
 10
-4.00003
 20
-98.89689
 40
0.52
 50
225.0002
 51
314.9998
  0
ARC
  8
0
  6
CONTINUOUS
 62
     7
 10
-5.10312
 20
-99.99998
 40
0.52
 50
314.9998
 51
45.00026
  0
ARC
  8
0
  6
CONTINUOUS
 62
     7
 10
-2.89694
 20
-99.99998
 40
0.52
 50
134.9997
 51
225.0002
  0
ARC
  8
0
  6
CONTINUOUS
 62
     7
 10
-4.00003
 20
-101.1031
 40
0.52
 50
45.00024
 51
134.9997
  0
CIRCLE
  8
0
  6
CONTINUOUS
 62
     7
 10
-22.00003
 20
-90.99998
 40
2.25
  0
ARC
  8
0
  6
CONTINUOUS
 62
     7
 10
-22.00003
 20
-89.89689
 40
0.52
 50
225.0003
 51
314.9997
  0
ARC
  8
0
  6
CONTINUOUS
 62
     7
 10
-23.10312
 20
-90.99998
 40
0.52
 50
314.9997
 51
45.0003
  0
ARC
  8
0
  6
CONTINUOUS
 62
     7
 10
-20.89694
 20
-90.99998
 40
0.52
 50
134.9997
 51
225.0001
  0
ARC
  8
0
  6
CONTINUOUS
 62
     7
 10
-22.00003
 20
-92.10307
 40
0.52
 50
45.0003
 51
134.9997
  0
ARC
  8
0
  6
CONTINUOUS
 62
     7
 10
-24.50003
 20
-88.49998
 40
0.5
 50
89.99999
 51
180.0
  0
ARC
  8
0
  6
CONTINUOUS
 62
     7
 10
-24.50003
 20
-102.5
 40
0.5
 50
180.0
 51
270.0
  0
TEXT
  8
0
  6
CONTINUOUS
 62
     7
 10
114.5353
 20
118.1347
 40
4.24264
  1
DATE : AUG ,1989
 41
0.8
  7
STANDARD
  0
TEXT
  8
0
  6
CONTINUOUS
 62
     7
 10
-163.965
 20
117.7787
 40
5.0
  1
113-4E2
 41
0.8
  7
STANDARD
  0
TEXT
  8
0
  6
CONTINUOUS
 62
     7
 10
-163.694
 20
90.14462
 40
5.0
  1
MODEL : 113-4E2
 41
0.8
  7
STANDARD
  0
TEXT
  8
0
  6
CONTINUOUS
 62
     7
 10
-112.4115
 20
6.34958
 40
2.0
  1
R1
 41
0.8
  7
STANDARD
  0
TEXT
  8
0
  6
CONTINUOUS
 62
     7
 10
-102.9833
 20
2.54083
 40
2.0
  1
P
 41
0.8
  7
STANDARD
  0
TEXT
  8
0
  6
CONTINUOUS
 62
     7
 10
-101.7969
 20
-6.13813
 40
2.0
  1
R2
 41
0.8
  7
STANDARD
  0
TEXT
  8
0
  6
CONTINUOUS
 62
     7
 10
95.16743
 20
8.16325
 40
2.0
  1
A
 41
0.8
  7
STANDARD
  0
TEXT
  8
0
  6
CONTINUOUS
 62
     7
 10
84.18907
 20
-7.8987
 40
2.0
  1
B
 41
0.8
  7
STANDARD
  0
ENDSEC
  0
EOF
