  0
SECTION
  2
HEADER
  9
$ACADVER
  1
AC1002
  9
$INSBASE
 10
0.0
 20
0.0
  9
$EXTMIN
 10
-370.8736
 20
-254.5585
  9
$EXTMAX
 10
370.8736
 20
254.5585
  9
$LIMMIN
 10
0.0
 20
0.0
  9
$LIMMAX
 10
12.0
 20
9.0
  9
$VIEWCTR
 10
28.6093211
 20
0.0
  9
$VIEWSIZE
 40
509.117
  9
$SNAPMODE
 70
     0
  9
$SNAPUNIT
 10
1.0
 20
1.0
  9
$SNAPBASE
 10
0.0
 20
0.0
  9
$SNAPANG
 50
0.0
  9
$SNAPSTYLE
 70
     0
  9
$SNAPISOPAIR
 70
     0
  9
$GRIDMODE
 70
     0
  9
$GRIDUNIT
 10
0.0
 20
0.0
  9
$ORTHOMODE
 70
     0
  9
$REGENMODE
 70
     1
  9
$FILLMODE
 70
     1
  9
$QTEXTMODE
 70
     0
  9
$DRAGMODE
 70
     2
  9
$LTSCALE
 40
1.0
  9
$OSMODE
 70
     0
  9
$ATTMODE
 70
     1
  9
$TEXTSIZE
 40
0.2
  9
$TRACEWID
 40
0.05
  9
$TEXTSTYLE
  7
AAA
  9
$CLAYER
  8
0
  9
$CELTYPE
  6
BYLAYER
  9
$CECOLOR
 62
   256
  9
$DIMSCALE
 40
1.0
  9
$DIMASZ
 40
0.18
  9
$DIMEXO
 40
0.0625
  9
$DIMDLI
 40
0.38
  9
$DIMRND
 40
0.0
  9
$DIMDLE
 40
0.0
  9
$DIMEXE
 40
0.18
  9
$DIMTP
 40
0.0
  9
$DIMTM
 40
0.0
  9
$DIMTXT
 40
0.18
  9
$DIMCEN
 40
0.09
  9
$DIMTSZ
 40
0.0
  9
$DIMTOL
 70
     0
  9
$DIMLIM
 70
     0
  9
$DIMTIH
 70
     1
  9
$DIMTOH
 70
     1
  9
$DIMSE1
 70
     0
  9
$DIMSE2
 70
     0
  9
$DIMTAD
 70
     0
  9
$DIMZIN
 70
     0
  9
$DIMBLK
  1

  9
$LUNITS
 70
     2
  9
$LUPREC
 70
     4
  9
$AXISMODE
 70
     0
  9
$AXISUNIT
 10
0.0
 20
0.0
  9
$SKETCHINC
 40
0.1
  9
$FILLETRAD
 40
0.0
  9
$AUNITS
 70
     0
  9
$AUPREC
 70
     0
  9
$MENU
  1
ACAD
  9
$ELEVATION
 40
0.0
  9
$THICKNESS
 40
0.0
  9
$VIEWDIR
 10
0.0
 20
0.0
 30
1.0
  9
$LIMCHECK
 70
     0
  9
$BLIPMODE
 70
     1
  9
$CHAMFERA
 40
0.0
  9
$CHAMFERB
 40
0.0
  9
$FASTZOOM
 70
     1
  9
$SKPOLY
 70
     0
  9
$TDCREATE
 40
2447867.4197569940
  9
$TDUPDATE
 40
2447867.4197569940
  9
$TDINDWG
 40
0.0035300926
  9
$TDUSRTIMER
 40
0.0035300926
  9
$USRTIMER
 70
     1
  9
$ANGBASE
 50
0.0
  9
$ANGDIR
 70
     0
  9
$PDMODE
 70
     0
  9
$PDSIZE
 40
0.0
  9
$PLINEWID
 40
0.0
  9
$COORDS
 70
     0
  9
$USERI1
 70
     0
  9
$USERI2
 70
     0
  9
$USERI3
 70
     0
  9
$USERI4
 70
     0
  9
$USERI5
 70
     0
  9
$USERR1
 40
0.0
  9
$USERR2
 40
0.0
  9
$USERR3
 40
0.0
  9
$USERR4
 40
0.0
  9
$USERR5
 40
0.0
  0
ENDSEC
  0
SECTION
  2
TABLES
  0
TABLE
  2
LTYPE
 70
     3
  0
LTYPE
  2
CONTINUOUS
 70
    64
  3
SOLID
 72
    65
 73
     0
 40
0.0
  0
LTYPE
  2
CENTER
 70
    64
  3
CENTER
 72
    65
 73
     4
 40
2.0
 49
1.25
 49
-0.25
 49
0.25
 49
-0.25
  0
LTYPE
  2
PHANTOM
 70
    64
  3
PHANTOM
 72
    65
 73
     6
 40
2.5
 49
1.25
 49
-0.25
 49
0.25
 49
-0.25
 49
0.25
 49
-0.25
  0
ENDTAB
  0
TABLE
  2
LAYER
 70
     1
  0
LAYER
  2
0
 70
    64
 62
     7
  6
CONTINUOUS
  0
ENDTAB
  0
TABLE
  2
STYLE
 70
     2
  0
STYLE
  2
AAA
 70
     0
 40
0.0
 41
1.0
 50
0.0
 71
     0
 42
0.2
  3
TXT
  4

  0
STYLE
  2
STANDARD
 70
    64
 40
0.0
 41
1.0
 50
0.0
 71
     0
 42
0.2
  3
TXT
  4
BIGFONT
  0
ENDTAB
  0
TABLE
  2
VIEW
 70
     0
  0
ENDTAB
  0
ENDSEC
  0
SECTION
  2
BLOCKS
  0
ENDSEC
  0
SECTION
  2
ENTITIES
  0
POINT
  8
0
  6
CONTINUOUS
 62
     7
 10
-321.4368
 20
10.0
  0
POINT
  8
0
  6
CONTINUOUS
 62
     7
 10
-296.4368
 20
10.0
  0
POINT
  8
0
  6
CONTINUOUS
 62
     7
 10
-295.4368
 20
6.0
  0
POINT
  8
0
  6
CONTINUOUS
 62
     7
 10
-311.4368
 20
8.0
  0
POINT
  8
0
  6
CONTINUOUS
 62
     7
 10
-311.4368
 20
-8.0
  0
POINT
  8
0
  6
CONTINUOUS
 62
     7
 10
-301.4368
 20
20.0
  0
POINT
  8
0
  6
CONTINUOUS
 62
     7
 10
-194.9368
 20
10.00012
  0
POINT
  8
0
  6
CONTINUOUS
 62
     7
 10
-212.4368
 20
6.00012
  0
POINT
  8
0
  6
CONTINUOUS
 62
     7
 10
-90.43675
 20
6.00012
  0
POINT
  8
0
  6
CONTINUOUS
 62
     7
 10
-64.43678
 20
10.00012
  0
POINT
  8
0
  6
CONTINUOUS
 62
     7
 10
-74.43672
 20
2.00012
  0
POINT
  8
0
  6
CONTINUOUS
 62
     7
 10
-212.4368
 20
-159.9999
  0
POINT
  8
0
  6
CONTINUOUS
 62
     7
 10
-194.9368
 20
-185.9999
  0
POINT
  8
0
  6
CONTINUOUS
 62
     7
 10
-212.4368
 20
133.0001
  0
POINT
  8
0
  6
CONTINUOUS
 62
     7
 10
-194.9368
 20
159.0001
  0
POINT
  8
0
  6
CONTINUOUS
 62
     7
 10
171.9369
 20
133.0001
  0
POINT
  8
0
  6
CONTINUOUS
 62
     7
 10
165.4369
 20
159.0001
  0
POINT
  8
0
  6
CONTINUOUS
 62
     7
 10
192.4369
 20
159.0001
  0
POINT
  8
0
  6
CONTINUOUS
 62
     7
 10
171.9369
 20
1.49998
  0
POINT
  8
0
  6
CONTINUOUS
 62
     7
 10
165.4369
 20
9.99998
  0
POINT
  8
0
  6
CONTINUOUS
 62
     7
 10
192.4369
 20
9.99998
  0
POINT
  8
0
  6
CONTINUOUS
 62
     7
 10
305.937
 20
9.99997
  0
POINT
  8
0
  6
CONTINUOUS
 62
     7
 10
279.9368
 20
1.49997
  0
POINT
  8
0
  6
CONTINUOUS
 62
     7
 10
279.9368
 20
1.49997
  0
POINT
  8
0
  6
CONTINUOUS
 62
     7
 10
279.9368
 20
1.49997
  0
POINT
  8
0
  6
CONTINUOUS
 62
     7
 10
279.9368
 20
1.49997
  0
POINT
  8
0
  6
CONTINUOUS
 62
     7
 10
294.937
 20
7.50005
  0
POINT
  8
0
  6
CONTINUOUS
 62
     7
 10
288.4369
 20
-7.50003
  0
POINT
  8
0
  6
CONTINUOUS
 62
     7
 10
294.937
 20
-22.50011
  0
POINT
  8
0
  6
CONTINUOUS
 62
     7
 10
285.9369
 20
15.50008
  0
POINT
  8
0
  6
CONTINUOUS
 62
     7
 10
285.9369
 20
-30.50014
  0
POINT
  8
0
  6
CONTINUOUS
 62
     7
 10
60.93672
 20
9.99997
  0
POINT
  8
0
  6
CONTINUOUS
 62
     7
 10
85.93683
 20
9.99997
  0
POINT
  8
0
  6
CONTINUOUS
 62
     7
 10
86.93686
 20
1.5001
  0
POINT
  8
0
  6
CONTINUOUS
 62
     7
 10
68.43677
 20
-1.00011
  0
POINT
  8
0
  6
CONTINUOUS
 62
     7
 10
78.43681
 20
-14.00003
  0
POINT
  8
0
  6
CONTINUOUS
 62
     7
 10
171.9369
 20
-159.9999
  0
POINT
  8
0
  6
CONTINUOUS
 62
     7
 10
165.4369
 20
-185.9999
  0
POINT
  8
0
  6
CONTINUOUS
 62
     7
 10
192.4369
 20
-185.9999
  0
LINE
  8
0
  6
CONTINUOUS
 62
     7
 10
218.3292
 20
-225.9564
 11
370.8736
 21
-225.9564
  0
LINE
  8
0
  6
CONTINUOUS
 62
     7
 10
-218.3292
 20
225.9564
 11
-218.3292
 21
254.5585
  0
LINE
  8
0
  6
CONTINUOUS
 62
     7
 10
-370.8736
 20
225.9564
 11
-218.3292
 21
225.9564
  0
LINE
  8
0
  6
CONTINUOUS
 62
     7
 10
-370.8736
 20
254.5585
 11
370.8736
 21
254.5585
  0
LINE
  8
0
  6
CONTINUOUS
 62
     7
 10
-370.8736
 20
-254.5585
 11
370.8736
 21
-254.5585
  0
LINE
  8
0
  6
CONTINUOUS
 62
     7
 10
370.8736
 20
254.5585
 11
370.8736
 21
-254.5585
  0
LINE
  8
0
  6
CONTINUOUS
 62
     7
 10
-370.8736
 20
-254.5585
 11
-370.8736
 21
254.5585
  0
LINE
  8
0
  6
CONTINUOUS
 62
     7
 10
218.3292
 20
-225.9564
 11
218.3292
 21
-254.5585
  0
LINE
  8
0
  6
CONTINUOUS
 62
     7
 10
218.3292
 20
254.5585
 11
218.3292
 21
225.9564
  0
LINE
  8
0
  6
CONTINUOUS
 62
     7
 10
218.3292
 20
225.9564
 11
370.8736
 21
225.9564
  0
LINE
  8
0
  6
CONTINUOUS
 62
     7
 10
258.3816
 20
-232.8337
 11
258.3816
 21
-236.1516
  0
LINE
  8
0
  6
CONTINUOUS
 62
     7
 10
258.3816
 20
-236.1516
 11
270.8235
 21
-236.1516
  0
LINE
  8
0
  6
CONTINUOUS
 62
     7
 10
258.3816
 20
-249.1465
 11
275.2473
 21
-249.1465
  0
LINE
  8
0
  6
CONTINUOUS
 62
     7
 10
258.3816
 20
-245.8286
 11
270.8235
 21
-245.8286
  0
LINE
  8
0
  6
CONTINUOUS
 62
     7
 10
258.3816
 20
-232.8337
 11
273.0354
 21
-232.8337
  0
LINE
  8
0
  6
CONTINUOUS
 62
     7
 10
270.8235
 20
-236.1516
 11
270.8235
 21
-245.8286
  0
LINE
  8
0
  6
CONTINUOUS
 62
     7
 10
275.2473
 20
-235.0457
 11
275.2473
 21
-249.1465
  0
LINE
  8
0
  6
CONTINUOUS
 62
     7
 10
258.3816
 20
-245.8286
 11
258.3816
 21
-249.1465
  0
LINE
  8
0
  6
CONTINUOUS
 62
     7
 10
293.4954
 20
-236.1516
 11
293.4954
 21
-246.9346
  0
LINE
  8
0
  6
CONTINUOUS
 62
     7
 10
277.7357
 20
-232.8337
 11
277.7357
 21
-236.1516
  0
LINE
  8
0
  6
CONTINUOUS
 62
     7
 10
293.9378
 20
-232.585
 11
295.5138
 21
-232.585
  0
LINE
  8
0
  6
CONTINUOUS
 62
     7
 10
293.9378
 20
-230.373
 11
295.5138
 21
-230.373
  0
LINE
  8
0
  6
CONTINUOUS
 62
     7
 10
295.5138
 20
-230.373
 11
295.5138
 21
-232.585
  0
LINE
  8
0
  6
CONTINUOUS
 62
     7
 10
293.9378
 20
-230.373
 11
293.9378
 21
-232.585
  0
LINE
  8
0
  6
CONTINUOUS
 62
     7
 10
293.1083
 20
-230.373
 11
293.1083
 21
-232.585
  0
LINE
  8
0
  6
CONTINUOUS
 62
     7
 10
282.7661
 20
-230.373
 11
286.2009
 21
-230.373
  0
LINE
  8
0
  6
CONTINUOUS
 62
     7
 10
285.5413
 20
-232.8335
 11
286.2006
 21
-230.3727
  0
LINE
  8
0
  6
CONTINUOUS
 62
     7
 10
282.1067
 20
-232.8337
 11
282.766
 21
-230.373
  0
LINE
  8
0
  6
CONTINUOUS
 62
     7
 10
285.5416
 20
-232.8337
 11
290.1776
 21
-232.8337
  0
LINE
  8
0
  6
CONTINUOUS
 62
     7
 10
284.6526
 20
-236.1516
 11
289.0716
 21
-236.1516
  0
LINE
  8
0
  6
CONTINUOUS
 62
     7
 10
286.6429
 20
-249.1465
 11
291.2836
 21
-249.1465
  0
LINE
  8
0
  6
CONTINUOUS
 62
     7
 10
285.7537
 20
-245.8286
 11
286.6427
 21
-249.1463
  0
LINE
  8
0
  6
CONTINUOUS
 62
     7
 10
285.7538
 20
-245.8286
 11
289.0716
 21
-245.8286
  0
LINE
  8
0
  6
CONTINUOUS
 62
     7
 10
281.1707
 20
-249.1466
 11
284.6527
 21
-236.1517
  0
LINE
  8
0
  6
CONTINUOUS
 62
     7
 10
277.7357
 20
-236.1516
 11
281.2177
 21
-236.1516
  0
LINE
  8
0
  6
CONTINUOUS
 62
     7
 10
277.7354
 20
-249.1462
 11
281.2175
 21
-236.1513
  0
LINE
  8
0
  6
CONTINUOUS
 62
     7
 10
277.7357
 20
-249.1465
 11
281.1706
 21
-249.1465
  0
LINE
  8
0
  6
CONTINUOUS
 62
     7
 10
277.7357
 20
-232.8337
 11
282.1067
 21
-232.8337
  0
LINE
  8
0
  6
CONTINUOUS
 62
     7
 10
289.0716
 20
-236.1516
 11
289.0716
 21
-245.8286
  0
LINE
  8
0
  6
CONTINUOUS
 62
     7
 10
291.5323
 20
-230.373
 11
293.1083
 21
-230.373
  0
LINE
  8
0
  6
CONTINUOUS
 62
     7
 10
291.5323
 20
-232.585
 11
293.1083
 21
-232.585
  0
LINE
  8
0
  6
CONTINUOUS
 62
     7
 10
291.5323
 20
-230.373
 11
291.5323
 21
-232.585
  0
LINE
  8
0
  6
CONTINUOUS
 62
     7
 10
301.5135
 20
-230.373
 11
305.9373
 21
-230.373
  0
LINE
  8
0
  6
CONTINUOUS
 62
     7
 10
308.3423
 20
-240.1951
 11
311.2962
 21
-238.8176
  0
LINE
  8
0
  6
CONTINUOUS
 62
     7
 10
305.9373
 20
-242.7344
 11
305.9373
 21
-249.1465
  0
LINE
  8
0
  6
CONTINUOUS
 62
     7
 10
301.5135
 20
-243.379
 11
301.5135
 21
-249.1465
  0
LINE
  8
0
  6
CONTINUOUS
 62
     7
 10
305.9373
 20
-232.8337
 11
310.3611
 21
-232.8337
  0
LINE
  8
0
  6
CONTINUOUS
 62
     7
 10
305.9373
 20
-230.373
 11
305.9373
 21
-232.8337
  0
LINE
  8
0
  6
CONTINUOUS
 62
     7
 10
301.5135
 20
-230.373
 11
301.5135
 21
-232.8337
  0
LINE
  8
0
  6
CONTINUOUS
 62
     7
 10
312.573
 20
-235.0457
 11
312.573
 21
-236.8128
  0
LINE
  8
0
  6
CONTINUOUS
 62
     7
 10
308.3424
 20
-240.195
 11
312.5734
 21
-242.168
  0
LINE
  8
0
  6
CONTINUOUS
 62
     7
 10
305.9373
 20
-242.7343
 11
312.5731
 21
-245.8286
  0
LINE
  8
0
  6
CONTINUOUS
 62
     7
 10
296.2603
 20
-242.1678
 11
296.2603
 21
-245.8286
  0
LINE
  8
0
  6
CONTINUOUS
 62
     7
 10
296.2607
 20
-242.1682
 11
309.1626
 21
-236.1519
  0
LINE
  8
0
  6
CONTINUOUS
 62
     7
 10
296.2603
 20
-245.8286
 11
301.5136
 21
-243.3789
  0
LINE
  8
0
  6
CONTINUOUS
 62
     7
 10
312.573
 20
-242.1678
 11
312.573
 21
-245.8286
  0
LINE
  8
0
  6
CONTINUOUS
 62
     7
 10
296.2603
 20
-232.8337
 11
296.2603
 21
-236.1516
  0
LINE
  8
0
  6
CONTINUOUS
 62
     7
 10
301.5135
 20
-249.1465
 11
305.9373
 21
-249.1465
  0
LINE
  8
0
  6
CONTINUOUS
 62
     7
 10
296.2603
 20
-236.1516
 11
309.1621
 21
-236.1516
  0
LINE
  8
0
  6
CONTINUOUS
 62
     7
 10
296.2603
 20
-232.8337
 11
301.5135
 21
-232.8337
  0
LINE
  8
0
  6
CONTINUOUS
 62
     7
 10
327.504
 20
-236.4047
 11
328.73
 21
-235.9171
  0
LINE
  8
0
  6
CONTINUOUS
 62
     7
 10
327.5034
 20
-236.4044
 11
327.5034
 21
-249.1465
  0
LINE
  8
0
  6
CONTINUOUS
 62
     7
 10
323.0795
 20
-249.1465
 11
327.5034
 21
-249.1465
  0
LINE
  8
0
  6
CONTINUOUS
 62
     7
 10
313.9553
 20
-241.7925
 11
323.0794
 21
-238.1637
  0
LINE
  8
0
  6
CONTINUOUS
 62
     7
 10
313.9555
 20
-238.222
 11
326.8062
 21
-233.1111
  0
LINE
  8
0
  6
CONTINUOUS
 62
     7
 10
323.0795
 20
-238.1638
 11
323.0795
 21
-249.1465
  0
LINE
  8
0
  6
CONTINUOUS
 62
     7
 10
327.5034
 20
-231.3684
 11
327.5034
 21
-232.0834
  0
LINE
  8
0
  6
CONTINUOUS
 62
     7
 10
330.8211
 20
-231.3684
 11
330.8211
 21
-232.8338
  0
LINE
  8
0
  6
CONTINUOUS
 62
     7
 10
313.9554
 20
-238.2219
 11
313.9554
 21
-241.7925
  0
LINE
  8
0
  6
CONTINUOUS
 62
     7
 10
327.5034
 20
-231.3684
 11
330.8211
 21
-231.3684
  0
LINE
  8
0
  6
CONTINUOUS
 62
     7
 10
3.49997
 20
-254.5585
 11
3.49997
 21
254.5585
  0
LINE
  8
0
  6
PHANTOM
 62
     2
 10
-214.4368
 20
11.00012
 11
-199.4368
 21
11.00012
  0
LINE
  8
0
  6
CENTER
 62
     2
 10
-206.9368
 20
59.09984
 11
-206.9368
 21
-21.65128
  0
LINE
  8
0
  6
PHANTOM
 62
     2
 10
-213.9368
 20
-18.49988
 11
-199.9368
 21
-18.49988
  0
LINE
  8
0
  6
PHANTOM
 62
     2
 10
-214.4368
 20
-10.99988
 11
-199.4368
 21
-10.99988
  0
LINE
  8
0
  6
PHANTOM
 62
     2
 10
-214.4368
 20
28.00009
 11
-214.4368
 21
-17.99988
  0
LINE
  8
0
  6
PHANTOM
 62
     2
 10
-199.4368
 20
28.00009
 11
-199.4368
 21
-17.99988
  0
LINE
  8
0
  6
PHANTOM
 62
     2
 10
-214.4368
 20
54.20009
 11
-214.4368
 21
28.00009
  0
LINE
  8
0
  6
PHANTOM
 62
     2
 10
-214.4368
 20
53.20012
 11
-199.4368
 21
53.20012
  0
LINE
  8
0
  6
PHANTOM
 62
     2
 10
-199.4368
 20
54.20009
 11
-199.4368
 21
28.00009
  0
LINE
  8
0
  6
PHANTOM
 62
     2
 10
-214.4368
 20
28.00009
 11
-199.4368
 21
28.00009
  0
LINE
  8
0
  6
PHANTOM
 62
     2
 10
-214.4368
 20
54.20009
 11
-199.4368
 21
54.20009
  0
LINE
  8
0
  6
PHANTOM
 62
     2
 10
-199.4368
 20
54.20008
 11
-200.4368
 21
56.2001
  0
LINE
  8
0
  6
PHANTOM
 62
     2
 10
-214.4367
 20
54.20012
 11
-213.4367
 21
56.20013
  0
LINE
  8
0
  6
PHANTOM
 62
     2
 10
-213.4367
 20
56.20012
 11
-200.4368
 21
56.20012
  0
LINE
  8
0
  6
CENTER
 62
     2
 10
-208.2368
 20
49.00009
 11
-208.2368
 21
43.00009
  0
LINE
  8
0
  6
CENTER
 62
     2
 10
-205.6368
 20
49.00009
 11
-205.6368
 21
43.00009
  0
LINE
  8
0
  6
CENTER
 62
     2
 10
-210.9368
 20
46.00012
 11
-202.9368
 21
46.00012
  0
LINE
  8
0
  6
PHANTOM
 62
     2
 10
-208.2368
 20
47.7001
 11
-205.6367
 21
47.7001
  0
LINE
  8
0
  6
PHANTOM
 62
     2
 10
-208.2368
 20
44.30011
 11
-205.6367
 21
44.30011
  0
LINE
  8
0
  6
PHANTOM
 62
     2
 10
-205.6367
 20
112.0001
 11
-205.6367
 21
109.0001
  0
LINE
  8
0
  6
CENTER
 62
     2
 10
-197.9368
 20
121.0001
 11
-215.9368
 21
121.0001
  0
LINE
  8
0
  6
CENTER
 62
     2
 10
-206.9368
 20
96.18597
 11
-206.9368
 21
135.0001
  0
LINE
  8
0
  6
PHANTOM
 62
     2
 10
-214.4368
 20
132.5001
 11
-214.4368
 21
109.0001
  0
LINE
  8
0
  6
PHANTOM
 62
     2
 10
-199.4368
 20
132.5001
 11
-199.4368
 21
109.0001
  0
LINE
  8
0
  6
PHANTOM
 62
     2
 10
-199.9367
 20
133.0001
 11
-213.9368
 21
133.0001
  0
LINE
  8
0
  6
PHANTOM
 62
     2
 10
-199.4368
 20
109.0001
 11
-203.9368
 21
109.0001
  0
LINE
  8
0
  6
CENTER
 62
     2
 10
-208.2367
 20
84.00012
 11
-208.2367
 21
112.0001
  0
LINE
  8
0
  6
PHANTOM
 62
     2
 10
-207.3868
 20
97.00012
 11
-207.3868
 21
101.3442
  0
LINE
  8
0
  6
PHANTOM
 62
     2
 10
-209.0867
 20
97.00012
 11
-209.0867
 21
101.7997
  0
LINE
  8
0
  6
PHANTOM
 62
     2
 10
-207.9168
 20
87.00012
 11
-207.9168
 21
97.00012
  0
LINE
  8
0
  6
PHANTOM
 62
     2
 10
-208.5567
 20
87.00012
 11
-208.5567
 21
97.00012
  0
LINE
  8
0
  6
PHANTOM
 62
     2
 10
-209.0867
 20
97.00012
 11
-207.3867
 21
97.00012
  0
LINE
  8
0
  6
PHANTOM
 62
     2
 10
-208.5567
 20
87.00012
 11
-207.9167
 21
87.00012
  0
LINE
  8
0
  6
CENTER
 62
     2
 10
-205.6368
 20
84.00012
 11
-205.6368
 21
112.0001
  0
LINE
  8
0
  6
PHANTOM
 62
     2
 10
-204.7868
 20
97.00012
 11
-204.7868
 21
100.6476
  0
LINE
  8
0
  6
PHANTOM
 62
     2
 10
-206.4868
 20
97.00012
 11
-206.4868
 21
101.1031
  0
LINE
  8
0
  6
PHANTOM
 62
     2
 10
-205.3168
 20
87.00012
 11
-205.3168
 21
97.00012
  0
LINE
  8
0
  6
PHANTOM
 62
     2
 10
-205.9567
 20
87.00012
 11
-205.9567
 21
97.00012
  0
LINE
  8
0
  6
PHANTOM
 62
     2
 10
-206.4867
 20
97.00012
 11
-204.7868
 21
97.00012
  0
LINE
  8
0
  6
PHANTOM
 62
     2
 10
-205.9567
 20
87.00012
 11
-205.3167
 21
87.00012
  0
LINE
  8
0
  6
PHANTOM
 62
     2
 10
-202.7867
 20
101.6645
 11
-211.0867
 21
103.8885
  0
LINE
  8
0
  6
PHANTOM
 62
     2
 10
-202.7868
 20
100.1117
 11
-211.0868
 21
102.3357
  0
LINE
  8
0
  6
PHANTOM
 62
     2
 10
-204.7868
 20
102.2005
 11
-204.7868
 21
107.0001
  0
LINE
  8
0
  6
PHANTOM
 62
     2
 10
-206.4868
 20
102.656
 11
-206.4868
 21
107.0001
  0
LINE
  8
0
  6
PHANTOM
 62
     2
 10
-207.3868
 20
102.8972
 11
-207.3868
 21
107.0001
  0
LINE
  8
0
  6
PHANTOM
 62
     2
 10
-209.0867
 20
103.3527
 11
-209.0867
 21
107.0001
  0
LINE
  8
0
  6
PHANTOM
 62
     2
 10
-209.9368
 20
109.0001
 11
-214.4368
 21
109.0001
  0
LINE
  8
0
  6
PHANTOM
 62
     2
 10
-203.9368
 20
109.0001
 11
-209.9368
 21
109.0001
  0
LINE
  8
0
  6
PHANTOM
 62
     2
 10
-203.9368
 20
109.0001
 11
-203.9368
 21
107.5001
  0
LINE
  8
0
  6
PHANTOM
 62
     2
 10
-204.4368
 20
107.0001
 11
-209.4368
 21
107.0001
  0
LINE
  8
0
  6
PHANTOM
 62
     2
 10
-209.9368
 20
109.0001
 11
-209.9368
 21
107.5001
  0
LINE
  8
0
  6
PHANTOM
 62
     2
 10
-295.4368
 20
11.0
 11
-271.4368
 21
11.0
  0
LINE
  8
0
  6
CENTER
 62
     2
 10
-283.4368
 20
59.19997
 11
-283.4368
 21
-21.96399
  0
LINE
  8
0
  6
PHANTOM
 62
     2
 10
-294.9368
 20
-18.5
 11
-271.9368
 21
-18.5
  0
LINE
  8
0
  6
PHANTOM
 62
     2
 10
-295.4368
 20
-11.0
 11
-271.4368
 21
-11.0
  0
LINE
  8
0
  6
PHANTOM
 62
     2
 10
-295.4368
 20
27.99997
 11
-295.4368
 21
23.19998
  0
LINE
  8
0
  6
PHANTOM
 62
     2
 10
-271.4368
 20
27.99997
 11
-271.4368
 21
-18.0
  0
LINE
  8
0
  6
PHANTOM
 62
     2
 10
-295.4368
 20
53.2
 11
-271.4368
 21
53.2
  0
LINE
  8
0
  6
PHANTOM
 62
     2
 10
-295.4368
 20
27.99997
 11
-271.4368
 21
27.99997
  0
LINE
  8
0
  6
PHANTOM
 62
     2
 10
-295.4368
 20
54.2
 11
-295.4368
 21
27.99997
  0
LINE
  8
0
  6
PHANTOM
 62
     2
 10
-271.4368
 20
54.2
 11
-271.4368
 21
47.69998
  0
LINE
  8
0
  6
PHANTOM
 62
     2
 10
-294.4368
 20
56.2
 11
-272.4367
 21
56.2
  0
LINE
  8
0
  6
PHANTOM
 62
     2
 10
-295.4368
 20
54.2
 11
-271.4368
 21
54.2
  0
LINE
  8
0
  6
PHANTOM
 62
     2
 10
-295.4366
 20
54.19994
 11
-294.4367
 21
56.1999
  0
LINE
  8
0
  6
PHANTOM
 62
     2
 10
-271.4367
 20
54.2
 11
-272.4367
 21
56.20001
  0
LINE
  8
0
  6
CENTER
 62
     2
 10
-246.4368
 20
46.0
 11
-274.4368
 21
46.0
  0
LINE
  8
0
  6
PHANTOM
 62
     2
 10
-259.4368
 20
46.84998
 11
-263.4326
 21
46.84998
  0
LINE
  8
0
  6
PHANTOM
 62
     2
 10
-259.4368
 20
45.14999
 11
-263.8881
 21
45.14999
  0
LINE
  8
0
  6
PHANTOM
 62
     2
 10
-249.4368
 20
46.31998
 11
-259.4368
 21
46.31998
  0
LINE
  8
0
  6
PHANTOM
 62
     2
 10
-249.4368
 20
45.67999
 11
-259.4368
 21
45.67999
  0
LINE
  8
0
  6
PHANTOM
 62
     2
 10
-259.4368
 20
45.14999
 11
-259.4368
 21
46.84998
  0
LINE
  8
0
  6
PHANTOM
 62
     2
 10
-249.4368
 20
45.67999
 11
-249.4368
 21
46.31998
  0
LINE
  8
0
  6
PHANTOM
 62
     2
 10
-262.8967
 20
48.84997
 11
-264.424
 21
43.14999
  0
LINE
  8
0
  6
PHANTOM
 62
     2
 10
-264.4497
 20
48.84998
 11
-265.977
 21
43.14999
  0
LINE
  8
0
  6
PHANTOM
 62
     2
 10
-264.9855
 20
46.84998
 11
-269.4368
 21
46.84998
  0
LINE
  8
0
  6
PHANTOM
 62
     2
 10
-265.441
 20
45.14999
 11
-269.4368
 21
45.14999
  0
LINE
  8
0
  6
PHANTOM
 62
     2
 10
-271.4368
 20
44.29999
 11
-271.4368
 21
27.99997
  0
LINE
  8
0
  6
PHANTOM
 62
     2
 10
-295.4368
 20
16.19998
 11
-295.4368
 21
11.0
  0
LINE
  8
0
  6
PHANTOM
 62
     2
 10
-295.4368
 20
-9.0
 11
-295.4368
 21
-18.0
  0
LINE
  8
0
  6
PHANTOM
 62
     2
 10
-295.4368
 20
11.0
 11
-295.4368
 21
-9.0
  0
LINE
  8
0
  6
PHANTOM
 62
     2
 10
-295.4368
 20
23.19998
 11
-295.4368
 21
16.19998
  0
LINE
  8
0
  6
PHANTOM
 62
     2
 10
-271.4368
 20
47.69998
 11
-271.4368
 21
44.29999
  0
LINE
  8
0
  6
PHANTOM
 62
     2
 10
-269.9368
 20
47.69998
 11
-271.4368
 21
47.69998
  0
LINE
  8
0
  6
PHANTOM
 62
     2
 10
-269.4368
 20
44.79999
 11
-269.4368
 21
47.19998
  0
LINE
  8
0
  6
PHANTOM
 62
     2
 10
-269.9368
 20
44.29999
 11
-271.4368
 21
44.29999
  0
LINE
  8
0
  6
PHANTOM
 62
     2
 10
-90.43678
 20
11.00012
 11
-114.4368
 21
11.00012
  0
LINE
  8
0
  6
CENTER
 62
     2
 10
-102.4368
 20
59.20009
 11
-102.4368
 21
-21.96387
  0
LINE
  8
0
  6
PHANTOM
 62
     2
 10
-90.93675
 20
-18.49988
 11
-113.9368
 21
-18.49988
  0
LINE
  8
0
  6
PHANTOM
 62
     2
 10
-90.43678
 20
-10.99988
 11
-114.4368
 21
-10.99988
  0
LINE
  8
0
  6
PHANTOM
 62
     2
 10
-114.4368
 20
28.00009
 11
-114.4368
 21
-17.99988
  0
LINE
  8
0
  6
PHANTOM
 62
     2
 10
-90.43675
 20
-8.99988
 11
-90.43675
 21
-17.99988
  0
LINE
  8
0
  6
PHANTOM
 62
     2
 10
-90.43675
 20
11.00012
 11
-90.43675
 21
16.2001
  0
LINE
  8
0
  6
PHANTOM
 62
     2
 10
-90.43675
 20
23.2001
 11
-90.43675
 21
28.00009
  0
LINE
  8
0
  6
PHANTOM
 62
     2
 10
-90.4368
 20
53.20012
 11
-114.4368
 21
53.20012
  0
LINE
  8
0
  6
PHANTOM
 62
     2
 10
-90.43678
 20
28.00009
 11
-114.4368
 21
28.00009
  0
LINE
  8
0
  6
PHANTOM
 62
     2
 10
-90.43675
 20
54.20012
 11
-90.43675
 21
28.00009
  0
LINE
  8
0
  6
PHANTOM
 62
     2
 10
-114.4368
 20
54.20012
 11
-114.4368
 21
47.7001
  0
LINE
  8
0
  6
PHANTOM
 62
     2
 10
-113.4368
 20
56.20012
 11
-91.43692
 21
56.20012
  0
LINE
  8
0
  6
PHANTOM
 62
     2
 10
-90.4368
 20
54.20012
 11
-114.4368
 21
54.20012
  0
LINE
  8
0
  6
PHANTOM
 62
     2
 10
-114.4367
 20
54.20008
 11
-113.4367
 21
56.20009
  0
LINE
  8
0
  6
PHANTOM
 62
     2
 10
-90.43685
 20
54.2
 11
-91.43686
 21
56.20002
  0
LINE
  8
0
  6
CENTER
 62
     2
 10
-139.4368
 20
46.00012
 11
-111.4368
 21
46.00012
  0
LINE
  8
0
  6
PHANTOM
 62
     2
 10
-126.4368
 20
45.15012
 11
-122.441
 21
45.15012
  0
LINE
  8
0
  6
PHANTOM
 62
     2
 10
-126.4368
 20
46.8501
 11
-121.9855
 21
46.8501
  0
LINE
  8
0
  6
PHANTOM
 62
     2
 10
-136.4368
 20
45.68011
 11
-126.4368
 21
45.68011
  0
LINE
  8
0
  6
PHANTOM
 62
     2
 10
-136.4368
 20
46.3201
 11
-126.4368
 21
46.3201
  0
LINE
  8
0
  6
PHANTOM
 62
     2
 10
-126.4367
 20
46.8501
 11
-126.4367
 21
45.15012
  0
LINE
  8
0
  6
PHANTOM
 62
     2
 10
-136.4368
 20
46.32007
 11
-136.4368
 21
45.68008
  0
LINE
  8
0
  6
PHANTOM
 62
     2
 10
-122.9768
 20
43.15012
 11
-121.4495
 21
48.85011
  0
LINE
  8
0
  6
PHANTOM
 62
     2
 10
-121.424
 20
43.15009
 11
-119.8966
 21
48.85011
  0
LINE
  8
0
  6
PHANTOM
 62
     2
 10
-120.4325
 20
46.8501
 11
-116.4368
 21
46.8501
  0
LINE
  8
0
  6
PHANTOM
 62
     2
 10
-120.888
 20
45.15012
 11
-116.4368
 21
45.15012
  0
LINE
  8
0
  6
PHANTOM
 62
     2
 10
-114.4368
 20
44.30011
 11
-114.4368
 21
28.00009
  0
LINE
  8
0
  6
PHANTOM
 62
     2
 10
-90.43675
 20
-8.99988
 11
-90.43675
 21
11.00012
  0
LINE
  8
0
  6
PHANTOM
 62
     2
 10
-90.43675
 20
16.2001
 11
-90.43675
 21
23.2001
  0
LINE
  8
0
  6
PHANTOM
 62
     2
 10
-114.4368
 20
47.7001
 11
-114.4368
 21
44.30011
  0
LINE
  8
0
  6
PHANTOM
 62
     2
 10
-115.9368
 20
47.7001
 11
-114.4368
 21
47.7001
  0
LINE
  8
0
  6
PHANTOM
 62
     2
 10
-116.4368
 20
44.80011
 11
-116.4368
 21
47.2001
  0
LINE
  8
0
  6
PHANTOM
 62
     2
 10
-115.9368
 20
44.30011
 11
-114.4368
 21
44.30011
  0
LINE
  8
0
  6
CENTER
 62
     2
 10
-215.9368
 20
-147.9999
 11
-197.9368
 21
-147.9999
  0
LINE
  8
0
  6
CENTER
 62
     2
 10
-206.9368
 20
-123.1857
 11
-206.9368
 21
-161.9999
  0
LINE
  8
0
  6
PHANTOM
 62
     2
 10
-199.4368
 20
-159.4999
 11
-199.4368
 21
-135.9999
  0
LINE
  8
0
  6
PHANTOM
 62
     2
 10
-214.4368
 20
-159.4999
 11
-214.4368
 21
-135.9999
  0
LINE
  8
0
  6
PHANTOM
 62
     2
 10
-213.9368
 20
-159.9999
 11
-199.9368
 21
-159.9999
  0
LINE
  8
0
  6
PHANTOM
 62
     2
 10
-214.4368
 20
-135.9999
 11
-209.9368
 21
-135.9999
  0
LINE
  8
0
  6
CENTER
 62
     2
 10
-205.6368
 20
-110.9999
 11
-205.6368
 21
-138.9999
  0
LINE
  8
0
  6
PHANTOM
 62
     2
 10
-206.4867
 20
-123.9999
 11
-206.4867
 21
-128.344
  0
LINE
  8
0
  6
PHANTOM
 62
     2
 10
-204.7868
 20
-123.9999
 11
-204.7868
 21
-128.7995
  0
LINE
  8
0
  6
PHANTOM
 62
     2
 10
-205.9567
 20
-113.9999
 11
-205.9567
 21
-123.9999
  0
LINE
  8
0
  6
PHANTOM
 62
     2
 10
-205.3168
 20
-113.9999
 11
-205.3168
 21
-123.9999
  0
LINE
  8
0
  6
PHANTOM
 62
     2
 10
-204.7868
 20
-123.9999
 11
-206.4868
 21
-123.9999
  0
LINE
  8
0
  6
PHANTOM
 62
     2
 10
-205.3168
 20
-113.9999
 11
-205.9568
 21
-113.9999
  0
LINE
  8
0
  6
CENTER
 62
     2
 10
-208.2367
 20
-110.9999
 11
-208.2367
 21
-138.9999
  0
LINE
  8
0
  6
PHANTOM
 62
     2
 10
-209.0867
 20
-123.9999
 11
-209.0867
 21
-127.6474
  0
LINE
  8
0
  6
PHANTOM
 62
     2
 10
-207.3868
 20
-123.9999
 11
-207.3868
 21
-128.1029
  0
LINE
  8
0
  6
PHANTOM
 62
     2
 10
-208.5568
 20
-113.9999
 11
-208.5568
 21
-123.9999
  0
LINE
  8
0
  6
PHANTOM
 62
     2
 10
-207.9168
 20
-113.9999
 11
-207.9168
 21
-123.9999
  0
LINE
  8
0
  6
PHANTOM
 62
     2
 10
-207.3868
 20
-123.9999
 11
-209.0867
 21
-123.9999
  0
LINE
  8
0
  6
PHANTOM
 62
     2
 10
-207.9168
 20
-113.9999
 11
-208.5568
 21
-113.9999
  0
LINE
  8
0
  6
PHANTOM
 62
     2
 10
-211.0868
 20
-128.6644
 11
-202.7868
 21
-130.8884
  0
LINE
  8
0
  6
PHANTOM
 62
     2
 10
-211.0868
 20
-127.1117
 11
-202.7868
 21
-129.3356
  0
LINE
  8
0
  6
PHANTOM
 62
     2
 10
-209.0867
 20
-129.2003
 11
-209.0867
 21
-133.9999
  0
LINE
  8
0
  6
PHANTOM
 62
     2
 10
-207.3868
 20
-129.6558
 11
-207.3868
 21
-133.9999
  0
LINE
  8
0
  6
PHANTOM
 62
     2
 10
-206.4867
 20
-129.8969
 11
-206.4867
 21
-133.9999
  0
LINE
  8
0
  6
PHANTOM
 62
     2
 10
-204.7868
 20
-130.3524
 11
-204.7868
 21
-133.9999
  0
LINE
  8
0
  6
PHANTOM
 62
     2
 10
-203.9368
 20
-135.9999
 11
-199.4368
 21
-135.9999
  0
LINE
  8
0
  6
PHANTOM
 62
     2
 10
-209.9368
 20
-135.9999
 11
-203.9368
 21
-135.9999
  0
LINE
  8
0
  6
PHANTOM
 62
     2
 10
-209.9368
 20
-135.9999
 11
-209.9368
 21
-134.4999
  0
LINE
  8
0
  6
PHANTOM
 62
     2
 10
-209.4368
 20
-133.9999
 11
-204.4368
 21
-133.9999
  0
LINE
  8
0
  6
PHANTOM
 62
     2
 10
-203.9368
 20
-135.9999
 11
-203.9368
 21
-134.4999
  0
LINE
  8
0
  6
PHANTOM
 62
     2
 10
169.9369
 20
6.5
 11
184.9369
 21
6.5
  0
LINE
  8
0
  6
PHANTOM
 62
     2
 10
169.9369
 20
49.69997
 11
169.9369
 21
23.49997
  0
LINE
  8
0
  6
PHANTOM
 62
     2
 10
169.9369
 20
48.69997
 11
184.9369
 21
48.69997
  0
LINE
  8
0
  6
PHANTOM
 62
     2
 10
184.9369
 20
49.69997
 11
184.9369
 21
23.49997
  0
LINE
  8
0
  6
PHANTOM
 62
     2
 10
169.9369
 20
23.49997
 11
184.9369
 21
23.49997
  0
LINE
  8
0
  6
PHANTOM
 62
     2
 10
169.9369
 20
49.69997
 11
184.9369
 21
49.69997
  0
LINE
  8
0
  6
PHANTOM
 62
     2
 10
184.9368
 20
49.69995
 11
183.9368
 21
51.69997
  0
LINE
  8
0
  6
PHANTOM
 62
     2
 10
169.9369
 20
49.69997
 11
170.9369
 21
51.69996
  0
LINE
  8
0
  6
PHANTOM
 62
     2
 10
170.9369
 20
51.69997
 11
183.9369
 21
51.69997
  0
LINE
  8
0
  6
CENTER
 62
     2
 10
176.1369
 20
44.69997
 11
176.1369
 21
38.49997
  0
LINE
  8
0
  6
CENTER
 62
     2
 10
178.7369
 20
44.69997
 11
178.7369
 21
38.49997
  0
LINE
  8
0
  6
CENTER
 62
     2
 10
173.4369
 20
41.49997
 11
181.4369
 21
41.49997
  0
LINE
  8
0
  6
PHANTOM
 62
     2
 10
176.1369
 20
43.19998
 11
178.7369
 21
43.19998
  0
LINE
  8
0
  6
PHANTOM
 62
     2
 10
176.1369
 20
39.79999
 11
178.7369
 21
39.79999
  0
LINE
  8
0
  6
CENTER
 62
     2
 10
177.4369
 20
-69.312
 11
177.4369
 21
55.13522
  0
LINE
  8
0
  6
PHANTOM
 62
     2
 10
169.9369
 20
-38.5
 11
169.9369
 21
23.49997
  0
LINE
  8
0
  6
PHANTOM
 62
     2
 10
184.9369
 20
-38.5
 11
184.9369
 21
23.49997
  0
LINE
  8
0
  6
PHANTOM
 62
     2
 10
169.9369
 20
-64.7
 11
169.9369
 21
-38.5
  0
LINE
  8
0
  6
PHANTOM
 62
     2
 10
184.9369
 20
-63.70003
 11
169.9369
 21
-63.70003
  0
LINE
  8
0
  6
PHANTOM
 62
     2
 10
184.9369
 20
-64.7
 11
184.9369
 21
-38.5
  0
LINE
  8
0
  6
PHANTOM
 62
     2
 10
169.9369
 20
-38.50003
 11
184.9369
 21
-38.50003
  0
LINE
  8
0
  6
PHANTOM
 62
     2
 10
184.9369
 20
-64.7
 11
169.9369
 21
-64.7
  0
LINE
  8
0
  6
PHANTOM
 62
     2
 10
169.9369
 20
-64.70004
 11
170.9369
 21
-66.70004
  0
LINE
  8
0
  6
PHANTOM
 62
     2
 10
184.9368
 20
-64.69994
 11
183.9368
 21
-66.69996
  0
LINE
  8
0
  6
PHANTOM
 62
     2
 10
183.9368
 20
-66.70003
 11
170.9369
 21
-66.70003
  0
LINE
  8
0
  6
CENTER
 62
     2
 10
176.1369
 20
-59.7
 11
176.1369
 21
-53.5
  0
LINE
  8
0
  6
CENTER
 62
     2
 10
178.7369
 20
-59.7
 11
178.7369
 21
-53.5
  0
LINE
  8
0
  6
CENTER
 62
     2
 10
173.4369
 20
-56.50003
 11
181.4369
 21
-56.50003
  0
LINE
  8
0
  6
PHANTOM
 62
     2
 10
176.1369
 20
-58.20001
 11
178.7369
 21
-58.20001
  0
LINE
  8
0
  6
PHANTOM
 62
     2
 10
176.1369
 20
-54.80002
 11
178.7369
 21
-54.80002
  0
LINE
  8
0
  6
PHANTOM
 62
     2
 10
169.9369
 20
-21.50003
 11
184.9369
 21
-21.50003
  0
LINE
  8
0
  6
PHANTOM
 62
     2
 10
178.7369
 20
112.0001
 11
178.7369
 21
109.0001
  0
LINE
  8
0
  6
CENTER
 62
     2
 10
186.4369
 20
121.0002
 11
168.4369
 21
121.0002
  0
LINE
  8
0
  6
CENTER
 62
     2
 10
177.4369
 20
96.18597
 11
177.4369
 21
135.0001
  0
LINE
  8
0
  6
PHANTOM
 62
     2
 10
169.9369
 20
132.5001
 11
169.9369
 21
109.0001
  0
LINE
  8
0
  6
PHANTOM
 62
     2
 10
184.9369
 20
132.5001
 11
184.9369
 21
109.0001
  0
LINE
  8
0
  6
PHANTOM
 62
     2
 10
184.4369
 20
133.0001
 11
170.4369
 21
133.0001
  0
LINE
  8
0
  6
PHANTOM
 62
     2
 10
184.9369
 20
109.0001
 11
180.4369
 21
109.0001
  0
LINE
  8
0
  6
CENTER
 62
     2
 10
176.1369
 20
84.00012
 11
176.1369
 21
112.0001
  0
LINE
  8
0
  6
PHANTOM
 62
     2
 10
176.9869
 20
97.00012
 11
176.9869
 21
101.3442
  0
LINE
  8
0
  6
PHANTOM
 62
     2
 10
175.2869
 20
97.00012
 11
175.2869
 21
101.7998
  0
LINE
  8
0
  6
PHANTOM
 62
     2
 10
176.4569
 20
87.00012
 11
176.4569
 21
97.00012
  0
LINE
  8
0
  6
PHANTOM
 62
     2
 10
175.8169
 20
87.00012
 11
175.8169
 21
97.00012
  0
LINE
  8
0
  6
PHANTOM
 62
     2
 10
175.2869
 20
97.00012
 11
176.9869
 21
97.00012
  0
LINE
  8
0
  6
PHANTOM
 62
     2
 10
175.8169
 20
87.00012
 11
176.4569
 21
87.00012
  0
LINE
  8
0
  6
CENTER
 62
     2
 10
178.7369
 20
84.00012
 11
178.7369
 21
112.0001
  0
LINE
  8
0
  6
PHANTOM
 62
     2
 10
179.5869
 20
97.00012
 11
179.5869
 21
100.6476
  0
LINE
  8
0
  6
PHANTOM
 62
     2
 10
177.8869
 20
97.00012
 11
177.8869
 21
101.1031
  0
LINE
  8
0
  6
PHANTOM
 62
     2
 10
179.0569
 20
87.00012
 11
179.0569
 21
97.00012
  0
LINE
  8
0
  6
PHANTOM
 62
     2
 10
178.4169
 20
87.00012
 11
178.4169
 21
97.00012
  0
LINE
  8
0
  6
PHANTOM
 62
     2
 10
177.8869
 20
97.00012
 11
179.5869
 21
97.00012
  0
LINE
  8
0
  6
PHANTOM
 62
     2
 10
178.4169
 20
87.00012
 11
179.0569
 21
87.00012
  0
LINE
  8
0
  6
PHANTOM
 62
     2
 10
181.5869
 20
101.6646
 11
173.2869
 21
103.8886
  0
LINE
  8
0
  6
PHANTOM
 62
     2
 10
181.5869
 20
100.1118
 11
173.2869
 21
102.3357
  0
LINE
  8
0
  6
PHANTOM
 62
     2
 10
179.5869
 20
102.2005
 11
179.5869
 21
107.0001
  0
LINE
  8
0
  6
PHANTOM
 62
     2
 10
177.8869
 20
102.656
 11
177.8869
 21
107.0001
  0
LINE
  8
0
  6
PHANTOM
 62
     2
 10
176.9869
 20
102.8972
 11
176.9869
 21
107.0001
  0
LINE
  8
0
  6
PHANTOM
 62
     2
 10
175.2869
 20
103.3527
 11
175.2869
 21
107.0001
  0
LINE
  8
0
  6
PHANTOM
 62
     2
 10
174.4369
 20
109.0001
 11
169.9369
 21
109.0001
  0
LINE
  8
0
  6
PHANTOM
 62
     2
 10
180.4369
 20
109.0001
 11
174.4369
 21
109.0001
  0
LINE
  8
0
  6
PHANTOM
 62
     2
 10
180.4369
 20
109.0001
 11
180.4369
 21
107.5001
  0
LINE
  8
0
  6
PHANTOM
 62
     2
 10
179.9369
 20
107.0001
 11
174.9369
 21
107.0001
  0
LINE
  8
0
  6
PHANTOM
 62
     2
 10
174.4369
 20
109.0001
 11
174.4369
 21
107.5001
  0
LINE
  8
0
  6
PHANTOM
 62
     2
 10
279.9369
 20
6.5
 11
255.9369
 21
6.5
  0
LINE
  8
0
  6
CENTER
 62
     2
 10
267.9369
 20
54.69997
 11
267.9369
 21
-70.20711
  0
LINE
  8
0
  6
PHANTOM
 62
     2
 10
279.9369
 20
12.00009
 11
279.9369
 21
6.61899
  0
LINE
  8
0
  6
PHANTOM
 62
     2
 10
279.9369
 20
23.49997
 11
279.9369
 21
19.00009
  0
LINE
  8
0
  6
PHANTOM
 62
     2
 10
279.9368
 20
48.69997
 11
255.9369
 21
48.69997
  0
LINE
  8
0
  6
PHANTOM
 62
     2
 10
279.9369
 20
23.49997
 11
255.9369
 21
23.49997
  0
LINE
  8
0
  6
PHANTOM
 62
     2
 10
279.9369
 20
49.69997
 11
279.9369
 21
23.49997
  0
LINE
  8
0
  6
PHANTOM
 62
     2
 10
255.9369
 20
49.69997
 11
255.9369
 21
43.19998
  0
LINE
  8
0
  6
PHANTOM
 62
     2
 10
256.9368
 20
51.69997
 11
278.9367
 21
51.69997
  0
LINE
  8
0
  6
PHANTOM
 62
     2
 10
279.9368
 20
49.69997
 11
255.9369
 21
49.69997
  0
LINE
  8
0
  6
PHANTOM
 62
     2
 10
255.9368
 20
49.7
 11
256.9368
 21
51.69999
  0
LINE
  8
0
  6
PHANTOM
 62
     2
 10
279.9367
 20
49.69993
 11
278.9367
 21
51.69989
  0
LINE
  8
0
  6
CENTER
 62
     2
 10
230.9369
 20
41.49997
 11
258.9369
 21
41.49997
  0
LINE
  8
0
  6
PHANTOM
 62
     2
 10
243.9369
 20
40.64999
 11
247.9327
 21
40.64999
  0
LINE
  8
0
  6
PHANTOM
 62
     2
 10
243.9369
 20
42.34998
 11
248.3882
 21
42.34998
  0
LINE
  8
0
  6
PHANTOM
 62
     2
 10
233.9369
 20
41.17999
 11
243.9369
 21
41.17999
  0
LINE
  8
0
  6
PHANTOM
 62
     2
 10
233.9369
 20
41.81998
 11
243.9369
 21
41.81998
  0
LINE
  8
0
  6
PHANTOM
 62
     2
 10
243.9369
 20
42.34998
 11
243.9369
 21
40.64999
  0
LINE
  8
0
  6
PHANTOM
 62
     2
 10
233.9369
 20
41.81998
 11
233.9369
 21
41.17996
  0
LINE
  8
0
  6
PHANTOM
 62
     2
 10
247.3967
 20
38.64995
 11
248.924
 21
44.34994
  0
LINE
  8
0
  6
PHANTOM
 62
     2
 10
248.9496
 20
38.64997
 11
250.4769
 21
44.34995
  0
LINE
  8
0
  6
PHANTOM
 62
     2
 10
249.9411
 20
42.34998
 11
253.9369
 21
42.34998
  0
LINE
  8
0
  6
PHANTOM
 62
     2
 10
249.4856
 20
40.64999
 11
253.9369
 21
40.64999
  0
LINE
  8
0
  6
PHANTOM
 62
     2
 10
255.9369
 20
39.79999
 11
255.9369
 21
23.49997
  0
LINE
  8
0
  6
PHANTOM
 62
     2
 10
279.9369
 20
6.49997
 11
279.9369
 21
-21.50003
  0
LINE
  8
0
  6
PHANTOM
 62
     2
 10
279.9369
 20
19.00009
 11
279.9369
 21
12.00009
  0
LINE
  8
0
  6
PHANTOM
 62
     2
 10
255.9369
 20
43.19998
 11
255.9369
 21
39.79999
  0
LINE
  8
0
  6
PHANTOM
 62
     2
 10
254.4369
 20
43.19998
 11
255.9369
 21
43.19998
  0
LINE
  8
0
  6
PHANTOM
 62
     2
 10
253.9369
 20
40.29999
 11
253.9369
 21
42.69998
  0
LINE
  8
0
  6
PHANTOM
 62
     2
 10
254.4369
 20
39.79999
 11
255.9369
 21
39.79999
  0
LINE
  8
0
  6
PHANTOM
 62
     2
 10
279.9369
 20
-21.50003
 11
255.9369
 21
-21.50003
  0
LINE
  8
0
  6
PHANTOM
 62
     2
 10
279.9369
 20
-27.00012
 11
279.9369
 21
-21.61905
  0
LINE
  8
0
  6
PHANTOM
 62
     2
 10
255.9369
 20
-38.5
 11
255.9369
 21
23.49997
  0
LINE
  8
0
  6
PHANTOM
 62
     2
 10
279.9369
 20
-38.5
 11
279.9369
 21
-34.00012
  0
LINE
  8
0
  6
PHANTOM
 62
     2
 10
255.9368
 20
-63.70003
 11
279.9368
 21
-63.70003
  0
LINE
  8
0
  6
PHANTOM
 62
     2
 10
279.9369
 20
-38.50003
 11
255.9369
 21
-38.50003
  0
LINE
  8
0
  6
PHANTOM
 62
     2
 10
279.9369
 20
-64.70003
 11
279.9369
 21
-38.5
  0
LINE
  8
0
  6
PHANTOM
 62
     2
 10
255.9369
 20
-64.70003
 11
255.9369
 21
-58.20001
  0
LINE
  8
0
  6
PHANTOM
 62
     2
 10
278.9368
 20
-66.70003
 11
256.9368
 21
-66.70003
  0
LINE
  8
0
  6
PHANTOM
 62
     2
 10
255.9368
 20
-64.70003
 11
279.9368
 21
-64.70003
  0
LINE
  8
0
  6
PHANTOM
 62
     2
 10
279.9367
 20
-64.6999
 11
278.9367
 21
-66.69991
  0
LINE
  8
0
  6
PHANTOM
 62
     2
 10
255.9368
 20
-64.7
 11
256.9368
 21
-66.70001
  0
LINE
  8
0
  6
CENTER
 62
     2
 10
230.9369
 20
-56.50003
 11
258.9369
 21
-56.50003
  0
LINE
  8
0
  6
PHANTOM
 62
     2
 10
243.9369
 20
-55.65002
 11
247.9327
 21
-55.65002
  0
LINE
  8
0
  6
PHANTOM
 62
     2
 10
243.9369
 20
-57.35001
 11
248.3882
 21
-57.35001
  0
LINE
  8
0
  6
PHANTOM
 62
     2
 10
233.9369
 20
-56.18002
 11
243.9369
 21
-56.18002
  0
LINE
  8
0
  6
PHANTOM
 62
     2
 10
233.9369
 20
-56.82001
 11
243.9369
 21
-56.82001
  0
LINE
  8
0
  6
PHANTOM
 62
     2
 10
243.9369
 20
-57.35001
 11
243.9369
 21
-55.64999
  0
LINE
  8
0
  6
PHANTOM
 62
     2
 10
233.9369
 20
-56.82004
 11
233.9369
 21
-56.18002
  0
LINE
  8
0
  6
PHANTOM
 62
     2
 10
247.3969
 20
-53.65001
 11
248.9242
 21
-59.35
  0
LINE
  8
0
  6
PHANTOM
 62
     2
 10
248.9497
 20
-53.65002
 11
250.477
 21
-59.34995
  0
LINE
  8
0
  6
PHANTOM
 62
     2
 10
249.9411
 20
-57.35001
 11
253.9369
 21
-57.35001
  0
LINE
  8
0
  6
PHANTOM
 62
     2
 10
249.4856
 20
-55.65002
 11
253.9369
 21
-55.65002
  0
LINE
  8
0
  6
PHANTOM
 62
     2
 10
255.9369
 20
-54.80002
 11
255.9369
 21
-38.5
  0
LINE
  8
0
  6
PHANTOM
 62
     2
 10
279.9369
 20
-34.00012
 11
279.9369
 21
-27.00012
  0
LINE
  8
0
  6
PHANTOM
 62
     2
 10
255.9369
 20
-58.20001
 11
255.9369
 21
-54.80002
  0
LINE
  8
0
  6
PHANTOM
 62
     2
 10
254.4369
 20
-58.20001
 11
255.9369
 21
-58.20001
  0
LINE
  8
0
  6
PHANTOM
 62
     2
 10
253.9369
 20
-55.30002
 11
253.9369
 21
-57.70001
  0
LINE
  8
0
  6
PHANTOM
 62
     2
 10
254.4369
 20
-54.80002
 11
255.9369
 21
-54.80002
  0
LINE
  8
0
  6
PHANTOM
 62
     2
 10
86.93688
 20
6.5
 11
110.9369
 21
6.5
  0
LINE
  8
0
  6
CENTER
 62
     2
 10
98.93687
 20
54.69997
 11
98.93687
 21
-70.70003
  0
LINE
  8
0
  6
PHANTOM
 62
     2
 10
86.93687
 20
12.00009
 11
86.93687
 21
6.5
  0
LINE
  8
0
  6
PHANTOM
 62
     2
 10
86.93687
 20
23.49997
 11
86.93687
 21
19.00009
  0
LINE
  8
0
  6
PHANTOM
 62
     2
 10
86.93688
 20
48.69997
 11
110.9369
 21
48.69997
  0
LINE
  8
0
  6
PHANTOM
 62
     2
 10
86.93688
 20
23.49997
 11
110.9369
 21
23.49997
  0
LINE
  8
0
  6
PHANTOM
 62
     2
 10
86.93687
 20
49.69997
 11
86.93687
 21
23.49997
  0
LINE
  8
0
  6
PHANTOM
 62
     2
 10
110.9369
 20
49.69997
 11
110.9369
 21
43.19998
  0
LINE
  8
0
  6
PHANTOM
 62
     2
 10
87.93687
 20
51.69997
 11
109.9369
 21
51.69997
  0
LINE
  8
0
  6
PHANTOM
 62
     2
 10
86.93688
 20
49.69997
 11
110.9369
 21
49.69997
  0
LINE
  8
0
  6
PHANTOM
 62
     2
 10
86.93687
 20
49.69997
 11
87.93687
 21
51.69999
  0
LINE
  8
0
  6
PHANTOM
 62
     2
 10
110.9369
 20
49.69999
 11
109.9369
 21
51.69998
  0
LINE
  8
0
  6
CENTER
 62
     2
 10
135.9369
 20
41.49997
 11
107.9369
 21
41.49997
  0
LINE
  8
0
  6
PHANTOM
 62
     2
 10
122.9369
 20
42.34998
 11
118.9411
 21
42.34998
  0
LINE
  8
0
  6
PHANTOM
 62
     2
 10
122.9369
 20
40.64999
 11
118.4856
 21
40.64999
  0
LINE
  8
0
  6
PHANTOM
 62
     2
 10
132.9369
 20
41.81998
 11
122.9369
 21
41.81998
  0
LINE
  8
0
  6
PHANTOM
 62
     2
 10
132.9369
 20
41.17999
 11
122.9369
 21
41.17999
  0
LINE
  8
0
  6
PHANTOM
 62
     2
 10
122.9369
 20
40.64999
 11
122.9369
 21
42.34998
  0
LINE
  8
0
  6
PHANTOM
 62
     2
 10
132.9369
 20
41.17999
 11
132.9369
 21
41.81998
  0
LINE
  8
0
  6
PHANTOM
 62
     2
 10
119.4769
 20
44.35
 11
117.9496
 21
38.65001
  0
LINE
  8
0
  6
PHANTOM
 62
     2
 10
117.9241
 20
44.34996
 11
116.3968
 21
38.64997
  0
LINE
  8
0
  6
PHANTOM
 62
     2
 10
117.3882
 20
42.34998
 11
112.9369
 21
42.34998
  0
LINE
  8
0
  6
PHANTOM
 62
     2
 10
116.9327
 20
40.64999
 11
112.9369
 21
40.64999
  0
LINE
  8
0
  6
PHANTOM
 62
     2
 10
110.9369
 20
39.79999
 11
110.9369
 21
23.49997
  0
LINE
  8
0
  6
PHANTOM
 62
     2
 10
86.93687
 20
19.00009
 11
86.93687
 21
12.00009
  0
LINE
  8
0
  6
PHANTOM
 62
     2
 10
110.9369
 20
43.19998
 11
110.9369
 21
39.79999
  0
LINE
  8
0
  6
PHANTOM
 62
     2
 10
112.4369
 20
43.19998
 11
110.9369
 21
43.19998
  0
LINE
  8
0
  6
PHANTOM
 62
     2
 10
112.9369
 20
40.29999
 11
112.9369
 21
42.69998
  0
LINE
  8
0
  6
PHANTOM
 62
     2
 10
112.4369
 20
39.79999
 11
110.9369
 21
39.79999
  0
LINE
  8
0
  6
PHANTOM
 62
     2
 10
110.9369
 20
-38.5
 11
110.9369
 21
23.49997
  0
LINE
  8
0
  6
PHANTOM
 62
     2
 10
86.93687
 20
-38.5
 11
86.93687
 21
6.49997
  0
LINE
  8
0
  6
PHANTOM
 62
     2
 10
110.9369
 20
-63.70003
 11
86.93688
 21
-63.70003
  0
LINE
  8
0
  6
PHANTOM
 62
     2
 10
86.93688
 20
-38.50003
 11
110.9369
 21
-38.50003
  0
LINE
  8
0
  6
PHANTOM
 62
     2
 10
86.93687
 20
-64.70003
 11
86.93687
 21
-38.5
  0
LINE
  8
0
  6
PHANTOM
 62
     2
 10
110.9369
 20
-64.70003
 11
110.9369
 21
-58.20001
  0
LINE
  8
0
  6
PHANTOM
 62
     2
 10
109.9369
 20
-66.70003
 11
87.93695
 21
-66.70003
  0
LINE
  8
0
  6
PHANTOM
 62
     2
 10
110.9369
 20
-64.70003
 11
86.93688
 21
-64.70003
  0
LINE
  8
0
  6
PHANTOM
 62
     2
 10
110.9366
 20
-64.69992
 11
109.9367
 21
-66.69988
  0
LINE
  8
0
  6
PHANTOM
 62
     2
 10
86.9369
 20
-64.69993
 11
87.9369
 21
-66.69994
  0
LINE
  8
0
  6
CENTER
 62
     2
 10
135.9369
 20
-56.50003
 11
107.9369
 21
-56.50003
  0
LINE
  8
0
  6
PHANTOM
 62
     2
 10
122.9369
 20
-57.35001
 11
118.9411
 21
-57.35001
  0
LINE
  8
0
  6
PHANTOM
 62
     2
 10
122.9369
 20
-55.65002
 11
118.4856
 21
-55.65002
  0
LINE
  8
0
  6
PHANTOM
 62
     2
 10
132.9369
 20
-56.82001
 11
122.9369
 21
-56.82001
  0
LINE
  8
0
  6
PHANTOM
 62
     2
 10
132.9369
 20
-56.18002
 11
122.9369
 21
-56.18002
  0
LINE
  8
0
  6
PHANTOM
 62
     2
 10
122.9369
 20
-55.64999
 11
122.9369
 21
-57.35001
  0
LINE
  8
0
  6
PHANTOM
 62
     2
 10
132.9369
 20
-56.18002
 11
132.9369
 21
-56.82001
  0
LINE
  8
0
  6
PHANTOM
 62
     2
 10
119.477
 20
-59.34999
 11
117.9497
 21
-53.65
  0
LINE
  8
0
  6
PHANTOM
 62
     2
 10
117.9241
 20
-59.35003
 11
116.3968
 21
-53.65001
  0
LINE
  8
0
  6
PHANTOM
 62
     2
 10
117.3882
 20
-57.35001
 11
112.9369
 21
-57.35001
  0
LINE
  8
0
  6
PHANTOM
 62
     2
 10
116.9327
 20
-55.65002
 11
112.9369
 21
-55.65002
  0
LINE
  8
0
  6
PHANTOM
 62
     2
 10
110.9369
 20
-54.80002
 11
110.9369
 21
-38.5
  0
LINE
  8
0
  6
PHANTOM
 62
     2
 10
110.9369
 20
-58.20001
 11
110.9369
 21
-54.80002
  0
LINE
  8
0
  6
PHANTOM
 62
     2
 10
112.4369
 20
-58.20001
 11
110.9369
 21
-58.20001
  0
LINE
  8
0
  6
PHANTOM
 62
     2
 10
112.9369
 20
-55.30002
 11
112.9369
 21
-57.70001
  0
LINE
  8
0
  6
PHANTOM
 62
     2
 10
112.4369
 20
-54.80002
 11
110.9369
 21
-54.80002
  0
LINE
  8
0
  6
PHANTOM
 62
     2
 10
86.93688
 20
-21.50003
 11
110.9369
 21
-21.50003
  0
LINE
  8
0
  6
CENTER
 62
     2
 10
168.4368
 20
-147.9999
 11
186.4368
 21
-147.9999
  0
LINE
  8
0
  6
CENTER
 62
     2
 10
177.4369
 20
-123.1857
 11
177.4369
 21
-161.9999
  0
LINE
  8
0
  6
PHANTOM
 62
     2
 10
184.9368
 20
-159.4999
 11
184.9368
 21
-135.9999
  0
LINE
  8
0
  6
PHANTOM
 62
     2
 10
169.9369
 20
-159.4999
 11
169.9369
 21
-135.9999
  0
LINE
  8
0
  6
PHANTOM
 62
     2
 10
170.4368
 20
-159.9999
 11
184.4368
 21
-159.9999
  0
LINE
  8
0
  6
PHANTOM
 62
     2
 10
169.9369
 20
-135.9999
 11
174.4368
 21
-135.9999
  0
LINE
  8
0
  6
CENTER
 62
     2
 10
178.7369
 20
-110.9999
 11
178.7369
 21
-138.9999
  0
LINE
  8
0
  6
PHANTOM
 62
     2
 10
177.8869
 20
-123.9999
 11
177.8869
 21
-128.344
  0
LINE
  8
0
  6
PHANTOM
 62
     2
 10
179.5869
 20
-123.9999
 11
179.5869
 21
-128.7995
  0
LINE
  8
0
  6
PHANTOM
 62
     2
 10
178.4169
 20
-113.9999
 11
178.4169
 21
-123.9999
  0
LINE
  8
0
  6
PHANTOM
 62
     2
 10
179.0569
 20
-113.9999
 11
179.0569
 21
-123.9999
  0
LINE
  8
0
  6
PHANTOM
 62
     2
 10
179.5869
 20
-123.9999
 11
177.8869
 21
-123.9999
  0
LINE
  8
0
  6
PHANTOM
 62
     2
 10
179.0568
 20
-113.9999
 11
178.4168
 21
-113.9999
  0
LINE
  8
0
  6
CENTER
 62
     2
 10
176.1369
 20
-110.9999
 11
176.1369
 21
-138.9999
  0
LINE
  8
0
  6
PHANTOM
 62
     2
 10
175.2869
 20
-123.9999
 11
175.2869
 21
-127.6474
  0
LINE
  8
0
  6
PHANTOM
 62
     2
 10
176.9869
 20
-123.9999
 11
176.9869
 21
-128.1029
  0
LINE
  8
0
  6
PHANTOM
 62
     2
 10
175.8168
 20
-113.9999
 11
175.8168
 21
-123.9999
  0
LINE
  8
0
  6
PHANTOM
 62
     2
 10
176.4569
 20
-113.9999
 11
176.4569
 21
-123.9999
  0
LINE
  8
0
  6
PHANTOM
 62
     2
 10
176.9868
 20
-123.9999
 11
175.2869
 21
-123.9999
  0
LINE
  8
0
  6
PHANTOM
 62
     2
 10
176.4569
 20
-113.9999
 11
175.8168
 21
-113.9999
  0
LINE
  8
0
  6
PHANTOM
 62
     2
 10
173.2868
 20
-128.6644
 11
181.5868
 21
-130.8884
  0
LINE
  8
0
  6
PHANTOM
 62
     2
 10
173.2869
 20
-127.1116
 11
181.5869
 21
-129.3356
  0
LINE
  8
0
  6
PHANTOM
 62
     2
 10
175.2869
 20
-129.2003
 11
175.2869
 21
-133.9999
  0
LINE
  8
0
  6
PHANTOM
 62
     2
 10
176.9869
 20
-129.6558
 11
176.9869
 21
-133.9999
  0
LINE
  8
0
  6
PHANTOM
 62
     2
 10
177.8869
 20
-129.8969
 11
177.8869
 21
-133.9999
  0
LINE
  8
0
  6
PHANTOM
 62
     2
 10
179.5869
 20
-130.3524
 11
179.5869
 21
-133.9999
  0
LINE
  8
0
  6
PHANTOM
 62
     2
 10
180.4368
 20
-135.9999
 11
184.9368
 21
-135.9999
  0
LINE
  8
0
  6
PHANTOM
 62
     2
 10
174.4368
 20
-135.9999
 11
180.4368
 21
-135.9999
  0
LINE
  8
0
  6
PHANTOM
 62
     2
 10
174.4368
 20
-135.9999
 11
174.4368
 21
-134.4999
  0
LINE
  8
0
  6
PHANTOM
 62
     2
 10
174.9368
 20
-133.9999
 11
179.9368
 21
-133.9999
  0
LINE
  8
0
  6
PHANTOM
 62
     2
 10
180.4369
 20
-135.9999
 11
180.4369
 21
-134.4999
  0
LINE
  8
0
  6
CONTINUOUS
 62
     7
 10
-221.9368
 20
-17.99988
 11
-214.4368
 21
-17.99988
  0
LINE
  8
0
  6
CONTINUOUS
 62
     7
 10
-221.9368
 20
24.00014
 11
-214.4368
 21
24.00014
  0
LINE
  8
0
  6
CONTINUOUS
 62
     7
 10
-191.9368
 20
24.00012
 11
-191.9368
 21
-17.99988
  0
LINE
  8
0
  6
CONTINUOUS
 62
     7
 10
-221.9368
 20
24.00012
 11
-221.9368
 21
-17.99988
  0
LINE
  8
0
  6
CONTINUOUS
 62
     7
 10
-199.4368
 20
24.00014
 11
-191.9368
 21
24.00014
  0
LINE
  8
0
  6
CONTINUOUS
 62
     7
 10
-199.4368
 20
-17.99988
 11
-191.9368
 21
-17.99988
  0
LINE
  8
0
  6
CENTER
 62
     2
 10
-221.6868
 20
0.00012
 11
-216.1868
 21
0.00012
  0
LINE
  8
0
  6
CENTER
 62
     2
 10
-197.6868
 20
10.00012
 11
-192.1868
 21
10.00012
  0
LINE
  8
0
  6
CENTER
 62
     2
 10
-218.9368
 20
2.75012
 11
-218.9368
 21
-2.74987
  0
LINE
  8
0
  6
CENTER
 62
     2
 10
-194.9368
 20
12.75014
 11
-194.9368
 21
7.25012
  0
LINE
  8
0
  6
CONTINUOUS
 62
     7
 10
-221.9368
 20
134.0001
 11
-221.9368
 21
159.0001
  0
LINE
  8
0
  6
CONTINUOUS
 62
     7
 10
-191.9368
 20
159.0001
 11
-221.9368
 21
159.0001
  0
LINE
  8
0
  6
CONTINUOUS
 62
     7
 10
-191.9368
 20
134.0001
 11
-191.9368
 21
159.0001
  0
LINE
  8
0
  6
CONTINUOUS
 62
     7
 10
-199.9368
 20
133.0001
 11
-199.9368
 21
134.0001
  0
LINE
  8
0
  6
CONTINUOUS
 62
     7
 10
-213.9368
 20
133.0001
 11
-213.9368
 21
134.0001
  0
LINE
  8
0
  6
CONTINUOUS
 62
     7
 10
-191.9368
 20
134.0001
 11
-221.9368
 21
134.0001
  0
LINE
  8
0
  6
CONTINUOUS
 62
     7
 10
-321.4368
 20
-18.0
 11
-296.4368
 21
-18.0
  0
LINE
  8
0
  6
CONTINUOUS
 62
     7
 10
-321.4368
 20
24.00002
 11
-296.4368
 21
24.00002
  0
LINE
  8
0
  6
CONTINUOUS
 62
     7
 10
-296.4368
 20
-18.0
 11
-296.4368
 21
-9.0
  0
LINE
  8
0
  6
CONTINUOUS
 62
     7
 10
-321.4368
 20
-18.0
 11
-321.4368
 21
24.0
  0
LINE
  8
0
  6
CENTER
 62
     2
 10
-317.9368
 20
8.0
 11
-304.9368
 21
8.0
  0
LINE
  8
0
  6
CENTER
 62
     2
 10
-317.9368
 20
-8.0
 11
-304.9368
 21
-8.0
  0
LINE
  8
0
  6
CENTER
 62
     2
 10
-311.4368
 20
14.5
 11
-311.4368
 21
1.5
  0
LINE
  8
0
  6
CENTER
 62
     2
 10
-311.4368
 20
-1.49998
 11
-311.4368
 21
-14.5
  0
LINE
  8
0
  6
CENTER
 62
     2
 10
-301.4368
 20
23.5
 11
-301.4368
 21
16.5
  0
LINE
  8
0
  6
CENTER
 62
     2
 10
-304.9368
 20
20.0
 11
-297.9368
 21
20.0
  0
LINE
  8
0
  6
CONTINUOUS
 62
     7
 10
-296.4368
 20
23.2
 11
-296.4368
 21
24.0
  0
LINE
  8
0
  6
CONTINUOUS
 62
     7
 10
-296.4368
 20
11.0
 11
-296.4368
 21
16.2
  0
LINE
  8
0
  6
CONTINUOUS
 62
     7
 10
-296.4368
 20
-9.0
 11
-296.4368
 21
11.0
  0
LINE
  8
0
  6
CONTINUOUS
 62
     7
 10
-295.4368
 20
-9.0
 11
-296.4368
 21
-9.0
  0
LINE
  8
0
  6
CONTINUOUS
 62
     7
 10
-295.4368
 20
11.0
 11
-296.4368
 21
11.0
  0
LINE
  8
0
  6
CONTINUOUS
 62
     7
 10
-296.4368
 20
16.2
 11
-295.4368
 21
16.2
  0
LINE
  8
0
  6
CONTINUOUS
 62
     7
 10
-296.4368
 20
16.2
 11
-296.4368
 21
23.2
  0
LINE
  8
0
  6
CONTINUOUS
 62
     7
 10
-296.4368
 20
23.2
 11
-295.436
 21
23.2
  0
LINE
  8
0
  6
CONTINUOUS
 62
     7
 10
-64.43678
 20
-17.99988
 11
-89.43674
 21
-17.99988
  0
LINE
  8
0
  6
CONTINUOUS
 62
     7
 10
-64.43678
 20
24.00014
 11
-89.43675
 21
24.00014
  0
LINE
  8
0
  6
CONTINUOUS
 62
     7
 10
-64.43678
 20
-17.99988
 11
-64.43678
 21
24.00012
  0
LINE
  8
0
  6
CENTER
 62
     2
 10
-74.43672
 20
8.50012
 11
-74.43672
 21
-4.49986
  0
LINE
  8
0
  6
CENTER
 62
     2
 10
-80.93675
 20
2.00012
 11
-67.93678
 21
2.00012
  0
LINE
  8
0
  6
CONTINUOUS
 62
     7
 10
-89.43672
 20
24.00012
 11
-89.43672
 21
23.20012
  0
LINE
  8
0
  6
CONTINUOUS
 62
     7
 10
-89.43672
 20
16.20012
 11
-89.43672
 21
11.00012
  0
LINE
  8
0
  6
CONTINUOUS
 62
     7
 10
-89.43672
 20
-8.99988
 11
-89.43672
 21
-17.99988
  0
LINE
  8
0
  6
CONTINUOUS
 62
     7
 10
-89.43678
 20
-8.99988
 11
-90.43678
 21
-8.99988
  0
LINE
  8
0
  6
CONTINUOUS
 62
     7
 10
-89.43678
 20
11.00012
 11
-89.43678
 21
-8.99988
  0
LINE
  8
0
  6
CONTINUOUS
 62
     7
 10
-89.43678
 20
11.00012
 11
-90.43678
 21
11.00012
  0
LINE
  8
0
  6
CONTINUOUS
 62
     7
 10
-90.43678
 20
16.20012
 11
-89.43678
 21
16.20012
  0
LINE
  8
0
  6
CONTINUOUS
 62
     7
 10
-90.43678
 20
23.20012
 11
-89.43599
 21
23.20012
  0
LINE
  8
0
  6
CONTINUOUS
 62
     7
 10
-89.43678
 20
23.20012
 11
-89.43678
 21
16.20012
  0
LINE
  8
0
  6
CONTINUOUS
 62
     7
 10
-213.9368
 20
-159.9999
 11
-213.9368
 21
-160.9999
  0
LINE
  8
0
  6
CONTINUOUS
 62
     7
 10
-191.9368
 20
-160.9999
 11
-221.9368
 21
-160.9999
  0
LINE
  8
0
  6
CONTINUOUS
 62
     7
 10
-199.9368
 20
-159.9999
 11
-199.9368
 21
-160.9999
  0
LINE
  8
0
  6
CONTINUOUS
 62
     7
 10
-191.9368
 20
-160.9999
 11
-191.9368
 21
-185.9999
  0
LINE
  8
0
  6
CONTINUOUS
 62
     7
 10
-191.9368
 20
-185.9999
 11
-221.9368
 21
-185.9999
  0
LINE
  8
0
  6
CONTINUOUS
 62
     7
 10
-221.9368
 20
-160.9999
 11
-221.9368
 21
-185.9999
  0
LINE
  8
0
  6
CONTINUOUS
 62
     7
 10
162.4369
 20
-35.00002
 11
169.9369
 21
-35.00002
  0
LINE
  8
0
  6
CONTINUOUS
 62
     7
 10
192.4369
 20
20.00009
 11
192.4369
 21
-35.00016
  0
LINE
  8
0
  6
CONTINUOUS
 62
     7
 10
162.4369
 20
20.00009
 11
162.4369
 21
-35.00016
  0
LINE
  8
0
  6
CONTINUOUS
 62
     7
 10
162.4369
 20
20.00012
 11
169.9369
 21
20.00012
  0
LINE
  8
0
  6
CONTINUOUS
 62
     7
 10
184.9369
 20
20.00012
 11
192.4369
 21
20.00012
  0
LINE
  8
0
  6
CENTER
 62
     2
 10
162.8182
 20
9.99998
 11
167.9268
 21
9.99998
  0
LINE
  8
0
  6
CENTER
 62
     2
 10
186.9383
 20
-15.00002
 11
191.8093
 21
-15.00002
  0
LINE
  8
0
  6
CENTER
 62
     2
 10
165.4369
 20
12.89843
 11
165.4369
 21
7.43337
  0
LINE
  8
0
  6
CENTER
 62
     2
 10
189.4369
 20
-12.52592
 11
189.4369
 21
-17.39693
  0
LINE
  8
0
  6
CONTINUOUS
 62
     7
 10
184.9369
 20
-35.00002
 11
192.4369
 21
-35.00002
  0
LINE
  8
0
  6
CONTINUOUS
 62
     7
 10
162.4369
 20
134.0001
 11
162.4369
 21
159.0001
  0
LINE
  8
0
  6
CONTINUOUS
 62
     7
 10
192.4369
 20
159.0001
 11
162.4369
 21
159.0001
  0
LINE
  8
0
  6
CONTINUOUS
 62
     7
 10
192.4369
 20
134.0001
 11
192.4369
 21
159.0001
  0
LINE
  8
0
  6
CONTINUOUS
 62
     7
 10
184.4369
 20
133.0001
 11
184.4369
 21
134.0001
  0
LINE
  8
0
  6
CONTINUOUS
 62
     7
 10
170.4369
 20
133.0001
 11
170.4369
 21
134.0001
  0
LINE
  8
0
  6
CONTINUOUS
 62
     7
 10
192.4369
 20
134.0001
 11
162.4369
 21
134.0001
  0
LINE
  8
0
  6
CENTER
 62
     2
 10
57.64883
 20
-7.50003
 11
88.39671
 21
-7.50003
  0
LINE
  8
0
  6
CONTINUOUS
 62
     7
 10
60.93672
 20
20.00008
 11
60.93672
 21
-35.00017
  0
LINE
  8
0
  6
CONTINUOUS
 62
     7
 10
60.93674
 20
-35.00017
 11
85.93686
 21
-35.00017
  0
LINE
  8
0
  6
CONTINUOUS
 62
     7
 10
60.93674
 20
20.00011
 11
85.93686
 21
20.00011
  0
LINE
  8
0
  6
CENTER
 62
     2
 10
78.43681
 20
-7.50002
 11
78.43681
 21
-20.50008
  0
LINE
  8
0
  6
CENTER
 62
     2
 10
68.43677
 20
5.49992
 11
68.43677
 21
-7.50014
  0
LINE
  8
0
  6
CENTER
 62
     2
 10
61.93674
 20
-1.00011
 11
74.9368
 21
-1.00011
  0
LINE
  8
0
  6
CENTER
 62
     2
 10
84.62335
 20
-14.00003
 11
72.10565
 21
-14.00003
  0
LINE
  8
0
  6
CONTINUOUS
 62
     7
 10
85.93683
 20
-21.50005
 11
85.93683
 21
-27.00014
  0
LINE
  8
0
  6
CENTER
 62
     2
 10
88.28592
 20
15.50008
 11
84.81079
 21
15.50008
  0
LINE
  8
0
  6
CONTINUOUS
 62
     7
 10
85.93683
 20
12.00008
 11
85.93683
 21
6.49995
  0
LINE
  8
0
  6
CONTINUOUS
 62
     7
 10
85.93683
 20
-34.00014
 11
85.93683
 21
-35.00017
  0
LINE
  8
0
  6
CONTINUOUS
 62
     7
 10
85.93684
 20
6.49997
 11
85.93684
 21
-21.50003
  0
LINE
  8
0
  6
CONTINUOUS
 62
     7
 10
85.93684
 20
6.49997
 11
86.93686
 21
6.49997
  0
LINE
  8
0
  6
CONTINUOUS
 62
     7
 10
85.93686
 20
-21.50002
 11
86.93686
 21
-21.50002
  0
LINE
  8
0
  6
CONTINUOUS
 62
     7
 10
85.93684
 20
6.49997
 11
85.93684
 21
-21.50003
  0
LINE
  8
0
  6
CONTINUOUS
 62
     7
 10
85.93683
 20
20.00011
 11
85.93683
 21
12.00008
  0
LINE
  8
0
  6
CONTINUOUS
 62
     7
 10
85.93684
 20
19.00008
 11
86.93686
 21
19.00008
  0
LINE
  8
0
  6
CONTINUOUS
 62
     7
 10
85.93684
 20
12.00008
 11
86.93686
 21
12.00008
  0
LINE
  8
0
  6
CONTINUOUS
 62
     7
 10
85.93686
 20
-27.00015
 11
85.93686
 21
-34.00015
  0
LINE
  8
0
  6
CENTER
 62
     2
 10
87.80328
 20
-30.50014
 11
85.19693
 21
-30.50014
  0
LINE
  8
0
  6
CONTINUOUS
 62
     7
 10
86.8909
 20
-27.00015
 11
85.93686
 21
-27.00015
  0
LINE
  8
0
  6
CONTINUOUS
 62
     7
 10
85.93686
 20
-27.00015
 11
85.93686
 21
-34.00015
  0
LINE
  8
0
  6
CONTINUOUS
 62
     7
 10
86.8909
 20
-34.00015
 11
85.93686
 21
-34.00015
  0
LINE
  8
0
  6
CONTINUOUS
 62
     7
 10
280.9369
 20
20.00007
 11
280.9369
 21
19.00007
  0
LINE
  8
0
  6
CONTINUOUS
 62
     7
 10
305.937
 20
20.00008
 11
305.937
 21
-35.00017
  0
LINE
  8
0
  6
CONTINUOUS
 62
     7
 10
305.937
 20
-35.00017
 11
280.9368
 21
-35.00017
  0
LINE
  8
0
  6
CONTINUOUS
 62
     7
 10
305.937
 20
20.00011
 11
280.9368
 21
20.00011
  0
LINE
  8
0
  6
CENTER
 62
     2
 10
289.937
 20
-30.50014
 11
282.8253
 21
-30.50014
  0
LINE
  8
0
  6
CENTER
 62
     2
 10
289.937
 20
15.50008
 11
282.4648
 21
15.50008
  0
LINE
  8
0
  6
CENTER
 62
     2
 10
285.9369
 20
-26.50013
 11
285.9369
 21
-34.50017
  0
LINE
  8
0
  6
CENTER
 62
     2
 10
285.9369
 20
19.50007
 11
285.9369
 21
11.50004
  0
LINE
  8
0
  6
CENTER
 62
     2
 10
294.937
 20
14.00005
 11
294.937
 21
1.0
  0
LINE
  8
0
  6
CENTER
 62
     2
 10
288.4369
 20
-1.00002
 11
288.4369
 21
-14.00008
  0
LINE
  8
0
  6
CENTER
 62
     2
 10
294.937
 20
-16.00008
 11
294.937
 21
-29.00014
  0
LINE
  8
0
  6
CENTER
 62
     2
 10
301.437
 20
-22.50011
 11
288.4369
 21
-22.50011
  0
LINE
  8
0
  6
CENTER
 62
     2
 10
301.437
 20
7.50005
 11
288.4369
 21
7.50005
  0
LINE
  8
0
  6
CONTINUOUS
 62
     7
 10
280.9369
 20
-21.50003
 11
280.9369
 21
-27.00014
  0
LINE
  8
0
  6
CONTINUOUS
 62
     7
 10
280.9369
 20
12.00007
 11
280.9369
 21
6.49995
  0
LINE
  8
0
  6
CONTINUOUS
 62
     7
 10
280.9369
 20
-34.00014
 11
280.9369
 21
-35.00017
  0
LINE
  8
0
  6
CENTER
 62
     2
 10
281.5038
 20
15.50008
 11
278.8609
 21
15.50008
  0
LINE
  8
0
  6
CENTER
 62
     2
 10
278.1202
 20
-30.50014
 11
281.6768
 21
-30.50014
  0
LINE
  8
0
  6
CONTINUOUS
 62
     7
 10
279.937
 20
-27.12653
 11
279.983
 21
-27.00021
  0
LINE
  8
0
  6
CENTER
 62
     2
 10
294.4991
 20
-7.50003
 11
277.3116
 21
-7.50003
  0
LINE
  8
0
  6
CONTINUOUS
 62
     7
 10
279.9368
 20
6.49997
 11
280.9368
 21
6.49997
  0
LINE
  8
0
  6
CONTINUOUS
 62
     7
 10
280.9368
 20
-21.50003
 11
280.9368
 21
6.49997
  0
LINE
  8
0
  6
CONTINUOUS
 62
     7
 10
279.9368
 20
-21.50002
 11
280.9368
 21
-21.50002
  0
LINE
  8
0
  6
CONTINUOUS
 62
     7
 10
279.9368
 20
19.00008
 11
280.9369
 21
19.00008
  0
LINE
  8
0
  6
CONTINUOUS
 62
     7
 10
280.9369
 20
19.00007
 11
280.9369
 21
12.00007
  0
LINE
  8
0
  6
CONTINUOUS
 62
     7
 10
279.9368
 20
12.00008
 11
280.9369
 21
12.00008
  0
LINE
  8
0
  6
CONTINUOUS
 62
     7
 10
279.9828
 20
-34.00014
 11
280.9369
 21
-34.00014
  0
LINE
  8
0
  6
CONTINUOUS
 62
     7
 10
279.9828
 20
-27.00014
 11
280.9369
 21
-27.00014
  0
LINE
  8
0
  6
CONTINUOUS
 62
     7
 10
280.9369
 20
-27.00014
 11
280.9369
 21
-34.00014
  0
LINE
  8
0
  6
CONTINUOUS
 62
     7
 10
170.4369
 20
-159.9999
 11
170.4369
 21
-160.9999
  0
LINE
  8
0
  6
CONTINUOUS
 62
     7
 10
192.4369
 20
-160.9998
 11
162.4369
 21
-160.9998
  0
LINE
  8
0
  6
CONTINUOUS
 62
     7
 10
184.4369
 20
-159.9999
 11
184.4369
 21
-160.9999
  0
LINE
  8
0
  6
CONTINUOUS
 62
     7
 10
192.4369
 20
-160.9999
 11
192.4369
 21
-185.9999
  0
LINE
  8
0
  6
CONTINUOUS
 62
     7
 10
192.4369
 20
-185.9998
 11
162.4369
 21
-185.9998
  0
LINE
  8
0
  6
CONTINUOUS
 62
     7
 10
162.4369
 20
-160.9999
 11
162.4369
 21
-185.9999
  0
ARC
  8
0
  6
CONTINUOUS
 62
     7
 10
273.0354
 20
-235.0457
 40
2.21188
 50
0.0
 51
89.99999
  0
ARC
  8
0
  6
CONTINUOUS
 62
     7
 10
291.2836
 20
-246.9346
 40
2.2119
 50
270.0
 51
0.0
  0
ARC
  8
0
  6
CONTINUOUS
 62
     7
 10
290.1776
 20
-236.1516
 40
3.31784
 50
0.0
 51
89.99999
  0
ARC
  8
0
  6
CONTINUOUS
 62
     7
 10
310.3611
 20
-236.8128
 40
2.21189
 50
295.0
 51
0.0
  0
ARC
  8
0
  6
CONTINUOUS
 62
     7
 10
310.3611
 20
-235.0457
 40
2.21188
 50
0.0
 51
89.99999
  0
ARC
  8
0
  6
CONTINUOUS
 62
     7
 10
327.5034
 20
-232.8338
 40
3.31784
 50
291.6884
 51
0.0
  0
ARC
  8
0
  6
CONTINUOUS
 62
     7
 10
326.3973
 20
-232.0834
 40
1.10595
 50
291.689
 51
0.0
  0
ARC
  8
0
  6
PHANTOM
 62
     2
 10
-220.4369
 20
-207.4999
 40
0.5
 50
180.0
 51
270.0
  0
ARC
  8
0
  6
PHANTOM
 62
     2
 10
-213.9368
 20
-17.99988
 40
0.5
 50
180.0
 51
270.0
  0
ARC
  8
0
  6
PHANTOM
 62
     2
 10
-199.9368
 20
-17.99988
 40
0.5
 50
270.0
 51
0.0
  0
ARC
  8
0
  6
PHANTOM
 62
     2
 10
-208.2368
 20
46.00012
 40
1.7
 50
89.99999
 51
270.0
  0
ARC
  8
0
  6
PHANTOM
 62
     2
 10
-205.6367
 20
46.00012
 40
1.7
 50
270.0
 51
89.99999
  0
CIRCLE
  8
0
  6
PHANTOM
 62
     2
 10
-208.2368
 20
46.00012
 40
0.85
  0
CIRCLE
  8
0
  6
PHANTOM
 62
     2
 10
-205.6367
 20
46.00012
 40
0.85
  0
ARC
  8
0
  6
PHANTOM
 62
     2
 10
-199.9367
 20
132.5001
 40
0.5
 50
0.0
 51
89.99999
  0
ARC
  8
0
  6
PHANTOM
 62
     2
 10
-213.9368
 20
132.5001
 40
0.5
 50
89.99999
 51
180.0
  0
ARC
  8
0
  6
PHANTOM
 62
     2
 10
-204.4368
 20
107.5001
 40
0.5
 50
270.0
 51
0.0
  0
ARC
  8
0
  6
PHANTOM
 62
     2
 10
-209.4368
 20
107.5001
 40
0.5
 50
180.0
 51
270.0
  0
ARC
  8
0
  6
PHANTOM
 62
     2
 10
-294.9368
 20
-18.0
 40
0.5
 50
180.0
 51
270.0
  0
ARC
  8
0
  6
PHANTOM
 62
     2
 10
-271.9368
 20
-18.0
 40
0.5
 50
270.0
 51
0.0
  0
ARC
  8
0
  6
PHANTOM
 62
     2
 10
-269.9368
 20
47.19998
 40
0.5
 50
0.0
 51
89.99999
  0
ARC
  8
0
  6
PHANTOM
 62
     2
 10
-269.9368
 20
44.79999
 40
0.5
 50
270.0
 51
0.0
  0
ARC
  8
0
  6
PHANTOM
 62
     2
 10
-90.93675
 20
-17.99988
 40
0.5
 50
270.0
 51
0.0
  0
ARC
  8
0
  6
PHANTOM
 62
     2
 10
-113.9368
 20
-17.99991
 40
0.5
 50
180.0
 51
270.0
  0
ARC
  8
0
  6
PHANTOM
 62
     2
 10
-115.9368
 20
47.2001
 40
0.5
 50
89.99999
 51
180.0
  0
ARC
  8
0
  6
PHANTOM
 62
     2
 10
-115.9368
 20
44.80011
 40
0.5
 50
180.0
 51
270.0
  0
ARC
  8
0
  6
PHANTOM
 62
     2
 10
-213.9368
 20
-159.4999
 40
0.5
 50
180.0
 51
270.0
  0
ARC
  8
0
  6
PHANTOM
 62
     2
 10
-209.4368
 20
-134.4999
 40
0.5
 50
89.99999
 51
180.0
  0
ARC
  8
0
  6
PHANTOM
 62
     2
 10
-204.4368
 20
-134.4999
 40
0.5
 50
0.0
 51
89.99999
  0
ARC
  8
0
  6
PHANTOM
 62
     2
 10
-199.9368
 20
-159.4999
 40
0.5
 50
270.0
 51
0.0
  0
ARC
  8
0
  6
PHANTOM
 62
     2
 10
176.1369
 20
41.49997
 40
1.7
 50
89.99999
 51
270.0
  0
ARC
  8
0
  6
PHANTOM
 62
     2
 10
178.7369
 20
41.49997
 40
1.7
 50
270.0
 51
89.99999
  0
CIRCLE
  8
0
  6
PHANTOM
 62
     2
 10
176.1369
 20
41.49997
 40
0.85
  0
CIRCLE
  8
0
  6
PHANTOM
 62
     2
 10
178.7369
 20
41.49997
 40
0.85
  0
ARC
  8
0
  6
PHANTOM
 62
     2
 10
176.1369
 20
-56.50003
 40
1.7
 50
89.99999
 51
270.0
  0
ARC
  8
0
  6
PHANTOM
 62
     2
 10
178.7369
 20
-56.50003
 40
1.7
 50
270.0
 51
89.99999
  0
CIRCLE
  8
0
  6
PHANTOM
 62
     2
 10
176.1369
 20
-56.50003
 40
0.85
  0
CIRCLE
  8
0
  6
PHANTOM
 62
     2
 10
178.7369
 20
-56.50003
 40
0.85
  0
ARC
  8
0
  6
PHANTOM
 62
     2
 10
184.4369
 20
132.5001
 40
0.5
 50
0.0
 51
89.99999
  0
ARC
  8
0
  6
PHANTOM
 62
     2
 10
170.4369
 20
132.5001
 40
0.5
 50
89.99999
 51
180.0
  0
ARC
  8
0
  6
PHANTOM
 62
     2
 10
179.9369
 20
107.5001
 40
0.5
 50
270.0
 51
0.0
  0
ARC
  8
0
  6
PHANTOM
 62
     2
 10
174.9369
 20
107.5001
 40
0.5
 50
180.0
 51
270.0
  0
ARC
  8
0
  6
PHANTOM
 62
     2
 10
254.4369
 20
42.69998
 40
0.5
 50
89.99999
 51
180.0
  0
ARC
  8
0
  6
PHANTOM
 62
     2
 10
254.4369
 20
40.29996
 40
0.5
 50
180.0
 51
270.0
  0
ARC
  8
0
  6
PHANTOM
 62
     2
 10
254.4369
 20
-55.30002
 40
0.5
 50
89.99999
 51
180.0
  0
ARC
  8
0
  6
PHANTOM
 62
     2
 10
254.4369
 20
-57.70004
 40
0.5
 50
180.0
 51
270.0
  0
ARC
  8
0
  6
PHANTOM
 62
     2
 10
112.4369
 20
42.69998
 40
0.5
 50
0.0
 51
89.99999
  0
ARC
  8
0
  6
PHANTOM
 62
     2
 10
112.4369
 20
40.29999
 40
0.5
 50
270.0
 51
0.0
  0
ARC
  8
0
  6
PHANTOM
 62
     2
 10
112.4369
 20
-55.30002
 40
0.5
 50
0.0
 51
89.99999
  0
ARC
  8
0
  6
PHANTOM
 62
     2
 10
112.4369
 20
-57.70001
 40
0.5
 50
270.0
 51
0.0
  0
ARC
  8
0
  6
PHANTOM
 62
     2
 10
170.4368
 20
-159.4999
 40
0.5
 50
180.0
 51
270.0
  0
ARC
  8
0
  6
PHANTOM
 62
     2
 10
174.9368
 20
-134.4999
 40
0.5
 50
89.99999
 51
180.0
  0
ARC
  8
0
  6
PHANTOM
 62
     2
 10
179.9368
 20
-134.4999
 40
0.5
 50
0.0
 51
89.99999
  0
ARC
  8
0
  6
PHANTOM
 62
     2
 10
184.4368
 20
-159.4999
 40
0.5
 50
270.0
 51
0.0
  0
CIRCLE
  8
0
  6
CONTINUOUS
 62
     7
 10
-218.9368
 20
0.00012
 40
1.6
  0
CIRCLE
  8
0
  6
CONTINUOUS
 62
     7
 10
-194.9368
 20
10.00012
 40
1.6
  0
CIRCLE
  8
0
  6
CONTINUOUS
 62
     7
 10
-311.4368
 20
8.0
 40
4.864
  0
CIRCLE
  8
0
  6
CONTINUOUS
 62
     7
 10
-311.4368
 20
-8.0
 40
4.864
  0
CIRCLE
  8
0
  6
CONTINUOUS
 62
     7
 10
-311.4368
 20
8.0
 40
4.283
  0
CIRCLE
  8
0
  6
CONTINUOUS
 62
     7
 10
-311.4368
 20
-8.0
 40
4.283
  0
CIRCLE
  8
0
  6
CONTINUOUS
 62
     7
 10
-301.4368
 20
20.0
 40
2.5
  0
CIRCLE
  8
0
  6
CONTINUOUS
 62
     7
 10
-301.4368
 20
20.0
 40
1.75
  0
CIRCLE
  8
0
  6
CONTINUOUS
 62
     7
 10
-74.43672
 20
2.00012
 40
4.864
  0
CIRCLE
  8
0
  6
CONTINUOUS
 62
     7
 10
-74.43672
 20
2.00012
 40
4.283
  0
CIRCLE
  8
0
  6
CONTINUOUS
 62
     7
 10
165.4369
 20
9.99998
 40
1.6
  0
CIRCLE
  8
0
  6
CONTINUOUS
 62
     7
 10
189.4369
 20
-15.00002
 40
1.6
  0
CIRCLE
  8
0
  6
CONTINUOUS
 62
     7
 10
68.43677
 20
-1.00011
 40
4.28302
  0
CIRCLE
  8
0
  6
CONTINUOUS
 62
     7
 10
78.43681
 20
-14.00003
 40
4.28302
  0
CIRCLE
  8
0
  6
CONTINUOUS
 62
     7
 10
78.43681
 20
-14.00003
 40
4.86402
  0
CIRCLE
  8
0
  6
CONTINUOUS
 62
     7
 10
68.43677
 20
-1.00011
 40
4.86402
  0
CIRCLE
  8
0
  6
CONTINUOUS
 62
     7
 10
294.9369
 20
7.50004
 40
4.86402
  0
CIRCLE
  8
0
  6
CONTINUOUS
 62
     7
 10
288.4369
 20
-7.50003
 40
4.86402
  0
CIRCLE
  8
0
  6
CONTINUOUS
 62
     7
 10
294.937
 20
-22.50011
 40
4.86402
  0
CIRCLE
  8
0
  6
CONTINUOUS
 62
     7
 10
285.9369
 20
15.50009
 40
2.50001
  0
CIRCLE
  8
0
  6
CONTINUOUS
 62
     7
 10
285.9369
 20
-30.50014
 40
2.50001
  0
CIRCLE
  8
0
  6
CONTINUOUS
 62
     7
 10
294.9369
 20
7.50004
 40
4.28302
  0
CIRCLE
  8
0
  6
CONTINUOUS
 62
     7
 10
288.4369
 20
-7.50003
 40
4.28302
  0
CIRCLE
  8
0
  6
CONTINUOUS
 62
     7
 10
294.937
 20
-22.50011
 40
4.28302
  0
CIRCLE
  8
0
  6
CONTINUOUS
 62
     7
 10
285.9369
 20
15.50009
 40
1.75
  0
CIRCLE
  8
0
  6
CONTINUOUS
 62
     7
 10
285.9369
 20
-30.50014
 40
1.75
  0
TEXT
  8
0
  6
CONTINUOUS
 62
     7
 10
229.0661
 20
236.2625
 40
8.5
  1
DATE : AUG ,1989
 41
0.8
  7
STANDARD
  0
TEXT
  8
0
  6
CONTINUOUS
 62
     7
 10
-352.9299
 20
235.5575
 40
10.0
  1
110 SUB BASE
 41
0.8
  7
STANDARD
  0
TEXT
  8
0
  6
CONTINUOUS
 62
     7
 10
9.28246
 20
229.0183
 40
7.0
  1
MODEL : A110-4E1-25
 41
0.8
  7
STANDARD
  0
TEXT
  8
0
  6
CONTINUOUS
 62
     7
 10
-361.5911
 20
209.0183
 40
7.0
  1
MODEL: A111E1-25
 41
0.8
  7
STANDARD
  0
TEXT
  8
0
  6
CONTINUOUS
 62
     7
 10
25.61973383
 20
209.0183
 40
7.0
  1
        A113-4E2-25
 41
0.8
  7
STANDARD
  0
TEXT
  8
0
  6
CONTINUOUS
 62
     7
 10
25.61973383
 20
219.0183
 40
7.0
  1
        A110-4E2-25
 41
0.8
  7
STANDARD
  0
TEXT
  8
0
  6
CONTINUOUS
 62
     7
 10
-300.3708
 20
16.09514
 40
2.0
  1
PR
 50
270.0
 41
0.8
  7
STANDARD
  0
TEXT
  8
0
  6
CONTINUOUS
 62
     7
 10
-318.3797
 20
4.12169
 40
2.0
  1
R
 50
270.0
 41
0.8
  7
STANDARD
  0
TEXT
  8
0
  6
CONTINUOUS
 62
     7
 10
-318.0876
 20
-12.03761
 40
2.0
  1
P
 50
270.0
 41
0.8
  7
STANDARD
  0
TEXT
  8
0
  6
CONTINUOUS
 62
     7
 10
-68.66345
 20
-5.61417
 40
2.0
  1
A
 50
90.0
 41
0.8
  7
STANDARD
  0
TEXT
  8
0
  6
CONTINUOUS
 62
     7
 10
72.22002
 20
4.61496
 40
2.0
  1
A
 50
270.0
 41
0.8
  7
STANDARD
  0
TEXT
  8
0
  6
CONTINUOUS
 62
     7
 10
81.16791
 20
-19.76802
 40
2.0
  1
B
 50
270.0
 41
0.8
  7
STANDARD
  0
TEXT
  8
0
  6
CONTINUOUS
 62
     7
 10
284.2222
 20
7.58841
 40
2.0
  1
PR1
 50
90.0
 41
0.8
  7
STANDARD
  0
TEXT
  8
0
  6
CONTINUOUS
 62
     7
 10
304.0193
 20
5.687
 40
2.0
  1
R1
 50
90.0
 41
0.8
  7
STANDARD
  0
TEXT
  8
0
  6
CONTINUOUS
 62
     7
 10
295.8544
 20
-9.63626
 40
2.0
  1
P
 50
90.0
 41
0.8
  7
STANDARD
  0
TEXT
  8
0
  6
CONTINUOUS
 62
     7
 10
283.9985
 20
-27.97943
 40
2.0
  1
PR2
 50
90.0
 41
0.8
  7
STANDARD
  0
TEXT
  8
0
  6
CONTINUOUS
 62
     7
 10
304.0193
 20
-24.40026
 40
2.0
  1
R2
 50
90.0
 41
0.8
  7
STANDARD
  0
ENDSEC
  0
EOF
